  0
SECTION
  2
HEADER
  9
$ACADVER
  1
AC1015
  9
$ACADMAINTVER
 70
    20
  9
$DWGCODEPAGE
  3
ANSI_1252
  9
$INSBASE
 10
0.0
 20
0.0
 30
0.0
  9
$EXTMIN
 10
4929.634551223518
 20
2859.874104726197
 30
0.0
  9
$EXTMAX
 10
4933.057278716411
 20
2860.575501131392
 30
0.0
  9
$LIMMIN
 10
0.0
 20
0.0
  9
$LIMMAX
 10
420.0
 20
297.0
  9
$ORTHOMODE
 70
     0
  9
$REGENMODE
 70
     1
  9
$FILLMODE
 70
     1
  9
$QTEXTMODE
 70
     0
  9
$MIRRTEXT
 70
     1
  9
$LTSCALE
 40
1.0
  9
$ATTMODE
 70
     1
  9
$TEXTSIZE
 40
2.5
  9
$TRACEWID
 40
1.0
  9
$TEXTSTYLE
  7
SANINDUSA
  9
$CLAYER
  8
0
  9
$CELTYPE
  6
ByLayer
  9
$CECOLOR
 62
   256
  9
$CELTSCALE
 40
1.0
  9
$DISPSILH
 70
     0
  9
$DIMSCALE
 40
1.0
  9
$DIMASZ
 40
2.0
  9
$DIMEXO
 40
1.0
  9
$DIMDLI
 40
1.0
  9
$DIMRND
 40
0.0
  9
$DIMDLE
 40
0.0
  9
$DIMEXE
 40
1.0
  9
$DIMTP
 40
0.0
  9
$DIMTM
 40
0.0
  9
$DIMTXT
 40
2.0
  9
$DIMCEN
 40
0.0
  9
$DIMTSZ
 40
0.0
  9
$DIMTOL
 70
     0
  9
$DIMLIM
 70
     0
  9
$DIMTIH
 70
     0
  9
$DIMTOH
 70
     0
  9
$DIMSE1
 70
     0
  9
$DIMSE2
 70
     0
  9
$DIMTAD
 70
     1
  9
$DIMZIN
 70
     8
  9
$DIMBLK
  1

  9
$DIMASO
 70
     1
  9
$DIMSHO
 70
     1
  9
$DIMPOST
  1

  9
$DIMAPOST
  1

  9
$DIMALT
 70
     0
  9
$DIMALTD
 70
     3
  9
$DIMALTF
 40
0.03937007874016
  9
$DIMLFAC
 40
1.0
  9
$DIMTOFL
 70
     1
  9
$DIMTVP
 40
0.0
  9
$DIMTIX
 70
     0
  9
$DIMSOXD
 70
     0
  9
$DIMSAH
 70
     0
  9
$DIMBLK1
  1

  9
$DIMBLK2
  1

  9
$DIMSTYLE
  2
SANINDUSA
  9
$DIMCLRD
 70
   256
  9
$DIMCLRE
 70
   256
  9
$DIMCLRT
 70
   256
  9
$DIMTFAC
 40
1.0
  9
$DIMGAP
 40
1.0
  9
$DIMJUST
 70
     0
  9
$DIMSD1
 70
     0
  9
$DIMSD2
 70
     0
  9
$DIMTOLJ
 70
     0
  9
$DIMTZIN
 70
     8
  9
$DIMALTZ
 70
     0
  9
$DIMALTTZ
 70
     0
  9
$DIMUPT
 70
     0
  9
$DIMDEC
 70
     1
  9
$DIMTDEC
 70
     1
  9
$DIMALTU
 70
     2
  9
$DIMALTTD
 70
     3
  9
$DIMTXSTY
  7
SANINDUSA
  9
$DIMAUNIT
 70
     0
  9
$DIMADEC
 70
     1
  9
$DIMALTRND
 40
0.0
  9
$DIMAZIN
 70
     0
  9
$DIMDSEP
 70
    44
  9
$DIMATFIT
 70
     3
  9
$DIMFRAC
 70
     0
  9
$DIMLDRBLK
  1

  9
$DIMLUNIT
 70
     2
  9
$DIMLWD
 70
    -1
  9
$DIMLWE
 70
    -1
  9
$DIMTMOVE
 70
     0
  9
$LUNITS
 70
     2
  9
$LUPREC
 70
     4
  9
$SKETCHINC
 40
1.0
  9
$FILLETRAD
 40
3.0
  9
$AUNITS
 70
     0
  9
$AUPREC
 70
     0
  9
$MENU
  1
.
  9
$ELEVATION
 40
0.0
  9
$PELEVATION
 40
0.0
  9
$THICKNESS
 40
0.0
  9
$LIMCHECK
 70
     0
  9
$CHAMFERA
 40
10.0
  9
$CHAMFERB
 40
10.0
  9
$CHAMFERC
 40
20.0
  9
$CHAMFERD
 40
0.0
  9
$SKPOLY
 70
     0
  9
$TDCREATE
 40
2454305.481570093
  9
$TDUCREATE
 40
2454305.481570093
  9
$TDUPDATE
 40
2454478.641230104
  9
$TDUUPDATE
 40
2454478.641230104
  9
$TDINDWG
 40
0.0050473843
  9
$TDUSRTIMER
 40
0.0050471991
  9
$USRTIMER
 70
     1
  9
$ANGBASE
 50
0.0
  9
$ANGDIR
 70
     0
  9
$PDMODE
 70
     0
  9
$PDSIZE
 40
0.0
  9
$PLINEWID
 40
0.0
  9
$SPLFRAME
 70
     0
  9
$SPLINETYPE
 70
     6
  9
$SPLINESEGS
 70
     8
  9
$HANDSEED
  5
2973
  9
$SURFTAB1
 70
     6
  9
$SURFTAB2
 70
     6
  9
$SURFTYPE
 70
     6
  9
$SURFU
 70
     6
  9
$SURFV
 70
     6
  9
$UCSBASE
  2

  9
$UCSNAME
  2

  9
$UCSORG
 10
0.0
 20
0.0
 30
0.0
  9
$UCSXDIR
 10
1.0
 20
0.0
 30
0.0
  9
$UCSYDIR
 10
0.0
 20
1.0
 30
0.0
  9
$UCSORTHOREF
  2

  9
$UCSORTHOVIEW
 70
     0
  9
$UCSORGTOP
 10
0.0
 20
0.0
 30
0.0
  9
$UCSORGBOTTOM
 10
0.0
 20
0.0
 30
0.0
  9
$UCSORGLEFT
 10
0.0
 20
0.0
 30
0.0
  9
$UCSORGRIGHT
 10
0.0
 20
0.0
 30
0.0
  9
$UCSORGFRONT
 10
0.0
 20
0.0
 30
0.0
  9
$UCSORGBACK
 10
0.0
 20
0.0
 30
0.0
  9
$PUCSBASE
  2

  9
$PUCSNAME
  2

  9
$PUCSORG
 10
0.0
 20
0.0
 30
0.0
  9
$PUCSXDIR
 10
1.0
 20
0.0
 30
0.0
  9
$PUCSYDIR
 10
0.0
 20
1.0
 30
0.0
  9
$PUCSORTHOREF
  2

  9
$PUCSORTHOVIEW
 70
     0
  9
$PUCSORGTOP
 10
0.0
 20
0.0
 30
0.0
  9
$PUCSORGBOTTOM
 10
0.0
 20
0.0
 30
0.0
  9
$PUCSORGLEFT
 10
0.0
 20
0.0
 30
0.0
  9
$PUCSORGRIGHT
 10
0.0
 20
0.0
 30
0.0
  9
$PUCSORGFRONT
 10
0.0
 20
0.0
 30
0.0
  9
$PUCSORGBACK
 10
0.0
 20
0.0
 30
0.0
  9
$USERI1
 70
     0
  9
$USERI2
 70
     0
  9
$USERI3
 70
     0
  9
$USERI4
 70
     0
  9
$USERI5
 70
     0
  9
$USERR1
 40
0.0
  9
$USERR2
 40
0.0
  9
$USERR3
 40
0.0
  9
$USERR4
 40
0.0
  9
$USERR5
 40
0.0
  9
$WORLDVIEW
 70
     1
  9
$SHADEDGE
 70
     3
  9
$SHADEDIF
 70
    70
  9
$TILEMODE
 70
     1
  9
$MAXACTVP
 70
    64
  9
$PINSBASE
 10
0.0
 20
0.0
 30
0.0
  9
$PLIMCHECK
 70
     0
  9
$PEXTMIN
 10
1.000000000000000E+20
 20
1.000000000000000E+20
 30
1.000000000000000E+20
  9
$PEXTMAX
 10
-1.000000000000000E+20
 20
-1.000000000000000E+20
 30
-1.000000000000000E+20
  9
$PLIMMIN
 10
0.0
 20
0.0
  9
$PLIMMAX
 10
420.0
 20
297.0
  9
$UNITMODE
 70
     0
  9
$VISRETAIN
 70
     1
  9
$PLINEGEN
 70
     0
  9
$PSLTSCALE
 70
     1
  9
$TREEDEPTH
 70
  3020
  9
$CMLSTYLE
  2
Standard
  9
$CMLJUST
 70
     0
  9
$CMLSCALE
 40
20.0
  9
$PROXYGRAPHICS
 70
     1
  9
$MEASUREMENT
 70
     1
  9
$CELWEIGHT
370
    -1
  9
$ENDCAPS
280
     0
  9
$JOINSTYLE
280
     0
  9
$LWDISPLAY
290
     0
  9
$INSUNITS
 70
     4
  9
$HYPERLINKBASE
  1

  9
$STYLESHEET
  1
sanindusa.ctb
  9
$XEDIT
290
     1
  9
$CEPSNTYPE
380
     0
  9
$PSTYLEMODE
290
     1
  9
$FINGERPRINTGUID
  2
{1A77A135-DFAA-4200-843F-C10545603CD8}
  9
$VERSIONGUID
  2
{83FD5B2E-4872-4A9C-B5F3-EB72CE131437}
  9
$EXTNAMES
290
     1
  9
$PSVPSCALE
 40
0.0
  9
$OLESTARTUP
290
     0
  0
ENDSEC
  0
SECTION
  2
CLASSES
  0
CLASS
  1
ACDBDICTIONARYWDFLT
  2
AcDbDictionaryWithDefault
  3
ObjectDBX Classes
 90
        0
280
     0
281
     0
  0
CLASS
  1
ACDBPLACEHOLDER
  2
AcDbPlaceHolder
  3
ObjectDBX Classes
 90
        0
280
     0
281
     0
  0
CLASS
  1
LAYOUT
  2
AcDbLayout
  3
ObjectDBX Classes
 90
        0
280
     0
281
     0
  0
CLASS
  1
DICTIONARYVAR
  2
AcDbDictionaryVar
  3
ObjectDBX Classes
 90
        0
280
     0
281
     0
  0
CLASS
  1
DIMASSOC
  2
AcDbDimAssoc
  3
"AcDbDimAssoc|Product Desc:     AcDim ARX App For Dimension|Company:          Autodesk, Inc.|WEB Address:      www.autodesk.com"
 90
    32768
280
     0
281
     0
  0
CLASS
  1
TABLESTYLE
  2
AcDbTableStyle
  3
ObjectDBX Classes
 90
     2047
280
     0
281
     0
  0
CLASS
  1
SORTENTSTABLE
  2
AcDbSortentsTable
  3
ObjectDBX Classes
 90
    32768
280
     0
281
     0
  0
ENDSEC
  0
SECTION
  2
TABLES
  0
TABLE
  2
VPORT
  5
8
330
0
100
AcDbSymbolTable
 70
     2
  0
VPORT
  5
296B
330
8
100
AcDbSymbolTableRecord
100
AcDbViewportTableRecord
  2
*Active
 70
     0
 10
0.0
 20
0.0
 11
1.0
 21
1.0
 12
4931.345914969964
 22
2860.233511999889
 13
0.0
 23
0.0
 14
10.0
 24
10.0
 15
10.0
 25
10.0
 16
0.0
 26
0.0
 36
1.0
 17
0.0
 27
0.0
 37
0.0
 40
2.175090505827869
 41
1.579579579579579
 42
50.0
 43
0.0
 44
0.0
 50
0.0
 51
0.0
 71
     0
 72
   100
 73
     1
 74
     2
 75
     0
 76
     0
 77
     0
 78
     0
281
     0
 65
     1
110
0.0
120
0.0
130
0.0
111
1.0
121
0.0
131
0.0
112
0.0
122
1.0
132
0.0
 79
     0
146
0.0
  0
ENDTAB
  0
TABLE
  2
LTYPE
  5
5
330
0
100
AcDbSymbolTable
 70
     5
  0
LTYPE
  5
14
330
5
100
AcDbSymbolTableRecord
100
AcDbLinetypeTableRecord
  2
ByBlock
 70
     0
  3

 72
    65
 73
     0
 40
0.0
  0
LTYPE
  5
15
330
5
100
AcDbSymbolTableRecord
100
AcDbLinetypeTableRecord
  2
ByLayer
 70
     0
  3

 72
    65
 73
     0
 40
0.0
  0
LTYPE
  5
16
330
5
100
AcDbSymbolTableRecord
100
AcDbLinetypeTableRecord
  2
Continuous
 70
     0
  3
Solid line
 72
    65
 73
     0
 40
0.0
  0
LTYPE
  5
2D
330
5
100
AcDbSymbolTableRecord
100
AcDbLinetypeTableRecord
  2
DASHDOT
 70
     0
  3
Dash dot __ . __ . __ . __ . __ . __ . __ . __
 72
    65
 73
     4
 40
25.4
 49
12.7
 74
     0
 49
-6.349999999999999
 74
     0
 49
0.0
 74
     0
 49
-6.349999999999999
 74
     0
  0
LTYPE
  5
2E
330
5
100
AcDbSymbolTableRecord
100
AcDbLinetypeTableRecord
  2
HIDDEN
 70
     0
  3
Hidden __ __ __ __ __ __ __ __ __ __ __ __ __ _
 72
    65
 73
     2
 40
9.524999999999998
 49
6.349999999999999
 74
     0
 49
-3.174999999999999
 74
     0
  0
LTYPE
  5
C75
330
5
100
AcDbSymbolTableRecord
100
AcDbLinetypeTableRecord
  2
AM_ISO02W050
 70
     0
  3
__ __ __ __ __ __ __ __ __ __ __ __ __ __ __
 72
    65
 73
     2
 40
7.5
 49
6.0
 74
     0
 49
-1.5
 74
     0
  0
LTYPE
  5
C76
330
5
100
AcDbSymbolTableRecord
100
AcDbLinetypeTableRecord
  2
AM_ISO08W050
 70
     0
  3
____ . ____ . ____ . ____ . ____ . ____ . ____
 72
    65
 73
     4
 40
18.0
 49
12.0
 74
     0
 49
-1.5
 74
     0
 49
3.0
 74
     0
 49
-1.5
 74
     0
  0
ENDTAB
  0
TABLE
  2
LAYER
  5
2
102
{ACAD_XDICTIONARY
360
1051
102
}
330
0
100
AcDbSymbolTable
 70
    16
  0
LAYER
  5
10
330
2
100
AcDbSymbolTableRecord
100
AcDbLayerTableRecord
  2
0
 70
     0
 62
     7
  6
Continuous
370
    -3
390
F
  0
LAYER
  5
2F
330
2
100
AcDbSymbolTableRecord
100
AcDbLayerTableRecord
  2
1
 70
     0
 62
     1
  6
Continuous
370
    -3
390
F
  0
LAYER
  5
30
330
2
100
AcDbSymbolTableRecord
100
AcDbLayerTableRecord
  2
2
 70
     0
 62
     2
  6
Continuous
370
    -3
390
F
  0
LAYER
  5
31
330
2
100
AcDbSymbolTableRecord
100
AcDbLayerTableRecord
  2
3
 70
     0
 62
     3
  6
Continuous
370
    -3
390
F
  0
LAYER
  5
32
330
2
100
AcDbSymbolTableRecord
100
AcDbLayerTableRecord
  2
4
 70
     0
 62
     4
  6
Continuous
370
    -3
390
F
  0
LAYER
  5
33
330
2
100
AcDbSymbolTableRecord
100
AcDbLayerTableRecord
  2
5
 70
     0
 62
     5
  6
Continuous
370
    -3
390
F
  0
LAYER
  5
34
330
2
100
AcDbSymbolTableRecord
100
AcDbLayerTableRecord
  2
6
 70
     0
 62
     6
  6
Continuous
370
    -3
390
F
  0
LAYER
  5
35
330
2
100
AcDbSymbolTableRecord
100
AcDbLayerTableRecord
  2
7
 70
     0
 62
     7
  6
Continuous
370
    -3
390
F
  0
LAYER
  5
36
330
2
100
AcDbSymbolTableRecord
100
AcDbLayerTableRecord
  2
cen
 70
     0
 62
     7
  6
DASHDOT
370
    -3
390
F
  0
LAYER
  5
37
330
2
100
AcDbSymbolTableRecord
100
AcDbLayerTableRecord
  2
hid
 70
     0
 62
     7
  6
HIDDEN
370
    -3
390
F
  0
LAYER
  5
5D6
330
2
100
AcDbSymbolTableRecord
100
AcDbLayerTableRecord
  2
hatch
 70
     0
 62
     9
  6
Continuous
370
    -3
390
F
  0
LAYER
  5
8AF
330
2
100
AcDbSymbolTableRecord
100
AcDbLayerTableRecord
  2
9
 70
     0
 62
     9
  6
Continuous
370
    -3
390
F
  0
LAYER
  5
8F8
330
2
100
AcDbSymbolTableRecord
100
AcDbLayerTableRecord
  2
leg fin
 70
     0
 62
     9
  6
Continuous
370
    -3
390
F
  0
LAYER
  5
91D
330
2
100
AcDbSymbolTableRecord
100
AcDbLayerTableRecord
  2
cotas
 70
     0
 62
     1
  6
Continuous
370
    -3
390
F
  0
LAYER
  5
92F
330
2
100
AcDbSymbolTableRecord
100
AcDbLayerTableRecord
  2
Defpoints
 70
     0
 62
     7
  6
Continuous
290
     0
370
    -3
390
F
  0
LAYER
  5
C7B
330
2
100
AcDbSymbolTableRecord
100
AcDbLayerTableRecord
  2
SANINDUSA
 70
     0
 62
     3
  6
Continuous
370
    -3
390
F
  0
ENDTAB
  0
TABLE
  2
STYLE
  5
3
330
0
100
AcDbSymbolTable
 70
     4
  0
STYLE
  5
11
330
3
100
AcDbSymbolTableRecord
100
AcDbTextStyleTableRecord
  2
Standard
 70
     0
 40
0.0
 41
1.0
 50
0.0
 71
     0
 42
2.5
  3
Avgardn.ttf
  4

1001
ACAD
1000
AvantGarde Bk BT
1071
       34
  0
STYLE
  5
2C
330
3
100
AcDbSymbolTableRecord
100
AcDbTextStyleTableRecord
  2

 70
     1
 40
0.0
 41
1.0
 50
0.0
 71
     0
 42
2.5
  3
ltypeshp.shx
  4

  0
STYLE
  5
91F
330
3
100
AcDbSymbolTableRecord
100
AcDbTextStyleTableRecord
  2
SANINDUSA
 70
     0
 40
0.0
 41
1.0
 50
0.0
 71
     0
 42
2.5
  3
verdana.TTF
  4

1001
ACAD
1000
Verdana
1071
       34
  0
STYLE
  5
C7C
330
3
100
AcDbSymbolTableRecord
100
AcDbTextStyleTableRecord
  2
futura
 70
     0
 40
0.0
 41
1.0
 50
0.0
 71
     0
 42
2.5
  3
ZURCHN.TTF
  4

1001
ACAD
1000
Zurich BT
1071
       34
  0
ENDTAB
  0
TABLE
  2
VIEW
  5
6
330
0
100
AcDbSymbolTable
 70
     0
  0
ENDTAB
  0
TABLE
  2
UCS
  5
7
330
0
100
AcDbSymbolTable
 70
     0
  0
ENDTAB
  0
TABLE
  2
APPID
  5
9
330
0
100
AcDbSymbolTable
 70
    10
  0
APPID
  5
12
330
9
100
AcDbSymbolTableRecord
100
AcDbRegAppTableRecord
  2
ACAD
 70
     0
  0
APPID
  5
3A
330
9
100
AcDbSymbolTableRecord
100
AcDbRegAppTableRecord
  2
DCO15
 70
     0
  0
APPID
  5
EEE
330
9
100
AcDbSymbolTableRecord
100
AcDbRegAppTableRecord
  2
ACAD_DSTYLE_DIMTEXT_FILL
 70
     0
  0
APPID
  5
EEF
330
9
100
AcDbSymbolTableRecord
100
AcDbRegAppTableRecord
  2
ACAD_DSTYLE_DIMEXT_LENGTH
 70
     0
  0
APPID
  5
EF0
330
9
100
AcDbSymbolTableRecord
100
AcDbRegAppTableRecord
  2
ACAD_DSTYLE_DIMEXT_ENABLED
 70
     0
  0
APPID
  5
EF1
330
9
100
AcDbSymbolTableRecord
100
AcDbRegAppTableRecord
  2
ACAD_DSTYLE_DIM_LINETYPE
 70
     0
  0
APPID
  5
EF2
330
9
100
AcDbSymbolTableRecord
100
AcDbRegAppTableRecord
  2
ACAD_DSTYLE_DIM_EXT1_LINETYPE
 70
     0
  0
APPID
  5
EF3
330
9
100
AcDbSymbolTableRecord
100
AcDbRegAppTableRecord
  2
ACAD_DSTYLE_DIM_EXT2_LINETYPE
 70
     0
  0
APPID
  5
FAF
330
9
100
AcDbSymbolTableRecord
100
AcDbRegAppTableRecord
  2
ACAD_DSTYLE_DIMJOGGED_JOGANGLE_SYMBOL
 70
     0
  0
APPID
  5
1013
330
9
100
AcDbSymbolTableRecord
100
AcDbRegAppTableRecord
  2
ACAD_DSTYLE_DIMARC_LENGTH_SYMBOL
 70
     0
  0
ENDTAB
  0
TABLE
  2
DIMSTYLE
  5
A
330
0
100
AcDbSymbolTable
 70
     3
100
AcDbDimStyleTable
 71
     1
340
921
  0
DIMSTYLE
105
45
330
A
100
AcDbSymbolTableRecord
100
AcDbDimStyleTableRecord
  2
STANDARD
 70
     0
289
     0
340
11
  0
DIMSTYLE
105
921
330
A
100
AcDbSymbolTableRecord
100
AcDbDimStyleTableRecord
  2
SANINDUSA
 70
     0
 41
2.0
 42
1.0
 43
1.0
 44
1.0
 73
     0
 74
     0
 77
     1
 78
     8
140
2.0
141
0.0
143
0.03937007874016
147
1.0
171
     3
172
     1
176
   256
177
   256
178
   256
179
     1
271
     1
272
     1
274
     3
278
    44
283
     0
284
     8
340
91F
371
    -1
372
    -1
1001
ACAD_DSTYLE_DIMEXT_LENGTH
1070
   378
1040
1.0
1001
ACAD_DSTYLE_DIMEXT_ENABLED
1070
   383
1070
     0
1001
ACAD_DSTYLE_DIMARC_LENGTH_SYMBOL
1070
   379
1070
     0
1001
ACAD_DSTYLE_DIMJOGGED_JOGANGLE_SYMBOL
1070
   384
1040
1.570796326794896
  0
DIMSTYLE
105
C7D
330
A
100
AcDbSymbolTableRecord
100
AcDbDimStyleTableRecord
  2
AM_ISO
 70
     0
  4
"
 41
2.5
 42
1.0
 43
10.0
 44
1.0
 47
0.1
 48
0.1
 73
     0
 74
     0
 77
     1
 78
     8
 79
     2
140
3.5
141
0.0
143
0.0393701
146
0.71
147
1.5
172
     1
176
   256
177
   256
178
     2
271
     2
272
     3
274
     4
283
     0
284
     8
340
11
371
    -1
372
    -1
  0
ENDTAB
  0
TABLE
  2
BLOCK_RECORD
  5
1
330
0
100
AcDbSymbolTable
 70
   135
  0
BLOCK_RECORD
  5
1F
330
1
100
AcDbSymbolTableRecord
100
AcDbBlockTableRecord
  2
*Model_Space
340
22
  0
BLOCK_RECORD
  5
1B
330
1
100
AcDbSymbolTableRecord
100
AcDbBlockTableRecord
  2
*Paper_Space
340
1E
  0
BLOCK_RECORD
  5
23
330
1
100
AcDbSymbolTableRecord
100
AcDbBlockTableRecord
  2
*Paper_Space0
340
26
  0
BLOCK_RECORD
  5
919
330
1
100
AcDbSymbolTableRecord
100
AcDbBlockTableRecord
  2
_DotSmall
340
0
102
{BLKREFS
331
12BB
331
28CB
102
}
  0
BLOCK_RECORD
  5
922
330
1
100
AcDbSymbolTableRecord
100
AcDbBlockTableRecord
  2
base para cotas
340
0
310
2800000020000000200000000100080000000000000400000000000000000000000000000000000000000000000080000080000000808000800000008000800080800000C0C0C000C0DCC000F0CAA6000020400000206000002080000020A0000020C0000020E00000400000004020000040400000406000004080000040A0
310
000040C0000040E00000600000006020000060400000606000006080000060A0000060C0000060E00000800000008020000080400000806000008080000080A0000080C0000080E00000A0000000A0200000A0400000A0600000A0800000A0A00000A0C00000A0E00000C0000000C0200000C0400000C0600000C0800000C0
310
A00000C0C00000C0E00000E0000000E0200000E0400000E0600000E0800000E0A00000E0C00000E0E00040000000400020004000400040006000400080004000A0004000C0004000E00040200000402020004020400040206000402080004020A0004020C0004020E000404000004040200040404000404060004040800040
310
40A0004040C0004040E00040600000406020004060400040606000406080004060A0004060C0004060E00040800000408020004080400040806000408080004080A0004080C0004080E00040A0000040A0200040A0400040A0600040A0800040A0A00040A0C00040A0E00040C0000040C0200040C0400040C0600040C08000
310
40C0A00040C0C00040C0E00040E0000040E0200040E0400040E0600040E0800040E0A00040E0C00040E0E00080000000800020008000400080006000800080008000A0008000C0008000E00080200000802020008020400080206000802080008020A0008020C0008020E00080400000804020008040400080406000804080
310
008040A0008040C0008040E00080600000806020008060400080606000806080008060A0008060C0008060E00080800000808020008080400080806000808080008080A0008080C0008080E00080A0000080A0200080A0400080A0600080A0800080A0A00080A0C00080A0E00080C0000080C0200080C0400080C0600080C0
310
800080C0A00080C0C00080C0E00080E0000080E0200080E0400080E0600080E0800080E0A00080E0C00080E0E000C0000000C0002000C0004000C0006000C0008000C000A000C000C000C000E000C0200000C0202000C0204000C0206000C0208000C020A000C020C000C020E000C0400000C0402000C0404000C0406000C0
310
408000C040A000C040C000C040E000C0600000C0602000C0604000C0606000C0608000C060A000C060C000C060E000C0800000C0802000C0804000C0806000C0808000C080A000C080C000C080E000C0A00000C0A02000C0A04000C0A06000C0A08000C0A0A000C0A0C000C0A0E000C0C00000C0C02000C0C04000C0C06000
310
C0C08000C0C0A000F0FBFF00A4A0A000808080000000FF0000FF000000FFFF00FF000000FF00FF00FFFF0000FFFFFF00A4A4A4A4A4A4A4A4A4A4A4A4A4A4A4A4A4A4A4A4A4A4A4A4A4A4A4A4A4A4A4A4A4A4A4A4A4A4A4A4A4A4A4A4A4A4A4A4A4A4A4A4A4A4A4A4A4A4A4A4A4A4A4A4A4A4A4A4A4A4A4A4A4A4A4A4A4A4A4
310
A4A4A4A4A4A4A4A4A4A4A4A4A4A4A4A4A4A4A4A4A4A4A4A4A4A4A4A4A4A4A4A4A4A4A4A4A4A4A4A4A4A4A4A4A4A4A4A4A4A4A4A4A4A4A4A4A4A4A4A4A4A4A4A4A4A4A4A4A4A4A4A4A4A4A4A4A4A4A4A4A4A4A4A4A4A4A4A4A4A4A4A4A4A4A4A4A4A4A4A4A4A4A4A4A4A4A4A4A4A4A4A4A4A4A4A4A4A4A4A4A4A4A4A4A4A4A4
310
A4A4A4A4A4A4A4A4A4A4A4A4A4A4A4A4A4A4A4A4A4A4A4A4A4A4A4A4A4A4A4A4A4A4A4A4A4A4A4A4A4A4A4A4A4A4A4A4A4A4A4A4A4A4A4A4A4A4A4A4A4A4A4A4A4A4A4A4A4A4A4A4A4A4A4A4A4A4A4A4A4A4A4A4A4A4A4A4A4A4A4A4A4A4A4A4A4A4A4A4A4A4A4A4A4A4A4A4A4A4A4A4A4A4A4A4A4A4A4A4A4A4A4A4A4A4A4
310
A4A4A4A4A4A4A4A4A4A4A4A4A4A4A4A4A4A4A4A4A4A4A4A4A4A4A4A4A4A4A4A4A4A4A4A4A4A4A4A4A4A4A4A4A4A4A4A4A4A4A4A4A4A4A4A4A4A4A4A4A4A4A4A4A4A4A4A4A4A4A4A4A4A4A4A4A4A4A4A4A4A4A4A4A4A4A4A4A4A4A4A4A4A4A4A4A4A4A4A4A4A4A4A4A4A4A4A4A4A4A4A4A4A4A4A4F9F9F9F9F9F9F9F9F9F9F9
310
F9F9F9F9F9F9F9F9F9F9F9F9F9F9F9F9F9F9F9A4A4F9F9F9F9F9F9F9F9F9F9F9F9F9F9F9F9F9F9F9F9F9F9F9F9F9F9F9F9F9F9A4A4F9F9F9F9F9F9F9F9F9F9F9F9F9F9F9F9F9F9F9F9F9F9F9F9F9F9F9F9F9F9A4A4F9A4A4A4A4A4A4A4A4A4A4A4A4A4A4A4A4A4A4A4A4A4A4A4A4A4A4A4A4F9A4A4A4A4A4A4A4A4A4A4A4A4
310
A4A4A4A4A4A4A4A4A4A4A4A4A4A4A4A4A4A4A4A4A4A4A4A4A4A4A4A4A4A4A4A4A4A4A4A4A4A4A4A4A4A4A4A4A4A4A4A4A4A4A4A4A4A4A4A4A4A4A4A4A4A4A4A4A4A4A4A4A4A4A4A4A4A4A4A4A4A4A4A4A4A4A4A4A4A4A4A4A4A4A4A4A4A4A4A4A4A4A4A4A4A4A4A4A4A4A4A4A4A4A4A4A4A4A4A4A4A4A4A4A4A4A4A4A4A4A4
310
A4A4A4A4A4A4A4A4A4A4A4A4A4A4A4A4A4A4A4A4A4A4A4A4A4A4A4A4A4A4A4A4A4A4A4A4A4A4A4A4A4A4A4A4A4A4A4A4A4A4A4A4A4A4A4A4A4A4A4A4A4A4A4A4A4A4A4A4A4A4A4A4A4A4A4A4A4A4A4A4A4A4A4A4A4A4A4A4A4A4A4A4A4A4A4A4A4A4A4A4A4A4A4A4A4A4A4A4A4A4A4A4A4A4A4A4A4A4A4A4A4A4A4A4A4A4A4
310
A4A4A4A4A4A4A4A4A4A4A4A4A4A4A4A4A4A4A4A4A4A4A4A4A4A4A4A4A4A4A4A4A4A4A4A4A4A4A4A4A4A4A4A4A4A4A4A4A4A4A4A4A4A4A4A4A4A4A4A4A4A4A4A4A4A4A4A4A4A4A4A4A4A4A4A4A4A4A4A4A4A4A4A4A4A4A4A4A4A4A4A4A4A4A4A4A4A4A4A4A4A4A4A4A4A4A4A4A4A4A4A4A4A4A4A4A4A4A4A4A4A4A4A4A4A4A4
310
A4A4A4A4A4A4A4A4A4A4A4A4A4A4A4A4A4A4A4A4A4A4A4A4A4A4A4A4A4A4A4A4A4A4A4A4A4A4A4A4A4A4A4A4A4A4A4A4A4A4A4A4A4A4A4A4
1001
ACAD
1000
DesignCenter Data
1002
{
1070
     1
1070
     4
1002
}
  0
BLOCK_RECORD
  5
AA8
330
1
100
AcDbSymbolTableRecord
100
AcDbBlockTableRecord
  2
_CLOSED
340
0
  0
BLOCK_RECORD
  5
B79
330
1
100
AcDbSymbolTableRecord
100
AcDbBlockTableRecord
  2
nota revisoes
340
0
1001
ACAD
1000
DesignCenter Data
1002
{
1070
     1
1070
     4
1002
}
  0
BLOCK_RECORD
  5
B8E
330
1
100
AcDbSymbolTableRecord
100
AcDbBlockTableRecord
  2
a3l
340
0
1001
ACAD
1000
DesignCenter Data
1002
{
1070
     1
1070
     4
1002
}
  0
BLOCK_RECORD
  5
B9E
330
1
100
AcDbSymbolTableRecord
100
AcDbBlockTableRecord
  2
legenda desenvolvimento
340
0
1001
ACAD
1000
DesignCenter Data
1002
{
1070
     1
1070
     4
1002
}
  0
ENDTAB
  0
ENDSEC
  0
SECTION
  2
BLOCKS
  0
BLOCK
  5
20
330
1F
100
AcDbEntity
  8
0
100
AcDbBlockBegin
  2
*Model_Space
 70
     0
 10
0.0
 20
0.0
 30
0.0
  3
*Model_Space
  1

  0
ENDBLK
  5
21
330
1F
100
AcDbEntity
  8
0
100
AcDbBlockEnd
  0
BLOCK
  5
1C
330
1B
100
AcDbEntity
 67
     1
  8
0
100
AcDbBlockBegin
  2
*Paper_Space
 70
     0
 10
0.0
 20
0.0
 30
0.0
  3
*Paper_Space
  1

  0
ENDBLK
  5
1D
330
1B
100
AcDbEntity
 67
     1
  8
0
100
AcDbBlockEnd
  0
BLOCK
  5
24
330
23
100
AcDbEntity
 67
     1
  8
0
100
AcDbBlockBegin
  2
*Paper_Space0
 70
     0
 10
0.0
 20
0.0
 30
0.0
  3
*Paper_Space0
  1

  0
ENDBLK
  5
25
330
23
100
AcDbEntity
 67
     1
  8
0
100
AcDbBlockEnd
  0
BLOCK
  5
91B
330
919
100
AcDbEntity
  8
0
100
AcDbBlockBegin
  2
_DotSmall
 70
     0
 10
0.0
 20
0.0
 30
0.0
  3
_DotSmall
  1

  0
LWPOLYLINE
  5
91A
330
919
100
AcDbEntity
  8
0
  6
ByBlock
 62
     0
100
AcDbPolyline
 90
        2
 70
     1
 43
0.5
 10
-0.0625
 20
0.0
 42
1.0
 10
0.0625
 20
0.0
 42
1.0
  0
ENDBLK
  5
91C
330
919
100
AcDbEntity
  8
0
100
AcDbBlockEnd
  0
BLOCK
  5
92A
330
922
100
AcDbEntity
  8
0
100
AcDbBlockBegin
  2
base para cotas
 70
     0
 10
0.0
 20
0.0
 30
0.0
  3
base para cotas
  1

  0
LINE
  5
B36
330
922
100
AcDbEntity
  8
cotas
100
AcDbLine
 10
0.0
 20
-30.0
 30
0.0
 11
327.1260136525398
 21
-30.0
 31
0.0
  0
LINE
  5
B37
330
922
100
AcDbEntity
  8
cotas
100
AcDbLine
 10
0.0
 20
-25.0
 30
0.0
 11
327.1260136525398
 21
-25.0
 31
0.0
  0
LINE
  5
B38
330
922
100
AcDbEntity
  8
cotas
100
AcDbLine
 10
0.0
 20
-20.0
 30
0.0
 11
327.1260136525398
 21
-20.0
 31
0.0
  0
LINE
  5
B39
330
922
100
AcDbEntity
  8
cotas
100
AcDbLine
 10
0.0
 20
-15.0
 30
0.0
 11
327.1260136525398
 21
-15.0
 31
0.0
  0
LINE
  5
B3A
330
922
100
AcDbEntity
  8
cotas
100
AcDbLine
 10
0.0
 20
-10.0
 30
0.0
 11
327.1260136525398
 21
-10.0
 31
0.0
  0
LINE
  5
B3B
330
922
100
AcDbEntity
  8
cotas
100
AcDbLine
 10
0.0
 20
0.0
 30
0.0
 11
0.0
 21
-30.0
 31
0.0
  0
LINE
  5
B3C
330
922
100
AcDbEntity
  8
cotas
100
AcDbLine
 10
327.1260136525398
 20
-30.0
 30
0.0
 11
327.1260136525398
 21
0.0
 31
0.0
  0
ENDBLK
  5
92B
330
922
100
AcDbEntity
  8
0
100
AcDbBlockEnd
  0
BLOCK
  5
AAD
330
AA8
100
AcDbEntity
  8
0
100
AcDbBlockBegin
  2
_CLOSED
 70
     0
 10
0.0
 20
0.0
 30
0.0
  3
_CLOSED
  1

  0
LINE
  5
AA9
330
AA8
100
AcDbEntity
  8
0
100
AcDbLine
 10
-1.0
 20
0.166667
 30
0.0
 11
0.0
 21
0.0
 31
0.0
  0
LINE
  5
AAA
330
AA8
100
AcDbEntity
  8
0
100
AcDbLine
 10
0.0
 20
0.0
 30
0.0
 11
-1.0
 21
-0.166667
 31
0.0
  0
LINE
  5
AAB
330
AA8
100
AcDbEntity
  8
0
100
AcDbLine
 10
-1.0
 20
0.166667
 30
0.0
 11
-1.0
 21
-0.166667
 31
0.0
  0
LINE
  5
AAC
330
AA8
100
AcDbEntity
  8
0
100
AcDbLine
 10
0.0
 20
0.0
 30
0.0
 11
-1.0
 21
0.0
 31
0.0
  0
ENDBLK
  5
AAE
330
AA8
100
AcDbEntity
  8
0
100
AcDbBlockEnd
  0
BLOCK
  5
B7C
330
B79
100
AcDbEntity
  8
0
100
AcDbBlockBegin
  2
nota revisoes
 70
     0
 10
0.0
 20
0.0
 30
0.0
  3
nota revisoes
  1

  0
CIRCLE
  5
B7A
330
B79
100
AcDbEntity
  8
4
100
AcDbCircle
 10
0.0
 20
0.0
 30
0.0
 40
13.69426055101189
  0
TEXT
  5
B7B
330
B79
100
AcDbEntity
  8
4
100
AcDbText
 10
-5.496248358154345
 20
-5.354545554066362
 30
0.0
 40
12.0
  1
1
  7
SANINDUSA
 72
     1
 11
-0.249774214433728
 21
-5.354545554066362
 31
0.0
100
AcDbText
  0
ENDBLK
  5
B7D
330
B79
100
AcDbEntity
  8
0
100
AcDbBlockEnd
  0
BLOCK
  5
B9C
330
B8E
100
AcDbEntity
  8
0
100
AcDbBlockBegin
  2
a3l
 70
     0
 10
0.0
 20
0.0
 30
0.0
  3
a3l
  1

  0
LINE
  5
B8F
330
B8E
100
AcDbEntity
  8
1
100
AcDbLine
 10
-364.2925296599447
 20
-362.1188951399395
 30
0.0
 11
-364.2925296599447
 21
-65.11889513993946
 31
0.0
  0
LINE
  5
B90
330
B8E
100
AcDbEntity
  8
4
100
AcDbLine
 10
-369.2925296599447
 20
-357.1188951399395
 30
0.0
 11
-369.2925296599447
 21
-70.11889513993946
 31
0.0
  0
LINE
  5
B91
330
B8E
100
AcDbEntity
  8
1
100
AcDbLine
 10
-784.2925296599446
 20
-65.11889513993946
 30
0.0
 11
-784.2925296599446
 21
-362.1188951399395
 31
0.0
  0
LINE
  5
B92
330
B8E
100
AcDbEntity
  8
4
100
AcDbLine
 10
-759.2925296599446
 20
-357.1188951399395
 30
0.0
 11
-759.2925296599446
 21
-70.11889513993946
 31
0.0
  0
LINE
  5
B93
330
B8E
100
AcDbEntity
  8
1
100
AcDbLine
 10
-784.2925296599446
 20
-362.1188951399395
 30
0.0
 11
-364.2925296599447
 21
-362.1188951399395
 31
0.0
  0
LINE
  5
B94
330
B8E
100
AcDbEntity
  8
4
100
AcDbLine
 10
-759.2925296599446
 20
-357.1188951399395
 30
0.0
 11
-369.2925296599447
 21
-357.1188951399395
 31
0.0
  0
LINE
  5
B95
330
B8E
100
AcDbEntity
  8
1
100
AcDbLine
 10
-654.2925296599446
 20
-357.1188951399395
 30
0.0
 11
-654.2925296599446
 21
-362.1188951399395
 31
0.0
  0
LINE
  5
B96
330
B8E
100
AcDbEntity
  8
1
100
AcDbLine
 10
-364.2925296599447
 20
-65.11889513993946
 30
0.0
 11
-784.2925296599446
 21
-65.11889513993946
 31
0.0
  0
LINE
  5
B97
330
B8E
100
AcDbEntity
  8
4
100
AcDbLine
 10
-369.2925296599447
 20
-70.11889513993946
 30
0.0
 11
-759.2925296599446
 21
-70.11889513993946
 31
0.0
  0
LINE
  5
B98
330
B8E
100
AcDbEntity
  8
1
100
AcDbLine
 10
-654.2925296599446
 20
-65.11889513993946
 30
0.0
 11
-654.2925296599446
 21
-70.11889513993946
 31
0.0
  0
LINE
  5
B99
330
B8E
100
AcDbEntity
  8
1
100
AcDbLine
 10
-549.2925296599446
 20
-70.11889513993946
 30
0.0
 11
-549.2925296599446
 21
-65.11889513993946
 31
0.0
  0
LINE
  5
B9A
330
B8E
100
AcDbEntity
  8
1
100
AcDbLine
 10
-369.2925296599447
 20
-65.11889513993946
 30
0.0
 11
-364.2925296599447
 21
-65.11889513993946
 31
0.0
  0
LINE
  5
B9B
330
B8E
100
AcDbEntity
  8
1
100
AcDbLine
 10
-549.2925296599446
 20
-357.1188951399395
 30
0.0
 11
-549.2925296599446
 21
-362.1188951399395
 31
0.0
  0
ENDBLK
  5
B9D
330
B8E
100
AcDbEntity
  8
0
100
AcDbBlockEnd
  0
BLOCK
  5
C13
330
B9E
100
AcDbEntity
  8
0
100
AcDbBlockBegin
  2
legenda desenvolvimento
 70
     2
 10
0.0
 20
0.0
 30
0.0
  3
legenda desenvolvimento
  1

  0
ATTDEF
  5
B9F
330
B9E
100
AcDbEntity
  8
1
100
AcDbText
 10
-108.606245802552
 20
55.5
 30
0.0
 40
4.0
  1
XXXXXXXXXXXXXX
 41
0.8
  7
SANINDUSA
 72
     4
 11
-87.5
 21
57.5
 31
0.0
100
AcDbAttributeDefinition
  3
Nome do Produto:
  2
PRODUTO
 70
     0
  0
ATTDEF
  5
BA0
330
B9E
100
AcDbEntity
  8
1
100
AcDbText
 10
-97.9997966101695
 20
41.25
 30
0.0
 40
3.0
  1
XXXXXXXXX
 41
0.8
  7
futura
 72
     4
 11
-87.5
 21
42.75
 31
0.0
100
AcDbAttributeDefinition
  3
Nome da Peça:
  2
PECA
 70
     0
  0
ATTDEF
  5
BA1
330
B9E
100
AcDbEntity
  8
1
100
AcDbText
 10
-133.4422431161853
 20
21.11745296763252
 30
0.0
 40
2.5
  1
X
 41
0.8
  7
SANINDUSA
 72
     4
 11
-132.5
 21
22.36745296763252
 31
0.0
100
AcDbAttributeDefinition
  3
Cod. TESTE:
  2
TESTE
 70
     0
  0
ATTDEF
  5
BA2
330
B9E
100
AcDbEntity
  8
1
100
AcDbText
 10
-124.3844862323707
 20
21.11745296763252
 30
0.0
 40
2.5
  1
XX
 41
0.8
  7
SANINDUSA
 72
     4
 11
-122.5
 21
22.36745296763252
 31
0.0
100
AcDbAttributeDefinition
  3
Cod. Ano:
  2
ANO
 70
     0
  0
ATTDEF
  5
BA3
330
B9E
100
AcDbEntity
  8
1
100
AcDbText
 10
-112.526889953052
 20
21.11745296763252
 30
0.0
 40
2.5
  1
XXX
 41
0.8
  7
SANINDUSA
 72
     4
 11
-109.700160604496
 21
22.36745296763252
 31
0.0
100
AcDbAttributeDefinition
  3
Cod. Sequência:
  2
SEQUENCIA
 70
     0
  0
ATTDEF
  5
BA4
330
B9E
100
AcDbEntity
  8
1
100
AcDbText
 10
-99.35382430979316
 20
21.11745296763252
 30
0.0
 40
2.5
  1
XX
 41
0.8
  7
SANINDUSA
 72
     4
 11
-97.46933807742244
 21
22.36745296763252
 31
0.0
100
AcDbAttributeDefinition
  3
Cod. Tipo:
  2
TIPO
 70
     0
  0
ATTDEF
  5
BA5
330
B9E
100
AcDbEntity
  8
1
100
AcDbText
 10
-87.42035911468438
 20
21.11745296763252
 30
0.0
 40
2.5
  1
XXX
 41
0.8
  7
SANINDUSA
 72
     4
 11
-84.59362976612828
 21
22.36745296763252
 31
0.0
100
AcDbAttributeDefinition
  3
Cod. Produto:
  2
PRODUTO
 70
     0
  0
ATTDEF
  5
BA6
330
B9E
100
AcDbEntity
  8
1
100
AcDbText
 10
-74.62051971917853
 20
21.11745296763252
 30
0.0
 40
2.5
  1
XXX
 41
0.8
  7
SANINDUSA
 72
     4
 11
-71.79379037062244
 21
22.36745296763252
 31
0.0
100
AcDbAttributeDefinition
  3
Cod. Peça:
  2
PECA
 70
     0
  0
ATTDEF
  5
BA7
330
B9E
100
AcDbEntity
  8
1
100
AcDbText
 10
-61.10603446650329
 20
21.11745296763252
 30
0.0
 40
2.5
  1
XX
 41
0.8
  7
SANINDUSA
 72
     4
 11
-59.22154823413257
 21
22.36745296763252
 31
0.0
100
AcDbAttributeDefinition
  3
Cod. Revisão:
  2
REV
 70
     0
  0
ATTDEF
  5
BA8
330
B9E
100
AcDbEntity
  8
1
100
AcDbText
 10
-48.43615325006194
 20
21.11745296763252
 30
0.0
 40
2.5
  1
XX
 41
0.8
  7
SANINDUSA
 72
     4
 11
-46.55166701769121
 21
22.36745296763252
 31
0.0
100
AcDbAttributeDefinition
  3
Cod. Alteração:
  2
ALT
 70
     0
  0
ATTDEF
  5
BA9
330
B9E
100
AcDbEntity
  8
1
100
AcDbText
 10
-35.19086635325722
 20
23.98875083948959
 30
0.0
 40
3.0
  1
1/XXX
 41
0.8
  7
SANINDUSA
 72
     4
 11
-30.0
 21
25.25
 31
0.0
100
AcDbAttributeDefinition
  3
Escala geral:
  2
ESCALA
 70
     0
  0
ATTDEF
  5
BAA
330
B9E
100
AcDbEntity
  8
1
100
AcDbText
 10
-15.65345869711215
 20
23.75
 30
0.0
 40
3.0
  1
XXXXX
 41
0.8
  7
SANINDUSA
 72
     4
 11
-10.0
 21
25.25
 31
0.0
100
AcDbAttributeDefinition
  3
Folha:
  2
FOLHA
 70
     0
  0
ATTDEF
  5
BAB
330
B9E
100
AcDbEntity
  8
1
100
AcDbText
 10
-178.5146998822042
 20
56.9531347542807
 30
0.0
 40
2.0
  1
xx
 41
0.8
  7
SANINDUSA
 72
     4
 11
-177.2123493113513
 21
57.70330265219877
 31
0.0
100
AcDbAttributeDefinition
  3
revisão
  2
REV.
 70
     0
  0
ATTDEF
  5
BAC
330
B9E
100
AcDbEntity
  8
1
100
AcDbText
 10
-172.7849640077129
 20
56.9531347542807
 30
0.0
 40
2.0
  1
xx
 41
0.8
  7
SANINDUSA
 72
     4
 11
-171.48261343686
 21
57.70330265219877
 31
0.0
100
AcDbAttributeDefinition
  3
alteração
  2
ALT.
 70
     0
  0
ATTDEF
  5
BAD
330
B9E
100
AcDbEntity
  8
1
100
AcDbText
 10
-168.007199951307
 20
56.70330265219877
 30
0.0
 40
2.0
  1
xx/xx/xxxx
 41
0.8
  7
SANINDUSA
 11
-168.007199951307
 21
57.70330265219877
 31
0.0
100
AcDbAttributeDefinition
  3
data
  2
DATA
 70
     0
 74
     2
  0
ATTDEF
  5
BAE
330
B9E
100
AcDbEntity
  8
1
100
AcDbText
 10
-168.5396372253371
 20
13.15916722632639
 30
0.0
 40
2.0
  1
XX/XX/XXXX
 41
0.8
  7
SANINDUSA
 72
     4
 11
-161.5099528734231
 21
14.0
 31
0.0
100
AcDbAttributeDefinition
  3
Data projecto
  2
DATA_PROJ
 70
     0
  0
ATTDEF
  5
BAF
330
B9E
100
AcDbEntity
  8
1
100
AcDbText
 10
-150.8658110728766
 20
13.24983210208193
 30
0.0
 40
2.0
  1
xxxxxxxx
 41
0.8
  7
SANINDUSA
 72
     4
 11
-145.6564087894649
 21
14.0
 31
0.0
100
AcDbAttributeDefinition
  3
nome de quem projectou
  2
NOME
 70
     0
  0
ATTDEF
  5
BB0
330
B9E
100
AcDbEntity
  8
1
100
AcDbText
 10
-168.5396372253371
 20
9.159167226326394
 30
0.0
 40
2.0
  1
XX/XX/XXXX
 41
0.8
  7
SANINDUSA
 72
     4
 11
-161.5099528734231
 21
10.0
 31
0.0
100
AcDbAttributeDefinition
  3
Data desenhou
  2
DATA_DES
 70
     0
  0
ATTDEF
  5
BB1
330
B9E
100
AcDbEntity
  8
1
100
AcDbText
 10
-151.516986358303
 20
9.249832102081933
 30
0.0
 40
2.0
  1
xxxxxxxxx
 41
0.8
  7
SANINDUSA
 72
     4
 11
-145.6564087894649
 21
10.0
 31
0.0
100
AcDbAttributeDefinition
  3
nome
  2
NOME
 70
     0
  0
ATTDEF
  5
BB2
330
B9E
100
AcDbEntity
  8
1
100
AcDbText
 10
-127.2924214135946
 20
14.1979876583216
 30
0.0
 40
2.0
  1
Vitreous China
 41
0.8
  7
SANINDUSA
 72
     4
 11
-119.231709526422
 21
15.22216495852308
 31
0.0
100
AcDbAttributeDefinition
  3
Nome do Material:
  2
MATERIAL
 70
     0
  0
ATTDEF
  5
BB3
330
B9E
100
AcDbEntity
  8
1
100
AcDbText
 10
-103.1563452122093
 20
14.38019043949261
 30
0.0
 40
2.0
  1
Branco
 41
0.8
  7
SANINDUSA
 72
     4
 11
-99.33418268702462
 21
15.35937109765245
 31
0.0
100
AcDbAttributeDefinition
  3
cor da peça
  2
COR
 70
     0
  0
ATTDEF
  5
BB4
330
B9E
100
AcDbEntity
  8
1
100
AcDbText
 10
-116.7235057085292
 20
5.975822699798522
 30
0.0
 40
2.0
  1
Vidrado
 41
0.8
  7
SANINDUSA
 72
     4
 11
-112.5
 21
7.0
 31
0.0
100
AcDbAttributeDefinition
  3
Tipo de acabamento:
  2
ACABAMENTO
 70
     0
  0
ATTDEF
  5
BB5
330
B9E
100
AcDbEntity
  8
1
100
AcDbText
 10
-79.18527869967246
 20
16.65066409850533
 30
0.0
 40
2.0
  1
XXXXXXX
 41
0.8
  7
SANINDUSA
 72
     4
 11
-73.90871724903445
 21
17.65066409850533
 31
0.0
100
AcDbAttributeDefinition
  3
Normas
  2
NORMAS
 70
     0
  0
ATTDEF
  5
BB6
330
B9E
100
AcDbEntity
  8
1
100
AcDbText
 10
-30.55312290127603
 20
14.0
 30
0.0
 40
2.0
  1
XXXXXXXXXXXXXX
 41
0.8
  7
SANINDUSA
 72
     4
 11
-20.0
 21
15.0
 31
0.0
100
AcDbAttributeDefinition
  3
Substitui o desenho:
  2
SUBSTITUI
 70
     0
  0
ATTDEF
  5
BB7
330
B9E
100
AcDbEntity
  8
1
100
AcDbText
 10
-31.30691739422431
 20
6.0
 30
0.0
 40
2.0
  1
XXXXXXXXXXXXXXX
 41
0.8
  7
SANINDUSA
 72
     4
 11
-20.0
 21
7.0
 31
0.0
100
AcDbAttributeDefinition
  3
Substituido por:
  2
SUBSTITUIDO
 70
     0
  0
ATTDEF
  5
BB8
330
B9E
100
AcDbEntity
  8
1
100
AcDbText
 10
-110.0220608548302
 20
1.478208457928303
 30
0.0
 40
2.0
  1
XXXXXXXXXXXXXXXXXXXXXXXXXXXXXXXXXX
 41
0.8
  7
SANINDUSA
 11
-110.0220608548302
 21
2.478208457928303
 31
0.0
100
AcDbAttributeDefinition
  3
Localização do desenho:
  2
LOC-DWG
 70
     0
 74
     2
  0
LINE
  5
BB9
330
B9E
100
AcDbEntity
  8
3
100
AcDbLine
 10
-135.0
 20
4.0
 30
0.0
 11
0.0000000000004547
 21
4.0
 31
0.0
  0
LINE
  5
BBA
330
B9E
100
AcDbEntity
  8
3
100
AcDbLine
 10
-90.00000000000046
 20
12.0
 30
0.0
 11
-135.0
 21
12.0
 31
0.0
  0
LINE
  5
BBB
330
B9E
100
AcDbEntity
  8
3
100
AcDbLine
 10
-135.0
 20
32.5
 30
0.0
 11
-40.0
 21
32.5
 31
0.0
  0
TEXT
  5
BBC
330
B9E
100
AcDbEntity
  8
1
100
AcDbText
 10
-134.0
 20
1.25
 30
0.0
 40
2.0
  1
Localização do des.:
 41
0.8
  7
SANINDUSA
 11
-134.0
 21
2.25
 31
0.0
100
AcDbText
 73
     2
  0
LINE
  5
BBD
330
B9E
100
AcDbEntity
  8
3
100
AcDbLine
 10
-180.0
 20
65.0
 30
0.0
 11
0.0
 21
65.0
 31
0.0
  0
LINE
  5
BBE
330
B9E
100
AcDbEntity
  8
leg fin
100
AcDbLine
 10
-40.0
 20
25.05956924886846
 30
0.0
 11
-135.0
 21
25.05956924886846
 31
0.0
  0
LINE
  5
BBF
330
B9E
100
AcDbEntity
  8
leg fin
100
AcDbLine
 10
-40.0
 20
28.5
 30
0.0
 11
-135.0
 21
28.5
 31
0.0
  0
LINE
  5
BC0
330
B9E
100
AcDbEntity
  8
3
100
AcDbLine
 10
-135.0
 20
50.0
 30
0.0
 11
-40.0
 21
50.0
 31
0.0
  0
TEXT
  5
BC1
330
B9E
100
AcDbEntity
  8
1
100
AcDbText
 10
-134.0
 20
29.75
 30
0.0
 40
2.0
  1
Desenho nº:
 41
0.8
  7
SANINDUSA
 11
-134.0
 21
30.75
 31
0.0
100
AcDbText
 73
     2
  0
TEXT
  5
BC2
330
B9E
100
AcDbEntity
  8
1
100
AcDbText
 10
-134.0
 20
9.25
 30
0.0
 40
2.0
  1
Acabamento:
 41
0.8
  7
SANINDUSA
 11
-134.0
 21
10.25
 31
0.0
100
AcDbText
 73
     2
  0
LINE
  5
BC3
330
B9E
100
AcDbEntity
  8
3
100
AcDbLine
 10
-180.0
 20
20.0
 30
0.0
 11
0.0
 21
20.0
 31
0.0
  0
LINE
  5
BC4
330
B9E
100
AcDbEntity
  8
1
100
AcDbLine
 10
-174.5810776056337
 20
55.5
 30
0.0
 11
-174.5810776056337
 21
65.0
 31
0.0
  0
LINE
  5
BC5
330
B9E
100
AcDbEntity
  8
1
100
AcDbLine
 10
-168.9210461879161
 20
55.5
 30
0.0
 11
-168.9210461879161
 21
65.0
 31
0.0
  0
LINE
  5
BC6
330
B9E
100
AcDbEntity
  8
1
100
AcDbLine
 10
-154.0988595589306
 20
55.5
 30
0.0
 11
-154.0988595589306
 21
65.0
 31
0.0
  0
LINE
  5
BC7
330
B9E
100
AcDbEntity
  8
3
100
AcDbLine
 10
-180.0
 20
65.0
 30
0.0
 11
-180.0
 21
0.0
 31
0.0
  0
LINE
  5
BC8
330
B9E
100
AcDbEntity
  8
3
100
AcDbLine
 10
-135.0
 20
0.0
 30
0.0
 11
-135.0
 21
65.0
 31
0.0
  0
TEXT
  5
BC9
330
B9E
100
AcDbEntity
  8
1
100
AcDbText
 10
-179.0
 20
9.75
 30
0.0
 40
1.5
  1
Des.
 41
0.8
  7
SANINDUSA
 11
-179.0
 21
10.5
 31
0.0
100
AcDbText
 73
     2
  0
LINE
  5
BCA
330
B9E
100
AcDbEntity
  8
1
100
AcDbLine
 10
-168.9210461879161
 20
20.0
 30
0.0
 11
-168.9210461879161
 21
0.0
 31
0.0
  0
LINE
  5
BCB
330
B9E
100
AcDbEntity
  8
1
100
AcDbLine
 10
-154.0988595589306
 20
20.0
 30
0.0
 11
-154.0988595589306
 21
0.0
 31
0.0
  0
LINE
  5
BCC
330
B9E
100
AcDbEntity
  8
1
100
AcDbLine
 10
-180.0
 20
4.0
 30
0.0
 11
-135.0
 21
4.0
 31
0.0
  0
LINE
  5
BCD
330
B9E
100
AcDbEntity
  8
1
100
AcDbLine
 10
-180.0
 20
8.0
 30
0.0
 11
-135.0
 21
8.0
 31
0.0
  0
TEXT
  5
BCE
330
B9E
100
AcDbEntity
  8
1
100
AcDbText
 10
-179.0
 20
1.73257823687436
 30
0.0
 40
1.5
  1
Aprov.
 41
0.8
  7
SANINDUSA
 11
-179.0
 21
2.48257823687436
 31
0.0
100
AcDbText
 73
     2
  0
TEXT
  5
BCF
330
B9E
100
AcDbEntity
  8
1
100
AcDbText
 10
-179.0
 20
5.75
 30
0.0
 40
1.5
  1
Ver.
 41
0.8
  7
SANINDUSA
 11
-179.0
 21
6.5
 31
0.0
100
AcDbText
 73
     2
  0
LINE
  5
BD0
330
B9E
100
AcDbEntity
  8
1
100
AcDbLine
 10
-180.0
 20
16.0
 30
0.0
 11
-135.0
 21
16.0
 31
0.0
  0
LINE
  5
BD1
330
B9E
100
AcDbEntity
  8
1
100
AcDbLine
 10
-180.0
 20
12.0
 30
0.0
 11
-135.0
 21
12.0
 31
0.0
  0
TEXT
  5
BD2
330
B9E
100
AcDbEntity
  8
1
100
AcDbText
 10
-179.0
 20
13.75
 30
0.0
 40
1.5
  1
Proj.
 41
0.8
  7
SANINDUSA
 11
-179.0
 21
14.5
 31
0.0
100
AcDbText
 73
     2
  0
TEXT
  5
BD3
330
B9E
100
AcDbEntity
  8
1
100
AcDbText
 10
-167.9210461879161
 20
17.75
 30
0.0
 40
1.5
  1
Data
 41
0.8
  7
SANINDUSA
 11
-167.9210461879161
 21
18.5
 31
0.0
100
AcDbText
 73
     2
  0
TEXT
  5
BD4
330
B9E
100
AcDbEntity
  8
1
100
AcDbText
 10
-153.0988595589306
 20
17.75
 30
0.0
 40
1.5
  1
Nome
 41
0.8
  7
SANINDUSA
 11
-153.0988595589306
 21
18.5
 31
0.0
100
AcDbText
 73
     2
  0
LINE
  5
BD5
330
B9E
100
AcDbEntity
  8
leg fin
100
AcDbLine
 10
-130.0
 20
20.0
 30
0.0
 11
-130.0
 21
28.5
 31
0.0
  0
TEXT
  5
BD6
330
B9E
100
AcDbEntity
  8
1
100
AcDbText
 10
-134.0
 20
17.25
 30
0.0
 40
2.0
  1
Material:
 41
0.8
  7
SANINDUSA
 11
-134.0
 21
18.25
 31
0.0
100
AcDbText
 73
     2
  0
TEXT
  5
BD7
330
B9E
100
AcDbEntity
  8
1
100
AcDbText
 10
-129.0
 20
26.43288406845113
 30
0.0
 40
1.5
  1
Ano:
 41
0.8
  7
SANINDUSA
 11
-129.0
 21
27.18288406845113
 31
0.0
100
AcDbText
 73
     2
  0
LINE
  5
BD8
330
B9E
100
AcDbEntity
  8
1
100
AcDbLine
 10
-180.0
 20
55.5
 30
0.0
 11
-135.0
 21
55.5
 31
0.0
  0
TEXT
  5
BD9
330
B9E
100
AcDbEntity
  8
1
100
AcDbText
 10
-179.0
 20
52.67772246885193
 30
0.0
 40
1.5
  1
descrição
 41
0.8
  7
SANINDUSA
 11
-179.0
 21
53.42772246885193
 31
0.0
100
AcDbText
 73
     2
  0
TEXT
  5
BDA
330
B9E
100
AcDbEntity
  8
1
100
AcDbText
 10
-134.0
 20
47.25
 30
0.0
 40
2.0
  1
Peça:
 41
0.8
  7
SANINDUSA
 11
-134.0
 21
48.25
 31
0.0
100
AcDbText
 73
     2
  0
LINE
  5
BDB
330
B9E
100
AcDbEntity
  8
1
100
AcDbLine
 10
-180.0
 20
59.5
 30
0.0
 11
-135.0
 21
59.5
 31
0.0
  0
TEXT
  5
BDC
330
B9E
100
AcDbEntity
  8
1
100
AcDbText
 10
-173.5810776056337
 20
62.75
 30
0.0
 40
1.5
  1
Alt.
 41
0.8
  7
SANINDUSA
 11
-173.5810776056337
 21
63.5
 31
0.0
100
AcDbText
 73
     2
  0
TEXT
  5
BDD
330
B9E
100
AcDbEntity
  8
1
100
AcDbText
 10
-179.0
 20
62.75
 30
0.0
 40
1.5
  1
Rev.
 41
0.8
  7
SANINDUSA
 11
-179.0
 21
63.5
 31
0.0
100
AcDbText
 73
     2
  0
TEXT
  5
BDE
330
B9E
100
AcDbEntity
  8
1
100
AcDbText
 10
-167.9210461879161
 20
62.75
 30
0.0
 40
1.5
  1
Data
 41
0.8
  7
SANINDUSA
 11
-167.9210461879161
 21
63.5
 31
0.0
100
AcDbText
 73
     2
  0
TEXT
  5
BDF
330
B9E
100
AcDbEntity
  8
1
100
AcDbText
 10
-153.0988595589306
 20
62.75
 30
0.0
 40
1.5
  1
Nome
 41
0.8
  7
SANINDUSA
 11
-153.0988595589306
 21
63.5
 31
0.0
100
AcDbText
 73
     2
  0
TEXT
  5
BE0
330
B9E
100
AcDbEntity
  8
1
100
AcDbText
 10
-134.0
 20
62.25
 30
0.0
 40
2.0
  1
Produto:
 41
0.8
  7
SANINDUSA
 11
-134.0
 21
63.25
 31
0.0
100
AcDbText
 73
     2
  0
LINE
  5
BE1
330
B9E
100
AcDbEntity
  8
3
100
AcDbLine
 10
-40.0
 20
4.0
 30
0.0
 11
-40.0
 21
65.0
 31
0.0
  0
LWPOLYLINE
  5
BE2
102
{ACAD_REACTORS
330
BEC
102
}
330
B9E
100
AcDbEntity
  8
9
100
AcDbPolyline
 90
       12
 70
     1
 43
0.0
 10
-3.038714600644652
 20
58.90010174665076
 10
-5.726962862472191
 20
58.90010174665076
 10
-5.726962862472191
 20
58.5001017466509
 10
-3.038748516195028
 20
58.5001017466509
 42
-0.4142135623731731
 10
-2.638748516194482
 20
58.1001017466508
 10
-2.638748516194482
 20
57.42799728675596
 10
-5.21497371544865
 20
57.42799728675596
 42
0.4142135623731289
 10
-6.014973715448377
 20
56.627997286756
 10
-6.014973715448377
 20
55.92380871629643
 42
0.4142135623731132
 10
-5.21497371544865
 20
55.12380871629648
 10
-2.23871460064447
 20
55.12380871629648
 10
-2.23871460064447
 20
58.10010174665103
 42
0.4142135623730717
  0
LWPOLYLINE
  5
BE3
102
{ACAD_REACTORS
330
BEC
102
}
330
B9E
100
AcDbEntity
  8
9
100
AcDbPolyline
 90
       20
 70
     1
 43
0.0
 10
-10.01531287095122
 20
57.82799728675581
 10
-10.01531287095122
 20
58.10010174665103
 42
-0.4142135623730744
 10
-9.615312870951584
 20
58.5001017466509
 10
-6.92703069357276
 20
58.5001017466509
 10
-6.92703069357276
 20
58.90010174665076
 10
-9.615346786501959
 20
58.90010174665076
 42
0.4142135623730883
 10
-10.41534678650168
 20
58.1001017466508
 10
-10.41534678650168
 20
57.82796337120567
 42
0.4142135623730717
 10
-9.615346786501959
 20
57.02796337120571
 10
-7.423079531965413
 20
57.02796337120571
 42
-0.4142135623730847
 10
-7.023079531965322
 20
56.62796337120562
 10
-7.023079531965322
 20
55.90786840766487
 42
-0.4142135623730744
 10
-7.423079531965413
 20
55.507868407665
 10
-10.41534678650168
 20
55.507868407665
 10
-10.41534678650168
 20
55.12380871629648
 10
-7.445787917283723
 20
55.12380871629648
 42
0.4114777732064574
 10
-6.645822882998345
 20
55.9163291493976
 10
-6.639238813324936
 20
56.62051771985716
 42
0.4169546541682913
 10
-7.439203847610315
 20
57.42799728675596
 10
-9.615312870951584
 20
57.42799728675596
 42
-0.4142135623731576
  0
LWPOLYLINE
  5
BE4
102
{ACAD_REACTORS
330
BEC
102
}
330
B9E
100
AcDbEntity
  8
9
100
AcDbPolyline
 90
       12
 70
     1
 43
0.0
 10
-14.41561811090378
 20
58.90010174665076
 10
-14.79964388672215
 20
58.90010174665076
 10
-14.79964388672215
 20
55.92380871629643
 42
0.4142135623731133
 10
-13.99964388672242
 20
55.12380871629648
 10
-11.8233508563676
 20
55.12380871629648
 42
0.4142135623730872
 10
-11.02335085636741
 20
55.92380871629643
 10
-11.02335085636741
 20
58.90010174665076
 10
-11.42338477191788
 20
58.90010174665076
 10
-11.42338477191788
 20
55.91567577726095
 42
-0.4131711701795318
 10
-11.82196067063523
 20
55.51567831234956
 10
-14.0141940096214
 20
55.50787335710947
 42
-0.4152567234624407
 10
-14.41561811090378
 20
55.90787082202087
  0
LWPOLYLINE
  5
BE5
102
{ACAD_REACTORS
330
BEC
102
}
330
B9E
100
AcDbEntity
  8
9
100
AcDbPolyline
 90
        6
 70
     1
 43
0.0
 10
-15.80771578768872
 20
55.507868407665
 10
-18.39994912667453
 20
55.507868407665
 42
-0.4142135623731731
 10
-18.79994912667462
 20
55.90786840766487
 10
-18.79994912667462
 20
58.10010174665103
 42
-0.4142135623730744
 10
-18.39994912667453
 20
58.5001017466509
 10
-15.80771578768872
 20
58.5001017466509
  0
LWPOLYLINE
  5
BE6
102
{ACAD_REACTORS
330
BEC
102
}
330
B9E
100
AcDbEntity
  8
9
100
AcDbPolyline
 90
        8
 70
     1
 43
0.0
 10
-15.4236900118708
 20
59.87619128370352
 10
-15.80771578768872
 20
59.87619128370352
 10
-15.80771578768872
 20
58.90010174665076
 10
-18.39176256411201
 20
58.90010174665076
 42
0.4131164467977967
 10
-19.19175694739761
 20
58.1030995310698
 10
-19.1999120763262
 20
55.92680650071542
 42
0.4153115297271718
 10
-18.39991769304061
 20
55.12380871629648
 10
-15.4236900118708
 20
55.12380871629648
  0
LWPOLYLINE
  5
BE7
102
{ACAD_REACTORS
330
BEC
102
}
330
B9E
100
AcDbEntity
  8
9
100
AcDbPolyline
 90
       10
 70
     1
 43
0.0
 10
-20.59201288790928
 20
58.90010174665076
 10
-23.56830591826338
 20
58.90010174665076
 10
-23.56830591826338
 20
55.12380871629648
 10
-23.18424622689509
 20
55.12380871629648
 10
-23.18424622689509
 20
58.5001017466509
 10
-20.59204680345965
 20
58.5001017466509
 42
-0.4142135623730898
 10
-20.19204680345956
 20
58.1001017466508
 10
-20.19204680345956
 20
55.12380871629648
 10
-19.79201288790909
 20
55.12380871629648
 10
-19.79201288790909
 20
58.10010174665103
 42
0.4142135623731132
  0
LWPOLYLINE
  5
BE8
102
{ACAD_REACTORS
330
BEC
102
}
330
B9E
100
AcDbEntity
  8
9
100
AcDbPolyline
 90
        4
 70
     1
 43
0.0
 10
-24.19231812786165
 20
58.90010174665076
 10
-24.57637781922995
 20
58.90010174665076
 10
-24.57637781922995
 20
55.12380871629648
 10
-24.19231812786165
 20
55.12380871629648
  0
LWPOLYLINE
  5
BE9
102
{ACAD_REACTORS
330
BEC
102
}
330
B9E
100
AcDbEntity
  8
9
100
AcDbPolyline
 90
       10
 70
     1
 43
0.0
 10
-28.57661522808212
 20
58.5001017466509
 10
-25.98444972019706
 20
58.5001017466509
 42
-0.4142135623731731
 10
-25.58444972019652
 20
58.1001017466508
 10
-25.58444972019652
 20
55.12380871629648
 10
-25.2004239443786
 20
55.12380871629648
 10
-25.2004239443786
 20
58.10010174665103
 42
0.4142135623730717
 10
-26.00042394437833
 20
58.90010174665076
 10
-28.97664914363259
 20
58.90010174665076
 10
-28.97664914363259
 20
55.12380871629648
 10
-28.57661522808212
 20
55.12380871629648
  0
LWPOLYLINE
  5
BEA
102
{ACAD_REACTORS
330
BEC
102
}
330
B9E
100
AcDbEntity
  8
9
100
AcDbPolyline
 90
       12
 70
     1
 43
0.0
 10
-29.58465321349832
 20
58.10010174665103
 42
0.4142135623730716
 10
-30.3846532134985
 20
58.90010174665076
 10
-33.07296930642724
 20
58.90010174665076
 10
-33.07296930642724
 20
58.5001017466509
 10
-30.38468712904842
 20
58.5001017466509
 42
-0.4142135623730067
 10
-29.98468712904878
 20
58.1001017466508
 10
-29.98468712904878
 20
57.42799728675618
 10
-32.56098015940324
 20
57.42799728675596
 42
0.4142135623731289
 10
-33.36098015940343
 20
56.627997286756
 10
-33.36098015940343
 20
55.92380871629643
 42
0.4142135623731132
 10
-32.56098015940324
 20
55.12380871629648
 10
-29.58465321349832
 20
55.12380871629648
  0
LWPOLYLINE
  5
BEB
102
{ACAD_REACTORS
330
BEC
102
}
330
B9E
100
AcDbEntity
  8
9
100
AcDbPolyline
 90
       20
 70
     1
 43
0.0
 10
-34.7850262845518
 20
57.42799728675596
 10
-36.96125148380543
 20
57.42799728675596
 42
-0.4142135623730898
 10
-37.36125148380552
 20
57.82799728675604
 10
-37.36125148380552
 20
58.10010174665103
 42
-0.4142135623730744
 10
-36.96125148380543
 20
58.5001017466509
 10
-34.27303713752781
 20
58.50010174665067
 10
-34.27303713752781
 20
58.90010174665076
 10
-36.96128539935535
 20
58.90010174665076
 42
0.4142135623731289
 10
-37.76128539935553
 20
58.1001017466508
 10
-37.76128539935553
 20
57.82796337120567
 42
0.4142135623730716
 10
-36.9612853993558
 20
57.02796337120571
 10
-34.76901814481926
 20
57.02796337120571
 42
-0.414213562373168
 10
-34.36901814481962
 20
56.62796337120562
 10
-34.36901814481962
 20
55.90786840766487
 42
-0.4142135623730744
 10
-34.76901814481926
 20
55.507868407665
 10
-37.76128539935553
 20
55.507868407665
 10
-37.76128539935553
 20
55.12380871629648
 10
-34.7850262845518
 20
55.12380871629648
 42
0.4142135623731289
 10
-33.98502628455162
 20
55.92380871629643
 10
-33.98502628455162
 20
56.627997286756
 42
0.4142135623731132
  0
HATCH
  5
BEC
330
B9E
100
AcDbEntity
  8
9
100
AcDbHatch
 10
0.0
 20
0.0
 30
0.0
210
0.0
220
0.0
230
1.0
  2
SOLID
 70
     1
 71
     1
 91
       13
 92
        7
 72
     1
 73
     1
 93
       20
 10
-34.36901814481962
 20
55.90786840766487
 42
-0.414213562372991
 10
-34.76901814481926
 20
55.507868407665
 42
0.0
 10
-37.76128539935553
 20
55.507868407665
 42
0.0
 10
-37.76128539935553
 20
55.12380871629648
 42
0.0
 10
-34.7850262845518
 20
55.12380871629648
 42
0.4142135623731705
 10
-33.98502628455162
 20
55.92380871629666
 42
0.0
 10
-33.98502628455162
 20
56.627997286756
 42
0.4142135623731547
 10
-34.7850262845518
 20
57.42799728675596
 42
0.0
 10
-36.96125148380543
 20
57.42799728675596
 42
-0.4142135623730898
 10
-37.36125148380552
 20
57.82799728675604
 42
0.0
 10
-37.36125148380552
 20
58.1001017466508
 42
-0.4142135623731575
 10
-36.96125148380543
 20
58.5001017466509
 42
0.0
 10
-34.27303713752781
 20
58.50010174665067
 42
0.0
 10
-34.27303713752781
 20
58.90010174665076
 42
0.0
 10
-36.96128539935535
 20
58.90010174665076
 42
0.4142135623731705
 10
-37.76128539935553
 20
58.10010174665058
 42
0.0
 10
-37.76128539935553
 20
57.82796337120544
 42
0.4142135623730299
 10
-36.9612853993558
 20
57.02796337120571
 42
0.0
 10
-34.76901814481926
 20
57.02796337120571
 42
-0.4142135623730015
 10
-34.36901814481962
 20
56.62796337120608
 42
0.0
 97
        1
330
BEB
 92
        7
 72
     1
 73
     1
 93
       12
 10
-33.36098015940343
 20
55.92380871629666
 42
0.4142135623731547
 10
-32.56098015940324
 20
55.12380871629648
 42
0.0
 10
-29.58465321349877
 20
55.12380871629648
 42
0.0
 10
-29.58465321349832
 20
58.10010174665058
 42
0.4142135623731964
 10
-30.3846532134985
 20
58.90010174665076
 42
0.0
 10
-33.07296930642724
 20
58.90010174665076
 42
0.0
 10
-33.07296930642724
 20
58.50010174665067
 42
0.0
 10
-30.38468712904887
 20
58.5001017466509
 42
-0.4142135623732564
 10
-29.98468712904878
 20
58.10010174665103
 42
0.0
 10
-29.98468712904923
 20
57.42799728675596
 42
0.0
 10
-32.56098015940324
 20
57.42799728675596
 42
0.4142135623731705
 10
-33.36098015940343
 20
56.627997286756
 42
0.0
 97
        1
330
BEA
 92
       22
 72
     1
 73
     1
 93
        6
 10
-32.97692046803468
 20
56.62796337120562
 42
-0.4142135623731576
 10
-32.57692046803459
 20
57.02796337120571
 42
0.0
 10
-29.98468712904878
 20
57.02796337120571
 42
0.0
 10
-29.98468712904878
 20
55.507868407665
 42
0.0
 10
-32.57692046803459
 20
55.507868407665
 42
-0.4142135623731731
 10
-32.97692046803468
 20
55.90786840766487
 42
0.0
 97
        1
330
C11
 92
        7
 72
     1
 73
     1
 93
       10
 10
-28.57661522808212
 20
58.5001017466509
 42
0.0
 10
-25.98444972019661
 20
58.5001017466509
 42
-0.4142135623730067
 10
-25.58444972019652
 20
58.10010174665058
 42
0.0
 10
-25.58444972019606
 20
55.12380871629648
 42
0.0
 10
-25.20042394437906
 20
55.12380871629648
 42
0.0
 10
-25.2004239443786
 20
58.1001017466508
 42
0.4142135623731134
 10
-26.00042394437833
 20
58.90010174665076
 42
0.0
 10
-28.97664914363259
 20
58.90010174665076
 42
0.0
 10
-28.97664914363259
 20
55.12380871629648
 42
0.0
 10
-28.57661522808212
 20
55.12380871629648
 42
0.0
 97
        1
330
BE9
 92
        7
 72
     0
 73
     1
 93
        4
 10
-24.57637781922995
 20
55.12380871629648
 10
-24.19231812786165
 20
55.12380871629648
 10
-24.19231812786165
 20
58.90010174665076
 10
-24.57637781922995
 20
58.90010174665076
 97
        1
330
BE8
 92
        7
 72
     0
 73
     1
 93
        4
 10
-24.19231812786165
 20
59.87619128370352
 10
-24.5763778192304
 20
59.87619128370352
 10
-24.5763778192304
 20
59.28412752246913
 10
-24.1923181278612
 20
59.28412752246913
 97
        1
330
C12
 92
        7
 72
     1
 73
     1
 93
       10
 10
-23.18424622689509
 20
58.5001017466509
 42
0.0
 10
-20.59204680345965
 20
58.5001017466509
 42
-0.4142135623730898
 10
-20.19204680345956
 20
58.1001017466508
 42
0.0
 10
-20.19204680345956
 20
55.12380871629648
 42
0.0
 10
-19.79201288790909
 20
55.12380871629648
 42
0.0
 10
-19.79201288790909
 20
58.1001017466508
 42
0.4142135623731547
 10
-20.59201288790928
 20
58.90010174665076
 42
0.0
 10
-23.56830591826338
 20
58.90010174665076
 42
0.0
 10
-23.56830591826338
 20
55.12380871629648
 42
0.0
 10
-23.18424622689463
 20
55.12380871629648
 42
0.0
 97
        1
330
BE7
 92
        7
 72
     1
 73
     1
 93
        8
 10
-19.1999120763262
 20
55.92680650071542
 42
0.4153115297271299
 10
-18.39991769304061
 20
55.12380871629648
 42
0.0
 10
-15.4236900118708
 20
55.12380871629648
 42
0.0
 10
-15.4236900118708
 20
59.87619128370352
 42
0.0
 10
-15.80771578768872
 20
59.87619128370352
 42
0.0
 10
-15.80771578768872
 20
58.90010174665076
 42
0.0
 10
-18.39176256411201
 20
58.90010174665076
 42
0.4131164467977965
 10
-19.19175694739761
 20
58.1030995310698
 42
0.0
 97
        1
330
BE6
 92
       22
 72
     1
 73
     1
 93
        6
 10
-18.79994912667462
 20
58.1001017466508
 42
-0.4142135623731575
 10
-18.39994912667453
 20
58.5001017466509
 42
0.0
 10
-15.80771578768872
 20
58.50010174665067
 42
0.0
 10
-15.80771578768827
 20
55.507868407665
 42
0.0
 10
-18.39994912667453
 20
55.507868407665
 42
-0.4142135623731731
 10
-18.79994912667462
 20
55.90786840766487
 42
0.0
 97
        1
330
BE5
 92
        7
 72
     1
 73
     1
 93
       12
 10
-14.79964388672215
 20
55.92380871629621
 42
0.4142135623729885
 10
-13.99964388672242
 20
55.12380871629648
 42
0.0
 10
-11.8233508563676
 20
55.12380871629648
 42
0.4142135623731289
 10
-11.02335085636741
 20
55.92380871629666
 42
0.0
 10
-11.02335085636741
 20
58.90010174665076
 42
0.0
 10
-11.42338477191788
 20
58.90010174665076
 42
0.0
 10
-11.42338477191788
 20
55.91567577726095
 42
-0.4131711701795319
 10
-11.82196067063523
 20
55.51567831234956
 42
0.0
 10
-14.01419400962095
 20
55.50787335710947
 42
-0.4152567234626918
 10
-14.41561811090378
 20
55.90787082202087
 42
0.0
 10
-14.41561811090378
 20
58.90010174665076
 42
0.0
 10
-14.7996438867226
 20
58.90010174665076
 42
0.0
 97
        1
330
BE4
 92
        7
 72
     1
 73
     1
 93
       20
 10
-7.423079531965413
 20
57.02796337120571
 42
-0.414213562373168
 10
-7.023079531965322
 20
56.62796337120562
 42
0.0
 10
-7.023079531965322
 20
55.90786840766487
 42
-0.4142135623731575
 10
-7.423079531965413
 20
55.507868407665
 42
0.0
 10
-10.41534678650168
 20
55.507868407665
 42
0.0
 10
-10.41534678650168
 20
55.12380871629648
 42
0.0
 10
-7.445787917283723
 20
55.12380871629648
 42
0.4114777732065809
 10
-6.645822882998345
 20
55.91632914939783
 42
0.0
 10
-6.639238813324936
 20
56.62051771985716
 42
0.4169546541682913
 10
-7.439203847610315
 20
57.42799728675596
 42
0.0
 10
-9.615312870951584
 20
57.42799728675596
 42
-0.4142135623729911
 10
-10.01531287095122
 20
57.82799728675581
 42
0.0
 10
-10.01531287095122
 20
58.10010174665103
 42
-0.414213562372991
 10
-9.615312870951584
 20
58.5001017466509
 42
0.0
 10
-6.92703069357276
 20
58.50010174665067
 42
0.0
 10
-6.927030693572305
 20
58.90010174665076
 42
0.0
 10
-9.615346786501959
 20
58.90010174665076
 42
0.4142135623730467
 10
-10.41534678650168
 20
58.10010174665103
 42
0.0
 10
-10.41534678650168
 20
57.82796337120544
 42
0.4142135623730301
 10
-9.615346786501959
 20
57.02796337120571
 42
0.0
 97
        1
330
BE3
 92
        7
 72
     1
 73
     1
 93
       12
 10
-5.21497371544865
 20
57.42799728675596
 42
0.4142135623730871
 10
-6.014973715448377
 20
56.627997286756
 42
0.0
 10
-6.014973715448377
 20
55.92380871629621
 42
0.4142135623730715
 10
-5.21497371544865
 20
55.12380871629648
 42
0.0
 10
-2.23871460064447
 20
55.12380871629648
 42
0.0
 10
-2.23871460064447
 20
58.10010174665058
 42
0.414213562373155
 10
-3.038714600644652
 20
58.90010174665076
 42
0.0
 10
-5.726962862471737
 20
58.90010174665076
 42
0.0
 10
-5.726962862472191
 20
58.5001017466509
 42
0.0
 10
-3.038748516194573
 20
58.5001017466509
 42
-0.4142135623730067
 10
-2.638748516194482
 20
58.10010174665058
 42
0.0
 10
-2.638748516194482
 20
57.42799728675596
 42
0.0
 97
        1
330
BE2
 92
       22
 72
     1
 73
     1
 93
        6
 10
-2.638748516194937
 20
57.02796337120571
 42
0.0
 10
-2.638748516194482
 20
55.50786840766477
 42
0.0
 10
-5.21497371544865
 20
55.507868407665
 42
-0.4142135623731731
 10
-5.614973715448741
 20
55.90786840766509
 42
0.0
 10
-5.614973715448741
 20
56.62796337120562
 42
-0.4142135623731576
 10
-5.21497371544865
 20
57.02796337120571
 42
0.0
 97
        1
330
C0D
 75
     0
 76
     1
 47
0.0407044778999864
 98
       13
 10
-34.18710075113677
 20
56.16907953933765
 10
-33.12851374392494
 20
56.49471602641233
 10
-33.12851374392494
 20
56.49471602641233
 10
-28.77202873835904
 20
57.51232930166111
 10
-24.41554807250941
 20
57.91937341678636
 10
-24.41554807250941
 20
59.384734621186
 10
-23.31624584658039
 20
58.3264175319116
 10
-19.04119127844888
 20
57.75655517324913
 10
-19.04119127844888
 20
57.75655517324913
 10
-14.64399105416578
 20
57.43091868617466
 10
-8.048195057457178
 20
57.22739662861204
 10
-4.017427461911665
 20
57.18669281458665
 10
-4.017427461911665
 20
57.18669281458665
  0
TEXT
  5
BED
330
B9E
100
AcDbEntity
  8
leg fin
100
AcDbText
 10
3.391127401597259
 20
2.107634911895729
 30
0.0
 40
1.5
  1
Este desenho é propriedade da Sanindusa, S.A., e não pode ser copiado nem divulgado sem nossa autorização.
 50
90.0
 41
0.8
  7
SANINDUSA
100
AcDbText
  0
LINE
  5
BEE
330
B9E
100
AcDbEntity
  8
3
100
AcDbLine
 10
-90.0
 20
4.0
 30
0.0
 11
-90.0
 21
12.0
 31
0.0
  0
TEXT
  5
BEF
330
B9E
100
AcDbEntity
  8
1
100
AcDbText
 10
-39.0
 20
9.25
 30
0.0
 40
2.0
  1
Substituido por:
 41
0.8
  7
SANINDUSA
 11
-39.0
 21
10.25
 31
0.0
100
AcDbText
 73
     2
  0
POINT
  5
BF0
330
B9E
100
AcDbEntity
  8
SANINDUSA
100
AcDbPoint
 10
0.0
 20
0.0
 30
0.0
  0
TEXT
  5
BF1
330
B9E
100
AcDbEntity
  8
1
100
AcDbText
 10
-89.0
 20
16.74927010445663
 30
0.0
 40
2.0
  1
Normas:
 41
0.8
  7
SANINDUSA
 11
-89.0
 21
17.74927010445663
 31
0.0
100
AcDbText
 73
     2
  0
LINE
  5
BF2
330
B9E
100
AcDbEntity
  8
3
100
AcDbLine
 10
-90.0
 20
12.0
 30
0.0
 11
-90.0
 21
20.0
 31
0.0
  0
LINE
  5
BF3
330
B9E
100
AcDbEntity
  8
3
100
AcDbLine
 10
-110.546019464768
 20
12.0
 30
0.0
 11
-110.546019464768
 21
20.0
 31
0.0
  0
TEXT
  5
BF4
330
B9E
100
AcDbEntity
  8
1
100
AcDbText
 10
-109.6177520618648
 20
17.25
 30
0.0
 40
2.0
  1
Cor:
 41
0.8
  7
SANINDUSA
 11
-109.6177520618648
 21
18.25
 31
0.0
100
AcDbText
 73
     2
  0
LINE
  5
BF5
330
B9E
100
AcDbEntity
  8
leg fin
100
AcDbLine
 10
-91.42857142857156
 20
20.0
 30
0.0
 11
-91.42857142857156
 21
28.5
 31
0.0
  0
LINE
  5
BF6
330
B9E
100
AcDbEntity
  8
leg fin
100
AcDbLine
 10
-104.2857142857142
 20
20.0
 30
0.0
 11
-104.2857142857142
 21
28.5
 31
0.0
  0
LINE
  5
BF7
330
B9E
100
AcDbEntity
  8
leg fin
100
AcDbLine
 10
-117.1428571428573
 20
20.0
 30
0.0
 11
-117.1428571428573
 21
28.5
 31
0.0
  0
POINT
  5
BF8
330
B9E
100
AcDbEntity
  8
SANINDUSA
100
AcDbPoint
 10
-117.1428571428573
 20
28.5
 30
0.0
  0
POINT
  5
BF9
330
B9E
100
AcDbEntity
  8
SANINDUSA
100
AcDbPoint
 10
-104.2857142857142
 20
28.5
 30
0.0
  0
POINT
  5
BFA
330
B9E
100
AcDbEntity
  8
SANINDUSA
100
AcDbPoint
 10
-91.42857142857156
 20
28.5
 30
0.0
  0
TEXT
  5
BFB
330
B9E
100
AcDbEntity
  8
1
100
AcDbText
 10
-116.200160604496
 20
26.43288406845113
 30
0.0
 40
1.5
  1
Nº Seq.:
 41
0.8
  7
SANINDUSA
 11
-116.200160604496
 21
27.18288406845113
 31
0.0
100
AcDbText
 73
     2
  0
TEXT
  5
BFC
330
B9E
100
AcDbEntity
  8
1
100
AcDbText
 10
-103.2106584078738
 20
26.43288406845113
 30
0.0
 40
1.5
  1
Tipo:
 41
0.8
  7
SANINDUSA
 11
-103.2106584078738
 21
27.18288406845113
 31
0.0
100
AcDbText
 73
     2
  0
TEXT
  5
BFD
330
B9E
100
AcDbEntity
  8
1
100
AcDbText
 10
-90.22114672289353
 20
26.43288406845113
 30
0.0
 40
1.5
  1
Prod.:
 41
0.8
  7
SANINDUSA
 11
-90.22114672289353
 21
27.18288406845113
 31
0.0
100
AcDbText
 73
     2
  0
TEXT
  5
BFE
330
B9E
100
AcDbEntity
  8
1
100
AcDbText
 10
-64.77320576346574
 20
26.43288406845113
 30
0.0
 40
1.5
  1
Rev.:
 41
0.8
  7
SANINDUSA
 11
-64.77320576346574
 21
27.18288406845113
 31
0.0
100
AcDbText
 73
     2
  0
LINE
  5
BFF
330
B9E
100
AcDbEntity
  8
leg fin
100
AcDbLine
 10
-52.85714285714266
 20
20.0
 30
0.0
 11
-52.85714285714266
 21
28.5
 31
0.0
  0
LINE
  5
C00
330
B9E
100
AcDbEntity
  8
leg fin
100
AcDbLine
 10
-65.71428571428578
 20
20.0
 30
0.0
 11
-65.71428571428578
 21
28.5
 31
0.0
  0
LINE
  5
C01
330
B9E
100
AcDbEntity
  8
leg fin
100
AcDbLine
 10
-78.57142857142844
 20
20.0
 30
0.0
 11
-78.57142857142844
 21
28.5
 31
0.0
  0
POINT
  5
C02
330
B9E
100
AcDbEntity
  8
SANINDUSA
100
AcDbPoint
 10
-78.57142857142844
 20
28.5
 30
0.0
  0
POINT
  5
C03
330
B9E
100
AcDbEntity
  8
SANINDUSA
100
AcDbPoint
 10
-65.71428571428578
 20
28.5
 30
0.0
  0
POINT
  5
C04
330
B9E
100
AcDbEntity
  8
SANINDUSA
100
AcDbPoint
 10
-52.85714285714266
 20
28.5
 30
0.0
  0
TEXT
  5
C05
330
B9E
100
AcDbEntity
  8
1
100
AcDbText
 10
-77.61097961686573
 20
26.43288406845113
 30
0.0
 40
1.5
  1
Peça:
 41
0.8
  7
SANINDUSA
 11
-77.61097961686573
 21
27.18288406845113
 31
0.0
100
AcDbText
 73
     2
  0
TEXT
  5
C06
330
B9E
100
AcDbEntity
  8
1
100
AcDbText
 10
-52.06538060077036
 20
26.43288406845113
 30
0.0
 40
1.5
  1
Alt.:
 41
0.8
  7
SANINDUSA
 11
-52.06538060077036
 21
27.18288406845113
 31
0.0
100
AcDbText
 73
     2
  0
LINE
  5
C07
330
B9E
100
AcDbEntity
  8
3
100
AcDbLine
 10
0.0
 20
12.0
 30
0.0
 11
-40.0
 21
12.0
 31
0.0
  0
LINE
  5
C08
330
B9E
100
AcDbEntity
  8
3
100
AcDbLine
 10
-40.0
 20
32.5
 30
0.0
 11
0.0
 21
32.5
 31
0.0
  0
TEXT
  5
C09
330
B9E
100
AcDbEntity
  8
1
100
AcDbText
 10
-19.0
 20
29.75
 30
0.0
 40
2.0
  1
Folha:
 41
0.8
  7
SANINDUSA
 11
-19.0
 21
30.75
 31
0.0
100
AcDbText
 73
     2
  0
LINE
  5
C0A
330
B9E
100
AcDbEntity
  8
3
100
AcDbLine
 10
-20.0
 20
32.5
 30
0.0
 11
-20.0
 21
20.0
 31
0.0
  0
TEXT
  5
C0B
330
B9E
100
AcDbEntity
  8
1
100
AcDbText
 10
-39.0
 20
29.75
 30
0.0
 40
2.0
  1
Escala:
 41
0.8
  7
SANINDUSA
 11
-39.0
 21
30.75
 31
0.0
100
AcDbText
 73
     2
  0
TEXT
  5
C0C
330
B9E
100
AcDbEntity
  8
1
100
AcDbText
 10
-39.0
 20
17.25
 30
0.0
 40
2.0
  1
Substitui:
 41
0.8
  7
SANINDUSA
 11
-39.0
 21
18.25
 31
0.0
100
AcDbText
 73
     2
  0
LWPOLYLINE
  5
C0D
102
{ACAD_REACTORS
330
BEC
102
}
330
B9E
100
AcDbEntity
  8
9
100
AcDbPolyline
 90
        6
 70
     1
 43
0.0
 10
-2.638748516194482
 20
57.02796337120571
 10
-2.638748516194482
 20
55.50786840766477
 10
-5.21497371544865
 20
55.507868407665
 42
-0.4142135623730898
 10
-5.614973715448741
 20
55.90786840766487
 10
-5.614973715448741
 20
56.62796337120562
 42
-0.4142135623731576
 10
-5.21497371544865
 20
57.02796337120571
  0
LINE
  5
C0E
330
B9E
100
AcDbEntity
  8
3
100
AcDbLine
 10
-40.0
 20
50.0
 30
0.0
 11
0.0
 21
50.0
 31
0.0
  0
ATTDEF
  5
C0F
330
B9E
100
AcDbEntity
  8
1
100
AcDbText
 10
-31.30691739422431
 20
40.25
 30
0.0
 40
2.0
  1
XXXXXXXXXXXXXXX
 41
0.8
  7
SANINDUSA
 72
     4
 11
-20.0
 21
41.25
 31
0.0
100
AcDbAttributeDefinition
  3
Observações:
  2
OBS
 70
     0
  0
TEXT
  5
C10
330
B9E
100
AcDbEntity
  8
1
100
AcDbText
 10
-39.0
 20
47.25
 30
0.0
 40
2.0
  1
Observações:
 41
0.8
  7
SANINDUSA
 11
-39.0
 21
48.25
 31
0.0
100
AcDbText
 73
     2
  0
LWPOLYLINE
  5
C11
102
{ACAD_REACTORS
330
BEC
102
}
330
B9E
100
AcDbEntity
  8
9
100
AcDbPolyline
 90
        6
 70
     1
 43
0.0
 10
-29.98468712904878
 20
57.02796337120571
 10
-29.98468712904878
 20
55.507868407665
 10
-32.57692046803459
 20
55.507868407665
 42
-0.4142135623731731
 10
-32.97692046803468
 20
55.90786840766487
 10
-32.97692046803468
 20
56.62796337120562
 42
-0.4142135623731576
 10
-32.57692046803459
 20
57.02796337120571
  0
LWPOLYLINE
  5
C12
102
{ACAD_REACTORS
330
BEC
102
}
330
B9E
100
AcDbEntity
  8
9
100
AcDbPolyline
 90
        4
 70
     1
 43
0.0
 10
-24.19231812786165
 20
59.87619128370352
 10
-24.57637781922995
 20
59.87619128370352
 10
-24.57637781922995
 20
59.28412752246913
 10
-24.19231812786165
 20
59.28412752246913
  0
ENDBLK
  5
C14
330
B9E
100
AcDbEntity
  8
0
100
AcDbBlockEnd
  0
ENDSEC
  0
SECTION
  2
ENTITIES
  0
LINE
  5
1C3B
330
1F
100
AcDbEntity
  8
SANINDUSA
100
AcDbLine
 10
4930.525352503384
 20
2860.228598528273
 30
0.0
 11
4930.530351741741
 21
2860.228598528273
 31
0.0
  0
LINE
  5
1C4E
330
1F
100
AcDbEntity
  8
SANINDUSA
100
AcDbLine
 10
4931.437188741849
 20
2860.228598528273
 30
0.0
 11
4931.442187980207
 21
2860.228598528273
 31
0.0
  0
LINE
  5
1C4F
330
1F
100
AcDbEntity
  8
SANINDUSA
100
AcDbLine
 10
4932.359882926276
 20
2860.228598528273
 30
0.0
 11
4932.355882316943
 21
2860.228598528273
 31
0.0
  0
ARC
  5
1CFA
330
1F
100
AcDbEntity
  8
SANINDUSA
100
AcDbCircle
 10
4931.151041310037
 20
2860.200086956078
 30
0.0
 40
0.0240000018311072
100
AcDbArc
 50
270.8169261098081
 51
348.0000063196944
  0
ARC
  5
1CFB
330
1F
100
AcDbEntity
  8
SANINDUSA
100
AcDbCircle
 10
4930.601058278004
 20
2860.20009593377
 30
0.0
 40
0.0240002211364529
100
AcDbArc
 50
191.8058885499983
 51
269.1546184619574
  0
LINE
  5
1CFC
330
1F
100
AcDbEntity
  8
SANINDUSA
100
AcDbLine
 10
4930.800980736073
 20
2860.174437411792
 30
0.0
 11
4930.828957725818
 21
2860.17346043951
 31
0.0
  0
LINE
  5
1CFD
330
1F
100
AcDbEntity
  8
SANINDUSA
100
AcDbLine
 10
4930.923143703992
 20
2860.17346043951
 30
0.0
 11
4930.951120485122
 21
2860.174437404342
 31
0.0
  0
LINE
  5
1CFE
330
1F
100
AcDbEntity
  8
SANINDUSA
100
AcDbLine
 10
4930.828957725818
 20
2860.17346043951
 30
0.0
 11
4930.839311469848
 21
2860.162357412941
 31
0.0
  0
LINE
  5
1CFF
330
1F
100
AcDbEntity
  8
SANINDUSA
100
AcDbLine
 10
4930.912789959962
 20
2860.162357412941
 30
0.0
 11
4930.923143703992
 21
2860.17346043951
 31
0.0
  0
LINE
  5
1D01
330
1F
100
AcDbEntity
  8
SANINDUSA
100
AcDbLine
 10
4931.226205070074
 20
2860.259755599044
 30
0.0
 11
4931.226748902853
 21
2860.228598528273
 31
0.0
  0
LINE
  5
1D03
330
1F
100
AcDbEntity
  8
SANINDUSA
100
AcDbLine
 10
4931.221749682482
 20
2860.228598528273
 30
0.0
 11
4931.226748902853
 21
2860.228598528273
 31
0.0
  0
LINE
  5
1D06
330
1F
100
AcDbEntity
  8
SANINDUSA
100
AcDbLine
 10
4930.525352503384
 20
2860.228598528273
 30
0.0
 11
4930.525896352083
 21
2860.259755599044
 31
0.0
  0
LINE
  5
1D08
330
1F
100
AcDbEntity
  8
SANINDUSA
100
AcDbLine
 10
4930.530351741741
 20
2860.228598528273
 30
0.0
 11
4931.221749682482
 21
2860.228598528273
 31
0.0
  0
ARC
  5
1D09
330
1F
100
AcDbEntity
  8
SANINDUSA
100
AcDbCircle
 10
4931.217206430597
 20
2860.259598527379
 30
0.0
 40
0.0090000000000001
100
AcDbArc
 50
1.000000009720081
 51
90.0
  0
LINE
  5
1D0B
330
1F
100
AcDbEntity
  8
SANINDUSA
100
AcDbLine
 10
4930.534894980993
 20
2860.268598527379
 30
0.0
 11
4931.217206437643
 21
2860.268598527379
 31
0.0
  0
ARC
  5
1D0D
330
1F
100
AcDbEntity
  8
SANINDUSA
100
AcDbCircle
 10
4930.534894981332
 20
2860.259598527379
 30
0.0
 40
0.009
100
AcDbArc
 50
90.0
 51
178.9999999902799
  0
LINE
  5
1D0E
330
1F
100
AcDbEntity
  8
SANINDUSA
100
AcDbLine
 10
4930.570463605727
 20
2860.228598528273
 30
0.0
 11
4930.576533217485
 21
2860.200043246813
 31
0.0
  0
LINE
  5
1D0F
330
1F
100
AcDbEntity
  8
SANINDUSA
100
AcDbLine
 10
4931.1755678845
 20
2860.200041853554
 30
0.0
 11
4931.181637783105
 21
2860.228598528273
 31
0.0
  0
LWPOLYLINE
  5
1D1A
330
1F
100
AcDbEntity
  8
SANINDUSA
100
AcDbPolyline
 90
        4
 70
   128
 43
0.0
 10
4931.174519081171
 20
2860.195107490487
 10
4931.174626667555
 20
2860.195613623328
 10
4931.174972851331
 20
2860.197242484159
 10
4931.1755678845
 20
2860.200041853554
  0
LWPOLYLINE
  5
1D1B
330
1F
100
AcDbEntity
  8
SANINDUSA
100
AcDbPolyline
 90
        5
 70
   128
 43
0.0
 10
4930.576533217485
 20
2860.200043246813
 10
4930.57704928195
 20
2860.197615363367
 10
4930.577389892693
 20
2860.196012914844
 10
4930.577559896316
 20
2860.195213102467
 10
4930.577571601178
 20
2860.195158035226
  0
LINE
  5
1D1E
330
1F
100
AcDbEntity
  8
SANINDUSA
100
AcDbLine
 10
4930.876050700004
 20
2860.17346043951
 30
0.0
 11
4930.923143703992
 21
2860.17346043951
 31
0.0
  0
LINE
  5
1D1F
330
1F
100
AcDbEntity
  8
SANINDUSA
100
AcDbLine
 10
4930.828957725818
 20
2860.17346043951
 30
0.0
 11
4930.876050700004
 21
2860.17346043951
 31
0.0
  0
LINE
  5
1D20
330
1F
100
AcDbEntity
  8
SANINDUSA
100
AcDbLine
 10
4930.876050700004
 20
2860.162357412941
 30
0.0
 11
4930.912789959962
 21
2860.162357412941
 31
0.0
  0
LINE
  5
1D21
330
1F
100
AcDbEntity
  8
SANINDUSA
100
AcDbLine
 10
4930.839311469848
 20
2860.162357412941
 30
0.0
 11
4930.876050700004
 21
2860.162357412941
 31
0.0
  0
ELLIPSE
  5
1D3B
330
1F
100
AcDbEntity
  8
SANINDUSA
100
AcDbEllipse
 10
4929.687385841119
 20
2860.522666513791
 30
0.0
 11
0.0079343406248555
 21
-0.0079343406248553
 31
0.0
210
0.0
220
0.0
230
0.9999999999999998
 40
0.8911979137515858
 41
2.377814862643727
 42
3.905370444535852
  0
LINE
  5
1D3E
330
1F
100
AcDbEntity
  8
SANINDUSA
100
AcDbLine
 10
4930.283952703227
 20
2860.533287656684
 30
0.0
 11
4929.686546174337
 21
2860.533287656684
 31
0.0
  0
ELLIPSE
  5
1D41
330
1F
100
AcDbEntity
  8
SANINDUSA
100
AcDbEllipse
 10
4930.283113011111
 20
2860.522666513791
 30
0.0
 11
0.0079343406248553
 21
0.0079343406248555
 31
0.0
210
0.0
220
0.0
230
0.9999999999999998
 40
0.8911979137515812
 41
5.519407516233521
 42
7.04696309812566
  0
LINE
  5
1D43
330
1F
100
AcDbEntity
  8
SANINDUSA
100
AcDbLine
 10
4930.293734183062
 20
2859.926099651684
 30
0.0
 11
4930.293734183062
 21
2860.523506180574
 31
0.0
  0
LINE
  5
1D44
330
1F
100
AcDbEntity
  8
SANINDUSA
100
AcDbLine
 10
4929.676764698226
 20
2860.523506180574
 30
0.0
 11
4929.676764698226
 21
2859.926099651684
 31
0.0
  0
ELLIPSE
  5
1D46
330
1F
100
AcDbEntity
  8
SANINDUSA
100
AcDbEllipse
 10
4929.687385841119
 20
2859.926939343798
 30
0.0
 11
0.0079343406248555
 21
0.0079343406248555
 31
0.0
210
0.0
220
0.0
230
0.9999999999999998
 40
0.8911979137515601
 41
2.377814862643703
 42
3.905370444535877
  0
ELLIPSE
  5
1D49
330
1F
100
AcDbEntity
  8
SANINDUSA
100
AcDbEllipse
 10
4930.283113011111
 20
2859.926939343798
 30
0.0
 11
-0.0079343406248555
 21
0.0079343406248555
 31
0.0
210
0.0
220
0.0
230
1.0
 40
0.8911979137515661
 41
2.377814862643728
 42
3.905370444535879
  0
LINE
  5
1D4A
330
1F
100
AcDbEntity
  8
SANINDUSA
100
AcDbLine
 10
4929.686546174337
 20
2859.916318171848
 30
0.0
 11
4930.283952703227
 21
2859.916318171848
 31
0.0
  0
ARC
  5
1D51
330
1F
100
AcDbEntity
  8
SANINDUSA
100
AcDbCircle
 10
4930.271350625759
 20
2860.510865073725
 30
0.0
 40
0.010250089356301
100
AcDbArc
 50
2.771766415035051
 51
87.65451958723565
  0
LINE
  5
1D53
330
1F
100
AcDbEntity
  8
SANINDUSA
100
AcDbLine
 10
4929.686546174337
 20
2860.533287656684
 30
0.0
 11
4929.698691544581
 21
2860.521142290164
 31
0.0
  0
LINE
  5
1D54
330
1F
100
AcDbEntity
  8
SANINDUSA
100
AcDbLine
 10
4929.688910064746
 20
2860.511360810329
 30
0.0
 11
4929.676764698226
 21
2860.523506180574
 31
0.0
  0
ARC
  5
1D56
330
1F
100
AcDbEntity
  8
SANINDUSA
100
AcDbCircle
 10
4930.270950784557
 20
2859.93932663188
 30
0.0
 40
0.0099093235813356
100
AcDbArc
 50
269.1121853200598
 51
357.9941954376054
  0
LINE
  5
1D58
330
1F
100
AcDbEntity
  8
SANINDUSA
100
AcDbLine
 10
4929.676764698226
 20
2859.926099651684
 30
0.0
 11
4929.68964452808
 21
2859.938979500164
 31
0.0
  0
ARC
  5
1D59
330
1F
100
AcDbEntity
  8
SANINDUSA
100
AcDbCircle
 10
4929.699547892109
 20
2859.939326391357
 30
0.0
 40
0.0099094375522483
100
AcDbArc
 50
182.0061141565481
 51
270.886639610339
  0
LINE
  5
1D5A
330
1F
100
AcDbEntity
  8
SANINDUSA
100
AcDbLine
 10
4929.699426007915
 20
2859.929198020328
 30
0.0
 11
4929.686546174337
 21
2859.916318171848
 31
0.0
  0
LWPOLYLINE
  5
1D5D
330
1F
100
AcDbEntity
  8
SANINDUSA
100
AcDbPolyline
 90
        5
 70
   128
 43
0.0
 10
4929.698728678275
 20
2860.521106646587
 10
4929.817651604761
 20
2860.521092866738
 10
4929.991672625292
 20
2860.521078703185
 10
4930.165693630923
 20
2860.521093593169
 10
4930.271770109881
 20
2860.521106575806
  0
LWPOLYLINE
  5
1D5E
330
1F
100
AcDbEntity
  8
SANINDUSA
100
AcDbPolyline
 90
        9
 70
   128
 43
0.0
 10
4930.28158872341
 20
2860.511360743274
 10
4930.281088998068
 20
2860.377668508519
 10
4930.280434837092
 20
2860.203675919403
 10
4930.280173172701
 20
2860.145260923733
 10
4930.279920747031
 20
2860.086845153202
 10
4930.279803027858
 20
2860.028423541416
 10
4930.279912760008
 20
2859.998553150524
 10
4930.28025900339
 20
2859.968714528908
 10
4930.280854036559
 20
2859.938979798187
  0
LWPOLYLINE
  5
1D5F
330
1F
100
AcDbEntity
  8
SANINDUSA
100
AcDbPolyline
 90
       10
 70
   128
 43
0.0
 10
4929.68964452808
 20
2859.938979500164
 10
4929.690160592545
 20
2859.963927739491
 10
4929.690501203288
 20
2859.988953047622
 10
4929.69067120691
 20
2860.014012151589
 10
4929.690701508421
 20
2860.057811015476
 10
4929.690555044908
 20
2860.101610773434
 10
4929.690328331191
 20
2860.145410143961
 10
4929.690117863465
 20
2860.189207756151
 10
4929.689461966503
 20
2860.363200226058
 10
4929.688910064746
 20
2860.511360810329
  0
LWPOLYLINE
  5
1D62
330
1F
100
AcDbEntity
  8
SANINDUSA
100
AcDbPolyline
 90
        9
 70
   128
 43
0.0
 10
4930.270797242869
 20
2859.929418497909
 10
4930.178353180636
 20
2859.929506355156
 10
4930.085912605274
 20
2859.929675751557
 10
4930.024283101309
 20
2859.929814749588
 10
4929.96265008067
 20
2859.929853611816
 10
4929.90102346753
 20
2859.929729276527
 10
4929.821745981921
 20
2859.929542654385
 10
4929.742459808934
 20
2859.929458015789
 10
4929.699701232363
 20
2859.929418140282
  0
ELLIPSE
  5
1D64
330
1F
100
AcDbEntity
  8
SANINDUSA
100
AcDbEllipse
 10
4930.330946867073
 20
2860.570500369752
 30
0.0
 11
0.0035366109458464
 21
0.0035366109458495
 31
0.0
210
0.0
220
0.0
230
1.0
 40
0.9996954598818453
 41
5.497939437029273
 42
7.068431177329043
  0
ELLIPSE
  5
1D67
330
1F
100
AcDbEntity
  8
SANINDUSA
100
AcDbEllipse
 10
4929.639551985158
 20
2860.570500369752
 30
0.0
 11
0.0035366109458464
 21
-0.0035366109458496
 31
0.0
210
0.0
220
0.0
230
1.0
 40
0.9996954598818197
 41
2.35634678344035
 42
3.926838523740166
  0
ELLIPSE
  5
1D6A
330
1F
100
AcDbEntity
  8
SANINDUSA
100
AcDbEllipse
 10
4930.330946867073
 20
2859.879105487838
 30
0.0
 11
0.0035366109458464
 21
-0.0035366109458495
 31
0.0
210
0.0
220
0.0
230
1.0
 40
0.9996954598818804
 41
5.497939437030171
 42
7.068431177329913
  0
ELLIPSE
  5
1D6D
330
1F
100
AcDbEntity
  8
SANINDUSA
100
AcDbEllipse
 10
4929.639551985158
 20
2859.879105487838
 30
0.0
 11
0.0035366109458463
 21
0.0035366109458495
 31
0.0
210
0.0
220
0.0
230
1.0
 40
0.9996954598818929
 41
2.356346783439473
 42
3.926838523739223
  0
LINE
  5
1D6F
330
1F
100
AcDbEntity
  8
SANINDUSA
100
AcDbLine
 10
4930.330948402632
 20
2860.575501131375
 30
0.0
 11
4929.639550461892
 21
2860.575501131375
 31
0.0
  0
LINE
  5
1D70
330
1F
100
AcDbEntity
  8
SANINDUSA
100
AcDbLine
 10
4930.335947623003
 20
2859.879103952278
 30
0.0
 11
4930.335947623003
 21
2860.570501893018
 31
0.0
  0
LINE
  5
1D71
330
1F
100
AcDbEntity
  8
SANINDUSA
100
AcDbLine
 10
4929.634551223535
 20
2860.570501893018
 30
0.0
 11
4929.634551223535
 21
2859.879103952278
 31
0.0
  0
LINE
  5
1D72
330
1F
100
AcDbEntity
  8
SANINDUSA
100
AcDbLine
 10
4929.639550461892
 20
2859.874104731907
 30
0.0
 11
4930.330948402632
 21
2859.874104731907
 31
0.0
  0
ARC
  5
1D83
330
1F
100
AcDbEntity
  8
SANINDUSA
100
AcDbCircle
 10
4929.699383986612
 20
2860.510627559457
 30
0.0
 40
0.0104995569467597
100
AcDbArc
 50
93.5783244353159
 51
175.9954114754377
  0
ARC
  5
1D84
330
1F
100
AcDbEntity
  8
SANINDUSA
100
AcDbCircle
 10
4929.784745579461
 20
2860.425263636571
 30
0.0
 40
0.0025906864488712
100
AcDbArc
 50
90.00132594424012
 51
180.0
  0
LWPOLYLINE
  5
1D8F
330
1F
100
AcDbEntity
  8
SANINDUSA
100
AcDbPolyline
 90
        3
 70
   128
 43
0.0
 10
4929.784745519508
 20
2860.427854323019
 10
4929.792745476116
 20
2860.427855321397
 10
4929.795745437491
 20
2860.427855693926
  0
LWPOLYLINE
  5
1D92
330
1F
100
AcDbEntity
  8
SANINDUSA
100
AcDbPolyline
 90
        3
 70
   128
 43
0.0
 10
4929.782154431094
 20
2860.414265805115
 10
4929.78215477382
 20
2860.422264256705
 10
4929.78215489303
 20
2860.425263934959
  0
ARC
  5
1D93
330
1F
100
AcDbEntity
  8
SANINDUSA
100
AcDbCircle
 10
4930.18575364316
 20
2860.425264734153
 30
0.0
 40
0.0025905276418742
100
AcDbArc
 50
0.0
 51
90.00284521735236
  0
LWPOLYLINE
  5
1D9E
330
1F
100
AcDbEntity
  8
SANINDUSA
100
AcDbPolyline
 90
        3
 70
   128
 43
0.0
 10
4930.174753536928
 20
2860.427856707205
 10
4930.182753493536
 20
2860.427855664124
 10
4930.185753514518
 20
2860.427855261792
  0
LWPOLYLINE
  5
1DA0
330
1F
100
AcDbEntity
  8
SANINDUSA
100
AcDbPolyline
 90
        3
 70
   128
 43
0.0
 10
4930.188344170797
 20
2860.425264873733
 10
4930.188344528426
 20
2860.417266466845
 10
4930.188344647636
 20
2860.414266848196
  0
ARC
  5
1DA2
330
1F
100
AcDbEntity
  8
SANINDUSA
100
AcDbCircle
 10
4929.795745965114
 20
2860.42526613156
 30
0.0
 40
0.0025895624196834
100
AcDbArc
 50
0.0
 51
90.01167398940532
  0
LINE
  5
1DA4
330
1F
100
AcDbEntity
  8
SANINDUSA
100
AcDbLine
 10
4929.798335527529
 20
2860.425266304244
 30
0.0
 11
4929.798335035791
 21
2860.414268323411
 31
0.0
  0
ARC
  5
1DA6
330
1F
100
AcDbEntity
  8
SANINDUSA
100
AcDbCircle
 10
4930.174753180139
 20
2860.425266944149
 30
0.0
 40
0.0025897630802019
100
AcDbArc
 50
89.99210639779352
 51
179.9910798006269
  0
LWPOLYLINE
  5
1DA9
330
1F
100
AcDbEntity
  8
SANINDUSA
100
AcDbPolyline
 90
        3
 70
   128
 43
0.0
 10
4930.172163953532
 20
2860.414269455899
 10
4930.172163595904
 20
2860.422267773379
 10
4930.17216341709
 20
2860.425267347325
  0
ARC
  5
1DAA
330
1F
100
AcDbEntity
  8
SANINDUSA
100
AcDbCircle
 10
4929.849745380994
 20
2860.425272102785
 30
0.0
 40
0.0025906989950018
100
AcDbArc
 50
90.00028488650652
 51
179.9911454073859
  0
ARC
  5
1DB6
330
1F
100
AcDbEntity
  8
SANINDUSA
100
AcDbCircle
 10
4929.784744006028
 20
2860.414265960519
 30
0.0
 40
0.0025895749396776
100
AcDbArc
 50
180.0
 51
270.0113969194251
  0
LWPOLYLINE
  5
1DB7
330
1F
100
AcDbEntity
  8
SANINDUSA
100
AcDbPolyline
 90
        3
 70
   128
 43
0.0
 10
4929.849745368112
 20
2860.42786280178
 10
4929.85774532472
 20
2860.427863844861
 10
4929.860745450008
 20
2860.427864247192
  0
LWPOLYLINE
  5
1DBA
330
1F
100
AcDbEntity
  8
SANINDUSA
100
AcDbPolyline
 90
        3
 70
   128
 43
0.0
 10
4929.847154145587
 20
2860.414275014032
 10
4929.847154533018
 20
2860.422273078193
 10
4929.847154682029
 20
2860.425272503127
  0
LWPOLYLINE
  5
1DBC
330
1F
100
AcDbEntity
  8
SANINDUSA
100
AcDbPolyline
 90
        3
 70
   128
 43
0.0
 10
4929.795744409312
 20
2860.411677905549
 10
4929.787744467605
 20
2860.411676787962
 10
4929.78474452113
 20
2860.411676385631
  0
ARC
  5
1DBD
330
1F
100
AcDbEntity
  8
SANINDUSA
100
AcDbCircle
 10
4930.120753492357
 20
2860.42527322363
 30
0.0
 40
0.0025905318287283
100
AcDbArc
 50
0.0
 51
90.00341202008421
  0
ARC
  5
1DC8
330
1F
100
AcDbEntity
  8
SANINDUSA
100
AcDbCircle
 10
4930.18575491801
 20
2860.414267188133
 30
0.0
 40
0.0025897296476602
100
AcDbArc
 50
269.9913668497158
 51
0.0
  0
LWPOLYLINE
  5
1DCA
330
1F
100
AcDbEntity
  8
SANINDUSA
100
AcDbPolyline
 90
        3
 70
   128
 43
0.0
 10
4930.109753211487
 20
2860.427865126361
 10
4930.117753168095
 20
2860.427864127983
 10
4930.120753338087
 20
2860.427863755454
  0
LWPOLYLINE
  5
1DCC
330
1F
100
AcDbEntity
  8
SANINDUSA
100
AcDbPolyline
 90
        3
 70
   128
 43
0.0
 10
4930.12334402417
 20
2860.425273501505
 10
4930.123344381798
 20
2860.417275496949
 10
4930.12334453081
 20
2860.414276116718
  0
ARC
  5
1DCE
330
1F
100
AcDbEntity
  8
SANINDUSA
100
AcDbCircle
 10
4929.860746101123
 20
2860.425274793441
 30
0.0
 40
0.0025894538332487
100
AcDbArc
 50
0.0
 51
90.01440696144065
  0
LWPOLYLINE
  5
1DD0
330
1F
100
AcDbEntity
  8
SANINDUSA
100
AcDbPolyline
 90
        3
 70
   128
 43
0.0
 10
4930.185754527796
 20
2860.411677458514
 10
4930.177754630793
 20
2860.411678620805
 10
4930.174754609812
 20
2860.411679052939
  0
ARC
  5
1DD2
330
1F
100
AcDbEntity
  8
SANINDUSA
100
AcDbCircle
 10
4929.795744315933
 20
2860.414268625422
 30
0.0
 40
0.0025907198752205
100
AcDbArc
 50
270.0020651796499
 51
0.0
  0
LWPOLYLINE
  5
1DD3
330
1F
100
AcDbEntity
  8
SANINDUSA
100
AcDbPolyline
 90
        3
 70
   128
 43
0.0
 10
4929.863335554946
 20
2860.425275021423
 10
4929.863335167516
 20
2860.417277076472
 10
4929.863335018505
 20
2860.414277711143
  0
ARC
  5
1DD5
330
1F
100
AcDbEntity
  8
SANINDUSA
100
AcDbCircle
 10
4930.109752779511
 20
2860.425275438494
 30
0.0
 40
0.0025896879034698
100
AcDbArc
 50
89.99044267516556
 51
179.9897762637591
  0
LWPOLYLINE
  5
1DD8
330
1F
100
AcDbEntity
  8
SANINDUSA
100
AcDbPolyline
 90
        3
 70
   128
 43
0.0
 10
4930.107163598288
 20
2860.414278664817
 10
4930.107163210858
 20
2860.422276579966
 10
4930.107163091649
 20
2860.425275900592
  0
ARC
  5
1DD9
330
1F
100
AcDbEntity
  8
SANINDUSA
100
AcDbCircle
 10
4930.17475452296
 20
2860.41426962237
 30
0.0
 40
0.0025905694331953
100
AcDbArc
 50
180.0
 51
270.0019209385945
  0
ARC
  5
1DDA
330
1F
100
AcDbEntity
  8
SANINDUSA
100
AcDbCircle
 10
4929.914746371966
 20
2860.425280035211
 30
0.0
 40
0.0025905151765743
100
AcDbArc
 50
89.99687807744271
 51
179.9889491444692
  0
LWPOLYLINE
  5
1DE5
330
1F
100
AcDbEntity
  8
SANINDUSA
100
AcDbPolyline
 90
        3
 70
   128
 43
0.0
 10
4929.914746513117
 20
2860.427870550383
 10
4929.922746499528
 20
2860.427871295442
 10
4929.925746878137
 20
2860.427871548762
  0
LWPOLYLINE
  5
1DE8
330
1F
100
AcDbEntity
  8
SANINDUSA
100
AcDbPolyline
 90
        3
 70
   128
 43
0.0
 10
4929.912155439605
 20
2860.414283731211
 10
4929.912155737627
 20
2860.42228137814
 10
4929.912155856836
 20
2860.425280534853
  0
ARC
  5
1DE9
330
1F
100
AcDbEntity
  8
SANINDUSA
100
AcDbCircle
 10
4930.05575256475
 20
2860.425280817141
 30
0.0
 40
0.0025902101183499
100
AcDbArc
 50
0.0
 51
90.00986941287392
  0
LWPOLYLINE
  5
1DF4
330
1F
100
AcDbEntity
  8
SANINDUSA
100
AcDbPolyline
 90
        3
 70
   128
 43
0.0
 10
4930.04475178336
 20
2860.427871965994
 10
4930.05275176977
 20
2860.427871295442
 10
4930.055752118576
 20
2860.427871027221
  0
LWPOLYLINE
  5
1DF6
330
1F
100
AcDbEntity
  8
SANINDUSA
100
AcDbPolyline
 90
        3
 70
   128
 43
0.0
 10
4930.058342774857
 20
2860.425281056393
 10
4930.058343043078
 20
2860.417283454169
 10
4930.058343162287
 20
2860.414284297456
  0
ARC
  5
1DF8
330
1F
100
AcDbEntity
  8
SANINDUSA
100
AcDbCircle
 10
4929.925747613168
 20
2860.425282044838
 30
0.0
 40
0.0025895040276303
100
AcDbArc
 50
0.0
 51
90.01626343977344
  0
ARC
  5
1DFA
330
1F
100
AcDbEntity
  8
SANINDUSA
100
AcDbCircle
 10
4930.044751369522
 20
2860.425282110951
 30
0.0
 40
0.0025898550753954
100
AcDbArc
 50
89.99084460120228
 51
179.9873971200604
  0
LINE
  5
1DFC
330
1F
100
AcDbEntity
  8
SANINDUSA
100
AcDbLine
 10
4929.928337117184
 20
2860.42528229319
 30
0.0
 11
4929.928336789359
 21
2860.41428563856
 31
0.0
  0
LWPOLYLINE
  5
1DFF
330
1F
100
AcDbEntity
  8
SANINDUSA
100
AcDbPolyline
 90
        3
 70
   128
 43
0.0
 10
4930.042161812533
 20
2860.414286055793
 10
4930.042161574114
 20
2860.422283583512
 10
4930.04216151451
 20
2860.42528268062
  0
ARC
  5
1E01
330
1F
100
AcDbEntity
  8
SANINDUSA
100
AcDbCircle
 10
4929.849743570151
 20
2860.41427522765
 30
0.0
 40
0.0025894245709026
100
AcDbArc
 50
180.0
 51
270.0147248337184
  0
LWPOLYLINE
  5
1E03
330
1F
100
AcDbEntity
  8
SANINDUSA
100
AcDbPolyline
 90
        3
 70
   128
 43
0.0
 10
4929.860744317521
 20
2860.411687427391
 10
4929.852744375814
 20
2860.411686235298
 10
4929.849744235624
 20
2860.411685803164
  0
ARC
  5
1E04
330
1F
100
AcDbEntity
  8
SANINDUSA
100
AcDbCircle
 10
4930.120754909787
 20
2860.414276511954
 30
0.0
 40
0.0025896210530512
100
AcDbArc
 50
269.9889636311118
 51
359.9912551775376
  0
LWPOLYLINE
  5
1E06
330
1F
100
AcDbEntity
  8
SANINDUSA
100
AcDbPolyline
 90
        3
 70
   128
 43
0.0
 10
4930.120754410971
 20
2860.41168689095
 10
4930.112754454363
 20
2860.411688008536
 10
4930.10975428437
 20
2860.411688425769
  0
ARC
  5
1E08
330
1F
100
AcDbEntity
  8
SANINDUSA
100
AcDbCircle
 10
4929.860744307012
 20
2860.41427813892
 30
0.0
 40
0.00259071152896
100
AcDbArc
 50
270.0002324115272
 51
359.9905393396042
  0
ARC
  5
1E09
330
1F
100
AcDbEntity
  8
SANINDUSA
100
AcDbCircle
 10
4929.979748772442
 20
2860.425284069642
 30
0.0
 40
0.0025902060490242
100
AcDbArc
 50
89.99333536494644
 51
179.9865550972523
  0
ARC
  5
1E14
330
1F
100
AcDbEntity
  8
SANINDUSA
100
AcDbCircle
 10
4929.990750197703
 20
2860.425284438011
 30
0.0
 40
0.0025898675443156
100
AcDbArc
 50
0.0
 51
90.01415302839243
  0
LWPOLYLINE
  5
1E17
330
1F
100
AcDbEntity
  8
SANINDUSA
100
AcDbPolyline
 90
        3
 70
   128
 43
0.0
 10
4929.979749073733
 20
2860.427874275674
 10
4929.987749060143
 20
2860.427874320377
 10
4929.990749557961
 20
2860.427874305476
  0
LWPOLYLINE
  5
1E19
330
1F
100
AcDbEntity
  8
SANINDUSA
100
AcDbPolyline
 90
        3
 70
   128
 43
0.0
 10
4929.977158506859
 20
2860.414288246264
 10
4929.977158536662
 20
2860.422285654772
 10
4929.977158566464
 20
2860.425284677376
  0
LWPOLYLINE
  5
1E1A
330
1F
100
AcDbEntity
  8
SANINDUSA
100
AcDbPolyline
 90
        3
 70
   128
 43
0.0
 10
4929.99334006523
 20
2860.42528473698
 10
4929.993340095032
 20
2860.417287343372
 10
4929.993340095032
 20
2860.41428832077
  0
ARC
  5
1E1C
330
1F
100
AcDbEntity
  8
SANINDUSA
100
AcDbCircle
 10
4930.109754084152
 20
2860.414278911637
 30
0.0
 40
0.0025904858758694
100
AcDbArc
 50
180.0
 51
270.004428377582
  0
ARC
  5
1E1E
330
1F
100
AcDbEntity
  8
SANINDUSA
100
AcDbCircle
 10
4929.914744880949
 20
2860.41428399139
 30
0.0
 40
0.0025894413577655
100
AcDbArc
 50
180.0
 51
270.0169911067464
  0
LWPOLYLINE
  5
1E20
330
1F
100
AcDbEntity
  8
SANINDUSA
100
AcDbPolyline
 90
        3
 70
   128
 43
0.0
 10
4929.925746103275
 20
2860.411695682634
 10
4929.917746116865
 20
2860.411694877972
 10
4929.91474564885
 20
2860.411694550146
  0
ARC
  5
1E21
330
1F
100
AcDbEntity
  8
SANINDUSA
100
AcDbCircle
 10
4930.055753365764
 20
2860.414284883139
 30
0.0
 40
0.0025897965889735
100
AcDbArc
 50
269.9902097425308
 51
359.9870423798173
  0
LWPOLYLINE
  5
1E23
330
1F
100
AcDbEntity
  8
SANINDUSA
100
AcDbPolyline
 90
        3
 70
   128
 43
0.0
 10
4930.055752923239
 20
2860.411695086588
 10
4930.047752936829
 20
2860.411695861449
 10
4930.044752498616
 20
2860.41169614457
  0
ARC
  5
1E25
330
1F
100
AcDbEntity
  8
SANINDUSA
100
AcDbCircle
 10
4929.92574619901
 20
2860.41428627306
 30
0.0
 40
0.0025905904271793
100
AcDbArc
 50
269.997882658032
 51
359.985965079403
  0
ARC
  5
1E26
330
1F
100
AcDbEntity
  8
SANINDUSA
100
AcDbCircle
 10
4930.044752043549
 20
2860.414286375565
 30
0.0
 40
0.0025902310353384
100
AcDbArc
 50
180.0
 51
270.0100660768001
  0
ARC
  5
1E28
330
1F
100
AcDbEntity
  8
SANINDUSA
100
AcDbCircle
 10
4929.979748286657
 20
2860.414288561806
 30
0.0
 40
0.0025897798168534
100
AcDbArc
 50
180.0
 51
270.0147757453966
  0
ARC
  5
1E29
330
1F
100
AcDbEntity
  8
SANINDUSA
100
AcDbCircle
 10
4929.990749997673
 20
2860.414288924181
 30
0.0
 40
0.0025900974291718
100
AcDbArc
 50
269.9915916010438
 51
359.9866518919608
  0
LWPOLYLINE
  5
1E2B
330
1F
100
AcDbEntity
  8
SANINDUSA
100
AcDbPolyline
 90
        3
 70
   128
 43
0.0
 10
4929.990749617566
 20
2860.41169882678
 10
4929.982749601354
 20
2860.411698811878
 10
4929.979748954523
 20
2860.411698782076
  0
ARC
  5
1E3A
330
1F
100
AcDbEntity
  8
SANINDUSA
100
AcDbCircle
 10
4929.784743042247
 20
2860.360274550634
 30
0.0
 40
0.0025907867378847
100
AcDbArc
 50
90.00519153157833
 51
180.0
  0
LWPOLYLINE
  5
1E45
330
1F
100
AcDbEntity
  8
SANINDUSA
100
AcDbPolyline
 90
        3
 70
   128
 43
0.0
 10
4929.784742807497
 20
2860.362865337361
 10
4929.792742704499
 20
2860.36286673807
 10
4929.795742636073
 20
2860.362867259611
  0
LWPOLYLINE
  5
1E48
330
1F
100
AcDbEntity
  8
SANINDUSA
100
AcDbPolyline
 90
        3
 70
   128
 43
0.0
 10
4929.782151853192
 20
2860.349276655544
 10
4929.782152151216
 20
2860.357275151838
 10
4929.782152255524
 20
2860.360274830092
  0
ARC
  5
1E50
330
1F
100
AcDbEntity
  8
SANINDUSA
100
AcDbCircle
 10
4930.185756214722
 20
2860.36027609978
 30
0.0
 40
0.0025907575043598
100
AcDbArc
 50
0.0
 51
89.99644342619776
  0
LWPOLYLINE
  5
1E5B
330
1F
100
AcDbEntity
  8
SANINDUSA
100
AcDbPolyline
 90
        3
 70
   128
 43
0.0
 10
4930.174756457557
 20
2860.362868868937
 10
4930.182756354559
 20
2860.362867393721
 10
4930.18575637554
 20
2860.362866857279
  0
LWPOLYLINE
  5
1E5D
330
1F
100
AcDbEntity
  8
SANINDUSA
100
AcDbPolyline
 90
        3
 70
   128
 43
0.0
 10
4930.188346972216
 20
2860.360276335109
 10
4930.188347329844
 20
2860.352277883519
 10
4930.188347449053
 20
2860.349278249969
  0
ARC
  5
1E62
330
1F
100
AcDbEntity
  8
SANINDUSA
100
AcDbCircle
 10
4929.795743297403
 20
2860.360277830986
 30
0.0
 40
0.0025894287099371
100
AcDbArc
 50
0.0
 51
90.01463311974887
  0
LWPOLYLINE
  5
1E66
330
1F
100
AcDbEntity
  8
SANINDUSA
100
AcDbPolyline
 90
        3
 70
   128
 43
0.0
 10
4929.79833272611
 20
2860.360277944435
 10
4929.798332398284
 20
2860.352279537548
 10
4929.798332279075
 20
2860.349279889096
  0
ARC
  5
1E73
330
1F
100
AcDbEntity
  8
SANINDUSA
100
AcDbCircle
 10
4930.174755850138
 20
2860.360279356575
 30
0.0
 40
0.0025895124325276
100
AcDbArc
 50
89.98656020404645
 51
180.0
  0
LWPOLYLINE
  5
1E78
330
1F
100
AcDbEntity
  8
SANINDUSA
100
AcDbPolyline
 90
        3
 70
   128
 43
0.0
 10
4930.172166814554
 20
2860.349281662335
 10
4930.172166456927
 20
2860.357280024518
 10
4930.172166337718
 20
2860.360279613365
  0
ARC
  5
1E80
330
1F
100
AcDbEntity
  8
SANINDUSA
100
AcDbCircle
 10
4929.784741294425
 20
2860.349276751714
 30
0.0
 40
0.0025894412335229
100
AcDbArc
 50
180.0
 51
270.0146855947332
  0
LWPOLYLINE
  5
1E85
330
1F
100
AcDbEntity
  8
SANINDUSA
100
AcDbPolyline
 90
        3
 70
   128
 43
0.0
 10
4929.795741742004
 20
2860.346689352025
 10
4929.787741874803
 20
2860.346687861909
 10
4929.78474195813
 20
2860.346687310566
  0
ARC
  5
1E93
330
1F
100
AcDbEntity
  8
SANINDUSA
100
AcDbCircle
 10
4930.185757853102
 20
2860.349278560511
 30
0.0
 40
0.0025895959693955
100
AcDbArc
 50
269.9884087616084
 51
0.0
  0
LWPOLYLINE
  5
1E95
330
1F
100
AcDbEntity
  8
SANINDUSA
100
AcDbPolyline
 90
        3
 70
   128
 43
0.0
 10
4930.185757329215
 20
2860.346688964595
 10
4930.177757432211
 20
2860.346690529217
 10
4930.17475741123
 20
2860.346691125263
  0
ARC
  5
1E97
330
1F
100
AcDbEntity
  8
SANINDUSA
100
AcDbCircle
 10
4929.795741446389
 20
2860.349280184712
 30
0.0
 40
0.0025908327034749
100
AcDbArc
 50
270.0065374861471
 51
0.0
  0
ARC
  5
1EA6
330
1F
100
AcDbEntity
  8
SANINDUSA
100
AcDbCircle
 10
4930.174757592946
 20
2860.349281903659
 30
0.0
 40
0.0025907784023237
100
AcDbArc
 50
180.0
 51
269.9959813128733
  0
ARC
  5
1EA9
330
1F
100
AcDbEntity
  8
SANINDUSA
100
AcDbCircle
 10
4929.849742359273
 20
2860.360286630595
 30
0.0
 40
0.0025908661210397
100
AcDbArc
 50
90.00431034796145
 51
179.9914052549346
  0
LWPOLYLINE
  5
1EB5
330
1F
100
AcDbEntity
  8
SANINDUSA
100
AcDbPolyline
 90
        3
 70
   128
 43
0.0
 10
4929.849742164362
 20
2860.362877496709
 10
4929.857742031563
 20
2860.362879091133
 10
4929.860742246259
 20
2860.362879672278
  0
LWPOLYLINE
  5
1EB8
330
1F
100
AcDbEntity
  8
SANINDUSA
100
AcDbPolyline
 90
        3
 70
   128
 43
0.0
 10
4929.847150956739
 20
2860.349289396037
 10
4929.847151344169
 20
2860.357287534703
 10
4929.847151493181
 20
2860.360287019242
  0
ARC
  5
1EBE
330
1F
100
AcDbEntity
  8
SANINDUSA
100
AcDbCircle
 10
4930.120756360298
 20
2860.360288357609
 30
0.0
 40
0.0025906739193938
100
AcDbArc
 50
0.0
 51
90.00026925344416
  0
LWPOLYLINE
  5
1EC9
330
1F
100
AcDbEntity
  8
SANINDUSA
100
AcDbPolyline
 90
        3
 70
   128
 43
0.0
 10
4930.109756191719
 20
2860.362881087889
 10
4930.117756088723
 20
2860.362879597773
 10
4930.120756348122
 20
2860.362879031529
  0
LWPOLYLINE
  5
1ECB
330
1F
100
AcDbEntity
  8
SANINDUSA
100
AcDbPolyline
 90
        3
 70
   128
 43
0.0
 10
4930.123347034204
 20
2860.360288598765
 10
4930.123347391833
 20
2860.352290534605
 10
4930.123347540845
 20
2860.349291094769
  0
ARC
  5
1ECF
330
1F
100
AcDbEntity
  8
SANINDUSA
100
AcDbCircle
 10
4929.860743088983
 20
2860.360290439999
 30
0.0
 40
0.0025892324163286
100
AcDbArc
 50
0.0
 51
90.01864821143961
  0
LWPOLYLINE
  5
1ED3
330
1F
100
AcDbEntity
  8
SANINDUSA
100
AcDbPolyline
 90
        3
 70
   128
 43
0.0
 10
4929.863332321395
 20
2860.360290595521
 10
4929.863331919063
 20
2860.352292576064
 10
4929.863331770051
 20
2860.349293166031
  0
ARC
  5
1ED8
330
1F
100
AcDbEntity
  8
SANINDUSA
100
AcDbCircle
 10
4930.109755626075
 20
2860.360291533718
 30
0.0
 40
0.0025895542325331
100
AcDbArc
 50
89.98748469126836
 51
179.9900962725502
  0
LWPOLYLINE
  5
1EDD
330
1F
100
AcDbEntity
  8
SANINDUSA
100
AcDbPolyline
 90
        3
 70
   128
 43
0.0
 10
4930.107166608323
 20
2860.349294641246
 10
4930.107166220892
 20
2860.357292601098
 10
4930.107166071881
 20
2860.360291981329
  0
ARC
  5
1EED
330
1F
100
AcDbEntity
  8
SANINDUSA
100
AcDbCircle
 10
4929.849740214184
 20
2860.349289561705
 30
0.0
 40
0.0025892574507766
100
AcDbArc
 50
180.0
 51
270.0177643180467
  0
LWPOLYLINE
  5
1EEF
330
1F
100
AcDbEntity
  8
SANINDUSA
100
AcDbPolyline
 90
        3
 70
   128
 43
0.0
 10
4929.860741069068
 20
2860.346702658762
 10
4929.852741231669
 20
2860.346700945128
 10
4929.849741016973
 20
2860.346700304379
  0
ARC
  5
1EF0
330
1F
100
AcDbEntity
  8
SANINDUSA
100
AcDbCircle
 10
4930.120758095248
 20
2860.349291448644
 30
0.0
 40
0.0025894456214688
100
AcDbArc
 50
269.9850812641909
 51
0.0
  0
LWPOLYLINE
  5
1EF6
330
1F
100
AcDbEntity
  8
SANINDUSA
100
AcDbPolyline
 90
        3
 70
   128
 43
0.0
 10
4930.120757421006
 20
2860.346702003111
 10
4930.112757583607
 20
2860.346703612436
 10
4930.109757294406
 20
2860.346704208483
  0
ARC
  5
1EF8
330
1F
100
AcDbEntity
  8
SANINDUSA
100
AcDbCircle
 10
4929.860740803678
 20
2860.349293625163
 30
0.0
 40
0.0025909664143398
100
AcDbArc
 50
270.0058687558445
 51
359.9898451274071
  0
ARC
  5
1EF9
330
1F
100
AcDbEntity
  8
SANINDUSA
100
AcDbCircle
 10
4929.914743949892
 20
2860.36029874663
 30
0.0
 40
0.0025907157114556
100
AcDbArc
 50
89.99933590751039
 51
179.9884695481699
  0
ARC
  5
1F04
330
1F
100
AcDbEntity
  8
SANINDUSA
100
AcDbCircle
 10
4930.109757257169
 20
2860.349294857337
 30
0.0
 40
0.002590648854796
100
AcDbArc
 50
180.0
 51
270.0008235497258
  0
LWPOLYLINE
  5
1F05
330
1F
100
AcDbEntity
  8
SANINDUSA
100
AcDbPolyline
 90
        3
 70
   128
 43
0.0
 10
4929.91474397992
 20
2860.362889462341
 10
4929.922743906725
 20
2860.362890654434
 10
4929.92574461316
 20
2860.362891056766
  0
LWPOLYLINE
  5
1F08
330
1F
100
AcDbEntity
  8
SANINDUSA
100
AcDbPolyline
 90
        3
 70
   128
 43
0.0
 10
4929.912152727593
 20
2860.349302389849
 10
4929.912153085221
 20
2860.35730006658
 10
4929.912153234233
 20
2860.360299267997
  0
ARC
  5
1F09
330
1F
100
AcDbEntity
  8
SANINDUSA
100
AcDbCircle
 10
4930.055754748917
 20
2860.360299707866
 30
0.0
 40
0.0025904399435435
100
AcDbArc
 50
0.0
 51
90.0061036686632
  0
LWPOLYLINE
  5
1F14
330
1F
100
AcDbEntity
  8
SANINDUSA
100
AcDbPolyline
 90
        3
 70
   128
 43
0.0
 10
4930.04475383972
 20
2860.36289162301
 10
4930.052753796328
 20
2860.362890565027
 10
4930.055754472959
 20
2860.362890147795
  0
LWPOLYLINE
  5
1F16
330
1F
100
AcDbEntity
  8
SANINDUSA
100
AcDbPolyline
 90
        3
 70
   128
 43
0.0
 10
4930.058345188845
 20
2860.360299998154
 10
4930.058345516671
 20
2860.352302336325
 10
4930.05834563588
 20
2860.349303149809
  0
ARC
  5
1F18
330
1F
100
AcDbEntity
  8
SANINDUSA
100
AcDbCircle
 10
4929.925745491309
 20
2860.360301636394
 30
0.0
 40
0.002589420520891
100
AcDbArc
 50
0.0
 51
90.01943069836485
  0
LWPOLYLINE
  5
1F1B
330
1F
100
AcDbEntity
  8
SANINDUSA
100
AcDbPolyline
 90
        3
 70
   128
 43
0.0
 10
4929.928334911813
 20
2860.360301935305
 10
4929.928334613789
 20
2860.352304362883
 10
4929.928334494579
 20
2860.349305235971
  0
ARC
  5
1F1E
330
1F
100
AcDbEntity
  8
SANINDUSA
100
AcDbCircle
 10
4930.044753325638
 20
2860.360301868222
 30
0.0
 40
0.002589754838326
100
AcDbArc
 50
89.98862642594763
 51
179.9866475668137
  0
LWPOLYLINE
  5
1F21
330
1F
100
AcDbEntity
  8
SANINDUSA
100
AcDbPolyline
 90
        3
 70
   128
 43
0.0
 10
4930.0421639583
 20
2860.349305772413
 10
4930.042163660277
 20
2860.357303344835
 10
4930.04216357087
 20
2860.360302471747
  0
ARC
  5
1F23
330
1F
100
AcDbEntity
  8
SANINDUSA
100
AcDbCircle
 10
4929.979748455499
 20
2860.360305116469
 30
0.0
 40
0.0025903063564689
100
AcDbArc
 50
89.99291718052486
 51
179.9849973406972
  0
ARC
  5
1F2E
330
1F
100
AcDbEntity
  8
SANINDUSA
100
AcDbCircle
 10
4929.990750319647
 20
2860.360305468646
 30
0.0
 40
0.0025900138372401
100
AcDbArc
 50
0.009191563277364
 51
90.01355344831997
  0
LWPOLYLINE
  5
1F31
330
1F
100
AcDbEntity
  8
SANINDUSA
100
AcDbPolyline
 90
        3
 70
   128
 43
0.0
 10
4929.97974877571
 20
2860.362895422806
 10
4929.987748762119
 20
2860.362895497312
 10
4929.990749706973
 20
2860.36289548241
  0
LWPOLYLINE
  5
1F33
330
1F
100
AcDbEntity
  8
SANINDUSA
100
AcDbPolyline
 90
        3
 70
   128
 43
0.0
 10
4929.977158089627
 20
2860.349309378494
 10
4929.977158149231
 20
2860.357306772102
 10
4929.977158149231
 20
2860.360305794706
  0
LWPOLYLINE
  5
1F34
330
1F
100
AcDbEntity
  8
SANINDUSA
100
AcDbPolyline
 90
        3
 70
   128
 43
0.0
 10
4929.99334033345
 20
2860.360305884113
 10
4929.993340363253
 20
2860.352308475603
 10
4929.993340393055
 20
2860.349309453
  0
ARC
  5
1F37
330
1F
100
AcDbEntity
  8
SANINDUSA
100
AcDbCircle
 10
4929.914742064528
 20
2860.34930269459
 30
0.0
 40
0.0025893369522025
100
AcDbArc
 50
180.0
 51
270.0199615971943
  0
LWPOLYLINE
  5
1F39
330
1F
100
AcDbEntity
  8
SANINDUSA
100
AcDbPolyline
 90
        3
 70
   128
 43
0.0
 10
4929.925743689288
 20
2860.346715131034
 10
4929.917743792284
 20
2860.346713864435
 10
4929.914742966641
 20
2860.346713357796
  0
ARC
  5
1F3A
330
1F
100
AcDbEntity
  8
SANINDUSA
100
AcDbCircle
 10
4930.055755981372
 20
2860.349303727558
 30
0.0
 40
0.0025896545724414
100
AcDbArc
 50
269.9870671321654
 51
359.9872172356155
  0
LWPOLYLINE
  5
1F3C
330
1F
100
AcDbEntity
  8
SANINDUSA
100
AcDbPolyline
 90
        3
 70
   128
 43
0.0
 10
4930.055755396832
 20
2860.346714073052
 10
4930.047755470027
 20
2860.346715280046
 10
4930.044754703988
 20
2860.346715712179
  0
ARC
  5
1F3E
330
1F
100
AcDbEntity
  8
SANINDUSA
100
AcDbCircle
 10
4929.925743703694
 20
2860.349305922012
 30
0.0
 40
0.0025907909781001
100
AcDbArc
 50
269.9996814502992
 51
359.984828086734
  0
ARC
  5
1F3F
330
1F
100
AcDbEntity
  8
SANINDUSA
100
AcDbCircle
 10
4930.044754331399
 20
2860.34930608527
 30
0.0
 40
0.0025903731176358
100
AcDbArc
 50
180.0
 51
270.008241177297
  0
ARC
  5
1F4A
330
1F
100
AcDbEntity
  8
SANINDUSA
100
AcDbCircle
 10
4929.979747865314
 20
2860.349309719697
 30
0.0
 40
0.0025897757093103
100
AcDbArc
 50
180.0
 51
270.0175040796568
  0
ARC
  5
1F4B
330
1F
100
AcDbEntity
  8
SANINDUSA
100
AcDbCircle
 10
4929.990750187037
 20
2860.349310194908
 30
0.0
 40
0.0025902061247477
100
AcDbArc
 50
269.9913586163031
 51
359.983588879896
  0
LWPOLYLINE
  5
1F4D
330
1F
100
AcDbEntity
  8
SANINDUSA
100
AcDbPolyline
 90
        3
 70
   128
 43
0.0
 10
4929.990749796379
 20
2860.346719988812
 10
4929.982749809969
 20
2860.346719988812
 10
4929.9797486565
 20
2860.346719944109
  0
ARC
  5
202D
330
1F
100
AcDbEntity
  8
SANINDUSA
100
AcDbCircle
 10
4929.784740899019
 20
2860.295285562451
 30
0.0
 40
0.0025908786904187
100
AcDbArc
 50
90.00887233614365
 51
180.0
  0
LWPOLYLINE
  5
2038
330
1F
100
AcDbEntity
  8
SANINDUSA
100
AcDbPolyline
 90
        3
 70
   128
 43
0.0
 10
4929.784740497816
 20
2860.297876441111
 10
4929.792740290512
 20
2860.297878139843
 10
4929.795740207184
 20
2860.297878795494
  0
LWPOLYLINE
  5
203B
330
1F
100
AcDbEntity
  8
SANINDUSA
100
AcDbPolyline
 90
        3
 70
   128
 43
0.0
 10
4929.782149677624
 20
2860.284287923207
 10
4929.782149930943
 20
2860.292286389698
 10
4929.78215002035
 20
2860.295285904039
  0
ARC
  5
2046
330
1F
100
AcDbEntity
  8
SANINDUSA
100
AcDbCircle
 10
4930.18575868466
 20
2860.295287706524
 30
0.0
 40
0.0025907909588327
100
AcDbArc
 50
0.0
 51
89.99438538564072
  0
LWPOLYLINE
  5
2049
330
1F
100
AcDbEntity
  8
SANINDUSA
100
AcDbPolyline
 90
        3
 70
   128
 43
0.0
 10
4930.17475908016
 20
2860.297881030668
 10
4930.182758857955
 20
2860.297879182924
 10
4930.18575893854
 20
2860.297878497471
  0
LWPOLYLINE
  5
204B
330
1F
100
AcDbEntity
  8
SANINDUSA
100
AcDbPolyline
 90
        3
 70
   128
 43
0.0
 10
4930.188349475611
 20
2860.295287900795
 10
4930.188349773635
 20
2860.287289464105
 10
4930.188349892844
 20
2860.284289979567
  0
ARC
  5
204D
330
1F
100
AcDbEntity
  8
SANINDUSA
100
AcDbCircle
 10
4929.795741050513
 20
2860.295289534022
 30
0.0
 40
0.0025892616095351
100
AcDbArc
 50
0.0
 51
90.01866134321129
  0
LWPOLYLINE
  5
2050
330
1F
100
AcDbEntity
  8
SANINDUSA
100
AcDbPolyline
 90
        3
 70
   128
 43
0.0
 10
4929.798330312122
 20
2860.295289569725
 10
4929.798330058802
 20
2860.287291162838
 10
4929.798329969395
 20
2860.284291678299
  0
ARC
  5
2054
330
1F
100
AcDbEntity
  8
SANINDUSA
100
AcDbCircle
 10
4930.174758405917
 20
2860.295291585142
 30
0.0
 40
0.002589445613438
100
AcDbArc
 50
89.98508126419094
 51
180.0
  0
LWPOLYLINE
  5
2058
330
1F
100
AcDbEntity
  8
SANINDUSA
100
AcDbPolyline
 90
        3
 70
   128
 43
0.0
 10
4930.172169377555
 20
2860.284294062484
 10
4930.172169079531
 20
2860.29229243957
 10
4930.172168960321
 20
2860.295291894306
  0
ARC
  5
205D
330
1F
100
AcDbEntity
  8
SANINDUSA
100
AcDbCircle
 10
4929.784739014426
 20
2860.284288004316
 30
0.0
 40
0.0025893368040909
100
AcDbArc
 50
180.0
 51
270.0176563978033
  0
LWPOLYLINE
  5
205F
330
1F
100
AcDbEntity
  8
SANINDUSA
100
AcDbPolyline
 90
        3
 70
   128
 43
0.0
 10
4929.795739506829
 20
2860.281701111425
 10
4929.787739729036
 20
2860.281699353088
 10
4929.784739812363
 20
2860.281698667635
  0
ARC
  5
2065
330
1F
100
AcDbEntity
  8
SANINDUSA
100
AcDbCircle
 10
4930.18576053077
 20
2860.284290175372
 30
0.0
 40
0.0025893620805961
100
AcDbArc
 50
269.983232654492
 51
0.0
  0
LWPOLYLINE
  5
2067
330
1F
100
AcDbEntity
  8
SANINDUSA
100
AcDbPolyline
 90
        3
 70
   128
 43
0.0
 10
4930.185759773005
 20
2860.281700813402
 10
4930.177760054816
 20
2860.281702750553
 10
4930.174759914626
 20
2860.281703465809
  0
ARC
  5
2069
330
1F
100
AcDbEntity
  8
SANINDUSA
100
AcDbCircle
 10
4929.795739044759
 20
2860.284292036046
 30
0.0
 40
0.0025909246615632
100
AcDbArc
 50
270.0102182386094
 51
0.0
  0
ARC
  5
206C
330
1F
100
AcDbEntity
  8
SANINDUSA
100
AcDbCircle
 10
4930.174760210304
 20
2860.284294298553
 30
0.0
 40
0.0025908327606765
100
AcDbArc
 50
180.0
 51
269.9934611068773
  0
ARC
  5
2071
330
1F
100
AcDbEntity
  8
SANINDUSA
100
AcDbCircle
 10
4929.849739346487
 20
2860.295300657748
 30
0.0
 40
0.0025910123805477
100
AcDbArc
 50
90.00886243520426
 51
179.9914666668217
  0
LWPOLYLINE
  5
207C
330
1F
100
AcDbEntity
  8
SANINDUSA
100
AcDbPolyline
 90
        3
 70
   128
 43
0.0
 10
4929.849738945712
 20
2860.297891670097
 10
4929.857738678801
 20
2860.29789375626
 10
4929.860738908399
 20
2860.297894560923
  0
LINE
  5
207F
330
1F
100
AcDbEntity
  8
SANINDUSA
100
AcDbLine
 10
4929.847147842396
 20
2860.284303480018
 30
0.0
 11
4929.847148334134
 21
2860.295301043619
 31
0.0
  0
ARC
  5
208E
330
1F
100
AcDbEntity
  8
SANINDUSA
100
AcDbCircle
 10
4930.120759138815
 20
2860.295303089245
 30
0.0
 40
0.0025908160332174
100
AcDbArc
 50
0.0
 51
89.99580830698354
  0
LWPOLYLINE
  5
2092
330
1F
100
AcDbEntity
  8
SANINDUSA
100
AcDbPolyline
 90
        3
 70
   128
 43
0.0
 10
4930.109759201754
 20
2860.297896587481
 10
4930.117758979548
 20
2860.29789465033
 10
4930.120759328354
 20
2860.297893905272
  0
LWPOLYLINE
  5
2094
330
1F
100
AcDbEntity
  8
SANINDUSA
100
AcDbPolyline
 90
        3
 70
   128
 43
0.0
 10
4930.123349954833
 20
2860.2953033682
 10
4930.123350282658
 20
2860.287305259337
 10
4930.123350401867
 20
2860.284305923809
  0
ARC
  5
2098
330
1F
100
AcDbEntity
  8
SANINDUSA
100
AcDbCircle
 10
4929.860739905688
 20
2860.295305483264
 30
0.0
 40
0.002589077850334
100
AcDbArc
 50
0.0
 51
90.02206982002061
  0
LWPOLYLINE
  5
209C
330
1F
100
AcDbEntity
  8
SANINDUSA
100
AcDbPolyline
 90
        3
 70
   128
 43
0.0
 10
4929.863328983534
 20
2860.295305633177
 10
4929.863328566302
 20
2860.287307554115
 10
4929.86332841729
 20
2860.284308188786
  0
ARC
  5
209F
330
1F
100
AcDbEntity
  8
SANINDUSA
100
AcDbCircle
 10
4930.109758418931
 20
2860.295307250559
 30
0.0
 40
0.0025893370394595
100
AcDbArc
 50
89.98267799341709
 51
180.0
  0
LWPOLYLINE
  5
20A2
330
1F
100
AcDbEntity
  8
SANINDUSA
100
AcDbPolyline
 90
        3
 70
   128
 43
0.0
 10
4930.107169558752
 20
2860.284310274948
 10
4930.107169230927
 20
2860.292308294405
 10
4930.107169081916
 20
2860.29530760013
  0
ARC
  5
20A9
330
1F
100
AcDbEntity
  8
SANINDUSA
100
AcDbCircle
 10
4929.849736911855
 20
2860.284303591749
 30
0.0
 40
0.00258906946215
100
AcDbArc
 50
180.0
 51
270.0215959297548
  0
LWPOLYLINE
  5
20AB
330
1F
100
AcDbEntity
  8
SANINDUSA
100
AcDbPolyline
 90
        3
 70
   128
 43
0.0
 10
4929.860737775911
 20
2860.281717532505
 10
4929.852738102425
 20
2860.281715356935
 10
4929.849737887729
 20
2860.281714522471
  0
ARC
  5
20AE
330
1F
100
AcDbEntity
  8
SANINDUSA
100
AcDbCircle
 10
4930.120761106607
 20
2860.284306261412
 30
0.0
 40
0.0025892952820904
100
AcDbArc
 50
269.9817537667253
 51
0.0
  0
LWPOLYLINE
  5
20B1
330
1F
100
AcDbEntity
  8
SANINDUSA
100
AcDbPolyline
 90
        3
 70
   128
 43
0.0
 10
4930.120760282028
 20
2860.281716966261
 10
4930.112760563839
 20
2860.281718992819
 10
4930.109760215032
 20
2860.281719767679
  0
ARC
  5
20B3
330
1F
100
AcDbEntity
  8
SANINDUSA
100
AcDbCircle
 10
4929.860737292123
 20
2860.284308657671
 30
0.0
 40
0.0025911252106828
100
AcDbArc
 50
270.0106977046432
 51
359.9896318663754
  0
ARC
  5
20B6
330
1F
100
AcDbEntity
  8
SANINDUSA
100
AcDbCircle
 10
4930.109760349702
 20
2860.28431055864
 30
0.0
 40
0.0025907909647752
100
AcDbArc
 50
180.0
 51
269.9970217973973
  0
ARC
  5
20BB
330
1F
100
AcDbEntity
  8
SANINDUSA
100
AcDbCircle
 10
4929.914741210858
 20
2860.29531704485
 30
0.0
 40
0.0025910165307291
100
AcDbArc
 50
90.00401061004447
 51
179.9867615057802
  0
LWPOLYLINE
  5
20C6
330
1F
100
AcDbEntity
  8
SANINDUSA
100
AcDbPolyline
 90
        3
 70
   128
 43
0.0
 10
4929.91474102949
 20
2860.297908061374
 10
4929.922740866889
 20
2860.297909730304
 10
4929.925741960753
 20
2860.297910326351
  0
LWPOLYLINE
  5
20C9
330
1F
100
AcDbEntity
  8
SANINDUSA
100
AcDbPolyline
 90
        3
 70
   128
 43
0.0
 10
4929.912149657954
 20
2860.284320765366
 10
4929.912150045384
 20
2860.292318486799
 10
4929.912150194396
 20
2860.295317643513
  0
ARC
  5
20CA
330
1F
100
AcDbEntity
  8
SANINDUSA
100
AcDbCircle
 10
4930.055757240002
 20
2860.295318115752
 30
0.0
 40
0.0025906906821009
100
AcDbArc
 50
0.0
 51
90.00187617592592
  0
LWPOLYLINE
  5
20D6
330
1F
100
AcDbEntity
  8
SANINDUSA
100
AcDbPolyline
 90
        3
 70
   128
 43
0.0
 10
4930.044756313313
 20
2860.297910892595
 10
4930.052756180514
 20
2860.297909402479
 10
4930.055757155169
 20
2860.297908806433
  0
LWPOLYLINE
  5
20D9
330
1F
100
AcDbEntity
  8
SANINDUSA
100
AcDbPolyline
 90
        3
 70
   128
 43
0.0
 10
4930.058347930659
 20
2860.295318477978
 10
4930.058348258484
 20
2860.287320786346
 10
4930.058348377694
 20
2860.284321599831
  0
ARC
  5
20DB
330
1F
100
AcDbEntity
  8
SANINDUSA
100
AcDbCircle
 10
4929.925743019036
 20
2860.295321056375
 30
0.0
 40
0.0025892701918587
100
AcDbArc
 50
0.0
 51
90.02341780697937
  0
LWPOLYLINE
  5
20DF
330
1F
100
AcDbEntity
  8
SANINDUSA
100
AcDbPolyline
 90
        3
 70
   128
 43
0.0
 10
4929.928332289208
 20
2860.295321368803
 10
4929.928331931581
 20
2860.287323796381
 10
4929.92833181237
 20
2860.28432466947
  0
ARC
  5
20E1
330
1F
100
AcDbEntity
  8
SANINDUSA
100
AcDbCircle
 10
4930.04475563107
 20
2860.295321246397
 30
0.0
 40
0.0025896462878279
100
AcDbArc
 50
89.98490539223165
 51
179.9860824055326
  0
LWPOLYLINE
  5
20E4
330
1F
100
AcDbEntity
  8
SANINDUSA
100
AcDbPolyline
 90
        3
 70
   128
 43
0.0
 10
4930.042166402091
 20
2860.284325116504
 10
4930.042166104067
 20
2860.292322718729
 10
4930.042165984858
 20
2860.295321875442
  0
ARC
  5
20EC
330
1F
100
AcDbEntity
  8
SANINDUSA
100
AcDbCircle
 10
4929.979748171975
 20
2860.295326144758
 30
0.0
 40
0.0025904400989014
100
AcDbArc
 50
89.99323823151653
 51
179.9823698396932
  0
LWPOLYLINE
  5
20F7
330
1F
100
AcDbEntity
  8
SANINDUSA
100
AcDbPolyline
 90
        3
 70
   128
 43
0.0
 10
4929.979748477687
 20
2860.297916584839
 10
4929.987748464096
 20
2860.297916644443
 10
4929.990750004996
 20
2860.297916614641
  0
ARC
  5
20F9
330
1F
100
AcDbEntity
  8
SANINDUSA
100
AcDbCircle
 10
4929.990750715384
 20
2860.295326609215
 30
0.0
 40
0.0025900055229515
100
AcDbArc
 50
0.0
 51
90.01571508403344
  0
ARC
  5
20FC
330
1F
100
AcDbEntity
  8
SANINDUSA
100
AcDbCircle
 10
4929.914738735962
 20
2860.284321004785
 30
0.0
 40
0.0025890780184642
100
AcDbArc
 50
180.0
 51
270.0256936163047
  0
LWPOLYLINE
  5
20FE
330
1F
100
AcDbEntity
  8
SANINDUSA
100
AcDbPolyline
 90
        3
 70
   128
 43
0.0
 10
4929.977157672394
 20
2860.284330540527
 10
4929.977157731999
 20
2860.292327934136
 10
4929.977157731999
 20
2860.295326941837
  0
LWPOLYLINE
  5
20FF
330
1F
100
AcDbEntity
  8
SANINDUSA
100
AcDbPolyline
 90
        3
 70
   128
 43
0.0
 10
4929.993340720881
 20
2860.29532697164
 10
4929.993340810288
 20
2860.287329578032
 10
4929.99334084009
 20
2860.284330540527
  0
ARC
  5
2101
330
1F
100
AcDbEntity
  8
SANINDUSA
100
AcDbCircle
 10
4929.784739011989
 20
2860.230298836344
 30
0.0
 40
0.0025909288282859
100
AcDbArc
 50
90.00998056395022
 51
179.9900189410028
  0
LWPOLYLINE
  5
210D
330
1F
100
AcDbEntity
  8
SANINDUSA
100
AcDbPolyline
 90
        3
 70
   128
 43
0.0
 10
4929.925740917671
 20
2860.281734400619
 10
4929.917741110076
 20
2860.281732642283
 10
4929.914739897002
 20
2860.281731927027
  0
LWPOLYLINE
  5
210E
330
1F
100
AcDbEntity
  8
SANINDUSA
100
AcDbPolyline
 90
        3
 70
   128
 43
0.0
 10
4929.784738560666
 20
2860.232889765133
 10
4929.792738278855
 20
2860.232891732086
 10
4929.795738314737
 20
2860.232892477144
  0
LINE
  5
2111
330
1F
100
AcDbEntity
  8
SANINDUSA
100
AcDbLine
 10
4929.782147755373
 20
2860.219301992287
 30
0.0
 11
4929.782148083199
 21
2860.230299287666
 31
0.0
  0
ARC
  5
2112
330
1F
100
AcDbEntity
  8
SANINDUSA
100
AcDbCircle
 10
4930.055758906948
 20
2860.284322112966
 30
0.0
 40
0.0025894707968669
100
AcDbArc
 50
269.9830001908493
 51
359.9886460975508
  0
LWPOLYLINE
  5
2114
330
1F
100
AcDbEntity
  8
SANINDUSA
100
AcDbPolyline
 90
        3
 70
   128
 43
0.0
 10
4930.055758138646
 20
2860.281732642283
 10
4930.047758301247
 20
2860.28173428141
 10
4930.044757237185
 20
2860.281734877457
  0
ARC
  5
2118
330
1F
100
AcDbEntity
  8
SANINDUSA
100
AcDbCircle
 10
4929.925740795902
 20
2860.284325417194
 30
0.0
 40
0.0025910165772166
100
AcDbArc
 50
270.0026927428842
 51
359.9834654047485
  0
ARC
  5
2119
330
1F
100
AcDbEntity
  8
SANINDUSA
100
AcDbCircle
 10
4930.185760961252
 20
2860.230300863356
 30
0.0
 40
0.0025909581714339
100
AcDbArc
 50
0.0
 51
89.99068837480102
  0
LWPOLYLINE
  5
2124
330
1F
100
AcDbEntity
  8
SANINDUSA
100
AcDbPolyline
 90
        3
 70
   128
 43
0.0
 10
4930.174761464346
 20
2860.23289486133
 10
4930.182761122932
 20
2860.232892655958
 10
4930.18576138233
 20
2860.232891821493
  0
ARC
  5
2126
330
1F
100
AcDbEntity
  8
SANINDUSA
100
AcDbCircle
 10
4930.04475702591
 20
2860.284325501296
 30
0.0
 40
0.002590623848042
100
AcDbArc
 50
180.0085107434034
 51
270.004672670238
  0
LWPOLYLINE
  5
2127
330
1F
100
AcDbEntity
  8
SANINDUSA
100
AcDbPolyline
 90
        3
 70
   128
 43
0.0
 10
4930.188351919401
 20
2860.230301195015
 10
4930.188352217425
 20
2860.222302907337
 10
4930.188352336634
 20
2860.219303720822
  0
ARC
  5
2129
330
1F
100
AcDbEntity
  8
SANINDUSA
100
AcDbCircle
 10
4929.795739334584
 20
2860.230303332648
 30
0.0
 40
0.0025891446970641
100
AcDbArc
 50
0.0
 51
90.02256841052307
  0
LWPOLYLINE
  5
212C
330
1F
100
AcDbEntity
  8
SANINDUSA
100
AcDbPolyline
 90
        3
 70
   128
 43
0.0
 10
4929.798328479279
 20
2860.230303430189
 10
4929.798328300465
 20
2860.222305231918
 10
4929.79832822596
 20
2860.219306254019
  0
ARC
  5
2131
330
1F
100
AcDbEntity
  8
SANINDUSA
100
AcDbCircle
 10
4930.174760572949
 20
2860.230305633024
 30
0.0
 40
0.0025892284592807
100
AcDbArc
 50
89.98027472261144
 51
180.0
  0
LWPOLYLINE
  5
2134
330
1F
100
AcDbEntity
  8
SANINDUSA
100
AcDbPolyline
 90
        3
 70
   128
 43
0.0
 10
4930.17217176174
 20
2860.219308638205
 10
4930.172171463716
 20
2860.227306836475
 10
4930.172171344508
 20
2860.230305933584
  0
ARC
  5
2136
330
1F
100
AcDbEntity
  8
SANINDUSA
100
AcDbCircle
 10
4929.784736833269
 20
2860.219302112408
 30
0.0
 40
0.0025890778972897
100
AcDbArc
 50
180.0
 51
270.0240472983447
  0
LWPOLYLINE
  5
2138
330
1F
100
AcDbEntity
  8
SANINDUSA
100
AcDbPolyline
 90
        3
 70
   128
 43
0.0
 10
4929.795737793196
 20
2860.216715836157
 10
4929.78773810481
 20
2860.216713809599
 10
4929.784737919916
 20
2860.216713034739
  0
ARC
  5
213B
330
1F
100
AcDbEntity
  8
SANINDUSA
100
AcDbCircle
 10
4929.979747485761
 20
2860.284330919379
 30
0.0
 40
0.0025898133942073
100
AcDbArc
 50
180.0083815361443
 51
270.0199669124352
  0
ARC
  5
213C
330
1F
100
AcDbEntity
  8
SANINDUSA
100
AcDbCircle
 10
4929.990750642391
 20
2860.284331333719
 30
0.0
 40
0.0025901978209968
100
AcDbArc
 50
269.9891968242929
 51
359.9824544145566
  0
LWPOLYLINE
  5
213E
330
1F
100
AcDbEntity
  8
SANINDUSA
100
AcDbPolyline
 90
        3
 70
   128
 43
0.0
 10
4929.990750154008
 20
2860.281741135944
 10
4929.982750137795
 20
2860.281741165747
 10
4929.97974838828
 20
2860.281741106142
  0
ARC
  5
2141
330
1F
100
AcDbEntity
  8
SANINDUSA
100
AcDbCircle
 10
4930.185763191694
 20
2860.219303997451
 30
0.0
 40
0.0025891449550932
100
AcDbArc
 50
269.978426269202
 51
0.0
  0
LWPOLYLINE
  5
2143
330
1F
100
AcDbEntity
  8
SANINDUSA
100
AcDbPolyline
 90
        3
 70
   128
 43
0.0
 10
4930.185762216796
 20
2860.216714852681
 10
4930.177762617816
 20
2860.216717177261
 10
4930.174762298811
 20
2860.216718041529
  0
ARC
  5
2145
330
1F
100
AcDbEntity
  8
SANINDUSA
100
AcDbCircle
 10
4929.79573727209
 20
2860.219306790029
 30
0.0
 40
0.0025909539245024
100
AcDbArc
 50
270.0115235993431
 51
359.9881463085357
  0
ARC
  5
214A
330
1F
100
AcDbEntity
  8
SANINDUSA
100
AcDbCircle
 10
4930.174762586137
 20
2860.219308865919
 30
0.0
 40
0.0025908244062115
100
AcDbArc
 50
180.0
 51
269.993645837566
  0
ARC
  5
2150
330
1F
100
AcDbEntity
  8
SANINDUSA
100
AcDbCircle
 10
4929.849736782966
 20
2860.230315830058
 30
0.0
 40
0.0025910416758369
100
AcDbArc
 50
90.01313443012534
 51
179.9895015647932
  0
LWPOLYLINE
  5
215B
330
1F
100
AcDbEntity
  8
SANINDUSA
100
AcDbPolyline
 90
        3
 70
   128
 43
0.0
 10
4929.849736188997
 20
2860.232906871666
 10
4929.857735758174
 20
2860.232909285654
 10
4929.860735898365
 20
2860.232910209526
  0
LWPOLYLINE
  5
215F
330
1F
100
AcDbEntity
  8
SANINDUSA
100
AcDbPolyline
 90
        3
 70
   128
 43
0.0
 10
4929.847145428408
 20
2860.219319188227
 10
4929.847145651926
 20
2860.227317237486
 10
4929.847145741333
 20
2860.230316304793
  0
ARC
  5
2162
330
1F
100
AcDbEntity
  8
SANINDUSA
100
AcDbCircle
 10
4930.120761549141
 20
2860.230319151428
 30
0.0
 40
0.0025908495010115
100
AcDbArc
 50
0.0
 51
89.99309112440069
  0
LWPOLYLINE
  5
216E
330
1F
100
AcDbEntity
  8
SANINDUSA
100
AcDbPolyline
 90
        3
 70
   128
 43
0.0
 10
4930.109761794557
 20
2860.232913070549
 10
4930.117761423338
 20
2860.232910835375
 10
4930.120761861552
 20
2860.23291000091
  0
LINE
  5
2170
330
1F
100
AcDbEntity
  8
SANINDUSA
100
AcDbLine
 10
4930.123352398624
 20
2860.230319463838
 30
0.0
 11
4930.123352726448
 21
2860.219322466482
 31
0.0
  0
ARC
  5
2172
330
1F
100
AcDbEntity
  8
SANINDUSA
100
AcDbCircle
 10
4929.860737062728
 20
2860.230321299012
 30
0.0
 40
0.0025889107756128
100
AcDbArc
 50
0.0
 51
90.02576881133879
  0
LWPOLYLINE
  5
2174
330
1F
100
AcDbEntity
  8
SANINDUSA
100
AcDbPolyline
 90
        3
 70
   128
 43
0.0
 10
4929.863325973499
 20
2860.230321430792
 10
4929.863325675476
 20
2860.222323441137
 10
4929.863325571169
 20
2860.219324344028
  0
ARC
  5
2179
330
1F
100
AcDbEntity
  8
SANINDUSA
100
AcDbCircle
 10
4930.109760843607
 20
2860.2303238422
 30
0.0
 40
0.0025892285235674
100
AcDbArc
 50
89.97895690748022
 51
179.991369663663
  0
LINE
  5
217C
330
1F
100
AcDbEntity
  8
SANINDUSA
100
AcDbLine
 10
4930.107171942939
 20
2860.219327294458
 30
0.0
 11
4930.107171615112
 21
2860.23032423221
 31
0.0
  0
ARC
  5
2180
330
1F
100
AcDbEntity
  8
SANINDUSA
100
AcDbCircle
 10
4929.849734364226
 20
2860.219319255639
 30
0.0
 40
0.0025889358178732
100
AcDbArc
 50
180.0
 51
270.0258738134206
  0
LWPOLYLINE
  5
2182
330
1F
100
AcDbEntity
  8
SANINDUSA
100
AcDbPolyline
 90
        3
 70
   128
 43
0.0
 10
4929.860735093702
 20
2860.21673371755
 10
4929.852735584129
 20
2860.216731243958
 10
4929.849735533346
 20
2860.216730320086
  0
ARC
  5
2187
330
1F
100
AcDbEntity
  8
SANINDUSA
100
AcDbCircle
 10
4930.120763606516
 20
2860.219322777681
 30
0.0
 40
0.0025891199522366
100
AcDbArc
 50
269.9765536366184
 51
0.0
  0
LWPOLYLINE
  5
2189
330
1F
100
AcDbEntity
  8
SANINDUSA
100
AcDbPolyline
 90
        3
 70
   128
 43
0.0
 10
4930.120762547005
 20
2860.216733657946
 10
4930.112762977827
 20
2860.216735952724
 10
4930.109762480009
 20
2860.216736816992
  0
ARC
  5
218B
330
1F
100
AcDbEntity
  8
SANINDUSA
100
AcDbCircle
 10
4929.860734483592
 20
2860.219324805097
 30
0.0
 40
0.0025910876182885
100
AcDbArc
 50
270.0134911766171
 51
359.9898045596016
  0
ARC
  5
218E
330
1F
100
AcDbEntity
  8
SANINDUSA
100
AcDbCircle
 10
4930.109762792431
 20
2860.219327666492
 30
0.0
 40
0.0025908495186446
100
AcDbArc
 50
180.0082273941509
 51
269.9930909159598
  0
ARC
  5
21A4
330
1F
100
AcDbEntity
  8
SANINDUSA
100
AcDbCircle
 10
4929.91473813895
 20
2860.230335765363
 30
0.0
 40
0.0025911334799202
100
AcDbArc
 50
90.00659631857145
 51
179.9861533535912
  0
LWPOLYLINE
  5
21AF
330
1F
100
AcDbEntity
  8
SANINDUSA
100
AcDbPolyline
 90
        3
 70
   128
 43
0.0
 10
4929.914737840642
 20
2860.232926898826
 10
4929.922737529029
 20
2860.232929074396
 10
4929.925739069927
 20
2860.232929849257
  0
LWPOLYLINE
  5
21B2
330
1F
100
AcDbEntity
  8
SANINDUSA
100
AcDbPolyline
 90
        3
 70
   128
 43
0.0
 10
4929.912146469106
 20
2860.219339662422
 10
4929.912146856535
 20
2860.227337324251
 10
4929.912147005547
 20
2860.230336391558
  0
ARC
  5
21B3
330
1F
100
AcDbEntity
  8
SANINDUSA
100
AcDbCircle
 10
4930.055759739754
 20
2860.23033671114
 30
0.0
 40
0.0025907241283543
100
AcDbArc
 50
0.0
 51
89.99981829170508
  0
LWPOLYLINE
  5
21BE
330
1F
100
AcDbEntity
  8
SANINDUSA
100
AcDbPolyline
 90
        3
 70
   128
 43
0.0
 10
4930.044758786905
 20
2860.232929998268
 10
4930.052758564699
 20
2860.232928150524
 10
4930.055759747971
 20
2860.232927435268
  0
LINE
  5
21C0
330
1F
100
AcDbEntity
  8
SANINDUSA
100
AcDbLine
 10
4930.058350463855
 20
2860.230337077011
 30
0.0
 11
4930.058350791682
 21
2860.219340347875
 31
0.0
  0
ARC
  5
21C4
330
1F
100
AcDbEntity
  8
SANINDUSA
100
AcDbCircle
 10
4929.925740375138
 20
2860.230340796526
 30
0.0
 40
0.0025890530590724
100
AcDbArc
 50
0.0
 51
90.02888432469314
  0
LWPOLYLINE
  5
21C6
330
1F
100
AcDbEntity
  8
SANINDUSA
100
AcDbPolyline
 90
        3
 70
   128
 43
0.0
 10
4929.928329428185
 20
2860.23034104072
 10
4929.928329100359
 20
2860.222343468298
 10
4929.928328981151
 20
2860.219344460596
  0
ARC
  5
21C8
330
1F
100
AcDbEntity
  8
SANINDUSA
100
AcDbCircle
 10
4930.04475791146
 20
2860.230340485737
 30
0.0
 40
0.002589512679401
100
AcDbArc
 50
89.98062980159188
 51
179.987060983161
  0
LWPOLYLINE
  5
21CB
330
1F
100
AcDbEntity
  8
SANINDUSA
100
AcDbPolyline
 90
        3
 70
   128
 43
0.0
 10
4930.042168756474
 20
2860.219344371189
 10
4930.042168518055
 20
2860.227341973413
 10
4930.042168398846
 20
2860.230341070522
  0
ARC
  5
21CF
330
1F
100
AcDbEntity
  8
SANINDUSA
100
AcDbCircle
 10
4929.784736839705
 20
2860.165316567798
 30
0.0
 40
0.0025912003668911
100
AcDbArc
 50
90.01071114907665
 51
179.9866523870077
  0
LWPOLYLINE
  5
21DA
330
1F
100
AcDbEntity
  8
SANINDUSA
100
AcDbPolyline
 90
        3
 70
   128
 43
0.0
 10
4929.784736355294
 20
2860.16790776812
 10
4929.792735939372
 20
2860.167910182108
 10
4929.79573669051
 20
2860.167911046375
  0
LWPOLYLINE
  5
21DD
330
1F
100
AcDbEntity
  8
SANINDUSA
100
AcDbPolyline
 90
        3
 70
   128
 43
0.0
 10
4929.782145073165
 20
2860.154320382704
 10
4929.782145490396
 20
2860.162318253149
 10
4929.782145639409
 20
2860.165317171444
  0
ARC
  5
21DF
330
1F
100
AcDbEntity
  8
SANINDUSA
100
AcDbCircle
 10
4930.185763490826
 20
2860.165317104378
 30
0.0
 40
0.0025909915971548
100
AcDbArc
 50
0.0
 51
89.99126742343628
  0
LWPOLYLINE
  5
21EA
330
1F
100
AcDbEntity
  8
SANINDUSA
100
AcDbPolyline
 90
        3
 70
   128
 43
0.0
 10
4930.174763788928
 20
2860.167911612619
 10
4930.182763268698
 20
2860.16790904962
 10
4930.185763885726
 20
2860.167908095946
  0
LWPOLYLINE
  5
21EC
330
1F
100
AcDbEntity
  8
SANINDUSA
100
AcDbPolyline
 90
        3
 70
   128
 43
0.0
 10
4930.188354482401
 20
2860.165317439665
 10
4930.18835472082
 20
2860.157319420208
 10
4930.188354840029
 20
2860.154320352902
  0
ARC
  5
21F0
330
1F
100
AcDbEntity
  8
SANINDUSA
100
AcDbCircle
 10
4929.795737975063
 20
2860.165322077288
 30
0.0
 40
0.0025889694058116
100
AcDbArc
 50
0.0
 51
90.02842809976272
  0
LINE
  5
21F2
330
1F
100
AcDbEntity
  8
SANINDUSA
100
AcDbLine
 10
4929.798326944459
 20
2860.165322297444
 30
0.0
 11
4929.798326616634
 21
2860.154325747122
 31
0.0
  0
ARC
  5
21F5
330
1F
100
AcDbEntity
  8
SANINDUSA
100
AcDbCircle
 10
4929.914735380108
 20
2860.219339913539
 30
0.0
 40
0.0025889110139414
100
AcDbArc
 50
180.0
 51
270.0307104229495
  0
LWPOLYLINE
  5
21F7
330
1F
100
AcDbEntity
  8
SANINDUSA
100
AcDbPolyline
 90
        3
 70
   128
 43
0.0
 10
4929.925738056649
 20
2860.216754072537
 10
4929.917738398064
 20
2860.216751867165
 10
4929.914736767758
 20
2860.216751002898
  0
ARC
  5
21F8
330
1F
100
AcDbEntity
  8
SANINDUSA
100
AcDbCircle
 10
4930.055761387683
 20
2860.219340883623
 30
0.0
 40
0.0025894040540786
100
AcDbArc
 50
269.9795445543317
 51
359.9881455008276
  0
LWPOLYLINE
  5
21FA
330
1F
100
AcDbEntity
  8
SANINDUSA
100
AcDbPolyline
 90
        3
 70
   128
 43
0.0
 10
4930.055760463226
 20
2860.216751479735
 10
4930.047760745037
 20
2860.216753416885
 10
4930.044759531964
 20
2860.216754102339
  0
ARC
  5
21FD
330
1F
100
AcDbEntity
  8
SANINDUSA
100
AcDbCircle
 10
4930.174762687671
 20
2860.165322534653
 30
0.0
 40
0.002589078201131
100
AcDbArc
 50
89.97562940989935
 51
180.0
  0
LWPOLYLINE
  5
2200
330
1F
100
AcDbEntity
  8
SANINDUSA
100
AcDbPolyline
 90
        3
 70
   128
 43
0.0
 10
4930.172173847903
 20
2860.154325687517
 10
4930.172173669088
 20
2860.162323647369
 10
4930.172173609484
 20
2860.165322804083
  0
LWPOLYLINE
  5
2201
330
1F
100
AcDbEntity
  8
SANINDUSA
100
AcDbPolyline
 90
        3
 70
   128
 43
0.0
 10
4929.979748298872
 20
2860.232937806477
 10
4929.987748315085
 20
2860.232937806477
 10
4929.990750541437
 20
2860.23293771707
  0
ARC
  5
220C
330
1F
100
AcDbEntity
  8
SANINDUSA
100
AcDbCircle
 10
4929.990751309978
 20
2860.230347561187
 30
0.0
 40
0.0025901559961431
100
AcDbArc
 50
0.0093674873453472
 51
90.01700053869361
  0
ARC
  5
220E
330
1F
100
AcDbEntity
  8
SANINDUSA
100
AcDbCircle
 10
4929.979747995669
 20
2860.230347274452
 30
0.0
 40
0.0025905320425607
100
AcDbArc
 50
89.99329393732841
 51
179.9803371245906
  0
LWPOLYLINE
  5
2210
330
1F
100
AcDbEntity
  8
SANINDUSA
100
AcDbPolyline
 90
        3
 70
   128
 43
0.0
 10
4929.993341465939
 20
2860.230347984661
 10
4929.993341585149
 20
2860.222350591053
 10
4929.993341614951
 20
2860.219351553549
  0
LINE
  5
2213
330
1F
100
AcDbEntity
  8
SANINDUSA
100
AcDbLine
 10
4929.977157463778
 20
2860.219351762165
 30
0.0
 11
4929.977157463778
 21
2860.230348163475
 31
0.0
  0
ARC
  5
2214
330
1F
100
AcDbEntity
  8
SANINDUSA
100
AcDbCircle
 10
4929.9257377809
 20
2860.2193452729
 30
0.0
 40
0.0025912003782104
100
AcDbArc
 50
270.0060972591077
 51
359.9820385750852
  0
ARC
  5
2215
330
1F
100
AcDbEntity
  8
SANINDUSA
100
AcDbCircle
 10
4930.0447594388
 20
2860.219344784696
 30
0.0
 40
0.002590682359125
100
AcDbArc
 50
180.0091451591378
 51
270.002060437621
  0
ARC
  5
2217
330
1F
100
AcDbEntity
  8
SANINDUSA
100
AcDbCircle
 10
4929.78473385877
 20
2860.154320597841
 30
0.0
 40
0.0025887856149406
100
AcDbArc
 50
180.0
 51
270.0301892165851
  0
LWPOLYLINE
  5
2219
330
1F
100
AcDbEntity
  8
SANINDUSA
100
AcDbPolyline
 90
        3
 70
   128
 43
0.0
 10
4929.79573591565
 20
2860.151735269655
 10
4929.787736376274
 20
2860.151732796063
 10
4929.784735222805
 20
2860.151731812586
  0
ARC
  5
221C
330
1F
100
AcDbEntity
  8
SANINDUSA
100
AcDbCircle
 10
4930.185765678288
 20
2860.154320795326
 30
0.0
 40
0.0025891617788993
100
AcDbArc
 50
269.9761602045177
 51
359.9902081792289
  0
LWPOLYLINE
  5
221E
330
1F
100
AcDbEntity
  8
SANINDUSA
100
AcDbPolyline
 90
        3
 70
   128
 43
0.0
 10
4930.185764600981
 20
2860.151731633772
 10
4930.177765121211
 20
2860.151734196771
 10
4930.174764325369
 20
2860.151735120643
  0
ARC
  5
2222
330
1F
100
AcDbEntity
  8
SANINDUSA
100
AcDbCircle
 10
4929.795735437227
 20
2860.154326449112
 30
0.0
 40
0.0025911795013892
100
AcDbArc
 50
270.0105787891461
 51
359.9844774371297
  0
ARC
  5
2225
330
1F
100
AcDbEntity
  8
SANINDUSA
100
AcDbCircle
 10
4930.174764797719
 20
2860.154326070444
 30
0.0
 40
0.0025909498441766
100
AcDbArc
 50
180.0084679869782
 51
269.9895545608785
  0
ARC
  5
2229
330
1F
100
AcDbEntity
  8
SANINDUSA
100
AcDbCircle
 10
4929.99075139215
 20
2860.219352431461
 30
0.0
 40
0.0025902229501228
100
AcDbArc
 50
269.9877745282492
 51
359.9805805574483
  0
LWPOLYLINE
  5
222B
330
1F
100
AcDbEntity
  8
SANINDUSA
100
AcDbPolyline
 90
        3
 70
   128
 43
0.0
 10
4929.990750839461
 20
2860.216762208571
 10
4929.98275085305
 20
2860.216762357582
 10
4929.979748358476
 20
2860.21676232778
  0
ARC
  5
222D
330
1F
100
AcDbEntity
  8
SANINDUSA
100
AcDbCircle
 10
4929.979747377505
 20
2860.219352241365
 30
0.0
 40
0.0025899137706177
100
AcDbArc
 50
180.0106020824085
 51
270.0217017134791
  0
ARC
  5
2232
330
1F
100
AcDbEntity
  8
SANINDUSA
100
AcDbCircle
 10
4929.849735671704
 20
2860.165334080051
 30
0.0
 40
0.00259082450039
100
AcDbArc
 50
90.01558220300113
 51
179.9877138198528
  0
LWPOLYLINE
  5
223D
330
1F
100
AcDbEntity
  8
SANINDUSA
100
AcDbPolyline
 90
        3
 70
   128
 43
0.0
 10
4929.849734967102
 20
2860.167924904455
 10
4929.857734446873
 20
2860.167927229036
 10
4929.860734229435
 20
2860.167928123106
  0
LWPOLYLINE
  5
2240
330
1F
100
AcDbEntity
  8
SANINDUSA
100
AcDbPolyline
 90
        3
 70
   128
 43
0.0
 10
4929.847145011176
 20
2860.154337846865
 10
4929.847144877065
 20
2860.162335627903
 10
4929.847144847263
 20
2860.165334635605
  0
ARC
  5
2243
330
1F
100
AcDbEntity
  8
SANINDUSA
100
AcDbCircle
 10
4930.120763176251
 20
2860.165337172212
 30
0.0
 40
0.0025908913269517
100
AcDbArc
 50
0.0
 51
89.99018926321934
  0
ARC
  5
224E
330
1F
100
AcDbEntity
  8
SANINDUSA
100
AcDbCircle
 10
4929.860735531519
 20
2860.165339246074
 30
0.0
 40
0.0025888773594068
100
AcDbArc
 50
0.0
 51
90.02881710252031
  0
LWPOLYLINE
  5
2250
330
1F
100
AcDbEntity
  8
SANINDUSA
100
AcDbPolyline
 90
        3
 70
   128
 43
0.0
 10
4930.109763523091
 20
2860.167931371559
 10
4930.117763032664
 20
2860.167928957571
 10
4930.120763619889
 20
2860.167928063501
  0
LWPOLYLINE
  5
2252
330
1F
100
AcDbEntity
  8
SANINDUSA
100
AcDbPolyline
 90
        3
 70
   128
 43
0.0
 10
4930.123354067553
 20
2860.16533752643
 10
4930.123354186762
 20
2860.157339685788
 10
4930.123354216565
 20
2860.15434023105
  0
LWPOLYLINE
  5
2254
330
1F
100
AcDbEntity
  8
SANINDUSA
100
AcDbPolyline
 90
        3
 70
   128
 43
0.0
 10
4929.863324408877
 20
2860.165339284767
 10
4929.863324423779
 20
2860.157341444124
 10
4929.86332443868
 20
2860.154342198004
  0
ARC
  5
2257
330
1F
100
AcDbEntity
  8
SANINDUSA
100
AcDbCircle
 10
4930.109762499495
 20
2860.165342126479
 30
0.0
 40
0.0025892452819863
100
AcDbArc
 50
89.9773495158956
 51
179.991657754952
  0
LWPOLYLINE
  5
225A
330
1F
100
AcDbEntity
  8
SANINDUSA
100
AcDbPolyline
 90
        3
 70
   128
 43
0.0
 10
4930.107173462857
 20
2860.154345088829
 10
4930.107173313845
 20
2860.162342929472
 10
4930.10717325424
 20
2860.165342503418
  0
ARC
  5
225C
330
1F
100
AcDbEntity
  8
SANINDUSA
100
AcDbCircle
 10
4929.84973407233
 20
2860.154337830966
 30
0.0
 40
0.0025890611540742
100
AcDbArc
 50
180.0
 51
270.0273857912667
  0
LWPOLYLINE
  5
225E
330
1F
100
AcDbEntity
  8
SANINDUSA
100
AcDbPolyline
 90
        3
 70
   128
 43
0.0
 10
4929.860734378446
 20
2860.151751780142
 10
4929.852734913577
 20
2860.151749544968
 10
4929.849735309828
 20
2860.151748770107
  0
ARC
  5
2263
330
1F
100
AcDbEntity
  8
SANINDUSA
100
AcDbCircle
 10
4930.120764929516
 20
2860.15434050075
 30
0.0
 40
0.0025892870621689
100
AcDbArc
 50
269.9769557190235
 51
0.0
  0
ARC
  5
2265
330
1F
100
AcDbEntity
  8
SANINDUSA
100
AcDbCircle
 10
4929.860733593301
 20
2860.154342625438
 30
0.0
 40
0.0025908454149284
100
AcDbArc
 50
270.0173632778656
 51
359.9905474166863
  0
LWPOLYLINE
  5
2268
330
1F
100
AcDbEntity
  8
SANINDUSA
100
AcDbPolyline
 90
        3
 70
   128
 43
0.0
 10
4930.120763888109
 20
2860.151751213898
 10
4930.112764378537
 20
2860.151753568281
 10
4930.109763850916
 20
2860.151754462351
  0
ARC
  5
2271
330
1F
100
AcDbEntity
  8
SANINDUSA
100
AcDbCircle
 10
4930.109764395966
 20
2860.154345395421
 30
0.0
 40
0.0025909331272865
100
AcDbArc
 50
180.0
 51
269.9879468046037
  0
ARC
  5
2286
330
1F
100
AcDbEntity
  8
SANINDUSA
100
AcDbCircle
 10
4929.914735483261
 20
2860.165354963752
 30
0.0
 40
0.0025913090177626
100
AcDbArc
 50
90.01113595149865
 51
179.9855685728175
  0
LWPOLYLINE
  5
2291
330
1F
100
AcDbEntity
  8
SANINDUSA
100
AcDbPolyline
 90
        3
 70
   128
 43
0.0
 10
4929.914734979618
 20
2860.16794627272
 10
4929.922734518994
 20
2860.16794883572
 10
4929.925736417521
 20
2860.167949759592
  0
LWPOLYLINE
  5
2294
330
1F
100
AcDbEntity
  8
SANINDUSA
100
AcDbPolyline
 90
        3
 70
   128
 43
0.0
 10
4929.912143786896
 20
2860.154358380665
 10
4929.912144084919
 20
2860.162356072296
 10
4929.912144174327
 20
2860.16535561644
  0
ARC
  5
2295
330
1F
100
AcDbEntity
  8
SANINDUSA
100
AcDbCircle
 10
4930.055761354909
 20
2860.165356299483
 30
0.0
 40
0.0025908077052626
100
AcDbArc
 50
0.0
 51
89.99731085272012
  0
LWPOLYLINE
  5
22A0
330
1F
100
AcDbEntity
  8
SANINDUSA
100
AcDbPolyline
 90
        3
 70
   128
 43
0.0
 10
4930.04476051544
 20
2860.167949938406
 10
4930.052760203827
 20
2860.167947911848
 10
4930.055761476506
 20
2860.167947107186
  0
LINE
  5
22A2
330
1F
100
AcDbEntity
  8
SANINDUSA
100
AcDbLine
 10
4930.058352162589
 20
2860.165356659521
 30
0.0
 11
4930.058352490414
 21
2860.154359542955
 31
0.0
  0
ARC
  5
22A8
330
1F
100
AcDbEntity
  8
SANINDUSA
100
AcDbCircle
 10
4929.925737828789
 20
2860.165360723564
 30
0.0
 40
0.0025890364129887
100
AcDbArc
 50
0.0
 51
90.0312315772174
  0
ARC
  5
22AA
330
1F
100
AcDbEntity
  8
SANINDUSA
100
AcDbCircle
 10
4930.044759513627
 20
2860.165360492684
 30
0.0
 40
0.0025894459157266
100
AcDbArc
 50
89.97783320287963
 51
179.9872200756217
  0
LWPOLYLINE
  5
22AC
330
1F
100
AcDbEntity
  8
SANINDUSA
100
AcDbPolyline
 90
        3
 70
   128
 43
0.0
 10
4929.928326865185
 20
2860.16536101066
 10
4929.928326567162
 20
2860.157363438238
 10
4929.928326447953
 20
2860.154363894094
  0
LINE
  5
22AF
330
1F
100
AcDbEntity
  8
SANINDUSA
100
AcDbLine
 10
4930.042170395601
 20
2860.15436422192
 30
0.0
 11
4930.042170067776
 21
2860.165361070265
 31
0.0
  0
ARC
  5
22B4
330
1F
100
AcDbEntity
  8
SANINDUSA
100
AcDbCircle
 10
4929.914732706213
 20
2860.154358520867
 30
0.0
 40
0.0025889193201706
100
AcDbArc
 50
180.0
 51
270.0311858765577
  0
LWPOLYLINE
  5
22B6
330
1F
100
AcDbEntity
  8
SANINDUSA
100
AcDbPolyline
 90
        3
 70
   128
 43
0.0
 10
4929.925735493649
 20
2860.151773178209
 10
4929.917735984076
 20
2860.151770585407
 10
4929.914734115351
 20
2860.151769601931
  0
ARC
  5
22B7
330
1F
100
AcDbEntity
  8
SANINDUSA
100
AcDbCircle
 10
4930.055763203412
 20
2860.154359931857
 30
0.0
 40
0.0025892870311972
100
AcDbArc
 50
269.9782736383844
 51
359.9913936343584
  0
LWPOLYLINE
  5
22BB
330
1F
100
AcDbEntity
  8
SANINDUSA
100
AcDbPolyline
 90
        3
 70
   128
 43
0.0
 10
4930.055762221564
 20
2860.151770645012
 10
4930.047762592781
 20
2860.151772909988
 10
4930.044761230696
 20
2860.151773744453
  0
ARC
  5
22BD
330
1F
100
AcDbEntity
  8
SANINDUSA
100
AcDbCircle
 10
4929.925734988586
 20
2860.154364637634
 30
0.0
 40
0.0025914594740762
100
AcDbArc
 50
270.0111666965207
 51
359.9835605058889
  0
LWPOLYLINE
  5
22C1
330
1F
100
AcDbEntity
  8
SANINDUSA
100
AcDbPolyline
 90
        3
 70
   128
 43
0.0
 10
4929.979748596895
 20
2860.167959028114
 10
4929.987748583306
 20
2860.167958938707
 10
4929.990751495112
 20
2860.167958789696
  0
ARC
  5
22CE
330
1F
100
AcDbEntity
  8
SANINDUSA
100
AcDbCircle
 10
4929.990752252748
 20
2860.165368533487
 30
0.0
 40
0.0025902563199988
100
AcDbArc
 50
0.010927119834358
 51
90.01675869521386
  0
ARC
  5
22D0
330
1F
100
AcDbEntity
  8
SANINDUSA
100
AcDbCircle
 10
4929.979748169779
 20
2860.165368470988
 30
0.0
 40
0.0025905571615723
100
AcDbArc
 50
89.99055340936013
 51
179.9791226961241
  0
LWPOLYLINE
  5
22D2
330
1F
100
AcDbEntity
  8
SANINDUSA
100
AcDbPolyline
 90
        3
 70
   128
 43
0.0
 10
4929.99334250902
 20
2860.165369027485
 10
4929.993342598427
 20
2860.157371633876
 10
4929.993342628229
 20
2860.154372655977
  0
LWPOLYLINE
  5
22D5
330
1F
100
AcDbEntity
  8
SANINDUSA
100
AcDbPolyline
 90
        3
 70
   128
 43
0.0
 10
4929.977157553185
 20
2860.154372864594
 10
4929.977157612789
 20
2860.162370288004
 10
4929.977157612789
 20
2860.165369414915
  0
LWPOLYLINE
  5
22DE
330
1F
100
AcDbEntity
  8
SANINDUSA
100
AcDbPolyline
 90
        3
 70
   128
 43
0.0
 10
4929.990751703728
 20
2860.151783340801
 10
4929.982751717318
 20
2860.151783549417
 10
4929.979748537292
 20
2860.151783489813
  0
ARC
  5
22E0
330
1F
100
AcDbEntity
  8
SANINDUSA
100
AcDbCircle
 10
4929.990752380295
 20
2860.154373588815
 30
0.0
 40
0.002590248102422
100
AcDbArc
 50
269.9850344692259
 51
359.979365816302
  0
ARC
  5
22E1
330
1F
100
AcDbEntity
  8
SANINDUSA
100
AcDbCircle
 10
4929.979747425203
 20
2860.154373361639
 30
0.0
 40
0.0025898720647921
100
AcDbArc
 50
180.0109961398034
 51
270.0246027411002
  0
ARC
  5
22F8
330
1F
100
AcDbEntity
  8
SANINDUSA
100
AcDbCircle
 10
4929.774613648298
 20
2860.148836687573
 30
0.0
 40
0.2701635478348961
100
AcDbArc
 50
359.9356851249611
 51
0.6228978048718278
  0
CIRCLE
  5
22FD
330
1F
100
AcDbEntity
  8
SANINDUSA
100
AcDbCircle
 10
4929.985249426116
 20
2860.044802928795
 30
0.0
 40
0.045297545258413
  0
CIRCLE
  5
22FE
330
1F
100
AcDbEntity
  8
SANINDUSA
100
AcDbCircle
 10
4929.985249426116
 20
2860.044802928795
 30
0.0
 40
0.0349999999999999
  0
ARC
  5
22FF
330
1F
100
AcDbEntity
  8
SANINDUSA
100
AcDbCircle
 10
4931.511174130276
 20
2860.208189317479
 30
0.0
 40
0.0240000000101703
100
AcDbArc
 50
191.999987445785
 51
268.5791431342866
  0
ARC
  5
2300
330
1F
100
AcDbEntity
  8
SANINDUSA
100
AcDbCircle
 10
4932.063122908662
 20
2860.201382546854
 30
0.0
 40
0.0240423116163038
100
AcDbArc
 50
283.8019882238269
 51
349.8797433529365
  0
ARC
  5
2301
330
1F
100
AcDbEntity
  8
SANINDUSA
100
AcDbCircle
 10
4932.041246471325
 20
2860.281850844817
 30
0.0
 40
0.1074256851943309
100
AcDbArc
 50
270.9513331698916
 51
284.8941922155892
  0
LWPOLYLINE
  5
2302
330
1F
100
AcDbEntity
  8
SANINDUSA
100
AcDbPolyline
 90
        3
 70
   128
 43
0.0
 10
4931.510578280704
 20
2860.1841967187
 10
4931.538817404227
 20
2860.183220180865
 10
4931.892767032998
 20
2860.174439155228
  0
LINE
  5
2303
330
1F
100
AcDbEntity
  8
SANINDUSA
100
AcDbLine
 10
4931.892767032998
 20
2860.174439155228
 30
0.0
 11
4931.920793941634
 21
2860.17346043951
 31
0.0
  0
LINE
  5
2304
330
1F
100
AcDbEntity
  8
SANINDUSA
100
AcDbLine
 10
4932.01497994961
 20
2860.17346043951
 30
0.0
 11
4932.043030074256
 21
2860.174439967341
 31
0.0
  0
LINE
  5
2305
330
1F
100
AcDbEntity
  8
SANINDUSA
100
AcDbLine
 10
4931.920793941634
 20
2860.17346043951
 30
0.0
 11
4931.931147685664
 21
2860.162357412941
 31
0.0
  0
LINE
  5
2306
330
1F
100
AcDbEntity
  8
SANINDUSA
100
AcDbLine
 10
4932.00462620558
 20
2860.162357412941
 30
0.0
 11
4932.01497994961
 21
2860.17346043951
 31
0.0
  0
LINE
  5
2309
330
1F
100
AcDbEntity
  8
SANINDUSA
100
AcDbLine
 10
4931.437188741849
 20
2860.228598528273
 30
0.0
 11
4931.437732590548
 21
2860.259755599044
 31
0.0
  0
LINE
  5
230C
330
1F
100
AcDbEntity
  8
SANINDUSA
100
AcDbLine
 10
4931.442187980207
 20
2860.228598528273
 30
0.0
 11
4932.133585920947
 21
2860.228598528273
 31
0.0
  0
LINE
  5
230E
330
1F
100
AcDbEntity
  8
SANINDUSA
100
AcDbLine
 10
4932.138041308539
 20
2860.259755599044
 30
0.0
 11
4932.138585141318
 21
2860.228598528273
 31
0.0
  0
LINE
  5
230F
330
1F
100
AcDbEntity
  8
SANINDUSA
100
AcDbLine
 10
4932.133585920947
 20
2860.228598528273
 30
0.0
 11
4932.138585141318
 21
2860.228598528273
 31
0.0
  0
ARC
  5
2310
330
1F
100
AcDbEntity
  8
SANINDUSA
100
AcDbCircle
 10
4931.446731219797
 20
2860.259598527379
 30
0.0
 40
0.009
100
AcDbArc
 50
90.0
 51
178.9999999902799
  0
LINE
  5
2312
330
1F
100
AcDbEntity
  8
SANINDUSA
100
AcDbLine
 10
4931.446731219457
 20
2860.268598527379
 30
0.0
 11
4932.129042676108
 21
2860.268598527379
 31
0.0
  0
ARC
  5
2314
330
1F
100
AcDbEntity
  8
SANINDUSA
100
AcDbCircle
 10
4932.12904266906
 20
2860.259598527379
 30
0.0
 40
0.009
100
AcDbArc
 50
1.000000009720081
 51
90.0
  0
LINE
  5
2316
330
1F
100
AcDbEntity
  8
SANINDUSA
100
AcDbLine
 10
4931.482299844192
 20
2860.228598528273
 30
0.0
 11
4931.487634992617
 21
2860.203498624928
 31
0.0
  0
LINE
  5
2318
330
1F
100
AcDbEntity
  8
SANINDUSA
100
AcDbLine
 10
4932.087404420989
 20
2860.200043246813
 30
0.0
 11
4932.09347402157
 21
2860.228598528273
 31
0.0
  0
LINE
  5
231F
330
1F
100
AcDbEntity
  8
SANINDUSA
100
AcDbLine
 10
4931.487634992617
 20
2860.203498624928
 30
0.0
 11
4931.487670636194
 21
2860.203330949611
 31
0.0
  0
LINE
  5
2320
330
1F
100
AcDbEntity
  8
SANINDUSA
100
AcDbLine
 10
4932.08718436064
 20
2860.199007854528
 30
0.0
 11
4932.087404420989
 21
2860.200043246813
 31
0.0
  0
LWPOLYLINE
  5
2324
330
1F
100
AcDbEntity
  8
SANINDUSA
100
AcDbPolyline
 90
        5
 70
   128
 43
0.0
 10
4932.086791148798
 20
2860.197157957323
 10
4932.08687304558
 20
2860.197543338604
 10
4932.087059786932
 20
2860.198421724803
 10
4932.087144485133
 20
2860.198820174403
 10
4932.08718436064
 20
2860.199007854528
  0
LINE
  5
2327
330
1F
100
AcDbEntity
  8
SANINDUSA
100
AcDbLine
 10
4931.920793941634
 20
2860.17346043951
 30
0.0
 11
4932.01497994961
 21
2860.17346043951
 31
0.0
  0
LINE
  5
2328
330
1F
100
AcDbEntity
  8
SANINDUSA
100
AcDbLine
 10
4931.931147685664
 20
2860.162357412941
 30
0.0
 11
4932.00462620558
 21
2860.162357412941
 31
0.0
  0
ARC
  5
232F
330
1F
100
AcDbEntity
  8
SANINDUSA
100
AcDbCircle
 10
4932.981838449913
 20
2860.201344321556
 30
0.0
 40
0.023999954776308
100
AcDbArc
 50
283.8405282207187
 51
348.0048892940548
  0
LWPOLYLINE
  5
2330
330
1F
100
AcDbEntity
  8
SANINDUSA
100
AcDbPolyline
 90
        3
 70
   128
 43
0.0
 10
4932.506401279415
 20
2860.185228430398
 10
4932.511527591791
 20
2860.185097546048
 10
4932.516653919067
 20
2860.184966780908
  0
LINE
  5
2331
330
1F
100
AcDbEntity
  8
SANINDUSA
100
AcDbLine
 10
4932.782837653007
 20
2860.179171302088
 30
0.0
 11
4932.791377746905
 21
2860.178953089483
 31
0.0
  0
LINE
  5
2334
330
1F
100
AcDbEntity
  8
SANINDUSA
100
AcDbLine
 10
4932.717858874645
 20
2860.180830226011
 30
0.0
 11
4932.760099136676
 21
2860.179751799173
 31
0.0
  0
LINE
  5
2336
330
1F
100
AcDbEntity
  8
SANINDUSA
100
AcDbLine
 10
4932.652880066481
 20
2860.182489157386
 30
0.0
 11
4932.695120328512
 21
2860.181410745449
 31
0.0
  0
LINE
  5
2337
330
1F
100
AcDbEntity
  8
SANINDUSA
100
AcDbLine
 10
4932.587901228513
 20
2860.184148111112
 30
0.0
 11
4932.630141490545
 21
2860.183069684274
 31
0.0
  0
LINE
  5
2338
330
1F
100
AcDbEntity
  8
SANINDUSA
100
AcDbLine
 10
4932.522922405447
 20
2860.185807064839
 30
0.0
 11
4932.565162667479
 21
2860.184728638
 31
0.0
  0
LINE
  5
2339
330
1F
100
AcDbEntity
  8
SANINDUSA
100
AcDbLine
 10
4932.483114877189
 20
2860.186823376185
 30
0.0
 11
4932.500183844413
 21
2860.186387599177
 31
0.0
  0
ARC
  5
2354
330
1F
100
AcDbEntity
  8
SANINDUSA
100
AcDbCircle
 10
4933.023868575823
 20
2860.259598527379
 30
0.0
 40
0.0090000000000001
100
AcDbArc
 50
90.0
 51
168.0000000087166
  0
LINE
  5
2355
330
1F
100
AcDbEntity
  8
SANINDUSA
100
AcDbLine
 10
4933.02386858448
 20
2860.268598527379
 30
0.0
 11
4933.047736251201
 21
2860.268598527379
 31
0.0
  0
ARC
  5
2356
330
1F
100
AcDbEntity
  8
SANINDUSA
100
AcDbCircle
 10
4933.047736244155
 20
2860.259598527379
 30
0.0
 40
0.0089999999999999
100
AcDbArc
 50
1.000000009720081
 51
90.0
  0
LINE
  5
2357
330
1F
100
AcDbEntity
  8
SANINDUSA
100
AcDbLine
 10
4933.056734883632
 20
2860.259755599044
 30
0.0
 11
4933.057278716411
 21
2860.228598528273
 31
0.0
  0
LINE
  5
2358
330
1F
100
AcDbEntity
  8
SANINDUSA
100
AcDbLine
 10
4933.057278716411
 20
2860.228598528273
 30
0.0
 11
4933.053278112258
 21
2860.228598528273
 31
0.0
  0
LINE
  5
2359
330
1F
100
AcDbEntity
  8
SANINDUSA
100
AcDbLine
 10
4933.052735471573
 20
2860.259685788966
 30
0.0
 11
4933.053278112258
 21
2860.228598528273
 31
0.0
  0
ARC
  5
235A
330
1F
100
AcDbEntity
  8
SANINDUSA
100
AcDbCircle
 10
4933.047736244155
 20
2860.259598527379
 30
0.0
 40
0.005
100
AcDbArc
 50
1.000000009720081
 51
90.0
  0
LINE
  5
235B
330
1F
100
AcDbEntity
  8
SANINDUSA
100
AcDbLine
 10
4933.02386858448
 20
2860.264598527189
 30
0.0
 11
4933.047736251201
 21
2860.264598527189
 31
0.0
  0
ARC
  5
235C
330
1F
100
AcDbEntity
  8
SANINDUSA
100
AcDbCircle
 10
4933.023868575823
 20
2860.259598527379
 30
0.0
 40
0.005
100
AcDbArc
 50
90.0
 51
168.0000000087166
  0
LINE
  5
235D
330
1F
100
AcDbEntity
  8
SANINDUSA
100
AcDbLine
 10
4933.018977844562
 20
2860.260638085856
 30
0.0
 11
4933.00531377777
 21
2860.196353696949
 31
0.0
  0
LWPOLYLINE
  5
235E
330
1F
100
AcDbEntity
  8
SANINDUSA
100
AcDbPolyline
 90
        3
 70
   128
 43
0.0
 10
4932.961723649349
 20
2860.174439527757
 10
4932.974679851379
 20
2860.175562233396
 10
4932.98758628353
 20
2860.178042077191
  0
LINE
  5
235F
330
1F
100
AcDbEntity
  8
SANINDUSA
100
AcDbLine
 10
4932.933673524703
 20
2860.17346043951
 30
0.0
 11
4932.961723649349
 21
2860.174439967341
 31
0.0
  0
LINE
  5
2360
330
1F
100
AcDbEntity
  8
SANINDUSA
100
AcDbLine
 10
4932.923319780673
 20
2860.162357412941
 30
0.0
 11
4932.933673524703
 21
2860.17346043951
 31
0.0
  0
LINE
  5
2361
330
1F
100
AcDbEntity
  8
SANINDUSA
100
AcDbLine
 10
4932.849841260757
 20
2860.162357412941
 30
0.0
 11
4932.923319780673
 21
2860.162357412941
 31
0.0
  0
LINE
  5
2362
330
1F
100
AcDbEntity
  8
SANINDUSA
100
AcDbLine
 10
4932.839487516726
 20
2860.17346043951
 30
0.0
 11
4932.849841260757
 21
2860.162357412941
 31
0.0
  0
LINE
  5
2363
330
1F
100
AcDbEntity
  8
SANINDUSA
100
AcDbLine
 10
4932.811460608091
 20
2860.174439155228
 30
0.0
 11
4932.839487516726
 21
2860.17346043951
 31
0.0
  0
LINE
  5
2364
330
1F
100
AcDbEntity
  8
SANINDUSA
100
AcDbLine
 10
4932.791267567719
 20
2860.174954593844
 30
0.0
 11
4932.811460637893
 21
2860.17443931169
 31
0.0
  0
LINE
  5
2365
330
1F
100
AcDbEntity
  8
SANINDUSA
100
AcDbLine
 10
4932.782735490646
 20
2860.175172605283
 30
0.0
 11
4932.791267567719
 21
2860.174954593844
 31
0.0
  0
ARC
  5
2366
330
1F
100
AcDbEntity
  8
SANINDUSA
100
AcDbCircle
 10
4932.782939800667
 20
2860.183169991246
 30
0.0
 40
0.0079999953020726
100
AcDbArc
 50
217.2194970385287
 51
268.5365772890079
  0
LINE
  5
2367
330
1F
100
AcDbEntity
  8
SANINDUSA
100
AcDbLine
 10
4932.76631658658
 20
2860.178592749603
 30
0.0
 11
4932.776569211331
 21
2860.178331033058
 31
0.0
  0
ARC
  5
2368
330
1F
100
AcDbEntity
  8
SANINDUSA
100
AcDbCircle
 10
4932.760201235583
 20
2860.183750473935
 30
0.0
 40
0.0079999773812567
100
AcDbArc
 50
268.5375638479152
 51
319.8555122999741
  0
LINE
  5
2369
330
1F
100
AcDbEntity
  8
SANINDUSA
100
AcDbLine
 10
4932.71775680169
 20
2860.176831529207
 30
0.0
 11
4932.759997063723
 21
2860.175753102369
 31
0.0
  0
ARC
  5
236A
330
1F
100
AcDbEntity
  8
SANINDUSA
100
AcDbCircle
 10
4932.717960932336
 20
2860.184828839658
 30
0.0
 40
0.0079999152351727
100
AcDbArc
 50
217.2194544741452
 51
268.5378477325293
  0
LINE
  5
236B
330
1F
100
AcDbEntity
  8
SANINDUSA
100
AcDbLine
 10
4932.701337778415
 20
2860.180251680978
 30
0.0
 11
4932.711590403165
 21
2860.179989934631
 31
0.0
  0
ARC
  5
236C
330
1F
100
AcDbEntity
  8
SANINDUSA
100
AcDbCircle
 10
4932.695222409666
 20
2860.185409484639
 30
0.0
 40
0.0080000420971095
100
AcDbArc
 50
268.5374893581411
 51
319.8551599171973
  0
LINE
  5
236D
330
1F
100
AcDbEntity
  8
SANINDUSA
100
AcDbLine
 10
4932.652777963724
 20
2860.178490460582
 30
0.0
 11
4932.695018225755
 21
2860.177412048645
 31
0.0
  0
ARC
  5
236E
330
1F
100
AcDbEntity
  8
SANINDUSA
100
AcDbCircle
 10
4932.652982129956
 20
2860.186487840514
 30
0.0
 40
0.0079999856024454
100
AcDbArc
 50
217.2196965825671
 51
268.5376056539527
  0
LINE
  5
236F
330
1F
100
AcDbEntity
  8
SANINDUSA
100
AcDbLine
 10
4932.636358940448
 20
2860.181910627253
 30
0.0
 11
4932.646611565198
 21
2860.181648866005
 31
0.0
  0
ARC
  5
2370
330
1F
100
AcDbEntity
  8
SANINDUSA
100
AcDbCircle
 10
4932.630243586579
 20
2860.18706837896
 30
0.0
 40
0.0079999972258972
100
AcDbArc
 50
268.5375880351351
 51
319.8553756609215
  0
LINE
  5
2371
330
1F
100
AcDbEntity
  8
SANINDUSA
100
AcDbLine
 10
4932.587799140658
 20
2860.180149414308
 30
0.0
 11
4932.630039417591
 21
2860.17907098747
 31
0.0
  0
ARC
  5
2372
330
1F
100
AcDbEntity
  8
SANINDUSA
100
AcDbCircle
 10
4932.58800330689
 20
2860.188146794241
 30
0.0
 40
0.0079999856024788
100
AcDbArc
 50
217.2196965825671
 51
268.5376056539527
  0
LINE
  5
2373
330
1F
100
AcDbEntity
  8
SANINDUSA
100
AcDbLine
 10
4932.571380117383
 20
2860.183569580979
 30
0.0
 11
4932.581632742133
 21
2860.183307819731
 31
0.0
  0
ARC
  5
2374
330
1F
100
AcDbEntity
  8
SANINDUSA
100
AcDbCircle
 10
4932.565264741802
 20
2860.188727379933
 30
0.0
 40
0.0080000442838964
100
AcDbArc
 50
268.537645427024
 51
319.8552172375246
  0
LINE
  5
2375
330
1F
100
AcDbEntity
  8
SANINDUSA
100
AcDbLine
 10
4932.522820302691
 20
2860.181808368034
 30
0.0
 11
4932.565060579623
 21
2860.180729941196
 31
0.0
  0
ARC
  5
2376
330
1F
100
AcDbEntity
  8
SANINDUSA
100
AcDbCircle
 10
4932.52302446803
 20
2860.189805704751
 30
0.0
 40
0.0079999423769202
100
AcDbArc
 50
217.2194760272573
 51
268.5376041425839
  0
ARC
  5
2377
330
1F
100
AcDbEntity
  8
SANINDUSA
100
AcDbCircle
 10
4932.50028595409
 20
2860.190386243873
 30
0.0
 40
0.0079999479810518
100
AcDbArc
 50
268.53737452227
 51
319.8554767639909
  0
LINE
  5
2378
330
1F
100
AcDbEntity
  8
SANINDUSA
100
AcDbLine
 10
4932.483008408393
 20
2860.18282479114
 30
0.0
 11
4932.500081756558
 21
2860.182388902373
 31
0.0
  0
LINE
  5
2379
330
1F
100
AcDbEntity
  8
SANINDUSA
100
AcDbLine
 10
4932.429255166496
 20
2860.184197150834
 30
0.0
 11
4932.483008408393
 21
2860.18282479114
 31
0.0
  0
ARC
  5
237A
330
1F
100
AcDbEntity
  8
SANINDUSA
100
AcDbCircle
 10
4932.429867709943
 20
2860.208189343373
 30
0.0
 40
0.0240000106738885
100
AcDbArc
 50
192.0000152809903
 51
268.5375020775349
  0
LINE
  5
237B
330
1F
100
AcDbEntity
  8
SANINDUSA
100
AcDbLine
 10
4932.406392158415
 20
2860.203199454315
 30
0.0
 11
4932.394183201189
 21
2860.260638085856
 31
0.0
  0
ARC
  5
237C
330
1F
100
AcDbEntity
  8
SANINDUSA
100
AcDbCircle
 10
4932.389292463224
 20
2860.259598527379
 30
0.0
 40
0.005
100
AcDbArc
 50
11.9999999912834
 51
90.0
  0
LINE
  5
237D
330
1F
100
AcDbEntity
  8
SANINDUSA
100
AcDbLine
 10
4932.36542479455
 20
2860.264598527189
 30
0.0
 11
4932.389292464997
 21
2860.264598527189
 31
0.0
  0
ARC
  5
237E
330
1F
100
AcDbEntity
  8
SANINDUSA
100
AcDbCircle
 10
4932.365424794891
 20
2860.259598527379
 30
0.0
 40
0.0050000000000001
100
AcDbArc
 50
90.0
 51
178.9999999902799
  0
LINE
  5
237F
330
1F
100
AcDbEntity
  8
SANINDUSA
100
AcDbLine
 10
4932.359882926276
 20
2860.228598528273
 30
0.0
 11
4932.360425556485
 21
2860.259685788966
 31
0.0
  0
LINE
  5
2380
330
1F
100
AcDbEntity
  8
SANINDUSA
100
AcDbLine
 10
4932.355882316943
 20
2860.228598528273
 30
0.0
 11
4932.356426165641
 21
2860.259755599044
 31
0.0
  0
ARC
  5
2381
330
1F
100
AcDbEntity
  8
SANINDUSA
100
AcDbCircle
 10
4932.365424794891
 20
2860.259598527379
 30
0.0
 40
0.0090000000000001
100
AcDbArc
 50
90.0
 51
178.9999999902799
  0
LINE
  5
2382
330
1F
100
AcDbEntity
  8
SANINDUSA
100
AcDbLine
 10
4932.36542479455
 20
2860.268598527379
 30
0.0
 11
4932.389292464997
 21
2860.268598527379
 31
0.0
  0
ARC
  5
2383
330
1F
100
AcDbEntity
  8
SANINDUSA
100
AcDbCircle
 10
4932.389292463224
 20
2860.259598527379
 30
0.0
 40
0.0090000000000001
100
AcDbArc
 50
11.9999999912834
 51
90.0
  0
LINE
  5
2384
330
1F
100
AcDbEntity
  8
SANINDUSA
100
AcDbLine
 10
4932.410304748859
 20
2860.204031103022
 30
0.0
 11
4932.398095791634
 21
2860.261469732702
 31
0.0
  0
ARC
  5
2385
330
1F
100
AcDbEntity
  8
SANINDUSA
100
AcDbCircle
 10
4932.429867704808
 20
2860.208189336327
 30
0.0
 40
0.0200000037407594
100
AcDbArc
 50
191.9999962097938
 51
268.5375086452721
  0
LINE
  5
2386
330
1F
100
AcDbEntity
  8
SANINDUSA
100
AcDbLine
 10
4932.429357254353
 20
2860.188195847637
 30
0.0
 11
4932.483114877189
 21
2860.186823376185
 31
0.0
  0
ARC
  5
2387
330
1F
100
AcDbEntity
  8
SANINDUSA
100
AcDbCircle
 10
4932.500285929339
 20
2860.190386300594
 30
0.0
 40
0.0040000042933514
100
AcDbArc
 50
268.5375839171098
 51
323.6874689844366
  0
ARC
  5
2388
330
1F
100
AcDbEntity
  8
SANINDUSA
100
AcDbCircle
 10
4932.505926502935
 20
2860.186241033673
 30
0.0
 40
0.002999946300896
100
AcDbArc
 50
88.53681373752513
 51
143.6881755696023
  0
LINE
  5
2389
330
1F
100
AcDbEntity
  8
SANINDUSA
100
AcDbLine
 10
4932.506003105487
 20
2860.189240001805
 30
0.0
 11
4932.517256268706
 21
2860.188952699966
 31
0.0
  0
ARC
  5
238A
330
1F
100
AcDbEntity
  8
SANINDUSA
100
AcDbCircle
 10
4932.517179707588
 20
2860.185953662241
 30
0.0
 40
0.0030000148134334
100
AcDbArc
 50
33.3875776249449
 51
88.5376388071935
  0
ARC
  5
238B
330
1F
100
AcDbEntity
  8
SANINDUSA
100
AcDbCircle
 10
4932.523024498387
 20
2860.18980576855
 30
0.0
 40
0.0040000067933004
100
AcDbArc
 50
213.3875151952381
 51
268.5374700189168
  0
ARC
  5
238C
330
1F
100
AcDbEntity
  8
SANINDUSA
100
AcDbCircle
 10
4932.565264767644
 20
2860.188727326967
 30
0.0
 40
0.0039999922369629
100
AcDbArc
 50
268.5373611777575
 51
323.6876958203582
  0
ARC
  5
238D
330
1F
100
AcDbEntity
  8
SANINDUSA
100
AcDbCircle
 10
4932.570905372643
 20
2860.184582014256
 30
0.0
 40
0.003000010779951
100
AcDbArc
 50
88.53773628471323
 51
143.6875236087905
  0
LINE
  5
238E
330
1F
100
AcDbEntity
  8
SANINDUSA
100
AcDbLine
 10
4932.570981928552
 20
2860.187581048079
 30
0.0
 11
4932.582235106672
 21
2860.18729374624
 31
0.0
  0
ARC
  5
238F
330
1F
100
AcDbEntity
  8
SANINDUSA
100
AcDbCircle
 10
4932.582158529726
 20
2860.184294707691
 30
0.0
 40
0.0030000160408458
100
AcDbArc
 50
33.38758100684625
 51
88.53733693844437
  0
ARC
  5
2390
330
1F
100
AcDbEntity
  8
SANINDUSA
100
AcDbCircle
 10
4932.588003292324
 20
2860.188146762357
 30
0.0
 40
0.0039999535998144
100
AcDbArc
 50
213.3871172759447
 51
268.5378679580034
  0
ARC
  5
2391
330
1F
100
AcDbEntity
  8
SANINDUSA
100
AcDbCircle
 10
4932.630243595824
 20
2860.18706833334
 30
0.0
 40
0.0039999524798076
100
AcDbArc
 50
268.5372733434708
 51
323.6879865884454
  0
ARC
  5
2392
330
1F
100
AcDbEntity
  8
SANINDUSA
100
AcDbCircle
 10
4932.635884200337
 20
2860.18292302162
 30
0.0
 40
0.0030000495584585
100
AcDbArc
 50
88.53784366659715
 51
143.6871456773352
  0
LINE
  5
2393
330
1F
100
AcDbEntity
  8
SANINDUSA
100
AcDbLine
 10
4932.635960751619
 20
2860.185922094352
 30
0.0
 11
4932.647213929739
 21
2860.185634792514
 31
0.0
  0
ARC
  5
2394
330
1F
100
AcDbEntity
  8
SANINDUSA
100
AcDbCircle
 10
4932.647137386057
 20
2860.182635841571
 30
0.0
 40
0.0029999276148399
100
AcDbArc
 50
33.38669020505479
 51
88.53792936373128
  0
ARC
  5
2395
330
1F
100
AcDbEntity
  8
SANINDUSA
100
AcDbCircle
 10
4932.652982196821
 20
2860.186487983846
 30
0.0
 40
0.0040001304557395
100
AcDbArc
 50
213.3884534820926
 51
268.5369793461198
  0
ARC
  5
2396
330
1F
100
AcDbEntity
  8
SANINDUSA
100
AcDbCircle
 10
4932.695222433791
 20
2860.185409394516
 30
0.0
 40
0.0039999524805547
100
AcDbArc
 50
268.5372733434708
 51
323.6879865884454
  0
ARC
  5
2397
330
1F
100
AcDbEntity
  8
SANINDUSA
100
AcDbCircle
 10
4932.70086300248
 20
2860.181264155881
 30
0.0
 40
0.0029999774097913
100
AcDbArc
 50
88.53712405069797
 51
143.6878652907038
  0
LINE
  5
2398
330
1F
100
AcDbEntity
  8
SANINDUSA
100
AcDbLine
 10
4932.700939589586
 20
2860.184263155527
 30
0.0
 11
4932.712192767706
 21
2860.183975861139
 31
0.0
  0
ARC
  5
2399
330
1F
100
AcDbEntity
  8
SANINDUSA
100
AcDbCircle
 10
4932.712116224024
 20
2860.180976910196
 30
0.0
 40
0.0029999276146917
100
AcDbArc
 50
33.38669020505479
 51
88.53792936373128
  0
ARC
  5
239A
330
1F
100
AcDbEntity
  8
SANINDUSA
100
AcDbCircle
 10
4932.717960938457
 20
2860.184828877257
 30
0.0
 40
0.0039999536005367
100
AcDbArc
 50
213.3871172759447
 51
268.5378679059102
  0
ARC
  5
239B
330
1F
100
AcDbEntity
  8
SANINDUSA
100
AcDbCircle
 10
4932.760201201542
 20
2860.183750578794
 30
0.0
 40
0.004000081960855
100
AcDbArc
 50
268.5378997554902
 51
323.6871612800659
  0
ARC
  5
239C
330
1F
100
AcDbEntity
  8
SANINDUSA
100
AcDbCircle
 10
4932.765841837214
 20
2860.179605221786
 30
0.0
 40
0.0029999720036124
100
AcDbArc
 50
88.53762900701584
 51
143.6879014883915
  0
LINE
  5
239D
330
1F
100
AcDbEntity
  8
SANINDUSA
100
AcDbLine
 10
4932.76591839775
 20
2860.182604216702
 30
0.0
 11
4932.777171546067
 21
2860.182316967018
 31
0.0
  0
ARC
  5
239E
330
1F
100
AcDbEntity
  8
SANINDUSA
100
AcDbCircle
 10
4932.777095018565
 20
2860.179317952715
 30
0.0
 40
0.0029999905409679
100
AcDbArc
 50
33.38700656613106
 51
88.5382691809586
  0
ARC
  5
239F
330
1F
100
AcDbEntity
  8
SANINDUSA
100
AcDbCircle
 10
4932.782939736593
 20
2860.183169859958
 30
0.0
 40
0.0039998607610695
100
AcDbArc
 50
213.3861362080335
 51
268.5375506596825
  0
LINE
  5
23A0
330
1F
100
AcDbEntity
  8
SANINDUSA
100
AcDbLine
 10
4932.791377746905
 20
2860.178953089483
 30
0.0
 11
4932.811580532636
 21
2860.178437561459
 31
0.0
  0
LINE
  5
23A1
330
1F
100
AcDbEntity
  8
SANINDUSA
100
AcDbLine
 10
4932.811580532636
 20
2860.178437412448
 30
0.0
 11
4932.841282987442
 21
2860.17740017987
 31
0.0
  0
LINE
  5
23A2
330
1F
100
AcDbEntity
  8
SANINDUSA
100
AcDbLine
 10
4932.841282987442
 20
2860.17740017987
 30
0.0
 11
4932.851580524292
 21
2860.166357413597
 31
0.0
  0
LINE
  5
23A3
330
1F
100
AcDbEntity
  8
SANINDUSA
100
AcDbLine
 10
4932.851580524292
 20
2860.166357413597
 30
0.0
 11
4932.921580517138
 21
2860.166357413597
 31
0.0
  0
LINE
  5
23A4
330
1F
100
AcDbEntity
  8
SANINDUSA
100
AcDbLine
 10
4932.921580517138
 20
2860.166357413597
 30
0.0
 11
4932.931878053989
 21
2860.17740017987
 31
0.0
  0
LINE
  5
23A5
330
1F
100
AcDbEntity
  8
SANINDUSA
100
AcDbLine
 10
4932.931878053989
 20
2860.17740017987
 30
0.0
 11
4932.961580538597
 21
2860.178437412448
 31
0.0
  0
ARC
  5
23A6
330
1F
100
AcDbEntity
  8
SANINDUSA
100
AcDbCircle
 10
4932.981838289801
 20
2860.201343475489
 30
0.0
 40
0.0199998886431839
100
AcDbArc
 50
283.8570169315679
 51
348.0002367280645
  0
LINE
  5
23A7
330
1F
100
AcDbEntity
  8
SANINDUSA
100
AcDbLine
 10
4933.01506527647
 20
2860.261469732702
 30
0.0
 11
4933.001401150074
 21
2860.197185345657
 31
0.0
  0
LWPOLYLINE
  5
23A8
330
1F
100
AcDbEntity
  8
SANINDUSA
100
AcDbPolyline
 90
        5
 70
   128
 43
0.0
 10
4932.500093558278
 20
2860.182388686306
 10
4932.500540727223
 20
2860.182377607293
 10
4932.501801216449
 20
2860.182345852919
 10
4932.503710949267
 20
2860.182297483749
 10
4932.505953022684
 20
2860.182240427203
  0
LWPOLYLINE
  5
23A9
330
1F
100
AcDbEntity
  8
SANINDUSA
100
AcDbPolyline
 90
        3
 70
   128
 43
0.0
 10
4932.505953022684
 20
2860.182240434653
 10
4932.513950714316
 20
2860.182036400504
 10
4932.516949438896
 20
2860.181959897943
  0
LWPOLYLINE
  5
23AA
330
1F
100
AcDbEntity
  8
SANINDUSA
100
AcDbPolyline
 90
        5
 70
   128
 43
0.0
 10
4932.516949409094
 20
2860.181959883041
 10
4932.519190767255
 20
2860.181902528472
 10
4932.521100485171
 20
2860.181853369541
 10
4932.522359692897
 20
2860.181820698745
 10
4932.522809558953
 20
2860.181808770366
  0
ARC
  5
23AB
330
1F
100
AcDbEntity
  8
SANINDUSA
100
AcDbCircle
 10
4932.454744896357
 20
2855.664731217191
 30
0.0
 40
4.517346164127979
100
AcDbArc
 50
88.52617809448132
 51
88.6005213600721
  0
LWPOLYLINE
  5
23AC
330
1F
100
AcDbEntity
  8
SANINDUSA
100
AcDbPolyline
 90
        3
 70
   128
 43
0.0
 10
4932.57093197986
 20
2860.180582978494
 10
4932.578929939713
 20
2860.180379026301
 10
4932.581928396071
 20
2860.180302568443
  0
ARC
  5
23AD
330
1F
100
AcDbEntity
  8
SANINDUSA
100
AcDbCircle
 10
4932.493309284915
 20
2856.661218412508
 30
0.0
 40
3.520199770714062
100
AcDbArc
 50
88.46204553474182
 51
88.5574583099318
  0
ARC
  5
23AE
330
1F
100
AcDbEntity
  8
SANINDUSA
100
AcDbCircle
 10
4932.583719723281
 20
2858.175514948037
 30
0.0
 40
2.004091394429887
100
AcDbArc
 50
88.50771087708402
 51
88.67562958882333
  0
LWPOLYLINE
  5
23AF
330
1F
100
AcDbEntity
  8
SANINDUSA
100
AcDbPolyline
 90
        3
 70
   128
 43
0.0
 10
4932.635911100949
 20
2860.178926669724
 10
4932.643909388628
 20
2860.178722933597
 10
4932.646907532062
 20
2860.178646572597
  0
ARC
  5
23B0
330
1F
100
AcDbEntity
  8
SANINDUSA
100
AcDbCircle
 10
4932.609353129867
 20
2858.65554044587
 30
0.0
 40
1.523568988758412
100
AcDbArc
 50
88.3667318703301
 51
88.58757849909203
  0
LWPOLYLINE
  5
23B1
330
1F
100
AcDbEntity
  8
SANINDUSA
100
AcDbPolyline
 90
        3
 70
   128
 43
0.0
 10
4932.695222409666
 20
2860.177409442542
 10
4932.708889120664
 20
2860.177069709368
 10
4932.71775680169
 20
2860.176831529207
  0
LWPOLYLINE
  5
23B2
330
1F
100
AcDbEntity
  8
SANINDUSA
100
AcDbPolyline
 90
        3
 70
   128
 43
0.0
 10
4932.760201235583
 20
2860.175750496553
 10
4932.773868375864
 20
2860.175419018336
 10
4932.782708003387
 20
2860.175173354775
  0
LINE
  5
23B4
330
1F
100
AcDbEntity
  8
SANINDUSA
100
AcDbLine
 10
4932.931878053989
 20
2860.17740017987
 30
0.0
 11
4932.841282987442
 21
2860.17740017987
 31
0.0
  0
LINE
  5
24AF
330
1F
100
AcDbEntity
  8
SANINDUSA
100
AcDbLine
 10
4932.389292464997
 20
2860.268598527379
 30
0.0
 11
4932.407877267744
 21
2860.268598527379
 31
0.0
  0
LINE
  5
24B1
330
1F
100
AcDbEntity
  8
SANINDUSA
100
AcDbLine
 10
4933.005283796634
 20
2860.268598527379
 30
0.0
 11
4933.02386858448
 21
2860.268598527379
 31
0.0
  0
LINE
  5
24B2
330
1F
100
AcDbEntity
  8
SANINDUSA
100
AcDbLine
 10
4932.407877267744
 20
2860.268598527379
 30
0.0
 11
4933.005283796634
 21
2860.268598527379
 31
0.0
  0
LINE
  5
24B8
330
1F
100
AcDbEntity
  8
SANINDUSA
100
AcDbLine
 10
4932.360882773935
 20
2860.228598528273
 30
0.0
 11
4932.359882926276
 21
2860.228598528273
 31
0.0
  0
LINE
  5
24BA
330
1F
100
AcDbEntity
  8
SANINDUSA
100
AcDbLine
 10
4933.053278112258
 20
2860.228598528273
 30
0.0
 11
4933.052278244343
 21
2860.228598528273
 31
0.0
  0
LINE
  5
24BB
330
1F
100
AcDbEntity
  8
SANINDUSA
100
AcDbLine
 10
4933.052278244343
 20
2860.228598528273
 30
0.0
 11
4933.012167596664
 21
2860.228598528273
 31
0.0
  0
LINE
  5
24BC
330
1F
100
AcDbEntity
  8
SANINDUSA
100
AcDbLine
 10
4932.400993419285
 20
2860.228598528273
 30
0.0
 11
4932.360882773935
 21
2860.228598528273
 31
0.0
  0
ARC
  5
252B
330
1F
100
AcDbEntity
  8
SANINDUSA
100
AcDbCircle
 10
4930.787591069796
 20
2870.635606096918
 30
0.0
 40
10.46117725410537
100
AcDbArc
 50
268.9763676087159
 51
270.0733351324938
  0
ARC
  5
252C
330
1F
100
AcDbEntity
  8
SANINDUSA
100
AcDbCircle
 10
4930.964173803399
 20
2870.731347760727
 30
0.0
 40
10.55691842640969
100
AcDbArc
 50
269.9291554247781
 51
271.0161002310298
  0
ARC
  5
253A
330
1F
100
AcDbEntity
  8
SANINDUSA
100
AcDbCircle
 10
4932.95736723296
 20
2860.300364636871
 30
0.0
 40
0.122
100
AcDbArc
 50
271.9791200138498
 51
283.8773609536102
  0
ENDSEC
  0
SECTION
  2
OBJECTS
  0
DICTIONARY
  5
C
330
0
100
AcDbDictionary
281
     1
  3
ACAD_COLOR
350
EE6
  3
ACAD_GROUP
350
D
  3
ACAD_LAYOUT
350
1A
  3
ACAD_MATERIAL
350
EE5
  3
ACAD_MLINESTYLE
350
17
  3
ACAD_PLOTSETTINGS
350
19
  3
ACAD_PLOTSTYLENAME
350
E
  3
ACAD_TABLESTYLE
350
EE7
  3
ACDBHEADERROUNDTRIPXREC
350
296C
  3
AcDbVariableDictionary
350
3D
  3
ASE_INDEX_DICTIONARY
350
294C
  0
DICTIONARY
  5
1051
330
2
100
AcDbDictionary
280
     1
281
     1
  3
ACAD_LAYERFILTERS
360
1057
  3
ACLYDICTIONARY
360
1056
  0
DICTIONARY
  5
EE6
102
{ACAD_REACTORS
330
C
102
}
330
C
100
AcDbDictionary
281
     1
  0
DICTIONARY
  5
D
102
{ACAD_REACTORS
330
C
102
}
330
C
100
AcDbDictionary
281
     1
  0
DICTIONARY
  5
1A
102
{ACAD_REACTORS
330
C
102
}
330
C
100
AcDbDictionary
281
     1
  3
Layout1
350
1E
  3
Layout2
350
26
  3
Model
350
22
  0
DICTIONARY
  5
EE5
102
{ACAD_REACTORS
330
C
102
}
330
C
100
AcDbDictionary
281
     1
  0
DICTIONARY
  5
17
102
{ACAD_REACTORS
330
C
102
}
330
C
100
AcDbDictionary
281
     1
  3
Standard
350
18
  0
DICTIONARY
  5
19
102
{ACAD_REACTORS
330
C
102
}
330
C
100
AcDbDictionary
281
     1
  0
ACDBDICTIONARYWDFLT
  5
E
102
{ACAD_REACTORS
330
C
102
}
330
C
100
AcDbDictionary
281
     1
  3
Normal
350
F
100
AcDbDictionaryWithDefault
340
F
  0
DICTIONARY
  5
EE7
102
{ACAD_REACTORS
330
C
102
}
330
C
100
AcDbDictionary
281
     1
  3
Standard
350
EE8
  0
DICTIONARY
  5
296C
102
{ACAD_REACTORS
330
C
102
}
330
C
100
AcDbDictionary
281
     1
  0
DICTIONARY
  5
3D
102
{ACAD_REACTORS
330
C
102
}
330
C
100
AcDbDictionary
281
     1
  3
CTABLESTYLE
350
1049
  3
DIMASSOC
350
3F
  3
HIDETEXT
350
3E
  3
PROJECTNAME
350
2964
  0
DICTIONARY
  5
294C
102
{ACAD_REACTORS
330
C
102
}
330
C
100
AcDbDictionary
281
     1
  3
ASEBlockHierarchyIndexRecord
350
294D
1001
DCO15
1040
1598600127.546
  0
DICTIONARY
  5
1057
102
{ACAD_REACTORS
330
1051
102
}
330
1051
100
AcDbDictionary
281
     1
  0
DICTIONARY
  5
1056
102
{ACAD_REACTORS
330
1051
102
}
330
1051
100
AcDbDictionary
281
     1
1001
ACAD
1000
<All
  0
LAYOUT
  5
1E
102
{ACAD_XDICTIONARY
360
296D
102
}
102
{ACAD_REACTORS
330
1A
102
}
330
1A
100
AcDbPlotSettings
  1

  2
Ploter HP500
  4

  6

 40
0.0
 41
0.0
 42
0.0
 43
0.0
 44
0.0
 45
0.0
 46
0.0
 47
0.0
 48
0.0
 49
0.0
140
0.0
141
0.0
142
1.0
143
1.0
 70
   688
 72
     0
 73
     0
 74
     5
  7
sanindusa.ctb
 75
    16
147
1.0
148
0.0
149
0.0
100
AcDbLayout
  1
Layout1
 70
     1
 71
     1
 10
0.0
 20
0.0
 11
420.0
 21
297.0
 12
0.0
 22
0.0
 32
0.0
 14
1.000000000000000E+20
 24
1.000000000000000E+20
 34
1.000000000000000E+20
 15
-1.000000000000000E+20
 25
-1.000000000000000E+20
 35
-1.000000000000000E+20
146
0.0
 13
0.0
 23
0.0
 33
0.0
 16
1.0
 26
0.0
 36
0.0
 17
0.0
 27
1.0
 37
0.0
 76
     0
330
1B
  0
LAYOUT
  5
26
102
{ACAD_XDICTIONARY
360
2971
102
}
102
{ACAD_REACTORS
330
1A
102
}
330
1A
100
AcDbPlotSettings
  1

  2
Ploter HP500
  4

  6

 40
0.0
 41
0.0
 42
0.0
 43
0.0
 44
0.0
 45
0.0
 46
0.0
 47
0.0
 48
0.0
 49
0.0
140
0.0
141
0.0
142
1.0
143
1.0
 70
   688
 72
     0
 73
     0
 74
     5
  7
sanindusa.ctb
 75
    16
147
1.0
148
0.0
149
0.0
100
AcDbLayout
  1
Layout2
 70
     1
 71
     2
 10
0.0
 20
0.0
 11
12.0
 21
9.0
 12
0.0
 22
0.0
 32
0.0
 14
0.0
 24
0.0
 34
0.0
 15
0.0
 25
0.0
 35
0.0
146
0.0
 13
0.0
 23
0.0
 33
0.0
 16
1.0
 26
0.0
 36
0.0
 17
0.0
 27
1.0
 37
0.0
 76
     0
330
23
  0
LAYOUT
  5
22
102
{ACAD_XDICTIONARY
360
296F
102
}
102
{ACAD_REACTORS
330
1A
102
}
330
1A
100
AcDbPlotSettings
  1

  2
Ploter HP500
  4
User268
  6

 40
4.995333194732666
 41
16.97565841674804
 42
4.995330810546875
 43
16.97567749023437
 44
209.9733276367187
 45
296.9259948730469
 46
0.0
 47
0.0
 48
0.0
 49
0.0
140
0.0
141
0.0
142
1.0
143
1.0
 70
 11952
 72
     1
 73
     1
 74
     0
  7
sanindusa.ctb
 75
     0
147
1.0
148
-427.5957866592534
149
7.362384574453926
100
AcDbLayout
  1
Model
 70
     1
 71
     0
 10
0.0
 20
0.0
 11
12.0
 21
9.0
 12
0.0
 22
0.0
 32
0.0
 14
0.0
 24
0.0
 34
0.0
 15
0.0
 25
0.0
 35
0.0
146
0.0
 13
0.0
 23
0.0
 33
0.0
 16
1.0
 26
0.0
 36
0.0
 17
0.0
 27
1.0
 37
0.0
 76
     0
330
1F
  0
MLINESTYLE
  5
18
102
{ACAD_REACTORS
330
17
102
}
330
17
100
AcDbMlineStyle
  2
STANDARD
 70
     0
  3

 62
   256
 51
90.0
 52
90.0
 71
     2
 49
0.5
 62
   256
  6
BYLAYER
 49
-0.5
 62
   256
  6
BYLAYER
  0
ACDBPLACEHOLDER
  5
F
102
{ACAD_REACTORS
330
E
102
}
330
E
  0
TABLESTYLE
  5
EE8
102
{ACAD_REACTORS
330
EE7
102
}
330
EE7
100
AcDbTableStyle
  3
Standard
 70
     0
 71
     0
 40
1.5
 41
1.5
280
     0
281
     0
  7
Standard
140
4.5
170
     2
 62
     0
 63
     7
283
     0
274
    -2
284
     1
 64
     0
275
    -2
285
     1
 65
     0
276
    -2
286
     1
 66
     0
277
    -2
287
     1
 67
     0
278
    -2
288
     1
 68
     0
279
    -2
289
     1
 69
     0
  7
Standard
140
6.0
170
     5
 62
     0
 63
     7
283
     0
274
    -2
284
     1
 64
     0
275
    -2
285
     1
 65
     0
276
    -2
286
     1
 66
     0
277
    -2
287
     1
 67
     0
278
    -2
288
     1
 68
     0
279
    -2
289
     1
 69
     0
  7
Standard
140
4.5
170
     5
 62
     0
 63
     7
283
     0
274
    -2
284
     1
 64
     0
275
    -2
285
     1
 65
     0
276
    -2
286
     1
 66
     0
277
    -2
287
     1
 67
     0
278
    -2
288
     1
 68
     0
279
    -2
289
     1
 69
     0
  0
DICTIONARYVAR
  5
1049
102
{ACAD_REACTORS
330
3D
102
}
330
3D
100
DictionaryVariables
280
     0
  1
STANDARD
  0
DICTIONARYVAR
  5
3F
102
{ACAD_REACTORS
330
3D
102
}
330
3D
100
DictionaryVariables
280
     0
  1
2
  0
DICTIONARYVAR
  5
3E
102
{ACAD_REACTORS
330
3D
102
}
330
3D
100
DictionaryVariables
280
     0
  1
1
  0
DICTIONARYVAR
  5
2964
102
{ACAD_REACTORS
330
3D
102
}
330
3D
100
DictionaryVariables
280
     0
  1

  0
XRECORD
  5
294D
102
{ACAD_REACTORS
330
294C
102
}
330
294C
100
AcDbXrecord
280
     1
330
28CB
  0
DICTIONARY
  5
296D
330
1E
100
AcDbDictionary
280
     1
281
     1
  3
ACAD_XREC_ROUNDTRIP
360
296E
  0
DICTIONARY
  5
2971
330
26
100
AcDbDictionary
280
     1
281
     1
  3
ACAD_XREC_ROUNDTRIP
360
2972
  0
DICTIONARY
  5
296F
330
22
100
AcDbDictionary
280
     1
281
     1
  3
ACAD_XREC_ROUNDTRIP
360
2970
  0
XRECORD
  5
296E
102
{ACAD_REACTORS
330
296D
102
}
330
296D
100
AcDbXrecord
280
     1
102
SHADEPLOT
 70
     0
102
SHADEPLOTRESLEVEL
 70
     2
102
SHADEPLOTCUSTOMDPI
 70
   300
  0
XRECORD
  5
2972
102
{ACAD_REACTORS
330
2971
102
}
330
2971
100
AcDbXrecord
280
     1
102
SHADEPLOT
 70
     0
102
SHADEPLOTRESLEVEL
 70
     2
102
SHADEPLOTCUSTOMDPI
 70
   300
  0
XRECORD
  5
2970
102
{ACAD_REACTORS
330
296F
102
}
330
296F
100
AcDbXrecord
280
     1
102
SHADEPLOT
 70
     0
102
SHADEPLOTRESLEVEL
 70
     2
102
SHADEPLOTCUSTOMDPI
 70
   300
  0
ENDSEC
  0
EOF
