  0
SECTION
  2
HEADER
  9
$ACADVER
  1
AC1015
  9
$ACADMAINTVER
 70
    20
  9
$DWGCODEPAGE
  3
ANSI_1252
  9
$INSBASE
 10
0.0
 20
0.0
 30
0.0
  9
$EXTMIN
 10
4091.911541857246
 20
1844.186292136148
 30
0.0
  9
$EXTMAX
 10
4092.626222599028
 20
1844.656292136148
 30
0.0
  9
$LIMMIN
 10
0.0
 20
0.0
  9
$LIMMAX
 10
420.0
 20
297.0
  9
$ORTHOMODE
 70
     0
  9
$REGENMODE
 70
     1
  9
$FILLMODE
 70
     1
  9
$QTEXTMODE
 70
     0
  9
$MIRRTEXT
 70
     1
  9
$LTSCALE
 40
1.0
  9
$ATTMODE
 70
     1
  9
$TEXTSIZE
 40
2.5
  9
$TRACEWID
 40
1.0
  9
$TEXTSTYLE
  7
SANINDUSA
  9
$CLAYER
  8
cotas
  9
$CELTYPE
  6
ByLayer
  9
$CECOLOR
 62
   256
  9
$CELTSCALE
 40
1.0
  9
$DISPSILH
 70
     0
  9
$DIMSCALE
 40
1.0
  9
$DIMASZ
 40
2.0
  9
$DIMEXO
 40
1.0
  9
$DIMDLI
 40
1.0
  9
$DIMRND
 40
0.0
  9
$DIMDLE
 40
0.0
  9
$DIMEXE
 40
1.0
  9
$DIMTP
 40
0.0
  9
$DIMTM
 40
0.0
  9
$DIMTXT
 40
2.0
  9
$DIMCEN
 40
0.0
  9
$DIMTSZ
 40
0.0
  9
$DIMTOL
 70
     0
  9
$DIMLIM
 70
     0
  9
$DIMTIH
 70
     0
  9
$DIMTOH
 70
     0
  9
$DIMSE1
 70
     0
  9
$DIMSE2
 70
     0
  9
$DIMTAD
 70
     1
  9
$DIMZIN
 70
     8
  9
$DIMBLK
  1

  9
$DIMASO
 70
     1
  9
$DIMSHO
 70
     1
  9
$DIMPOST
  1

  9
$DIMAPOST
  1

  9
$DIMALT
 70
     0
  9
$DIMALTD
 70
     3
  9
$DIMALTF
 40
0.03937007874016
  9
$DIMLFAC
 40
1.0
  9
$DIMTOFL
 70
     1
  9
$DIMTVP
 40
0.0
  9
$DIMTIX
 70
     0
  9
$DIMSOXD
 70
     0
  9
$DIMSAH
 70
     0
  9
$DIMBLK1
  1

  9
$DIMBLK2
  1

  9
$DIMSTYLE
  2
SANINDUSA
  9
$DIMCLRD
 70
   256
  9
$DIMCLRE
 70
   256
  9
$DIMCLRT
 70
   256
  9
$DIMTFAC
 40
1.0
  9
$DIMGAP
 40
1.0
  9
$DIMJUST
 70
     0
  9
$DIMSD1
 70
     0
  9
$DIMSD2
 70
     0
  9
$DIMTOLJ
 70
     0
  9
$DIMTZIN
 70
     8
  9
$DIMALTZ
 70
     0
  9
$DIMALTTZ
 70
     0
  9
$DIMUPT
 70
     0
  9
$DIMDEC
 70
     1
  9
$DIMTDEC
 70
     1
  9
$DIMALTU
 70
     2
  9
$DIMALTTD
 70
     3
  9
$DIMTXSTY
  7
SANINDUSA
  9
$DIMAUNIT
 70
     0
  9
$DIMADEC
 70
     1
  9
$DIMALTRND
 40
0.0
  9
$DIMAZIN
 70
     0
  9
$DIMDSEP
 70
    44
  9
$DIMATFIT
 70
     3
  9
$DIMFRAC
 70
     0
  9
$DIMLDRBLK
  1

  9
$DIMLUNIT
 70
     2
  9
$DIMLWD
 70
    -1
  9
$DIMLWE
 70
    -1
  9
$DIMTMOVE
 70
     0
  9
$LUNITS
 70
     2
  9
$LUPREC
 70
     4
  9
$SKETCHINC
 40
1.0
  9
$FILLETRAD
 40
3.0
  9
$AUNITS
 70
     0
  9
$AUPREC
 70
     0
  9
$MENU
  1
.
  9
$ELEVATION
 40
0.0
  9
$PELEVATION
 40
0.0
  9
$THICKNESS
 40
0.0
  9
$LIMCHECK
 70
     0
  9
$CHAMFERA
 40
10.0
  9
$CHAMFERB
 40
10.0
  9
$CHAMFERC
 40
20.0
  9
$CHAMFERD
 40
0.0
  9
$SKPOLY
 70
     0
  9
$TDCREATE
 40
2454610.602409387
  9
$TDUCREATE
 40
2454610.560742720
  9
$TDUPDATE
 40
2454928.432932211
  9
$TDUUPDATE
 40
2454928.391265544
  9
$TDINDWG
 40
0.0049421181
  9
$TDUSRTIMER
 40
0.0049419444
  9
$USRTIMER
 70
     1
  9
$ANGBASE
 50
0.0
  9
$ANGDIR
 70
     0
  9
$PDMODE
 70
     0
  9
$PDSIZE
 40
0.0
  9
$PLINEWID
 40
0.0
  9
$SPLFRAME
 70
     0
  9
$SPLINETYPE
 70
     6
  9
$SPLINESEGS
 70
     8
  9
$HANDSEED
  5
1599
  9
$SURFTAB1
 70
     6
  9
$SURFTAB2
 70
     6
  9
$SURFTYPE
 70
     6
  9
$SURFU
 70
     6
  9
$SURFV
 70
     6
  9
$UCSBASE
  2

  9
$UCSNAME
  2

  9
$UCSORG
 10
0.0
 20
0.0
 30
0.0
  9
$UCSXDIR
 10
1.0
 20
0.0
 30
0.0
  9
$UCSYDIR
 10
0.0
 20
1.0
 30
0.0
  9
$UCSORTHOREF
  2

  9
$UCSORTHOVIEW
 70
     0
  9
$UCSORGTOP
 10
0.0
 20
0.0
 30
0.0
  9
$UCSORGBOTTOM
 10
0.0
 20
0.0
 30
0.0
  9
$UCSORGLEFT
 10
0.0
 20
0.0
 30
0.0
  9
$UCSORGRIGHT
 10
0.0
 20
0.0
 30
0.0
  9
$UCSORGFRONT
 10
0.0
 20
0.0
 30
0.0
  9
$UCSORGBACK
 10
0.0
 20
0.0
 30
0.0
  9
$PUCSBASE
  2

  9
$PUCSNAME
  2

  9
$PUCSORG
 10
0.0
 20
0.0
 30
0.0
  9
$PUCSXDIR
 10
1.0
 20
0.0
 30
0.0
  9
$PUCSYDIR
 10
0.0
 20
1.0
 30
0.0
  9
$PUCSORTHOREF
  2

  9
$PUCSORTHOVIEW
 70
     0
  9
$PUCSORGTOP
 10
0.0
 20
0.0
 30
0.0
  9
$PUCSORGBOTTOM
 10
0.0
 20
0.0
 30
0.0
  9
$PUCSORGLEFT
 10
0.0
 20
0.0
 30
0.0
  9
$PUCSORGRIGHT
 10
0.0
 20
0.0
 30
0.0
  9
$PUCSORGFRONT
 10
0.0
 20
0.0
 30
0.0
  9
$PUCSORGBACK
 10
0.0
 20
0.0
 30
0.0
  9
$USERI1
 70
     0
  9
$USERI2
 70
     0
  9
$USERI3
 70
     0
  9
$USERI4
 70
     0
  9
$USERI5
 70
     0
  9
$USERR1
 40
0.0
  9
$USERR2
 40
0.0
  9
$USERR3
 40
0.0
  9
$USERR4
 40
0.0
  9
$USERR5
 40
0.0
  9
$WORLDVIEW
 70
     1
  9
$SHADEDGE
 70
     3
  9
$SHADEDIF
 70
    70
  9
$TILEMODE
 70
     1
  9
$MAXACTVP
 70
    64
  9
$PINSBASE
 10
0.0
 20
0.0
 30
0.0
  9
$PLIMCHECK
 70
     0
  9
$PEXTMIN
 10
1.000000000000000E+20
 20
1.000000000000000E+20
 30
1.000000000000000E+20
  9
$PEXTMAX
 10
-1.000000000000000E+20
 20
-1.000000000000000E+20
 30
-1.000000000000000E+20
  9
$PLIMMIN
 10
0.0
 20
0.0
  9
$PLIMMAX
 10
420.0
 20
297.0
  9
$UNITMODE
 70
     0
  9
$VISRETAIN
 70
     1
  9
$PLINEGEN
 70
     0
  9
$PSLTSCALE
 70
     1
  9
$TREEDEPTH
 70
  3020
  9
$CMLSTYLE
  2
Standard
  9
$CMLJUST
 70
     0
  9
$CMLSCALE
 40
20.0
  9
$PROXYGRAPHICS
 70
     1
  9
$MEASUREMENT
 70
     1
  9
$CELWEIGHT
370
    -1
  9
$ENDCAPS
280
     0
  9
$JOINSTYLE
280
     0
  9
$LWDISPLAY
290
     0
  9
$INSUNITS
 70
     4
  9
$HYPERLINKBASE
  1

  9
$STYLESHEET
  1
sanindusa.ctb
  9
$XEDIT
290
     1
  9
$CEPSNTYPE
380
     0
  9
$PSTYLEMODE
290
     1
  9
$FINGERPRINTGUID
  2
{0BB27913-6746-4E58-BB8F-C5FE464B3813}
  9
$VERSIONGUID
  2
{B46ED0E3-A8E8-475A-8DC8-616CDAA8AF48}
  9
$EXTNAMES
290
     1
  9
$PSVPSCALE
 40
0.0
  9
$OLESTARTUP
290
     0
  0
ENDSEC
  0
SECTION
  2
CLASSES
  0
CLASS
  1
ACDBDICTIONARYWDFLT
  2
AcDbDictionaryWithDefault
  3
ObjectDBX Classes
 90
        0
280
     0
281
     0
  0
CLASS
  1
ACDBPLACEHOLDER
  2
AcDbPlaceHolder
  3
ObjectDBX Classes
 90
        0
280
     0
281
     0
  0
CLASS
  1
LAYOUT
  2
AcDbLayout
  3
ObjectDBX Classes
 90
        0
280
     0
281
     0
  0
CLASS
  1
DICTIONARYVAR
  2
AcDbDictionaryVar
  3
ObjectDBX Classes
 90
        0
280
     0
281
     0
  0
CLASS
  1
DIMASSOC
  2
AcDbDimAssoc
  3
"AcDbDimAssoc|Product Desc:     AcDim ARX App For Dimension|Company:          Autodesk, Inc.|WEB Address:      www.autodesk.com"
 90
    32768
280
     0
281
     0
  0
CLASS
  1
TABLESTYLE
  2
AcDbTableStyle
  3
ObjectDBX Classes
 90
     2047
280
     0
281
     0
  0
CLASS
  1
MATERIAL
  2
AcDbMaterial
  3
ObjectDBX Classes
 90
        0
280
     0
281
     0
  0
CLASS
  1
VISUALSTYLE
  2
AcDbVisualStyle
  3
ObjectDBX Classes
 90
     4095
280
     0
281
     0
  0
CLASS
  1
SCALE
  2
AcDbScale
  3
ObjectDBX Classes
 90
     1153
280
     0
281
     0
  0
CLASS
  1
MLEADERSTYLE
  2
AcDbMLeaderStyle
  3
ACDB_MLEADERSTYLE_CLASS
 90
     4095
280
     0
281
     0
  0
CLASS
  1
CELLSTYLEMAP
  2
AcDbCellStyleMap
  3
ObjectDBX Classes
 90
     1152
280
     0
281
     0
  0
ENDSEC
  0
SECTION
  2
TABLES
  0
TABLE
  2
VPORT
  5
8
102
{ACAD_XDICTIONARY
360
155E
102
}
330
0
100
AcDbSymbolTable
 70
     2
  0
VPORT
  5
1590
330
8
100
AcDbSymbolTableRecord
100
AcDbViewportTableRecord
  2
*Active
 70
     0
 10
0.0
 20
0.0
 11
1.0
 21
1.0
 12
4092.268882228136
 22
1844.421292136148
 13
0.0
 23
0.0
 14
10.0
 24
10.0
 15
10.0
 25
10.0
 16
0.0
 26
0.0
 36
1.0
 17
0.0
 27
0.0
 37
0.0
 40
0.4728600405680936
 41
1.602030456852791
 42
50.0
 43
0.0
 44
0.0
 50
0.0
 51
0.0
 71
     0
 72
   100
 73
     1
 74
     2
 75
     0
 76
     0
 77
     0
 78
     0
281
     0
 65
     1
110
0.0
120
0.0
130
0.0
111
1.0
121
0.0
131
0.0
112
0.0
122
1.0
132
0.0
 79
     0
146
0.0
  0
ENDTAB
  0
TABLE
  2
LTYPE
  5
5
330
0
100
AcDbSymbolTable
 70
     5
  0
LTYPE
  5
14
330
5
100
AcDbSymbolTableRecord
100
AcDbLinetypeTableRecord
  2
ByBlock
 70
     0
  3

 72
    65
 73
     0
 40
0.0
  0
LTYPE
  5
15
330
5
100
AcDbSymbolTableRecord
100
AcDbLinetypeTableRecord
  2
ByLayer
 70
     0
  3

 72
    65
 73
     0
 40
0.0
  0
LTYPE
  5
16
330
5
100
AcDbSymbolTableRecord
100
AcDbLinetypeTableRecord
  2
Continuous
 70
     0
  3
Solid line
 72
    65
 73
     0
 40
0.0
  0
LTYPE
  5
2D
330
5
100
AcDbSymbolTableRecord
100
AcDbLinetypeTableRecord
  2
DASHDOT
 70
     0
  3
Dash dot __ . __ . __ . __ . __ . __ . __ . __
 72
    65
 73
     4
 40
25.4
 49
12.7
 74
     0
 49
-6.349999999999999
 74
     0
 49
0.0
 74
     0
 49
-6.349999999999999
 74
     0
  0
LTYPE
  5
2E
330
5
100
AcDbSymbolTableRecord
100
AcDbLinetypeTableRecord
  2
HIDDEN
 70
     0
  3
Hidden __ __ __ __ __ __ __ __ __ __ __ __ __ _
 72
    65
 73
     2
 40
9.524999999999998
 49
6.349999999999999
 74
     0
 49
-3.174999999999999
 74
     0
  0
LTYPE
  5
C75
330
5
100
AcDbSymbolTableRecord
100
AcDbLinetypeTableRecord
  2
AM_ISO02W050
 70
     0
  3
__ __ __ __ __ __ __ __ __ __ __ __ __ __ __
 72
    65
 73
     2
 40
7.5
 49
6.0
 74
     0
 49
-1.5
 74
     0
  0
LTYPE
  5
C76
330
5
100
AcDbSymbolTableRecord
100
AcDbLinetypeTableRecord
  2
AM_ISO08W050
 70
     0
  3
____ . ____ . ____ . ____ . ____ . ____ . ____
 72
    65
 73
     4
 40
18.0
 49
12.0
 74
     0
 49
-1.5
 74
     0
 49
3.0
 74
     0
 49
-1.5
 74
     0
  0
ENDTAB
  0
TABLE
  2
LAYER
  5
2
102
{ACAD_XDICTIONARY
360
1051
102
}
330
0
100
AcDbSymbolTable
 70
    17
  0
LAYER
  5
10
102
{ACAD_XDICTIONARY
360
1538
102
}
330
2
100
AcDbSymbolTableRecord
100
AcDbLayerTableRecord
  2
0
 70
     0
 62
     7
  6
Continuous
370
    -3
390
F
  0
LAYER
  5
2F
102
{ACAD_XDICTIONARY
360
153A
102
}
330
2
100
AcDbSymbolTableRecord
100
AcDbLayerTableRecord
  2
1
 70
     0
 62
     1
  6
Continuous
370
    -3
390
F
  0
LAYER
  5
30
102
{ACAD_XDICTIONARY
360
153C
102
}
330
2
100
AcDbSymbolTableRecord
100
AcDbLayerTableRecord
  2
2
 70
     0
 62
     2
  6
Continuous
370
    -3
390
F
  0
LAYER
  5
31
102
{ACAD_XDICTIONARY
360
153E
102
}
330
2
100
AcDbSymbolTableRecord
100
AcDbLayerTableRecord
  2
3
 70
     0
 62
     3
  6
Continuous
370
    -3
390
F
  0
LAYER
  5
32
102
{ACAD_XDICTIONARY
360
1540
102
}
330
2
100
AcDbSymbolTableRecord
100
AcDbLayerTableRecord
  2
4
 70
     0
 62
     4
  6
Continuous
370
    -3
390
F
  0
LAYER
  5
33
102
{ACAD_XDICTIONARY
360
1542
102
}
330
2
100
AcDbSymbolTableRecord
100
AcDbLayerTableRecord
  2
5
 70
     0
 62
     5
  6
Continuous
370
    -3
390
F
  0
LAYER
  5
34
102
{ACAD_XDICTIONARY
360
1544
102
}
330
2
100
AcDbSymbolTableRecord
100
AcDbLayerTableRecord
  2
6
 70
     0
 62
     6
  6
Continuous
370
    -3
390
F
  0
LAYER
  5
35
102
{ACAD_XDICTIONARY
360
1546
102
}
330
2
100
AcDbSymbolTableRecord
100
AcDbLayerTableRecord
  2
7
 70
     0
 62
     7
  6
Continuous
370
    -3
390
F
  0
LAYER
  5
36
102
{ACAD_XDICTIONARY
360
1548
102
}
330
2
100
AcDbSymbolTableRecord
100
AcDbLayerTableRecord
  2
cen
 70
     0
 62
     7
  6
DASHDOT
370
    -3
390
F
  0
LAYER
  5
37
102
{ACAD_XDICTIONARY
360
154A
102
}
330
2
100
AcDbSymbolTableRecord
100
AcDbLayerTableRecord
  2
hid
 70
     0
 62
     7
  6
HIDDEN
370
    -3
390
F
  0
LAYER
  5
5D6
102
{ACAD_XDICTIONARY
360
154C
102
}
330
2
100
AcDbSymbolTableRecord
100
AcDbLayerTableRecord
  2
hatch
 70
     0
 62
     9
  6
Continuous
370
    -3
390
F
  0
LAYER
  5
8AF
102
{ACAD_XDICTIONARY
360
154E
102
}
330
2
100
AcDbSymbolTableRecord
100
AcDbLayerTableRecord
  2
9
 70
     0
 62
     9
  6
Continuous
370
    -3
390
F
  0
LAYER
  5
8F8
102
{ACAD_XDICTIONARY
360
1550
102
}
330
2
100
AcDbSymbolTableRecord
100
AcDbLayerTableRecord
  2
leg fin
 70
     0
 62
     9
  6
Continuous
370
    -3
390
F
  0
LAYER
  5
91D
102
{ACAD_XDICTIONARY
360
1552
102
}
330
2
100
AcDbSymbolTableRecord
100
AcDbLayerTableRecord
  2
cotas
 70
     0
 62
     1
  6
Continuous
370
    -3
390
F
  0
LAYER
  5
92F
330
2
100
AcDbSymbolTableRecord
100
AcDbLayerTableRecord
  2
Defpoints
 70
     0
 62
     7
  6
Continuous
290
     0
370
    -3
390
F
  0
LAYER
  5
C7B
102
{ACAD_XDICTIONARY
360
1554
102
}
330
2
100
AcDbSymbolTableRecord
100
AcDbLayerTableRecord
  2
SANINDUSA
 70
     0
 62
     3
  6
Continuous
370
    -3
390
F
  0
LAYER
  5
1060
102
{ACAD_XDICTIONARY
360
1556
102
}
330
2
100
AcDbSymbolTableRecord
100
AcDbLayerTableRecord
  2
hid1
 70
     0
 62
     9
  6
HIDDEN
370
    -3
390
F
1001
AcAecLayerStandard
1000

1000

  0
ENDTAB
  0
TABLE
  2
STYLE
  5
3
330
0
100
AcDbSymbolTable
 70
     4
  0
STYLE
  5
11
330
3
100
AcDbSymbolTableRecord
100
AcDbTextStyleTableRecord
  2
Standard
 70
     0
 40
0.0
 41
1.0
 50
0.0
 71
     0
 42
2.5
  3
Avgardn.ttf
  4

1001
ACAD
1000
AvantGarde Bk BT
1071
       34
  0
STYLE
  5
2C
330
3
100
AcDbSymbolTableRecord
100
AcDbTextStyleTableRecord
  2

 70
     1
 40
0.0
 41
1.0
 50
0.0
 71
     0
 42
2.5
  3
ltypeshp.shx
  4

  0
STYLE
  5
91F
330
3
100
AcDbSymbolTableRecord
100
AcDbTextStyleTableRecord
  2
SANINDUSA
 70
     0
 40
0.0
 41
1.0
 50
0.0
 71
     0
 42
2.5
  3
verdana.TTF
  4

1001
ACAD
1000
Verdana
1071
       34
  0
STYLE
  5
C7C
330
3
100
AcDbSymbolTableRecord
100
AcDbTextStyleTableRecord
  2
futura
 70
     0
 40
0.0
 41
1.0
 50
0.0
 71
     0
 42
2.5
  3
ZURCHN.TTF
  4

1001
ACAD
1000
Zurich BT
1071
       34
  0
ENDTAB
  0
TABLE
  2
VIEW
  5
6
330
0
100
AcDbSymbolTable
 70
     0
  0
ENDTAB
  0
TABLE
  2
UCS
  5
7
330
0
100
AcDbSymbolTable
 70
     0
  0
ENDTAB
  0
TABLE
  2
APPID
  5
9
330
0
100
AcDbSymbolTable
 70
    13
  0
APPID
  5
12
330
9
100
AcDbSymbolTableRecord
100
AcDbRegAppTableRecord
  2
ACAD
 70
     0
  0
APPID
  5
3A
330
9
100
AcDbSymbolTableRecord
100
AcDbRegAppTableRecord
  2
DCO15
 70
     0
  0
APPID
  5
EEE
330
9
100
AcDbSymbolTableRecord
100
AcDbRegAppTableRecord
  2
ACAD_DSTYLE_DIMTEXT_FILL
 70
     0
  0
APPID
  5
EEF
330
9
100
AcDbSymbolTableRecord
100
AcDbRegAppTableRecord
  2
ACAD_DSTYLE_DIMEXT_LENGTH
 70
     0
  0
APPID
  5
EF0
330
9
100
AcDbSymbolTableRecord
100
AcDbRegAppTableRecord
  2
ACAD_DSTYLE_DIMEXT_ENABLED
 70
     0
  0
APPID
  5
EF1
330
9
100
AcDbSymbolTableRecord
100
AcDbRegAppTableRecord
  2
ACAD_DSTYLE_DIM_LINETYPE
 70
     0
  0
APPID
  5
EF2
330
9
100
AcDbSymbolTableRecord
100
AcDbRegAppTableRecord
  2
ACAD_DSTYLE_DIM_EXT1_LINETYPE
 70
     0
  0
APPID
  5
EF3
330
9
100
AcDbSymbolTableRecord
100
AcDbRegAppTableRecord
  2
ACAD_DSTYLE_DIM_EXT2_LINETYPE
 70
     0
  0
APPID
  5
FAF
330
9
100
AcDbSymbolTableRecord
100
AcDbRegAppTableRecord
  2
ACAD_DSTYLE_DIMJOGGED_JOGANGLE_SYMBOL
 70
     0
  0
APPID
  5
1013
330
9
100
AcDbSymbolTableRecord
100
AcDbRegAppTableRecord
  2
ACAD_DSTYLE_DIMARC_LENGTH_SYMBOL
 70
     0
  0
APPID
  5
1061
330
9
100
AcDbSymbolTableRecord
100
AcDbRegAppTableRecord
  2
AcAecLayerStandard
 70
     0
  0
APPID
  5
10A7
330
9
100
AcDbSymbolTableRecord
100
AcDbRegAppTableRecord
  2
ACAD_MLEADERVER
 70
     0
  0
APPID
  5
1532
330
9
100
AcDbSymbolTableRecord
100
AcDbRegAppTableRecord
  2
ACAD_EXEMPT_FROM_CAD_STANDARDS
 70
     0
  0
ENDTAB
  0
TABLE
  2
DIMSTYLE
  5
A
330
0
100
AcDbSymbolTable
 70
     3
100
AcDbDimStyleTable
 71
     1
340
921
  0
DIMSTYLE
105
45
330
A
100
AcDbSymbolTableRecord
100
AcDbDimStyleTableRecord
  2
STANDARD
 70
     0
289
     0
340
11
  0
DIMSTYLE
105
921
330
A
100
AcDbSymbolTableRecord
100
AcDbDimStyleTableRecord
  2
SANINDUSA
 70
     0
 41
2.0
 42
1.0
 43
1.0
 44
1.0
 73
     0
 74
     0
 77
     1
 78
     8
140
2.0
141
0.0
143
0.03937007874016
147
1.0
171
     3
172
     1
176
   256
177
   256
178
   256
179
     1
271
     1
272
     1
274
     3
278
    44
283
     0
284
     8
340
91F
371
    -1
372
    -1
1001
ACAD_DSTYLE_DIMJOGGED_JOGANGLE_SYMBOL
1070
   384
1040
1.570796326794896
  0
DIMSTYLE
105
C7D
330
A
100
AcDbSymbolTableRecord
100
AcDbDimStyleTableRecord
  2
AM_ISO
 70
     0
  4
"
 41
2.5
 42
1.0
 43
10.0
 44
1.0
 47
0.1
 48
0.1
 73
     0
 74
     0
 77
     1
 78
     8
 79
     2
140
3.5
141
0.0
143
0.0393701
146
0.71
147
1.5
172
     1
176
   256
177
   256
178
     2
271
     2
272
     3
274
     4
283
     0
284
     8
340
11
371
    -1
372
    -1
  0
ENDTAB
  0
TABLE
  2
BLOCK_RECORD
  5
1
330
0
100
AcDbSymbolTable
 70
     7
  0
BLOCK_RECORD
  5
1F
330
1
100
AcDbSymbolTableRecord
100
AcDbBlockTableRecord
  2
*Model_Space
340
22
  0
BLOCK_RECORD
  5
1B
330
1
100
AcDbSymbolTableRecord
100
AcDbBlockTableRecord
  2
*Paper_Space
340
1E
  0
BLOCK_RECORD
  5
23
330
1
100
AcDbSymbolTableRecord
100
AcDbBlockTableRecord
  2
*Paper_Space0
340
26
  0
BLOCK_RECORD
  5
919
330
1
100
AcDbSymbolTableRecord
100
AcDbBlockTableRecord
  2
_DotSmall
340
0
  0
BLOCK_RECORD
  5
922
330
1
100
AcDbSymbolTableRecord
100
AcDbBlockTableRecord
  2
base para cotas
340
0
310
2800000020000000200000000100080000000000000400000000000000000000000000000000000000000000000080000080000000808000800000008000800080800000C0C0C000C0DCC000F0CAA6000020400000206000002080000020A0000020C0000020E00000400000004020000040400000406000004080000040A0
310
000040C0000040E00000600000006020000060400000606000006080000060A0000060C0000060E00000800000008020000080400000806000008080000080A0000080C0000080E00000A0000000A0200000A0400000A0600000A0800000A0A00000A0C00000A0E00000C0000000C0200000C0400000C0600000C0800000C0
310
A00000C0C00000C0E00000E0000000E0200000E0400000E0600000E0800000E0A00000E0C00000E0E00040000000400020004000400040006000400080004000A0004000C0004000E00040200000402020004020400040206000402080004020A0004020C0004020E000404000004040200040404000404060004040800040
310
40A0004040C0004040E00040600000406020004060400040606000406080004060A0004060C0004060E00040800000408020004080400040806000408080004080A0004080C0004080E00040A0000040A0200040A0400040A0600040A0800040A0A00040A0C00040A0E00040C0000040C0200040C0400040C0600040C08000
310
40C0A00040C0C00040C0E00040E0000040E0200040E0400040E0600040E0800040E0A00040E0C00040E0E00080000000800020008000400080006000800080008000A0008000C0008000E00080200000802020008020400080206000802080008020A0008020C0008020E00080400000804020008040400080406000804080
310
008040A0008040C0008040E00080600000806020008060400080606000806080008060A0008060C0008060E00080800000808020008080400080806000808080008080A0008080C0008080E00080A0000080A0200080A0400080A0600080A0800080A0A00080A0C00080A0E00080C0000080C0200080C0400080C0600080C0
310
800080C0A00080C0C00080C0E00080E0000080E0200080E0400080E0600080E0800080E0A00080E0C00080E0E000C0000000C0002000C0004000C0006000C0008000C000A000C000C000C000E000C0200000C0202000C0204000C0206000C0208000C020A000C020C000C020E000C0400000C0402000C0404000C0406000C0
310
408000C040A000C040C000C040E000C0600000C0602000C0604000C0606000C0608000C060A000C060C000C060E000C0800000C0802000C0804000C0806000C0808000C080A000C080C000C080E000C0A00000C0A02000C0A04000C0A06000C0A08000C0A0A000C0A0C000C0A0E000C0C00000C0C02000C0C04000C0C06000
310
C0C08000C0C0A000F0FBFF00A4A0A000808080000000FF0000FF000000FFFF00FF000000FF00FF00FFFF0000FFFFFF00A4A4A4A4A4A4A4A4A4A4A4A4A4A4A4A4A4A4A4A4A4A4A4A4A4A4A4A4A4A4A4A4A4A4A4A4A4A4A4A4A4A4A4A4A4A4A4A4A4A4A4A4A4A4A4A4A4A4A4A4A4A4A4A4A4A4A4A4A4A4A4A4A4A4A4A4A4A4A4
310
A4A4A4A4A4A4A4A4A4A4A4A4A4A4A4A4A4A4A4A4A4A4A4A4A4A4A4A4A4A4A4A4A4A4A4A4A4A4A4A4A4A4A4A4A4A4A4A4A4A4A4A4A4A4A4A4A4A4A4A4A4A4A4A4A4A4A4A4A4A4A4A4A4A4A4A4A4A4A4A4A4A4A4A4A4A4A4A4A4A4A4A4A4A4A4A4A4A4A4A4A4A4A4A4A4A4A4A4A4A4A4A4A4A4A4A4A4A4A4A4A4A4A4A4A4A4A4
310
A4A4A4A4A4A4A4A4A4A4A4A4A4A4A4A4A4A4A4A4A4A4A4A4A4A4A4A4A4A4A4A4A4A4A4A4A4A4A4A4A4A4A4A4A4A4A4A4A4A4A4A4A4A4A4A4A4A4A4A4A4A4A4A4A4A4A4A4A4A4A4A4A4A4A4A4A4A4A4A4A4A4A4A4A4A4A4A4A4A4A4A4A4A4A4A4A4A4A4A4A4A4A4A4A4A4A4A4A4A4A4A4A4A4A4A4A4A4A4A4A4A4A4A4A4A4A4
310
A4A4A4A4A4A4A4A4A4A4A4A4A4A4A4A4A4A4A4A4A4A4A4A4A4A4A4A4A4A4A4A4A4A4A4A4A4A4A4A4A4A4A4A4A4A4A4A4A4A4A4A4A4A4A4A4A4A4A4A4A4A4A4A4A4A4A4A4A4A4A4A4A4A4A4A4A4A4A4A4A4A4A4A4A4A4A4A4A4A4A4A4A4A4A4A4A4A4A4A4A4A4A4A4A4A4A4A4A4A4A4A4A4A4A4A4F9F9F9F9F9F9F9F9F9F9F9
310
F9F9F9F9F9F9F9F9F9F9F9F9F9F9F9F9F9F9F9A4A4F9F9F9F9F9F9F9F9F9F9F9F9F9F9F9F9F9F9F9F9F9F9F9F9F9F9F9F9F9F9A4A4F9F9F9F9F9F9F9F9F9F9F9F9F9F9F9F9F9F9F9F9F9F9F9F9F9F9F9F9F9F9A4A4F9A4A4A4A4A4A4A4A4A4A4A4A4A4A4A4A4A4A4A4A4A4A4A4A4A4A4A4A4F9A4A4A4A4A4A4A4A4A4A4A4A4
310
A4A4A4A4A4A4A4A4A4A4A4A4A4A4A4A4A4A4A4A4A4A4A4A4A4A4A4A4A4A4A4A4A4A4A4A4A4A4A4A4A4A4A4A4A4A4A4A4A4A4A4A4A4A4A4A4A4A4A4A4A4A4A4A4A4A4A4A4A4A4A4A4A4A4A4A4A4A4A4A4A4A4A4A4A4A4A4A4A4A4A4A4A4A4A4A4A4A4A4A4A4A4A4A4A4A4A4A4A4A4A4A4A4A4A4A4A4A4A4A4A4A4A4A4A4A4A4
310
A4A4A4A4A4A4A4A4A4A4A4A4A4A4A4A4A4A4A4A4A4A4A4A4A4A4A4A4A4A4A4A4A4A4A4A4A4A4A4A4A4A4A4A4A4A4A4A4A4A4A4A4A4A4A4A4A4A4A4A4A4A4A4A4A4A4A4A4A4A4A4A4A4A4A4A4A4A4A4A4A4A4A4A4A4A4A4A4A4A4A4A4A4A4A4A4A4A4A4A4A4A4A4A4A4A4A4A4A4A4A4A4A4A4A4A4A4A4A4A4A4A4A4A4A4A4A4
310
A4A4A4A4A4A4A4A4A4A4A4A4A4A4A4A4A4A4A4A4A4A4A4A4A4A4A4A4A4A4A4A4A4A4A4A4A4A4A4A4A4A4A4A4A4A4A4A4A4A4A4A4A4A4A4A4A4A4A4A4A4A4A4A4A4A4A4A4A4A4A4A4A4A4A4A4A4A4A4A4A4A4A4A4A4A4A4A4A4A4A4A4A4A4A4A4A4A4A4A4A4A4A4A4A4A4A4A4A4A4A4A4A4A4A4A4A4A4A4A4A4A4A4A4A4A4A4
310
A4A4A4A4A4A4A4A4A4A4A4A4A4A4A4A4A4A4A4A4A4A4A4A4A4A4A4A4A4A4A4A4A4A4A4A4A4A4A4A4A4A4A4A4A4A4A4A4A4A4A4A4A4A4A4A4
1001
ACAD
1000
DesignCenter Data
1002
{
1070
     1
1070
     4
1002
}
  0
BLOCK_RECORD
  5
AA8
330
1
100
AcDbSymbolTableRecord
100
AcDbBlockTableRecord
  2
_CLOSED
340
0
  0
BLOCK_RECORD
  5
B79
330
1
100
AcDbSymbolTableRecord
100
AcDbBlockTableRecord
  2
nota revisoes
340
0
1001
ACAD
1000
DesignCenter Data
1002
{
1070
     1
1070
     4
1002
}
  0
BLOCK_RECORD
  5
B8E
330
1
100
AcDbSymbolTableRecord
100
AcDbBlockTableRecord
  2
a3l
340
0
1001
ACAD
1000
DesignCenter Data
1002
{
1070
     1
1070
     4
1002
}
  0
BLOCK_RECORD
  5
B9E
330
1
100
AcDbSymbolTableRecord
100
AcDbBlockTableRecord
  2
legenda desenvolvimento
340
0
1001
ACAD
1000
DesignCenter Data
1002
{
1070
     1
1070
     4
1002
}
  0
ENDTAB
  0
ENDSEC
  0
SECTION
  2
BLOCKS
  0
BLOCK
  5
20
330
1F
100
AcDbEntity
  8
0
100
AcDbBlockBegin
  2
*Model_Space
 70
     0
 10
0.0
 20
0.0
 30
0.0
  3
*Model_Space
  1

  0
ENDBLK
  5
21
330
1F
100
AcDbEntity
  8
0
100
AcDbBlockEnd
  0
BLOCK
  5
1C
330
1B
100
AcDbEntity
 67
     1
  8
0
100
AcDbBlockBegin
  2
*Paper_Space
 70
     0
 10
0.0
 20
0.0
 30
0.0
  3
*Paper_Space
  1

  0
ENDBLK
  5
1D
330
1B
100
AcDbEntity
 67
     1
  8
0
100
AcDbBlockEnd
  0
BLOCK
  5
24
330
23
100
AcDbEntity
 67
     1
  8
0
100
AcDbBlockBegin
  2
*Paper_Space0
 70
     0
 10
0.0
 20
0.0
 30
0.0
  3
*Paper_Space0
  1

  0
ENDBLK
  5
25
330
23
100
AcDbEntity
 67
     1
  8
0
100
AcDbBlockEnd
  0
BLOCK
  5
91B
330
919
100
AcDbEntity
  8
0
100
AcDbBlockBegin
  2
_DotSmall
 70
     0
 10
0.0
 20
0.0
 30
0.0
  3
_DotSmall
  1

  0
LWPOLYLINE
  5
91A
330
919
100
AcDbEntity
  8
0
  6
ByBlock
 62
     0
100
AcDbPolyline
 90
        2
 70
     1
 43
0.5
 10
-0.0625
 20
0.0
 42
1.0
 10
0.0625
 20
0.0
 42
1.0
  0
ENDBLK
  5
91C
330
919
100
AcDbEntity
  8
0
100
AcDbBlockEnd
  0
BLOCK
  5
92A
330
922
100
AcDbEntity
  8
0
100
AcDbBlockBegin
  2
base para cotas
 70
     0
 10
0.0
 20
0.0
 30
0.0
  3
base para cotas
  1

  0
LINE
  5
B36
330
922
100
AcDbEntity
  8
cotas
100
AcDbLine
 10
0.0
 20
-30.0
 30
0.0
 11
327.1260136525398
 21
-30.0
 31
0.0
  0
LINE
  5
B37
330
922
100
AcDbEntity
  8
cotas
100
AcDbLine
 10
0.0
 20
-25.0
 30
0.0
 11
327.1260136525398
 21
-25.0
 31
0.0
  0
LINE
  5
B38
330
922
100
AcDbEntity
  8
cotas
100
AcDbLine
 10
0.0
 20
-20.0
 30
0.0
 11
327.1260136525398
 21
-20.0
 31
0.0
  0
LINE
  5
B39
330
922
100
AcDbEntity
  8
cotas
100
AcDbLine
 10
0.0
 20
-15.0
 30
0.0
 11
327.1260136525398
 21
-15.0
 31
0.0
  0
LINE
  5
B3A
330
922
100
AcDbEntity
  8
cotas
100
AcDbLine
 10
0.0
 20
-10.0
 30
0.0
 11
327.1260136525398
 21
-10.0
 31
0.0
  0
LINE
  5
B3B
330
922
100
AcDbEntity
  8
cotas
100
AcDbLine
 10
0.0
 20
0.0
 30
0.0
 11
0.0
 21
-30.0
 31
0.0
  0
LINE
  5
B3C
330
922
100
AcDbEntity
  8
cotas
100
AcDbLine
 10
327.1260136525398
 20
-30.0
 30
0.0
 11
327.1260136525398
 21
0.0
 31
0.0
  0
ENDBLK
  5
92B
330
922
100
AcDbEntity
  8
0
100
AcDbBlockEnd
  0
BLOCK
  5
AAD
330
AA8
100
AcDbEntity
  8
0
100
AcDbBlockBegin
  2
_CLOSED
 70
     0
 10
0.0
 20
0.0
 30
0.0
  3
_CLOSED
  1

  0
LINE
  5
AA9
330
AA8
100
AcDbEntity
  8
0
100
AcDbLine
 10
-1.0
 20
0.166667
 30
0.0
 11
0.0
 21
0.0
 31
0.0
  0
LINE
  5
AAA
330
AA8
100
AcDbEntity
  8
0
100
AcDbLine
 10
0.0
 20
0.0
 30
0.0
 11
-1.0
 21
-0.166667
 31
0.0
  0
LINE
  5
AAB
330
AA8
100
AcDbEntity
  8
0
100
AcDbLine
 10
-1.0
 20
0.166667
 30
0.0
 11
-1.0
 21
-0.166667
 31
0.0
  0
LINE
  5
AAC
330
AA8
100
AcDbEntity
  8
0
100
AcDbLine
 10
0.0
 20
0.0
 30
0.0
 11
-1.0
 21
0.0
 31
0.0
  0
ENDBLK
  5
AAE
330
AA8
100
AcDbEntity
  8
0
100
AcDbBlockEnd
  0
BLOCK
  5
B7C
330
B79
100
AcDbEntity
  8
0
100
AcDbBlockBegin
  2
nota revisoes
 70
     0
 10
0.0
 20
0.0
 30
0.0
  3
nota revisoes
  1

  0
CIRCLE
  5
B7A
330
B79
100
AcDbEntity
  8
4
100
AcDbCircle
 10
0.0
 20
0.0
 30
0.0
 40
13.69426055101189
  0
TEXT
  5
B7B
330
B79
100
AcDbEntity
  8
4
100
AcDbText
 10
-5.496248358154345
 20
-5.354545554066362
 30
0.0
 40
12.0
  1
1
  7
SANINDUSA
 72
     1
 11
-0.249774214433728
 21
-5.354545554066362
 31
0.0
100
AcDbText
  0
ENDBLK
  5
B7D
330
B79
100
AcDbEntity
  8
0
100
AcDbBlockEnd
  0
BLOCK
  5
B9C
330
B8E
100
AcDbEntity
  8
0
100
AcDbBlockBegin
  2
a3l
 70
     0
 10
0.0
 20
0.0
 30
0.0
  3
a3l
  1

  0
LINE
  5
B8F
330
B8E
100
AcDbEntity
  8
1
100
AcDbLine
 10
-364.2925296599447
 20
-362.1188951399395
 30
0.0
 11
-364.2925296599447
 21
-65.11889513993946
 31
0.0
  0
LINE
  5
B90
330
B8E
100
AcDbEntity
  8
4
100
AcDbLine
 10
-369.2925296599447
 20
-357.1188951399395
 30
0.0
 11
-369.2925296599447
 21
-70.11889513993946
 31
0.0
  0
LINE
  5
B91
330
B8E
100
AcDbEntity
  8
1
100
AcDbLine
 10
-784.2925296599446
 20
-65.11889513993946
 30
0.0
 11
-784.2925296599446
 21
-362.1188951399395
 31
0.0
  0
LINE
  5
B92
330
B8E
100
AcDbEntity
  8
4
100
AcDbLine
 10
-759.2925296599446
 20
-357.1188951399395
 30
0.0
 11
-759.2925296599446
 21
-70.11889513993946
 31
0.0
  0
LINE
  5
B93
330
B8E
100
AcDbEntity
  8
1
100
AcDbLine
 10
-784.2925296599446
 20
-362.1188951399395
 30
0.0
 11
-364.2925296599447
 21
-362.1188951399395
 31
0.0
  0
LINE
  5
B94
330
B8E
100
AcDbEntity
  8
4
100
AcDbLine
 10
-759.2925296599446
 20
-357.1188951399395
 30
0.0
 11
-369.2925296599447
 21
-357.1188951399395
 31
0.0
  0
LINE
  5
B95
330
B8E
100
AcDbEntity
  8
1
100
AcDbLine
 10
-654.2925296599446
 20
-357.1188951399395
 30
0.0
 11
-654.2925296599446
 21
-362.1188951399395
 31
0.0
  0
LINE
  5
B96
330
B8E
100
AcDbEntity
  8
1
100
AcDbLine
 10
-364.2925296599447
 20
-65.11889513993946
 30
0.0
 11
-784.2925296599446
 21
-65.11889513993946
 31
0.0
  0
LINE
  5
B97
330
B8E
100
AcDbEntity
  8
4
100
AcDbLine
 10
-369.2925296599447
 20
-70.11889513993946
 30
0.0
 11
-759.2925296599446
 21
-70.11889513993946
 31
0.0
  0
LINE
  5
B98
330
B8E
100
AcDbEntity
  8
1
100
AcDbLine
 10
-654.2925296599446
 20
-65.11889513993946
 30
0.0
 11
-654.2925296599446
 21
-70.11889513993946
 31
0.0
  0
LINE
  5
B99
330
B8E
100
AcDbEntity
  8
1
100
AcDbLine
 10
-549.2925296599446
 20
-70.11889513993946
 30
0.0
 11
-549.2925296599446
 21
-65.11889513993946
 31
0.0
  0
LINE
  5
B9A
330
B8E
100
AcDbEntity
  8
1
100
AcDbLine
 10
-369.2925296599447
 20
-65.11889513993946
 30
0.0
 11
-364.2925296599447
 21
-65.11889513993946
 31
0.0
  0
LINE
  5
B9B
330
B8E
100
AcDbEntity
  8
1
100
AcDbLine
 10
-549.2925296599446
 20
-357.1188951399395
 30
0.0
 11
-549.2925296599446
 21
-362.1188951399395
 31
0.0
  0
ENDBLK
  5
B9D
330
B8E
100
AcDbEntity
  8
0
100
AcDbBlockEnd
  0
BLOCK
  5
C13
330
B9E
100
AcDbEntity
  8
0
100
AcDbBlockBegin
  2
legenda desenvolvimento
 70
     2
 10
0.0
 20
0.0
 30
0.0
  3
legenda desenvolvimento
  1

  0
ATTDEF
  5
B9F
330
B9E
100
AcDbEntity
  8
1
100
AcDbText
 10
-108.606245802552
 20
55.5
 30
0.0
 40
4.0
  1
XXXXXXXXXXXXXX
 41
0.8
  7
SANINDUSA
 72
     4
 11
-87.5
 21
57.5
 31
0.0
100
AcDbAttributeDefinition
  3
Nome do Produto:
  2
PRODUTO
 70
     0
  0
ATTDEF
  5
BA0
330
B9E
100
AcDbEntity
  8
1
100
AcDbText
 10
-97.9997966101695
 20
41.25
 30
0.0
 40
3.0
  1
XXXXXXXXX
 41
0.8
  7
futura
 72
     4
 11
-87.5
 21
42.75
 31
0.0
100
AcDbAttributeDefinition
  3
Nome da Peça:
  2
PECA
 70
     0
  0
ATTDEF
  5
BA1
330
B9E
100
AcDbEntity
  8
1
100
AcDbText
 10
-133.4422431161853
 20
21.11745296763252
 30
0.0
 40
2.5
  1
X
 41
0.8
  7
SANINDUSA
 72
     4
 11
-132.5
 21
22.36745296763252
 31
0.0
100
AcDbAttributeDefinition
  3
Cod. TESTE:
  2
TESTE
 70
     0
  0
ATTDEF
  5
BA2
330
B9E
100
AcDbEntity
  8
1
100
AcDbText
 10
-124.3844862323707
 20
21.11745296763252
 30
0.0
 40
2.5
  1
XX
 41
0.8
  7
SANINDUSA
 72
     4
 11
-122.5
 21
22.36745296763252
 31
0.0
100
AcDbAttributeDefinition
  3
Cod. Ano:
  2
ANO
 70
     0
  0
ATTDEF
  5
BA3
330
B9E
100
AcDbEntity
  8
1
100
AcDbText
 10
-112.526889953052
 20
21.11745296763252
 30
0.0
 40
2.5
  1
XXX
 41
0.8
  7
SANINDUSA
 72
     4
 11
-109.700160604496
 21
22.36745296763252
 31
0.0
100
AcDbAttributeDefinition
  3
Cod. Sequência:
  2
SEQUENCIA
 70
     0
  0
ATTDEF
  5
BA4
330
B9E
100
AcDbEntity
  8
1
100
AcDbText
 10
-99.35382430979316
 20
21.11745296763252
 30
0.0
 40
2.5
  1
XX
 41
0.8
  7
SANINDUSA
 72
     4
 11
-97.46933807742244
 21
22.36745296763252
 31
0.0
100
AcDbAttributeDefinition
  3
Cod. Tipo:
  2
TIPO
 70
     0
  0
ATTDEF
  5
BA5
330
B9E
100
AcDbEntity
  8
1
100
AcDbText
 10
-87.42035911468438
 20
21.11745296763252
 30
0.0
 40
2.5
  1
XXX
 41
0.8
  7
SANINDUSA
 72
     4
 11
-84.59362976612828
 21
22.36745296763252
 31
0.0
100
AcDbAttributeDefinition
  3
Cod. Produto:
  2
PRODUTO
 70
     0
  0
ATTDEF
  5
BA6
330
B9E
100
AcDbEntity
  8
1
100
AcDbText
 10
-74.62051971917853
 20
21.11745296763252
 30
0.0
 40
2.5
  1
XXX
 41
0.8
  7
SANINDUSA
 72
     4
 11
-71.79379037062244
 21
22.36745296763252
 31
0.0
100
AcDbAttributeDefinition
  3
Cod. Peça:
  2
PECA
 70
     0
  0
ATTDEF
  5
BA7
330
B9E
100
AcDbEntity
  8
1
100
AcDbText
 10
-61.10603446650329
 20
21.11745296763252
 30
0.0
 40
2.5
  1
XX
 41
0.8
  7
SANINDUSA
 72
     4
 11
-59.22154823413257
 21
22.36745296763252
 31
0.0
100
AcDbAttributeDefinition
  3
Cod. Revisão:
  2
REV
 70
     0
  0
ATTDEF
  5
BA8
330
B9E
100
AcDbEntity
  8
1
100
AcDbText
 10
-48.43615325006194
 20
21.11745296763252
 30
0.0
 40
2.5
  1
XX
 41
0.8
  7
SANINDUSA
 72
     4
 11
-46.55166701769121
 21
22.36745296763252
 31
0.0
100
AcDbAttributeDefinition
  3
Cod. Alteração:
  2
ALT
 70
     0
  0
ATTDEF
  5
BA9
330
B9E
100
AcDbEntity
  8
1
100
AcDbText
 10
-35.19086635325722
 20
23.98875083948959
 30
0.0
 40
3.0
  1
1/XXX
 41
0.8
  7
SANINDUSA
 72
     4
 11
-30.0
 21
25.25
 31
0.0
100
AcDbAttributeDefinition
  3
Escala geral:
  2
ESCALA
 70
     0
  0
ATTDEF
  5
BAA
330
B9E
100
AcDbEntity
  8
1
100
AcDbText
 10
-15.65345869711215
 20
23.75
 30
0.0
 40
3.0
  1
XXXXX
 41
0.8
  7
SANINDUSA
 72
     4
 11
-10.0
 21
25.25
 31
0.0
100
AcDbAttributeDefinition
  3
Folha:
  2
FOLHA
 70
     0
  0
ATTDEF
  5
BAB
330
B9E
100
AcDbEntity
  8
1
100
AcDbText
 10
-178.5146998822042
 20
56.9531347542807
 30
0.0
 40
2.0
  1
xx
 41
0.8
  7
SANINDUSA
 72
     4
 11
-177.2123493113513
 21
57.70330265219877
 31
0.0
100
AcDbAttributeDefinition
  3
revisão
  2
REV.
 70
     0
  0
ATTDEF
  5
BAC
330
B9E
100
AcDbEntity
  8
1
100
AcDbText
 10
-172.7849640077129
 20
56.9531347542807
 30
0.0
 40
2.0
  1
xx
 41
0.8
  7
SANINDUSA
 72
     4
 11
-171.48261343686
 21
57.70330265219877
 31
0.0
100
AcDbAttributeDefinition
  3
alteração
  2
ALT.
 70
     0
  0
ATTDEF
  5
BAD
330
B9E
100
AcDbEntity
  8
1
100
AcDbText
 10
-168.007199951307
 20
56.70330265219877
 30
0.0
 40
2.0
  1
xx/xx/xxxx
 41
0.8
  7
SANINDUSA
 11
-168.007199951307
 21
57.70330265219877
 31
0.0
100
AcDbAttributeDefinition
  3
data
  2
DATA
 70
     0
 74
     2
  0
ATTDEF
  5
BAE
330
B9E
100
AcDbEntity
  8
1
100
AcDbText
 10
-168.5396372253371
 20
13.15916722632639
 30
0.0
 40
2.0
  1
XX/XX/XXXX
 41
0.8
  7
SANINDUSA
 72
     4
 11
-161.5099528734231
 21
14.0
 31
0.0
100
AcDbAttributeDefinition
  3
Data projecto
  2
DATA_PROJ
 70
     0
  0
ATTDEF
  5
BAF
330
B9E
100
AcDbEntity
  8
1
100
AcDbText
 10
-150.8658110728766
 20
13.24983210208193
 30
0.0
 40
2.0
  1
xxxxxxxx
 41
0.8
  7
SANINDUSA
 72
     4
 11
-145.6564087894649
 21
14.0
 31
0.0
100
AcDbAttributeDefinition
  3
nome de quem projectou
  2
NOME
 70
     0
  0
ATTDEF
  5
BB0
330
B9E
100
AcDbEntity
  8
1
100
AcDbText
 10
-168.5396372253371
 20
9.159167226326394
 30
0.0
 40
2.0
  1
XX/XX/XXXX
 41
0.8
  7
SANINDUSA
 72
     4
 11
-161.5099528734231
 21
10.0
 31
0.0
100
AcDbAttributeDefinition
  3
Data desenhou
  2
DATA_DES
 70
     0
  0
ATTDEF
  5
BB1
330
B9E
100
AcDbEntity
  8
1
100
AcDbText
 10
-151.516986358303
 20
9.249832102081933
 30
0.0
 40
2.0
  1
xxxxxxxxx
 41
0.8
  7
SANINDUSA
 72
     4
 11
-145.6564087894649
 21
10.0
 31
0.0
100
AcDbAttributeDefinition
  3
nome
  2
NOME
 70
     0
  0
ATTDEF
  5
BB2
330
B9E
100
AcDbEntity
  8
1
100
AcDbText
 10
-127.2924214135946
 20
14.1979876583216
 30
0.0
 40
2.0
  1
Vitreous China
 41
0.8
  7
SANINDUSA
 72
     4
 11
-119.231709526422
 21
15.22216495852308
 31
0.0
100
AcDbAttributeDefinition
  3
Nome do Material:
  2
MATERIAL
 70
     0
  0
ATTDEF
  5
BB3
330
B9E
100
AcDbEntity
  8
1
100
AcDbText
 10
-103.1563452122093
 20
14.38019043949261
 30
0.0
 40
2.0
  1
Branco
 41
0.8
  7
SANINDUSA
 72
     4
 11
-99.33418268702462
 21
15.35937109765245
 31
0.0
100
AcDbAttributeDefinition
  3
cor da peça
  2
COR
 70
     0
  0
ATTDEF
  5
BB4
330
B9E
100
AcDbEntity
  8
1
100
AcDbText
 10
-116.7235057085292
 20
5.975822699798522
 30
0.0
 40
2.0
  1
Vidrado
 41
0.8
  7
SANINDUSA
 72
     4
 11
-112.5
 21
7.0
 31
0.0
100
AcDbAttributeDefinition
  3
Tipo de acabamento:
  2
ACABAMENTO
 70
     0
  0
ATTDEF
  5
BB5
330
B9E
100
AcDbEntity
  8
1
100
AcDbText
 10
-79.18527869967246
 20
16.65066409850533
 30
0.0
 40
2.0
  1
XXXXXXX
 41
0.8
  7
SANINDUSA
 72
     4
 11
-73.90871724903445
 21
17.65066409850533
 31
0.0
100
AcDbAttributeDefinition
  3
Normas
  2
NORMAS
 70
     0
  0
ATTDEF
  5
BB6
330
B9E
100
AcDbEntity
  8
1
100
AcDbText
 10
-30.55312290127603
 20
14.0
 30
0.0
 40
2.0
  1
XXXXXXXXXXXXXX
 41
0.8
  7
SANINDUSA
 72
     4
 11
-20.0
 21
15.0
 31
0.0
100
AcDbAttributeDefinition
  3
Substitui o desenho:
  2
SUBSTITUI
 70
     0
  0
ATTDEF
  5
BB7
330
B9E
100
AcDbEntity
  8
1
100
AcDbText
 10
-31.30691739422431
 20
6.0
 30
0.0
 40
2.0
  1
XXXXXXXXXXXXXXX
 41
0.8
  7
SANINDUSA
 72
     4
 11
-20.0
 21
7.0
 31
0.0
100
AcDbAttributeDefinition
  3
Substituido por:
  2
SUBSTITUIDO
 70
     0
  0
ATTDEF
  5
BB8
330
B9E
100
AcDbEntity
  8
1
100
AcDbText
 10
-110.0220608548302
 20
1.478208457928303
 30
0.0
 40
2.0
  1
XXXXXXXXXXXXXXXXXXXXXXXXXXXXXXXXXX
 41
0.8
  7
SANINDUSA
 11
-110.0220608548302
 21
2.478208457928303
 31
0.0
100
AcDbAttributeDefinition
  3
Localização do desenho:
  2
LOC-DWG
 70
     0
 74
     2
  0
LINE
  5
BB9
330
B9E
100
AcDbEntity
  8
3
100
AcDbLine
 10
-135.0
 20
4.0
 30
0.0
 11
0.0000000000004547
 21
4.0
 31
0.0
  0
LINE
  5
BBA
330
B9E
100
AcDbEntity
  8
3
100
AcDbLine
 10
-90.00000000000046
 20
12.0
 30
0.0
 11
-135.0
 21
12.0
 31
0.0
  0
LINE
  5
BBB
330
B9E
100
AcDbEntity
  8
3
100
AcDbLine
 10
-135.0
 20
32.5
 30
0.0
 11
-40.0
 21
32.5
 31
0.0
  0
TEXT
  5
BBC
330
B9E
100
AcDbEntity
  8
1
100
AcDbText
 10
-134.0
 20
1.25
 30
0.0
 40
2.0
  1
Localização do des.:
 41
0.8
  7
SANINDUSA
 11
-134.0
 21
2.25
 31
0.0
100
AcDbText
 73
     2
  0
LINE
  5
BBD
330
B9E
100
AcDbEntity
  8
3
100
AcDbLine
 10
-180.0
 20
65.0
 30
0.0
 11
0.0
 21
65.0
 31
0.0
  0
LINE
  5
BBE
330
B9E
100
AcDbEntity
  8
leg fin
100
AcDbLine
 10
-40.0
 20
25.05956924886846
 30
0.0
 11
-135.0
 21
25.05956924886846
 31
0.0
  0
LINE
  5
BBF
330
B9E
100
AcDbEntity
  8
leg fin
100
AcDbLine
 10
-40.0
 20
28.5
 30
0.0
 11
-135.0
 21
28.5
 31
0.0
  0
LINE
  5
BC0
330
B9E
100
AcDbEntity
  8
3
100
AcDbLine
 10
-135.0
 20
50.0
 30
0.0
 11
-40.0
 21
50.0
 31
0.0
  0
TEXT
  5
BC1
330
B9E
100
AcDbEntity
  8
1
100
AcDbText
 10
-134.0
 20
29.75
 30
0.0
 40
2.0
  1
Desenho nº:
 41
0.8
  7
SANINDUSA
 11
-134.0
 21
30.75
 31
0.0
100
AcDbText
 73
     2
  0
TEXT
  5
BC2
330
B9E
100
AcDbEntity
  8
1
100
AcDbText
 10
-134.0
 20
9.25
 30
0.0
 40
2.0
  1
Acabamento:
 41
0.8
  7
SANINDUSA
 11
-134.0
 21
10.25
 31
0.0
100
AcDbText
 73
     2
  0
LINE
  5
BC3
330
B9E
100
AcDbEntity
  8
3
100
AcDbLine
 10
-180.0
 20
20.0
 30
0.0
 11
0.0
 21
20.0
 31
0.0
  0
LINE
  5
BC4
330
B9E
100
AcDbEntity
  8
1
100
AcDbLine
 10
-174.5810776056337
 20
55.5
 30
0.0
 11
-174.5810776056337
 21
65.0
 31
0.0
  0
LINE
  5
BC5
330
B9E
100
AcDbEntity
  8
1
100
AcDbLine
 10
-168.9210461879161
 20
55.5
 30
0.0
 11
-168.9210461879161
 21
65.0
 31
0.0
  0
LINE
  5
BC6
330
B9E
100
AcDbEntity
  8
1
100
AcDbLine
 10
-154.0988595589306
 20
55.5
 30
0.0
 11
-154.0988595589306
 21
65.0
 31
0.0
  0
LINE
  5
BC7
330
B9E
100
AcDbEntity
  8
3
100
AcDbLine
 10
-180.0
 20
65.0
 30
0.0
 11
-180.0
 21
0.0
 31
0.0
  0
LINE
  5
BC8
330
B9E
100
AcDbEntity
  8
3
100
AcDbLine
 10
-135.0
 20
0.0
 30
0.0
 11
-135.0
 21
65.0
 31
0.0
  0
TEXT
  5
BC9
330
B9E
100
AcDbEntity
  8
1
100
AcDbText
 10
-179.0
 20
9.75
 30
0.0
 40
1.5
  1
Des.
 41
0.8
  7
SANINDUSA
 11
-179.0
 21
10.5
 31
0.0
100
AcDbText
 73
     2
  0
LINE
  5
BCA
330
B9E
100
AcDbEntity
  8
1
100
AcDbLine
 10
-168.9210461879161
 20
20.0
 30
0.0
 11
-168.9210461879161
 21
0.0
 31
0.0
  0
LINE
  5
BCB
330
B9E
100
AcDbEntity
  8
1
100
AcDbLine
 10
-154.0988595589306
 20
20.0
 30
0.0
 11
-154.0988595589306
 21
0.0
 31
0.0
  0
LINE
  5
BCC
330
B9E
100
AcDbEntity
  8
1
100
AcDbLine
 10
-180.0
 20
4.0
 30
0.0
 11
-135.0
 21
4.0
 31
0.0
  0
LINE
  5
BCD
330
B9E
100
AcDbEntity
  8
1
100
AcDbLine
 10
-180.0
 20
8.0
 30
0.0
 11
-135.0
 21
8.0
 31
0.0
  0
TEXT
  5
BCE
330
B9E
100
AcDbEntity
  8
1
100
AcDbText
 10
-179.0
 20
1.73257823687436
 30
0.0
 40
1.5
  1
Aprov.
 41
0.8
  7
SANINDUSA
 11
-179.0
 21
2.48257823687436
 31
0.0
100
AcDbText
 73
     2
  0
TEXT
  5
BCF
330
B9E
100
AcDbEntity
  8
1
100
AcDbText
 10
-179.0
 20
5.75
 30
0.0
 40
1.5
  1
Ver.
 41
0.8
  7
SANINDUSA
 11
-179.0
 21
6.5
 31
0.0
100
AcDbText
 73
     2
  0
LINE
  5
BD0
330
B9E
100
AcDbEntity
  8
1
100
AcDbLine
 10
-180.0
 20
16.0
 30
0.0
 11
-135.0
 21
16.0
 31
0.0
  0
LINE
  5
BD1
330
B9E
100
AcDbEntity
  8
1
100
AcDbLine
 10
-180.0
 20
12.0
 30
0.0
 11
-135.0
 21
12.0
 31
0.0
  0
TEXT
  5
BD2
330
B9E
100
AcDbEntity
  8
1
100
AcDbText
 10
-179.0
 20
13.75
 30
0.0
 40
1.5
  1
Proj.
 41
0.8
  7
SANINDUSA
 11
-179.0
 21
14.5
 31
0.0
100
AcDbText
 73
     2
  0
TEXT
  5
BD3
330
B9E
100
AcDbEntity
  8
1
100
AcDbText
 10
-167.9210461879161
 20
17.75
 30
0.0
 40
1.5
  1
Data
 41
0.8
  7
SANINDUSA
 11
-167.9210461879161
 21
18.5
 31
0.0
100
AcDbText
 73
     2
  0
TEXT
  5
BD4
330
B9E
100
AcDbEntity
  8
1
100
AcDbText
 10
-153.0988595589306
 20
17.75
 30
0.0
 40
1.5
  1
Nome
 41
0.8
  7
SANINDUSA
 11
-153.0988595589306
 21
18.5
 31
0.0
100
AcDbText
 73
     2
  0
LINE
  5
BD5
330
B9E
100
AcDbEntity
  8
leg fin
100
AcDbLine
 10
-130.0
 20
20.0
 30
0.0
 11
-130.0
 21
28.5
 31
0.0
  0
TEXT
  5
BD6
330
B9E
100
AcDbEntity
  8
1
100
AcDbText
 10
-134.0
 20
17.25
 30
0.0
 40
2.0
  1
Material:
 41
0.8
  7
SANINDUSA
 11
-134.0
 21
18.25
 31
0.0
100
AcDbText
 73
     2
  0
TEXT
  5
BD7
330
B9E
100
AcDbEntity
  8
1
100
AcDbText
 10
-129.0
 20
26.43288406845113
 30
0.0
 40
1.5
  1
Ano:
 41
0.8
  7
SANINDUSA
 11
-129.0
 21
27.18288406845113
 31
0.0
100
AcDbText
 73
     2
  0
LINE
  5
BD8
330
B9E
100
AcDbEntity
  8
1
100
AcDbLine
 10
-180.0
 20
55.5
 30
0.0
 11
-135.0
 21
55.5
 31
0.0
  0
TEXT
  5
BD9
330
B9E
100
AcDbEntity
  8
1
100
AcDbText
 10
-179.0
 20
52.67772246885193
 30
0.0
 40
1.5
  1
descrição
 41
0.8
  7
SANINDUSA
 11
-179.0
 21
53.42772246885193
 31
0.0
100
AcDbText
 73
     2
  0
TEXT
  5
BDA
330
B9E
100
AcDbEntity
  8
1
100
AcDbText
 10
-134.0
 20
47.25
 30
0.0
 40
2.0
  1
Peça:
 41
0.8
  7
SANINDUSA
 11
-134.0
 21
48.25
 31
0.0
100
AcDbText
 73
     2
  0
LINE
  5
BDB
330
B9E
100
AcDbEntity
  8
1
100
AcDbLine
 10
-180.0
 20
59.5
 30
0.0
 11
-135.0
 21
59.5
 31
0.0
  0
TEXT
  5
BDC
330
B9E
100
AcDbEntity
  8
1
100
AcDbText
 10
-173.5810776056337
 20
62.75
 30
0.0
 40
1.5
  1
Alt.
 41
0.8
  7
SANINDUSA
 11
-173.5810776056337
 21
63.5
 31
0.0
100
AcDbText
 73
     2
  0
TEXT
  5
BDD
330
B9E
100
AcDbEntity
  8
1
100
AcDbText
 10
-179.0
 20
62.75
 30
0.0
 40
1.5
  1
Rev.
 41
0.8
  7
SANINDUSA
 11
-179.0
 21
63.5
 31
0.0
100
AcDbText
 73
     2
  0
TEXT
  5
BDE
330
B9E
100
AcDbEntity
  8
1
100
AcDbText
 10
-167.9210461879161
 20
62.75
 30
0.0
 40
1.5
  1
Data
 41
0.8
  7
SANINDUSA
 11
-167.9210461879161
 21
63.5
 31
0.0
100
AcDbText
 73
     2
  0
TEXT
  5
BDF
330
B9E
100
AcDbEntity
  8
1
100
AcDbText
 10
-153.0988595589306
 20
62.75
 30
0.0
 40
1.5
  1
Nome
 41
0.8
  7
SANINDUSA
 11
-153.0988595589306
 21
63.5
 31
0.0
100
AcDbText
 73
     2
  0
TEXT
  5
BE0
330
B9E
100
AcDbEntity
  8
1
100
AcDbText
 10
-134.0
 20
62.25
 30
0.0
 40
2.0
  1
Produto:
 41
0.8
  7
SANINDUSA
 11
-134.0
 21
63.25
 31
0.0
100
AcDbText
 73
     2
  0
LINE
  5
BE1
330
B9E
100
AcDbEntity
  8
3
100
AcDbLine
 10
-40.0
 20
4.0
 30
0.0
 11
-40.0
 21
65.0
 31
0.0
  0
LWPOLYLINE
  5
BE2
102
{ACAD_REACTORS
330
BEC
102
}
330
B9E
100
AcDbEntity
  8
9
100
AcDbPolyline
 90
       12
 70
     1
 43
0.0
 10
-3.038714600644652
 20
58.90010174665076
 10
-5.726962862472191
 20
58.90010174665076
 10
-5.726962862472191
 20
58.5001017466509
 10
-3.038748516195028
 20
58.5001017466509
 42
-0.4142135623731731
 10
-2.638748516194482
 20
58.1001017466508
 10
-2.638748516194482
 20
57.42799728675596
 10
-5.21497371544865
 20
57.42799728675596
 42
0.4142135623731289
 10
-6.014973715448377
 20
56.627997286756
 10
-6.014973715448377
 20
55.92380871629643
 42
0.4142135623731132
 10
-5.21497371544865
 20
55.12380871629648
 10
-2.23871460064447
 20
55.12380871629648
 10
-2.23871460064447
 20
58.10010174665103
 42
0.4142135623730717
  0
LWPOLYLINE
  5
BE3
102
{ACAD_REACTORS
330
BEC
102
}
330
B9E
100
AcDbEntity
  8
9
100
AcDbPolyline
 90
       20
 70
     1
 43
0.0
 10
-10.01531287095122
 20
57.82799728675581
 10
-10.01531287095122
 20
58.10010174665103
 42
-0.4142135623730744
 10
-9.615312870951584
 20
58.5001017466509
 10
-6.92703069357276
 20
58.5001017466509
 10
-6.92703069357276
 20
58.90010174665076
 10
-9.615346786501959
 20
58.90010174665076
 42
0.4142135623730883
 10
-10.41534678650168
 20
58.1001017466508
 10
-10.41534678650168
 20
57.82796337120567
 42
0.4142135623730717
 10
-9.615346786501959
 20
57.02796337120571
 10
-7.423079531965413
 20
57.02796337120571
 42
-0.4142135623730847
 10
-7.023079531965322
 20
56.62796337120562
 10
-7.023079531965322
 20
55.90786840766487
 42
-0.4142135623730744
 10
-7.423079531965413
 20
55.507868407665
 10
-10.41534678650168
 20
55.507868407665
 10
-10.41534678650168
 20
55.12380871629648
 10
-7.445787917283723
 20
55.12380871629648
 42
0.4114777732064574
 10
-6.645822882998345
 20
55.9163291493976
 10
-6.639238813324936
 20
56.62051771985716
 42
0.4169546541682913
 10
-7.439203847610315
 20
57.42799728675596
 10
-9.615312870951584
 20
57.42799728675596
 42
-0.4142135623731576
  0
LWPOLYLINE
  5
BE4
102
{ACAD_REACTORS
330
BEC
102
}
330
B9E
100
AcDbEntity
  8
9
100
AcDbPolyline
 90
       12
 70
     1
 43
0.0
 10
-14.41561811090378
 20
58.90010174665076
 10
-14.79964388672215
 20
58.90010174665076
 10
-14.79964388672215
 20
55.92380871629643
 42
0.4142135623731133
 10
-13.99964388672242
 20
55.12380871629648
 10
-11.8233508563676
 20
55.12380871629648
 42
0.4142135623730872
 10
-11.02335085636741
 20
55.92380871629643
 10
-11.02335085636741
 20
58.90010174665076
 10
-11.42338477191788
 20
58.90010174665076
 10
-11.42338477191788
 20
55.91567577726095
 42
-0.4131711701795318
 10
-11.82196067063523
 20
55.51567831234956
 10
-14.0141940096214
 20
55.50787335710947
 42
-0.4152567234624407
 10
-14.41561811090378
 20
55.90787082202087
  0
LWPOLYLINE
  5
BE5
102
{ACAD_REACTORS
330
BEC
102
}
330
B9E
100
AcDbEntity
  8
9
100
AcDbPolyline
 90
        6
 70
     1
 43
0.0
 10
-15.80771578768872
 20
55.507868407665
 10
-18.39994912667453
 20
55.507868407665
 42
-0.4142135623731731
 10
-18.79994912667462
 20
55.90786840766487
 10
-18.79994912667462
 20
58.10010174665103
 42
-0.4142135623730744
 10
-18.39994912667453
 20
58.5001017466509
 10
-15.80771578768872
 20
58.5001017466509
  0
LWPOLYLINE
  5
BE6
102
{ACAD_REACTORS
330
BEC
102
}
330
B9E
100
AcDbEntity
  8
9
100
AcDbPolyline
 90
        8
 70
     1
 43
0.0
 10
-15.4236900118708
 20
59.87619128370352
 10
-15.80771578768872
 20
59.87619128370352
 10
-15.80771578768872
 20
58.90010174665076
 10
-18.39176256411201
 20
58.90010174665076
 42
0.4131164467977967
 10
-19.19175694739761
 20
58.1030995310698
 10
-19.1999120763262
 20
55.92680650071542
 42
0.4153115297271718
 10
-18.39991769304061
 20
55.12380871629648
 10
-15.4236900118708
 20
55.12380871629648
  0
LWPOLYLINE
  5
BE7
102
{ACAD_REACTORS
330
BEC
102
}
330
B9E
100
AcDbEntity
  8
9
100
AcDbPolyline
 90
       10
 70
     1
 43
0.0
 10
-20.59201288790928
 20
58.90010174665076
 10
-23.56830591826338
 20
58.90010174665076
 10
-23.56830591826338
 20
55.12380871629648
 10
-23.18424622689509
 20
55.12380871629648
 10
-23.18424622689509
 20
58.5001017466509
 10
-20.59204680345965
 20
58.5001017466509
 42
-0.4142135623730898
 10
-20.19204680345956
 20
58.1001017466508
 10
-20.19204680345956
 20
55.12380871629648
 10
-19.79201288790909
 20
55.12380871629648
 10
-19.79201288790909
 20
58.10010174665103
 42
0.4142135623731132
  0
LWPOLYLINE
  5
BE8
102
{ACAD_REACTORS
330
BEC
102
}
330
B9E
100
AcDbEntity
  8
9
100
AcDbPolyline
 90
        4
 70
     1
 43
0.0
 10
-24.19231812786165
 20
58.90010174665076
 10
-24.57637781922995
 20
58.90010174665076
 10
-24.57637781922995
 20
55.12380871629648
 10
-24.19231812786165
 20
55.12380871629648
  0
LWPOLYLINE
  5
BE9
102
{ACAD_REACTORS
330
BEC
102
}
330
B9E
100
AcDbEntity
  8
9
100
AcDbPolyline
 90
       10
 70
     1
 43
0.0
 10
-28.57661522808212
 20
58.5001017466509
 10
-25.98444972019706
 20
58.5001017466509
 42
-0.4142135623731731
 10
-25.58444972019652
 20
58.1001017466508
 10
-25.58444972019652
 20
55.12380871629648
 10
-25.2004239443786
 20
55.12380871629648
 10
-25.2004239443786
 20
58.10010174665103
 42
0.4142135623730717
 10
-26.00042394437833
 20
58.90010174665076
 10
-28.97664914363259
 20
58.90010174665076
 10
-28.97664914363259
 20
55.12380871629648
 10
-28.57661522808212
 20
55.12380871629648
  0
LWPOLYLINE
  5
BEA
102
{ACAD_REACTORS
330
BEC
102
}
330
B9E
100
AcDbEntity
  8
9
100
AcDbPolyline
 90
       12
 70
     1
 43
0.0
 10
-29.58465321349832
 20
58.10010174665103
 42
0.4142135623730716
 10
-30.3846532134985
 20
58.90010174665076
 10
-33.07296930642724
 20
58.90010174665076
 10
-33.07296930642724
 20
58.5001017466509
 10
-30.38468712904842
 20
58.5001017466509
 42
-0.4142135623730067
 10
-29.98468712904878
 20
58.1001017466508
 10
-29.98468712904878
 20
57.42799728675618
 10
-32.56098015940324
 20
57.42799728675596
 42
0.4142135623731289
 10
-33.36098015940343
 20
56.627997286756
 10
-33.36098015940343
 20
55.92380871629643
 42
0.4142135623731132
 10
-32.56098015940324
 20
55.12380871629648
 10
-29.58465321349832
 20
55.12380871629648
  0
LWPOLYLINE
  5
BEB
102
{ACAD_REACTORS
330
BEC
102
}
330
B9E
100
AcDbEntity
  8
9
100
AcDbPolyline
 90
       20
 70
     1
 43
0.0
 10
-34.7850262845518
 20
57.42799728675596
 10
-36.96125148380543
 20
57.42799728675596
 42
-0.4142135623730898
 10
-37.36125148380552
 20
57.82799728675604
 10
-37.36125148380552
 20
58.10010174665103
 42
-0.4142135623730744
 10
-36.96125148380543
 20
58.5001017466509
 10
-34.27303713752781
 20
58.50010174665067
 10
-34.27303713752781
 20
58.90010174665076
 10
-36.96128539935535
 20
58.90010174665076
 42
0.4142135623731289
 10
-37.76128539935553
 20
58.1001017466508
 10
-37.76128539935553
 20
57.82796337120567
 42
0.4142135623730716
 10
-36.9612853993558
 20
57.02796337120571
 10
-34.76901814481926
 20
57.02796337120571
 42
-0.414213562373168
 10
-34.36901814481962
 20
56.62796337120562
 10
-34.36901814481962
 20
55.90786840766487
 42
-0.4142135623730744
 10
-34.76901814481926
 20
55.507868407665
 10
-37.76128539935553
 20
55.507868407665
 10
-37.76128539935553
 20
55.12380871629648
 10
-34.7850262845518
 20
55.12380871629648
 42
0.4142135623731289
 10
-33.98502628455162
 20
55.92380871629643
 10
-33.98502628455162
 20
56.627997286756
 42
0.4142135623731132
  0
HATCH
  5
BEC
330
B9E
100
AcDbEntity
  8
9
100
AcDbHatch
 10
0.0
 20
0.0
 30
0.0
210
0.0
220
0.0
230
1.0
  2
SOLID
 70
     1
 71
     1
 91
       13
 92
        7
 72
     1
 73
     1
 93
       20
 10
-34.36901814481962
 20
55.90786840766487
 42
-0.414213562372991
 10
-34.76901814481926
 20
55.507868407665
 42
0.0
 10
-37.76128539935553
 20
55.507868407665
 42
0.0
 10
-37.76128539935553
 20
55.12380871629648
 42
0.0
 10
-34.7850262845518
 20
55.12380871629648
 42
0.4142135623731705
 10
-33.98502628455162
 20
55.92380871629666
 42
0.0
 10
-33.98502628455162
 20
56.627997286756
 42
0.4142135623731547
 10
-34.7850262845518
 20
57.42799728675596
 42
0.0
 10
-36.96125148380543
 20
57.42799728675596
 42
-0.4142135623730898
 10
-37.36125148380552
 20
57.82799728675604
 42
0.0
 10
-37.36125148380552
 20
58.1001017466508
 42
-0.4142135623731575
 10
-36.96125148380543
 20
58.5001017466509
 42
0.0
 10
-34.27303713752781
 20
58.50010174665067
 42
0.0
 10
-34.27303713752781
 20
58.90010174665076
 42
0.0
 10
-36.96128539935535
 20
58.90010174665076
 42
0.4142135623731705
 10
-37.76128539935553
 20
58.10010174665058
 42
0.0
 10
-37.76128539935553
 20
57.82796337120544
 42
0.4142135623730299
 10
-36.9612853993558
 20
57.02796337120571
 42
0.0
 10
-34.76901814481926
 20
57.02796337120571
 42
-0.4142135623730015
 10
-34.36901814481962
 20
56.62796337120608
 42
0.0
 97
        1
330
BEB
 92
        7
 72
     1
 73
     1
 93
       12
 10
-33.36098015940343
 20
55.92380871629666
 42
0.4142135623731547
 10
-32.56098015940324
 20
55.12380871629648
 42
0.0
 10
-29.58465321349877
 20
55.12380871629648
 42
0.0
 10
-29.58465321349832
 20
58.10010174665058
 42
0.4142135623731964
 10
-30.3846532134985
 20
58.90010174665076
 42
0.0
 10
-33.07296930642724
 20
58.90010174665076
 42
0.0
 10
-33.07296930642724
 20
58.50010174665067
 42
0.0
 10
-30.38468712904887
 20
58.5001017466509
 42
-0.4142135623732564
 10
-29.98468712904878
 20
58.10010174665103
 42
0.0
 10
-29.98468712904923
 20
57.42799728675596
 42
0.0
 10
-32.56098015940324
 20
57.42799728675596
 42
0.4142135623731705
 10
-33.36098015940343
 20
56.627997286756
 42
0.0
 97
        1
330
BEA
 92
       22
 72
     1
 73
     1
 93
        6
 10
-32.97692046803468
 20
56.62796337120562
 42
-0.4142135623731576
 10
-32.57692046803459
 20
57.02796337120571
 42
0.0
 10
-29.98468712904878
 20
57.02796337120571
 42
0.0
 10
-29.98468712904878
 20
55.507868407665
 42
0.0
 10
-32.57692046803459
 20
55.507868407665
 42
-0.4142135623731731
 10
-32.97692046803468
 20
55.90786840766487
 42
0.0
 97
        1
330
C11
 92
        7
 72
     1
 73
     1
 93
       10
 10
-28.57661522808212
 20
58.5001017466509
 42
0.0
 10
-25.98444972019661
 20
58.5001017466509
 42
-0.4142135623730067
 10
-25.58444972019652
 20
58.10010174665058
 42
0.0
 10
-25.58444972019606
 20
55.12380871629648
 42
0.0
 10
-25.20042394437906
 20
55.12380871629648
 42
0.0
 10
-25.2004239443786
 20
58.1001017466508
 42
0.4142135623731134
 10
-26.00042394437833
 20
58.90010174665076
 42
0.0
 10
-28.97664914363259
 20
58.90010174665076
 42
0.0
 10
-28.97664914363259
 20
55.12380871629648
 42
0.0
 10
-28.57661522808212
 20
55.12380871629648
 42
0.0
 97
        1
330
BE9
 92
        7
 72
     0
 73
     1
 93
        4
 10
-24.57637781922995
 20
55.12380871629648
 10
-24.19231812786165
 20
55.12380871629648
 10
-24.19231812786165
 20
58.90010174665076
 10
-24.57637781922995
 20
58.90010174665076
 97
        1
330
BE8
 92
        7
 72
     0
 73
     1
 93
        4
 10
-24.19231812786165
 20
59.87619128370352
 10
-24.5763778192304
 20
59.87619128370352
 10
-24.5763778192304
 20
59.28412752246913
 10
-24.1923181278612
 20
59.28412752246913
 97
        1
330
C12
 92
        7
 72
     1
 73
     1
 93
       10
 10
-23.18424622689509
 20
58.5001017466509
 42
0.0
 10
-20.59204680345965
 20
58.5001017466509
 42
-0.4142135623730898
 10
-20.19204680345956
 20
58.1001017466508
 42
0.0
 10
-20.19204680345956
 20
55.12380871629648
 42
0.0
 10
-19.79201288790909
 20
55.12380871629648
 42
0.0
 10
-19.79201288790909
 20
58.1001017466508
 42
0.4142135623731547
 10
-20.59201288790928
 20
58.90010174665076
 42
0.0
 10
-23.56830591826338
 20
58.90010174665076
 42
0.0
 10
-23.56830591826338
 20
55.12380871629648
 42
0.0
 10
-23.18424622689463
 20
55.12380871629648
 42
0.0
 97
        1
330
BE7
 92
        7
 72
     1
 73
     1
 93
        8
 10
-19.1999120763262
 20
55.92680650071542
 42
0.4153115297271299
 10
-18.39991769304061
 20
55.12380871629648
 42
0.0
 10
-15.4236900118708
 20
55.12380871629648
 42
0.0
 10
-15.4236900118708
 20
59.87619128370352
 42
0.0
 10
-15.80771578768872
 20
59.87619128370352
 42
0.0
 10
-15.80771578768872
 20
58.90010174665076
 42
0.0
 10
-18.39176256411201
 20
58.90010174665076
 42
0.4131164467977965
 10
-19.19175694739761
 20
58.1030995310698
 42
0.0
 97
        1
330
BE6
 92
       22
 72
     1
 73
     1
 93
        6
 10
-18.79994912667462
 20
58.1001017466508
 42
-0.4142135623731575
 10
-18.39994912667453
 20
58.5001017466509
 42
0.0
 10
-15.80771578768872
 20
58.50010174665067
 42
0.0
 10
-15.80771578768827
 20
55.507868407665
 42
0.0
 10
-18.39994912667453
 20
55.507868407665
 42
-0.4142135623731731
 10
-18.79994912667462
 20
55.90786840766487
 42
0.0
 97
        1
330
BE5
 92
        7
 72
     1
 73
     1
 93
       12
 10
-14.79964388672215
 20
55.92380871629621
 42
0.4142135623729885
 10
-13.99964388672242
 20
55.12380871629648
 42
0.0
 10
-11.8233508563676
 20
55.12380871629648
 42
0.4142135623731289
 10
-11.02335085636741
 20
55.92380871629666
 42
0.0
 10
-11.02335085636741
 20
58.90010174665076
 42
0.0
 10
-11.42338477191788
 20
58.90010174665076
 42
0.0
 10
-11.42338477191788
 20
55.91567577726095
 42
-0.4131711701795319
 10
-11.82196067063523
 20
55.51567831234956
 42
0.0
 10
-14.01419400962095
 20
55.50787335710947
 42
-0.4152567234626918
 10
-14.41561811090378
 20
55.90787082202087
 42
0.0
 10
-14.41561811090378
 20
58.90010174665076
 42
0.0
 10
-14.7996438867226
 20
58.90010174665076
 42
0.0
 97
        1
330
BE4
 92
        7
 72
     1
 73
     1
 93
       20
 10
-7.423079531965413
 20
57.02796337120571
 42
-0.414213562373168
 10
-7.023079531965322
 20
56.62796337120562
 42
0.0
 10
-7.023079531965322
 20
55.90786840766487
 42
-0.4142135623731575
 10
-7.423079531965413
 20
55.507868407665
 42
0.0
 10
-10.41534678650168
 20
55.507868407665
 42
0.0
 10
-10.41534678650168
 20
55.12380871629648
 42
0.0
 10
-7.445787917283723
 20
55.12380871629648
 42
0.4114777732065809
 10
-6.645822882998345
 20
55.91632914939783
 42
0.0
 10
-6.639238813324936
 20
56.62051771985716
 42
0.4169546541682913
 10
-7.439203847610315
 20
57.42799728675596
 42
0.0
 10
-9.615312870951584
 20
57.42799728675596
 42
-0.4142135623729911
 10
-10.01531287095122
 20
57.82799728675581
 42
0.0
 10
-10.01531287095122
 20
58.10010174665103
 42
-0.414213562372991
 10
-9.615312870951584
 20
58.5001017466509
 42
0.0
 10
-6.92703069357276
 20
58.50010174665067
 42
0.0
 10
-6.927030693572305
 20
58.90010174665076
 42
0.0
 10
-9.615346786501959
 20
58.90010174665076
 42
0.4142135623730467
 10
-10.41534678650168
 20
58.10010174665103
 42
0.0
 10
-10.41534678650168
 20
57.82796337120544
 42
0.4142135623730301
 10
-9.615346786501959
 20
57.02796337120571
 42
0.0
 97
        1
330
BE3
 92
        7
 72
     1
 73
     1
 93
       12
 10
-5.21497371544865
 20
57.42799728675596
 42
0.4142135623730871
 10
-6.014973715448377
 20
56.627997286756
 42
0.0
 10
-6.014973715448377
 20
55.92380871629621
 42
0.4142135623730715
 10
-5.21497371544865
 20
55.12380871629648
 42
0.0
 10
-2.23871460064447
 20
55.12380871629648
 42
0.0
 10
-2.23871460064447
 20
58.10010174665058
 42
0.414213562373155
 10
-3.038714600644652
 20
58.90010174665076
 42
0.0
 10
-5.726962862471737
 20
58.90010174665076
 42
0.0
 10
-5.726962862472191
 20
58.5001017466509
 42
0.0
 10
-3.038748516194573
 20
58.5001017466509
 42
-0.4142135623730067
 10
-2.638748516194482
 20
58.10010174665058
 42
0.0
 10
-2.638748516194482
 20
57.42799728675596
 42
0.0
 97
        1
330
BE2
 92
       22
 72
     1
 73
     1
 93
        6
 10
-2.638748516194937
 20
57.02796337120571
 42
0.0
 10
-2.638748516194482
 20
55.50786840766477
 42
0.0
 10
-5.21497371544865
 20
55.507868407665
 42
-0.4142135623731731
 10
-5.614973715448741
 20
55.90786840766509
 42
0.0
 10
-5.614973715448741
 20
56.62796337120562
 42
-0.4142135623731576
 10
-5.21497371544865
 20
57.02796337120571
 42
0.0
 97
        1
330
C0D
 75
     0
 76
     1
 47
0.0407044778999864
 98
       13
 10
-34.18710075113677
 20
56.16907953933765
 10
-33.12851374392494
 20
56.49471602641233
 10
-33.12851374392494
 20
56.49471602641233
 10
-28.77202873835904
 20
57.51232930166111
 10
-24.41554807250941
 20
57.91937341678636
 10
-24.41554807250941
 20
59.384734621186
 10
-23.31624584658039
 20
58.3264175319116
 10
-19.04119127844888
 20
57.75655517324913
 10
-19.04119127844888
 20
57.75655517324913
 10
-14.64399105416578
 20
57.43091868617466
 10
-8.048195057457178
 20
57.22739662861204
 10
-4.017427461911665
 20
57.18669281458665
 10
-4.017427461911665
 20
57.18669281458665
  0
TEXT
  5
BED
330
B9E
100
AcDbEntity
  8
leg fin
100
AcDbText
 10
3.391127401597259
 20
2.107634911895729
 30
0.0
 40
1.5
  1
Este desenho é propriedade da Sanindusa, S.A., e não pode ser copiado nem divulgado sem nossa autorização.
 50
90.0
 41
0.8
  7
SANINDUSA
100
AcDbText
  0
LINE
  5
BEE
330
B9E
100
AcDbEntity
  8
3
100
AcDbLine
 10
-90.0
 20
4.0
 30
0.0
 11
-90.0
 21
12.0
 31
0.0
  0
TEXT
  5
BEF
330
B9E
100
AcDbEntity
  8
1
100
AcDbText
 10
-39.0
 20
9.25
 30
0.0
 40
2.0
  1
Substituido por:
 41
0.8
  7
SANINDUSA
 11
-39.0
 21
10.25
 31
0.0
100
AcDbText
 73
     2
  0
POINT
  5
BF0
330
B9E
100
AcDbEntity
  8
SANINDUSA
100
AcDbPoint
 10
0.0
 20
0.0
 30
0.0
  0
TEXT
  5
BF1
330
B9E
100
AcDbEntity
  8
1
100
AcDbText
 10
-89.0
 20
16.74927010445663
 30
0.0
 40
2.0
  1
Normas:
 41
0.8
  7
SANINDUSA
 11
-89.0
 21
17.74927010445663
 31
0.0
100
AcDbText
 73
     2
  0
LINE
  5
BF2
330
B9E
100
AcDbEntity
  8
3
100
AcDbLine
 10
-90.0
 20
12.0
 30
0.0
 11
-90.0
 21
20.0
 31
0.0
  0
LINE
  5
BF3
330
B9E
100
AcDbEntity
  8
3
100
AcDbLine
 10
-110.546019464768
 20
12.0
 30
0.0
 11
-110.546019464768
 21
20.0
 31
0.0
  0
TEXT
  5
BF4
330
B9E
100
AcDbEntity
  8
1
100
AcDbText
 10
-109.6177520618648
 20
17.25
 30
0.0
 40
2.0
  1
Cor:
 41
0.8
  7
SANINDUSA
 11
-109.6177520618648
 21
18.25
 31
0.0
100
AcDbText
 73
     2
  0
LINE
  5
BF5
330
B9E
100
AcDbEntity
  8
leg fin
100
AcDbLine
 10
-91.42857142857156
 20
20.0
 30
0.0
 11
-91.42857142857156
 21
28.5
 31
0.0
  0
LINE
  5
BF6
330
B9E
100
AcDbEntity
  8
leg fin
100
AcDbLine
 10
-104.2857142857142
 20
20.0
 30
0.0
 11
-104.2857142857142
 21
28.5
 31
0.0
  0
LINE
  5
BF7
330
B9E
100
AcDbEntity
  8
leg fin
100
AcDbLine
 10
-117.1428571428573
 20
20.0
 30
0.0
 11
-117.1428571428573
 21
28.5
 31
0.0
  0
POINT
  5
BF8
330
B9E
100
AcDbEntity
  8
SANINDUSA
100
AcDbPoint
 10
-117.1428571428573
 20
28.5
 30
0.0
  0
POINT
  5
BF9
330
B9E
100
AcDbEntity
  8
SANINDUSA
100
AcDbPoint
 10
-104.2857142857142
 20
28.5
 30
0.0
  0
POINT
  5
BFA
330
B9E
100
AcDbEntity
  8
SANINDUSA
100
AcDbPoint
 10
-91.42857142857156
 20
28.5
 30
0.0
  0
TEXT
  5
BFB
330
B9E
100
AcDbEntity
  8
1
100
AcDbText
 10
-116.200160604496
 20
26.43288406845113
 30
0.0
 40
1.5
  1
Nº Seq.:
 41
0.8
  7
SANINDUSA
 11
-116.200160604496
 21
27.18288406845113
 31
0.0
100
AcDbText
 73
     2
  0
TEXT
  5
BFC
330
B9E
100
AcDbEntity
  8
1
100
AcDbText
 10
-103.2106584078738
 20
26.43288406845113
 30
0.0
 40
1.5
  1
Tipo:
 41
0.8
  7
SANINDUSA
 11
-103.2106584078738
 21
27.18288406845113
 31
0.0
100
AcDbText
 73
     2
  0
TEXT
  5
BFD
330
B9E
100
AcDbEntity
  8
1
100
AcDbText
 10
-90.22114672289353
 20
26.43288406845113
 30
0.0
 40
1.5
  1
Prod.:
 41
0.8
  7
SANINDUSA
 11
-90.22114672289353
 21
27.18288406845113
 31
0.0
100
AcDbText
 73
     2
  0
TEXT
  5
BFE
330
B9E
100
AcDbEntity
  8
1
100
AcDbText
 10
-64.77320576346574
 20
26.43288406845113
 30
0.0
 40
1.5
  1
Rev.:
 41
0.8
  7
SANINDUSA
 11
-64.77320576346574
 21
27.18288406845113
 31
0.0
100
AcDbText
 73
     2
  0
LINE
  5
BFF
330
B9E
100
AcDbEntity
  8
leg fin
100
AcDbLine
 10
-52.85714285714266
 20
20.0
 30
0.0
 11
-52.85714285714266
 21
28.5
 31
0.0
  0
LINE
  5
C00
330
B9E
100
AcDbEntity
  8
leg fin
100
AcDbLine
 10
-65.71428571428578
 20
20.0
 30
0.0
 11
-65.71428571428578
 21
28.5
 31
0.0
  0
LINE
  5
C01
330
B9E
100
AcDbEntity
  8
leg fin
100
AcDbLine
 10
-78.57142857142844
 20
20.0
 30
0.0
 11
-78.57142857142844
 21
28.5
 31
0.0
  0
POINT
  5
C02
330
B9E
100
AcDbEntity
  8
SANINDUSA
100
AcDbPoint
 10
-78.57142857142844
 20
28.5
 30
0.0
  0
POINT
  5
C03
330
B9E
100
AcDbEntity
  8
SANINDUSA
100
AcDbPoint
 10
-65.71428571428578
 20
28.5
 30
0.0
  0
POINT
  5
C04
330
B9E
100
AcDbEntity
  8
SANINDUSA
100
AcDbPoint
 10
-52.85714285714266
 20
28.5
 30
0.0
  0
TEXT
  5
C05
330
B9E
100
AcDbEntity
  8
1
100
AcDbText
 10
-77.61097961686573
 20
26.43288406845113
 30
0.0
 40
1.5
  1
Peça:
 41
0.8
  7
SANINDUSA
 11
-77.61097961686573
 21
27.18288406845113
 31
0.0
100
AcDbText
 73
     2
  0
TEXT
  5
C06
330
B9E
100
AcDbEntity
  8
1
100
AcDbText
 10
-52.06538060077036
 20
26.43288406845113
 30
0.0
 40
1.5
  1
Alt.:
 41
0.8
  7
SANINDUSA
 11
-52.06538060077036
 21
27.18288406845113
 31
0.0
100
AcDbText
 73
     2
  0
LINE
  5
C07
330
B9E
100
AcDbEntity
  8
3
100
AcDbLine
 10
0.0
 20
12.0
 30
0.0
 11
-40.0
 21
12.0
 31
0.0
  0
LINE
  5
C08
330
B9E
100
AcDbEntity
  8
3
100
AcDbLine
 10
-40.0
 20
32.5
 30
0.0
 11
0.0
 21
32.5
 31
0.0
  0
TEXT
  5
C09
330
B9E
100
AcDbEntity
  8
1
100
AcDbText
 10
-19.0
 20
29.75
 30
0.0
 40
2.0
  1
Folha:
 41
0.8
  7
SANINDUSA
 11
-19.0
 21
30.75
 31
0.0
100
AcDbText
 73
     2
  0
LINE
  5
C0A
330
B9E
100
AcDbEntity
  8
3
100
AcDbLine
 10
-20.0
 20
32.5
 30
0.0
 11
-20.0
 21
20.0
 31
0.0
  0
TEXT
  5
C0B
330
B9E
100
AcDbEntity
  8
1
100
AcDbText
 10
-39.0
 20
29.75
 30
0.0
 40
2.0
  1
Escala:
 41
0.8
  7
SANINDUSA
 11
-39.0
 21
30.75
 31
0.0
100
AcDbText
 73
     2
  0
TEXT
  5
C0C
330
B9E
100
AcDbEntity
  8
1
100
AcDbText
 10
-39.0
 20
17.25
 30
0.0
 40
2.0
  1
Substitui:
 41
0.8
  7
SANINDUSA
 11
-39.0
 21
18.25
 31
0.0
100
AcDbText
 73
     2
  0
LWPOLYLINE
  5
C0D
102
{ACAD_REACTORS
330
BEC
102
}
330
B9E
100
AcDbEntity
  8
9
100
AcDbPolyline
 90
        6
 70
     1
 43
0.0
 10
-2.638748516194482
 20
57.02796337120571
 10
-2.638748516194482
 20
55.50786840766477
 10
-5.21497371544865
 20
55.507868407665
 42
-0.4142135623730898
 10
-5.614973715448741
 20
55.90786840766487
 10
-5.614973715448741
 20
56.62796337120562
 42
-0.4142135623731576
 10
-5.21497371544865
 20
57.02796337120571
  0
LINE
  5
C0E
330
B9E
100
AcDbEntity
  8
3
100
AcDbLine
 10
-40.0
 20
50.0
 30
0.0
 11
0.0
 21
50.0
 31
0.0
  0
ATTDEF
  5
C0F
330
B9E
100
AcDbEntity
  8
1
100
AcDbText
 10
-31.30691739422431
 20
40.25
 30
0.0
 40
2.0
  1
XXXXXXXXXXXXXXX
 41
0.8
  7
SANINDUSA
 72
     4
 11
-20.0
 21
41.25
 31
0.0
100
AcDbAttributeDefinition
  3
Observações:
  2
OBS
 70
     0
  0
TEXT
  5
C10
330
B9E
100
AcDbEntity
  8
1
100
AcDbText
 10
-39.0
 20
47.25
 30
0.0
 40
2.0
  1
Observações:
 41
0.8
  7
SANINDUSA
 11
-39.0
 21
48.25
 31
0.0
100
AcDbText
 73
     2
  0
LWPOLYLINE
  5
C11
102
{ACAD_REACTORS
330
BEC
102
}
330
B9E
100
AcDbEntity
  8
9
100
AcDbPolyline
 90
        6
 70
     1
 43
0.0
 10
-29.98468712904878
 20
57.02796337120571
 10
-29.98468712904878
 20
55.507868407665
 10
-32.57692046803459
 20
55.507868407665
 42
-0.4142135623731731
 10
-32.97692046803468
 20
55.90786840766487
 10
-32.97692046803468
 20
56.62796337120562
 42
-0.4142135623731576
 10
-32.57692046803459
 20
57.02796337120571
  0
LWPOLYLINE
  5
C12
102
{ACAD_REACTORS
330
BEC
102
}
330
B9E
100
AcDbEntity
  8
9
100
AcDbPolyline
 90
        4
 70
     1
 43
0.0
 10
-24.19231812786165
 20
59.87619128370352
 10
-24.57637781922995
 20
59.87619128370352
 10
-24.57637781922995
 20
59.28412752246913
 10
-24.19231812786165
 20
59.28412752246913
  0
ENDBLK
  5
C14
330
B9E
100
AcDbEntity
  8
0
100
AcDbBlockEnd
  0
ENDSEC
  0
SECTION
  2
ENTITIES
  0
LINE
  5
12F0
330
1F
100
AcDbEntity
  8
SANINDUSA
100
AcDbLine
 10
4092.173394173253
 20
1844.24722802068
 30
0.0
 11
4092.173394173253
 21
1844.254943867497
 31
0.0
  0
LINE
  5
12F1
330
1F
100
AcDbEntity
  8
SANINDUSA
100
AcDbLine
 10
4092.124394173253
 20
1844.254944192733
 30
0.0
 11
4092.124394173253
 21
1844.247217463439
 31
0.0
  0
ARC
  5
12F2
330
1F
100
AcDbEntity
  8
SANINDUSA
100
AcDbCircle
 10
4092.125394173254
 20
1844.299792136148
 30
0.0
 40
0.0015000000000001
100
AcDbArc
 50
90.0
 51
180.0
  0
ARC
  5
12F3
330
1F
100
AcDbEntity
  8
SANINDUSA
100
AcDbCircle
 10
4092.172394173253
 20
1844.299792136148
 30
0.0
 40
0.0015000000000001
100
AcDbArc
 50
0.0
 51
90.0
  0
LINE
  5
12F4
330
1F
100
AcDbEntity
  8
SANINDUSA
100
AcDbLine
 10
4092.173894173253
 20
1844.186292136148
 30
0.0
 11
4092.173894173253
 21
1844.299792136148
 31
0.0
  0
LINE
  5
12F5
330
1F
100
AcDbEntity
  8
SANINDUSA
100
AcDbLine
 10
4092.123894173254
 20
1844.299792136148
 30
0.0
 11
4092.123894173254
 21
1844.186292136148
 31
0.0
  0
LINE
  5
12F6
330
1F
100
AcDbEntity
  8
SANINDUSA
100
AcDbLine
 10
4092.167394173492
 20
1844.437862688735
 30
0.0
 11
4092.167394173253
 21
1844.528967342423
 31
0.0
  0
LINE
  5
12F7
330
1F
100
AcDbEntity
  8
SANINDUSA
100
AcDbLine
 10
4092.130394173015
 20
1844.506319100097
 30
0.0
 11
4092.130394173015
 21
1844.496474409536
 31
0.0
  0
LINE
  5
12F8
330
1F
100
AcDbEntity
  8
SANINDUSA
100
AcDbLine
 10
4092.130394173015
 20
1844.484759772257
 30
0.0
 11
4092.130394173015
 21
1844.437862688735
 31
0.0
  0
LINE
  5
12F9
330
1F
100
AcDbEntity
  8
SANINDUSA
100
AcDbLine
 10
4092.130394173254
 20
1844.528967342423
 30
0.0
 11
4092.130394173015
 21
1844.520450258688
 31
0.0
  0
LINE
  5
12FA
330
1F
100
AcDbEntity
  8
SANINDUSA
100
AcDbLine
 10
4092.132554902221
 20
1844.437287737906
 30
0.0
 11
4092.133504896585
 21
1844.436764800981
 31
0.0
  0
LINE
  5
12FB
330
1F
100
AcDbEntity
  8
SANINDUSA
100
AcDbLine
 10
4092.164375311855
 20
1844.436815375522
 30
0.0
 11
4092.165233444286
 21
1844.437287737906
 31
0.0
  0
LINE
  5
12FC
330
1F
100
AcDbEntity
  8
SANINDUSA
100
AcDbLine
 10
4092.135894172986
 20
1844.43428809388
 30
0.0
 11
4092.135894172986
 21
1844.431921074227
 31
0.0
  0
LINE
  5
12FD
330
1F
100
AcDbEntity
  8
SANINDUSA
100
AcDbLine
 10
4092.161894173521
 20
1844.431921074227
 30
0.0
 11
4092.161894173521
 21
1844.4344526027
 31
0.0
  0
LINE
  5
12FE
330
1F
100
AcDbEntity
  8
SANINDUSA
100
AcDbLine
 10
4092.137013274658
 20
1844.425744749228
 30
0.0
 11
4092.138003349464
 21
1844.424774045185
 31
0.0
  0
LINE
  5
12FF
330
1F
100
AcDbEntity
  8
SANINDUSA
100
AcDbLine
 10
4092.159784997043
 20
1844.424774045185
 30
0.0
 11
4092.160775071849
 21
1844.425744749228
 31
0.0
  0
LINE
  5
1300
330
1F
100
AcDbEntity
  8
SANINDUSA
100
AcDbLine
 10
4092.136894173253
 20
1844.431921071686
 30
0.0
 11
4092.136894173149
 21
1844.425979459719
 31
0.0
  0
LINE
  5
1301
330
1F
100
AcDbEntity
  8
SANINDUSA
100
AcDbLine
 10
4092.160894173358
 20
1844.425979459719
 30
0.0
 11
4092.160894173253
 21
1844.431921071686
 31
0.0
  0
LINE
  5
1302
330
1F
100
AcDbEntity
  8
SANINDUSA
100
AcDbLine
 10
4092.146762548175
 20
1844.438433462814
 30
0.0
 11
4092.146804059085
 21
1844.436078453497
 31
0.0
  0
LINE
  5
1303
330
1F
100
AcDbEntity
  8
SANINDUSA
100
AcDbLine
 10
4092.149171393496
 20
1844.436078453497
 30
0.0
 11
4092.149211377182
 21
1844.438346827463
 31
0.0
  0
LINE
  5
1304
330
1F
100
AcDbEntity
  8
SANINDUSA
100
AcDbLine
 10
4092.150069398966
 20
1844.438250565962
 30
0.0
 11
4092.150108113346
 21
1844.436054194406
 31
0.0
  0
LINE
  5
1305
330
1F
100
AcDbEntity
  8
SANINDUSA
100
AcDbLine
 10
4092.152475447787
 20
1844.436054194406
 30
0.0
 11
4092.152518223666
 21
1844.438480967716
 31
0.0
  0
LINE
  5
1306
330
1F
100
AcDbEntity
  8
SANINDUSA
100
AcDbLine
 10
4092.143504617896
 20
1844.438506627516
 30
0.0
 11
4092.14354887155
 21
1844.435996020273
 31
0.0
  0
LINE
  5
1307
330
1F
100
AcDbEntity
  8
SANINDUSA
100
AcDbLine
 10
4092.145916205992
 20
1844.435996020273
 30
0.0
 11
4092.14595339766
 21
1844.438105965093
 31
0.0
  0
LINE
  5
1308
330
1F
100
AcDbEntity
  8
SANINDUSA
100
AcDbLine
 10
4092.153246948656
 20
1844.437964851097
 30
0.0
 11
4092.153282912143
 21
1844.435924554304
 31
0.0
  0
LINE
  5
1309
330
1F
100
AcDbEntity
  8
SANINDUSA
100
AcDbLine
 10
4092.155650246118
 20
1844.435924554304
 30
0.0
 11
4092.155695708629
 21
1844.43850373669
 31
0.0
  0
LINE
  5
130A
330
1F
100
AcDbEntity
  8
SANINDUSA
100
AcDbLine
 10
4092.140471327279
 20
1844.43846138759
 30
0.0
 11
4092.140518038694
 21
1844.43581132038
 31
0.0
  0
LINE
  5
130B
330
1F
100
AcDbEntity
  8
SANINDUSA
100
AcDbLine
 10
4092.1428853736
 20
1844.43581132038
 30
0.0
 11
4092.142919949882
 21
1844.43777292414
 31
0.0
  0
LINE
  5
130C
330
1F
100
AcDbEntity
  8
SANINDUSA
100
AcDbLine
 10
4092.156123885113
 20
1844.43759223266
 30
0.0
 11
4092.156157300502
 21
1844.435696506933
 31
0.0
  0
LINE
  5
130D
330
1F
100
AcDbEntity
  8
SANINDUSA
100
AcDbLine
 10
4092.158524635408
 20
1844.435696506933
 30
0.0
 11
4092.158572430883
 21
1844.438408041433
 31
0.0
  0
LINE
  5
130E
330
1F
100
AcDbEntity
  8
SANINDUSA
100
AcDbLine
 10
4092.137825963248
 20
1844.438313717082
 30
0.0
 11
4092.13787495454
 21
1844.435534322694
 31
0.0
  0
LINE
  5
130F
330
1F
100
AcDbEntity
  8
SANINDUSA
100
AcDbLine
 10
4092.140242288049
 20
1844.435534322694
 30
0.0
 11
4092.140274560239
 21
1844.437365198568
 31
0.0
  0
LINE
  5
1310
330
1F
100
AcDbEntity
  8
SANINDUSA
100
AcDbLine
 10
4092.158547708925
 20
1844.437005544142
 30
0.0
 11
4092.158576321017
 21
1844.435382345751
 31
0.0
  0
LINE
  5
1311
330
1F
100
AcDbEntity
  8
SANINDUSA
100
AcDbLine
 10
4092.160943654526
 20
1844.435382345751
 30
0.0
 11
4092.160993433718
 21
1844.438206428722
 31
0.0
  0
ARC
  5
1312
330
1F
100
AcDbEntity
  8
SANINDUSA
100
AcDbCircle
 10
4092.142626457014
 20
1844.491359622533
 30
0.0
 40
0.013242065268729
100
AcDbArc
 50
146.6170385363135
 51
182.1507541837398
  0
ARC
  5
1313
330
1F
100
AcDbEntity
  8
SANINDUSA
100
AcDbCircle
 10
4092.142238784015
 20
1844.489855493751
 30
0.0
 40
0.0128844887995683
100
AcDbArc
 50
175.5166694437382
 51
210.0626376862523
  0
LINE
  5
1314
330
1F
100
AcDbEntity
  8
SANINDUSA
100
AcDbLine
 10
4092.135711516414
 20
1844.438050055936
 30
0.0
 11
4092.135762106788
 21
1844.43517995818
 31
0.0
  0
LINE
  5
1315
330
1F
100
AcDbEntity
  8
SANINDUSA
100
AcDbLine
 10
4092.138129441228
 20
1844.43517995818
 30
0.0
 11
4092.138133881774
 21
1844.435431892112
 31
0.0
  0
ARC
  5
1316
330
1F
100
AcDbEntity
  8
SANINDUSA
100
AcDbCircle
 10
4092.144790419733
 20
1844.514022136932
 30
0.0
 40
0.0156975886646777
100
AcDbArc
 50
147.8414572987314
 51
183.0992847990308
  0
ARC
  5
1317
330
1F
100
AcDbEntity
  8
SANINDUSA
100
AcDbCircle
 10
4092.143469628314
 20
1844.512345073998
 30
0.0
 40
0.0143777190714654
100
AcDbArc
 50
176.697157046318
 51
209.8520076230254
  0
LINE
  5
1318
330
1F
100
AcDbEntity
  8
SANINDUSA
100
AcDbLine
 10
4092.1604052318
 20
1844.435244644121
 30
0.0
 11
4092.160409561518
 21
1844.43499901338
 31
0.0
  0
LINE
  5
1319
330
1F
100
AcDbEntity
  8
SANINDUSA
100
AcDbLine
 10
4092.16277689596
 20
1844.43499901338
 30
0.0
 11
4092.162828212764
 21
1844.437910312847
 31
0.0
  0
LINE
  5
131A
330
1F
100
AcDbEntity
  8
SANINDUSA
100
AcDbLine
 10
4092.134241535489
 20
1844.437709743217
 30
0.0
 11
4092.134293399912
 21
1844.434767345027
 31
0.0
  0
LINE
  5
131B
330
1F
100
AcDbEntity
  8
SANINDUSA
100
AcDbLine
 10
4092.136660734352
 20
1844.434767345027
 30
0.0
 11
4092.136665193524
 21
1844.43502032204
 31
0.0
  0
LINE
  5
131C
330
1F
100
AcDbEntity
  8
SANINDUSA
100
AcDbLine
 10
4092.161553476166
 20
1844.434834772781
 30
0.0
 11
4092.161558193315
 21
1844.434567177728
 31
0.0
  0
LINE
  5
131D
330
1F
100
AcDbEntity
  8
SANINDUSA
100
AcDbLine
 10
4092.163925527755
 20
1844.434567177728
 30
0.0
 11
4092.163977822449
 21
1844.43753396912
 31
0.0
  0
LINE
  5
131E
330
1F
100
AcDbEntity
  8
SANINDUSA
100
AcDbLine
 10
4092.133495503265
 20
1844.437297696308
 30
0.0
 11
4092.133548013094
 21
1844.434318700865
 31
0.0
  0
LINE
  5
131F
330
1F
100
AcDbEntity
  8
SANINDUSA
100
AcDbLine
 10
4092.135915347536
 20
1844.434318700865
 30
0.0
 11
4092.135920570393
 21
1844.434615010456
 31
0.0
  0
LINE
  5
1320
330
1F
100
AcDbEntity
  8
SANINDUSA
100
AcDbLine
 10
4092.161954396565
 20
1844.434444585875
 30
0.0
 11
4092.161960306619
 21
1844.43410961875
 31
0.0
  0
LINE
  5
1321
330
1F
100
AcDbEntity
  8
SANINDUSA
100
AcDbLine
 10
4092.164327627208
 20
1844.434110114411
 30
0.0
 11
4092.164380164978
 21
1844.437090719179
 31
0.0
  0
LINE
  5
1322
330
1F
100
AcDbEntity
  8
SANINDUSA
100
AcDbLine
 10
4092.133558389892
 20
1844.434297347502
 30
0.0
 11
4092.133566130113
 21
1844.433858240083
 31
0.0
  0
LINE
  5
1323
330
1F
100
AcDbEntity
  8
SANINDUSA
100
AcDbLine
 10
4092.163961515922
 20
1844.433652469948
 30
0.0
 11
4092.163967504326
 21
1844.433992201523
 31
0.0
  0
LINE
  5
1324
330
1F
100
AcDbEntity
  8
SANINDUSA
100
AcDbLine
 10
4092.134341605168
 20
1844.433704013065
 30
0.0
 11
4092.134346774009
 21
1844.433410758213
 31
0.0
  0
LINE
  5
1325
330
1F
100
AcDbEntity
  8
SANINDUSA
100
AcDbLine
 10
4092.16284693328
 20
1844.433218905762
 30
0.0
 11
4092.162851684888
 21
1844.433488452867
 31
0.0
  0
LINE
  5
1326
330
1F
100
AcDbEntity
  8
SANINDUSA
100
AcDbLine
 10
4092.135843420561
 20
1844.433252299265
 30
0.0
 11
4092.135847860176
 21
1844.433000410036
 31
0.0
  0
LINE
  5
1327
330
1F
100
AcDbEntity
  8
SANINDUSA
100
AcDbLine
 10
4092.12439418507
 20
1844.257042812244
 30
0.0
 11
4092.12439418507
 21
1844.254054697291
 31
0.0
  0
LINE
  5
1328
330
1F
100
AcDbEntity
  8
SANINDUSA
100
AcDbLine
 10
4092.173394185651
 20
1844.254050524966
 30
0.0
 11
4092.173394185651
 21
1844.257042812244
 31
0.0
  0
ARC
  5
1329
330
1F
100
AcDbEntity
  8
SANINDUSA
100
AcDbCircle
 10
4092.124928817699
 20
1844.277868517356
 30
0.0
 40
0.0077935425514373
100
AcDbArc
 50
335.6026135183199
 51
358.6000003112734
  0
LWPOLYLINE
  5
132A
330
1F
100
AcDbEntity
  8
SANINDUSA
100
AcDbPolyline
 90
        6
 70
   128
 43
0.0
 10
4092.165160066609
 20
1844.275552118257
 10
4092.165167636398
 20
1844.275551343397
 10
4092.165250794191
 20
1844.275753216878
 10
4092.165216853071
 20
1844.276188070015
 10
4092.165131016795
 20
1844.276840122477
 10
4092.165068340648
 20
1844.277678096727
  0
LWPOLYLINE
  5
132B
330
1F
100
AcDbEntity
  8
SANINDUSA
100
AcDbPolyline
 90
        4
 70
   128
 43
0.0
 10
4092.134275488716
 20
1844.331467518643
 10
4092.133689396244
 20
1844.311269084052
 10
4092.133381587614
 20
1844.300638916031
 10
4092.132720112029
 20
1844.277679191963
  0
LWPOLYLINE
  5
132C
330
1F
100
AcDbEntity
  8
SANINDUSA
100
AcDbPolyline
 90
        4
 70
   128
 43
0.0
 10
4092.165068262417
 20
1844.277679042951
 10
4092.164384808551
 20
1844.301398435668
 10
4092.164076754052
 20
1844.312036046818
 10
4092.163510087106
 20
1844.331564033464
  0
LINE
  5
132F
330
1F
100
AcDbEntity
  8
SANINDUSA
100
AcDbLine
 10
4092.163894172919
 20
1844.530474329427
 30
0.0
 11
4092.163894173253
 21
1844.555209446244
 31
0.0
  0
LINE
  5
1330
330
1F
100
AcDbEntity
  8
SANINDUSA
100
AcDbLine
 10
4092.133894173254
 20
1844.555209446244
 30
0.0
 11
4092.133894173588
 21
1844.530474329427
 31
0.0
  0
ARC
  5
1331
330
1F
100
AcDbEntity
  8
SANINDUSA
100
AcDbCircle
 10
4092.148894173254
 20
1844.641292136148
 30
0.0
 40
0.0150000000000002
100
AcDbArc
 50
0.0
 51
180.0
  0
LINE
  5
1332
330
1F
100
AcDbEntity
  8
SANINDUSA
100
AcDbLine
 10
4092.133894173254
 20
1844.641292136148
 30
0.0
 11
4092.133894173254
 21
1844.555209446244
 31
0.0
  0
LINE
  5
1333
330
1F
100
AcDbEntity
  8
SANINDUSA
100
AcDbLine
 10
4092.163894173253
 20
1844.555209446244
 30
0.0
 11
4092.163894173253
 21
1844.641292136148
 31
0.0
  0
LINE
  5
1334
330
1F
100
AcDbEntity
  8
SANINDUSA
100
AcDbLine
 10
4092.163894172919
 20
1844.318327972725
 30
0.0
 11
4092.163894172919
 21
1844.433598095611
 31
0.0
  0
LINE
  5
1335
330
1F
100
AcDbEntity
  8
SANINDUSA
100
AcDbLine
 10
4092.133894173588
 20
1844.433744812445
 30
0.0
 11
4092.133894173588
 21
1844.318326273993
 31
0.0
  0
LWPOLYLINE
  5
1337
330
1F
100
AcDbEntity
  8
SANINDUSA
100
AcDbPolyline
 90
       21
 70
   128
 43
0.0
 10
4092.146356158119
 20
1844.230889631495
 10
4092.147312340836
 20
1844.230813929871
 10
4092.148423365565
 20
1844.230776215032
 10
4092.149580477431
 20
1844.230780175016
 10
4092.150670410294
 20
1844.230825422392
 10
4092.151586473847
 20
1844.230907524065
 10
4092.152238997559
 20
1844.231018452034
 10
4092.152564107833
 20
1844.231147339628
 10
4092.152529980449
 20
1844.231281576738
 10
4092.152139956292
 20
1844.231408020542
 10
4092.151432213301
 20
1844.231514291898
 10
4092.1504760307
 20
1844.231589989797
 10
4092.149365005913
 20
1844.231627704636
 10
4092.148207894046
 20
1844.231623748378
 10
4092.147117961125
 20
1844.231578501002
 10
4092.146201897572
 20
1844.231496395603
 10
4092.145549373862
 20
1844.231385467634
 10
4092.145224263586
 20
1844.231256580041
 10
4092.145258390971
 20
1844.23112234293
 10
4092.145648415129
 20
1844.230995902852
 10
4092.146356158119
 20
1844.230889631495
  0
ARC
  5
1338
330
1F
100
AcDbEntity
  8
SANINDUSA
100
AcDbCircle
 10
4092.146294304729
 20
1844.25435447736
 30
0.0
 40
0.0218962423655259
100
AcDbArc
 50
178.9066194900481
 51
210.7154906182897
  0
ARC
  5
133A
330
1F
100
AcDbEntity
  8
SANINDUSA
100
AcDbCircle
 10
4092.151644236736
 20
1844.254099678584
 30
0.0
 40
0.0216558283738791
100
AcDbArc
 50
324.9916188350891
 51
359.6027680113695
  0
ARC
  5
133B
330
1F
100
AcDbEntity
  8
SANINDUSA
100
AcDbCircle
 10
4092.158616994123
 20
1844.246439434559
 30
0.0
 40
0.014780560160877
100
AcDbArc
 50
334.4617348700454
 51
2.70801963373374
  0
ARC
  5
133C
330
1F
100
AcDbEntity
  8
SANINDUSA
100
AcDbCircle
 10
4092.141411231329
 20
1844.246767364443
 30
0.0
 40
0.0170116024359705
100
AcDbArc
 50
179.0242467741567
 51
201.5044948087071
  0
LINE
  5
133D
330
1F
100
AcDbEntity
  8
SANINDUSA
100
AcDbLine
 10
4092.125394173254
 20
1844.301292136148
 30
0.0
 11
4092.133286018343
 21
1844.301292136148
 31
0.0
  0
LINE
  5
133E
330
1F
100
AcDbEntity
  8
SANINDUSA
100
AcDbLine
 10
4092.164501887435
 20
1844.301292136148
 30
0.0
 11
4092.172394173126
 21
1844.301292136148
 31
0.0
  0
LINE
  5
133F
330
1F
100
AcDbEntity
  8
SANINDUSA
100
AcDbLine
 10
4092.123894173254
 20
1844.186292136148
 30
0.0
 11
4092.173894173253
 21
1844.186292136148
 31
0.0
  0
LWPOLYLINE
  5
1341
330
1F
100
AcDbEntity
  8
SANINDUSA
100
AcDbPolyline
 90
       33
 70
   128
 43
0.0
 10
4092.133520791468
 20
1844.436430418924
 10
4092.13260744435
 20
1844.436641508773
 10
4092.131544766177
 20
1844.436968857483
 10
4092.130819774393
 20
1844.437313580946
 10
4092.130446580399
 20
1844.437669003443
 10
4092.13043244851
 20
1844.438028210834
 10
4092.130777652536
 20
1844.438384199575
 10
4092.131475473915
 20
1844.438730025724
 10
4092.132512330238
 20
1844.439058953956
 10
4092.133868041609
 20
1844.439364636377
 10
4092.13551621807
 20
1844.439641052917
 10
4092.137424782079
 20
1844.439882868961
 10
4092.139556584108
 20
1844.440085345939
 10
4092.141870132342
 20
1844.440244579748
 10
4092.14432039547
 20
1844.440357441143
 10
4092.146859681627
 20
1844.440421754555
 10
4092.149438567037
 20
1844.440436268286
 10
4092.152006856326
 20
1844.440400684312
 10
4092.154514561102
 20
1844.440315688089
 10
4092.156912870865
 20
1844.440182948545
 10
4092.159155106332
 20
1844.440005058483
 10
4092.16119762433
 20
1844.439785474971
 10
4092.163000669491
 20
1844.439528429941
 10
4092.164529147718
 20
1844.439238989786
 10
4092.165753309775
 20
1844.438922757343
 10
4092.166649325911
 20
1844.438585901693
 10
4092.167199759905
 20
1844.438234979347
 10
4092.167393895958
 20
1844.437876785234
 10
4092.167227956627
 20
1844.4375183229
 10
4092.166705169876
 20
1844.437166566089
 10
4092.165835713196
 20
1844.436828339533
 10
4092.164636508722
 20
1844.436510259346
 10
4092.164368901562
 20
1844.436451727585
  0
LWPOLYLINE
  5
1342
330
1F
100
AcDbEntity
  8
SANINDUSA
100
AcDbPolyline
 90
       27
 70
   128
 43
0.0
 10
4092.132554902856
 20
1844.437287742332
 10
4092.132300949816
 20
1844.43745210214
 10
4092.132048242886
 20
1844.437792712883
 10
4092.132154577572
 20
1844.438134843544
 10
4092.132617688898
 20
1844.438471132949
 10
4092.133427702981
 20
1844.438794488148
 10
4092.134567359622
 20
1844.439097965196
 10
4092.136012367133
 20
1844.439375096992
 10
4092.137731927607
 20
1844.439620012478
 10
4092.139689392571
 20
1844.439827496246
 10
4092.141843040634
 20
1844.439993077949
 10
4092.144146971565
 20
1844.440113240913
 10
4092.14655208138
 20
1844.44018545194
 10
4092.14900710839
 20
1844.44020816131
 10
4092.151459728528
 20
1844.440180892185
 10
4092.15385766809
 20
1844.440104181007
 10
4092.156149819653
 20
1844.439979726509
 10
4092.15828732976
 20
1844.439810151294
 10
4092.160224640902
 20
1844.439599061445
 10
4092.161920462895
 20
1844.439350957111
 10
4092.163338652041
 20
1844.439071113304
 10
4092.164448982265
 20
1844.438765550092
 10
4092.165227788661
 20
1844.438440734581
 10
4092.165658471335
 20
1844.438103580907
 10
4092.165731853966
 20
1844.437761301235
 10
4092.165446370069
 20
1844.437421197132
 10
4092.165233443651
 20
1844.437287742332
  0
LWPOLYLINE
  5
1343
330
1F
100
AcDbEntity
  8
SANINDUSA
100
AcDbPolyline
 90
       14
 70
   128
 43
0.0
 10
4092.131141395468
 20
1844.483438843921
 10
4092.131833168838
 20
1844.482726210788
 10
4092.133114063341
 20
1844.482797497943
 10
4092.134594910938
 20
1844.483653957084
 10
4092.13617007171
 20
1844.485192084745
 10
4092.13766986334
 20
1844.487451518014
 10
4092.138660891142
 20
1844.490279072956
 10
4092.138767225828
 20
1844.493047887519
 10
4092.138139240604
 20
1844.495402479605
 10
4092.1369257068
 20
1844.497434878782
 10
4092.135236672286
 20
1844.498974228338
 10
4092.133494828988
 20
1844.499599868492
 10
4092.132150831793
 20
1844.499239588216
 10
4092.131637950588
 20
1844.498592579797
  0
LWPOLYLINE
  5
1344
330
1F
100
AcDbEntity
  8
SANINDUSA
100
AcDbPolyline
 90
       25
 70
   128
 43
0.0
 10
4092.130394173015
 20
1844.528967345194
 10
4092.13043244851
 20
1844.529132867292
 10
4092.130777652536
 20
1844.529488856033
 10
4092.131475473915
 20
1844.529834682182
 10
4092.132512330238
 20
1844.530163640216
 10
4092.133868041609
 20
1844.530469292835
 10
4092.13551621807
 20
1844.530745709375
 10
4092.137424782079
 20
1844.530987525419
 10
4092.139556584108
 20
1844.531190032199
 10
4092.141870132342
 20
1844.531349236206
 10
4092.14432039547
 20
1844.531462127403
 10
4092.146859681627
 20
1844.531526440815
 10
4092.149438567037
 20
1844.531540924743
 10
4092.152006856326
 20
1844.531505340771
 10
4092.154514561102
 20
1844.531420344547
 10
4092.156912870865
 20
1844.531287605003
 10
4092.159155106332
 20
1844.531109714941
 10
4092.16119762433
 20
1844.530890131429
 10
4092.163000669491
 20
1844.530633116201
 10
4092.164529147718
 20
1844.530343676046
 10
4092.165753309775
 20
1844.530027443603
 10
4092.166649325911
 20
1844.529690558151
 10
4092.167199759905
 20
1844.529339635805
 10
4092.167393895958
 20
1844.528981441692
 10
4092.167394173492
 20
1844.528967345194
  0
LWPOLYLINE
  5
1345
330
1F
100
AcDbEntity
  8
SANINDUSA
100
AcDbPolyline
 90
       15
 70
   128
 43
0.0
 10
4092.13108415452
 20
1844.505241567329
 10
4092.131692170325
 20
1844.504528487161
 10
4092.133092935358
 20
1844.504574233726
 10
4092.134734874751
 20
1844.505474830106
 10
4092.13651751836
 20
1844.507103050188
 10
4092.138290901829
 20
1844.509540790752
 10
4092.139023279932
 20
1844.511036837534
 10
4092.139554583628
 20
1844.512697959379
 10
4092.139758833844
 20
1844.51581707044
 10
4092.139097577121
 20
1844.518400484756
 10
4092.137770554211
 20
1844.520665938095
 10
4092.135843382378
 20
1844.522495770887
 10
4092.133794791226
 20
1844.523351127342
 10
4092.132235243146
 20
1844.523071968988
 10
4092.131575676773
 20
1844.522328132824
  0
LINE
  5
1346
330
1F
100
AcDbEntity
  8
SANINDUSA
100
AcDbLine
 10
4092.140268624806
 20
1844.437028440652
 30
0.0
 11
4092.140496101747
 21
1844.437055868482
 31
0.0
  0
LWPOLYLINE
  5
1347
330
1F
100
AcDbEntity
  8
SANINDUSA
100
AcDbPolyline
 90
        3
 70
   128
 43
0.0
 10
4092.1429112802
 20
1844.437281066612
 10
4092.142960813988
 20
1844.437284613088
 10
4092.143525488835
 20
1844.437322581247
  0
LINE
  5
1348
330
1F
100
AcDbEntity
  8
SANINDUSA
100
AcDbLine
 10
4092.145941601868
 20
1844.437436776865
 30
0.0
 11
4092.14677970773
 21
1844.437459966128
 31
0.0
  0
LINE
  5
1349
330
1F
100
AcDbEntity
  8
SANINDUSA
100
AcDbLine
 10
4092.149196160939
 20
1844.437483570547
 30
0.0
 11
4092.150083043362
 21
1844.437476477157
 31
0.0
  0
LINE
  5
134A
330
1F
100
AcDbEntity
  8
SANINDUSA
100
AcDbLine
 10
4092.152499400451
 20
1844.437413092952
 30
0.0
 11
4092.153257272856
 21
1844.437379115694
 31
0.0
  0
LINE
  5
134B
330
1F
100
AcDbEntity
  8
SANINDUSA
100
AcDbLine
 10
4092.155673056163
 20
1844.437218606094
 30
0.0
 11
4092.156131190635
 21
1844.437177785031
 31
0.0
  0
LWPOLYLINE
  5
134C
330
1F
100
AcDbEntity
  8
SANINDUSA
100
AcDbPolyline
 90
        6
 70
   128
 43
0.0
 10
4092.133502223689
 20
1844.437297934726
 10
4092.133496140291
 20
1844.437310004667
 10
4092.133565589946
 20
1844.437346184686
 10
4092.133733325798
 20
1844.437321031526
 10
4092.133989598763
 20
1844.437236631349
 10
4092.134251878757
 20
1844.437122935489
  0
LWPOLYLINE
  5
134D
330
1F
100
AcDbEntity
  8
SANINDUSA
100
AcDbPolyline
 90
        7
 70
   128
 43
0.0
 10
4092.134252065021
 20
1844.43770977302
 10
4092.134284721848
 20
1844.437798136905
 10
4092.134436929759
 20
1844.437830710844
 10
4092.134673200708
 20
1844.437799001173
 10
4092.134981980708
 20
1844.437705392078
 10
4092.135353900652
 20
1844.437546396688
 10
4092.135723962608
 20
1844.43734391971
  0
LWPOLYLINE
  5
134E
330
1F
100
AcDbEntity
  8
SANINDUSA
100
AcDbPolyline
 90
        9
 70
   128
 43
0.0
 10
4092.135732608077
 20
1844.438050473169
 10
4092.135727504428
 20
1844.438141549066
 10
4092.135860903349
 20
1844.438247794345
 10
4092.136087662701
 20
1844.438274229005
 10
4092.13637973198
 20
1844.438233906463
 10
4092.136724372554
 20
1844.438129657939
 10
4092.137108076524
 20
1844.437958383993
 10
4092.137503447172
 20
1844.437718654112
 10
4092.137841413889
 20
1844.437437141374
  0
LWPOLYLINE
  5
134F
330
1F
100
AcDbEntity
  8
SANINDUSA
100
AcDbPolyline
 90
       12
 70
   128
 43
0.0
 10
4092.137832536522
 20
1844.438313985303
 10
4092.137826129954
 20
1844.438335264162
 10
4092.137920421708
 20
1844.438534254268
 10
4092.138139711853
 20
1844.438634747699
 10
4092.138428798106
 20
1844.438652778104
 10
4092.138760920774
 20
1844.438602322773
 10
4092.13912284204
 20
1844.438486600355
 10
4092.139497644428
 20
1844.438302958444
 10
4092.1398529859
 20
1844.438051009611
 10
4092.140133766618
 20
1844.437745029167
 10
4092.140269696873
 20
1844.437428915933
 10
4092.140256746833
 20
1844.437365764812
  0
LWPOLYLINE
  5
1350
330
1F
100
AcDbEntity
  8
SANINDUSA
100
AcDbPolyline
 90
       11
 70
   128
 43
0.0
 10
4092.14049262197
 20
1844.438461596206
 10
4092.140510210928
 20
1844.438651705221
 10
4092.14070493744
 20
1844.438845956758
 10
4092.140998295668
 20
1844.438938135341
 10
4092.14133412407
 20
1844.438946003154
 10
4092.141688394987
 20
1844.438884371952
 10
4092.142048085269
 20
1844.438756907419
 10
4092.142393781964
 20
1844.438561553196
 10
4092.14268993649
 20
1844.438299024538
 10
4092.142881432243
 20
1844.437985325292
 10
4092.142898625389
 20
1844.437773102955
  0
LWPOLYLINE
  5
1351
330
1F
100
AcDbEntity
  8
SANINDUSA
100
AcDbPolyline
 90
       12
 70
   128
 43
0.0
 10
4092.143522212442
 20
1844.438507163957
 10
4092.143509286151
 20
1844.438590640262
 10
4092.143646273457
 20
1844.438873464302
 10
4092.143930936392
 20
1844.439059907631
 10
4092.144282548849
 20
1844.439141595796
 10
4092.144647014953
 20
1844.439138079122
 10
4092.145004334788
 20
1844.439064854816
 10
4092.145342403717
 20
1844.438926035598
 10
4092.145640357092
 20
1844.43872022076
 10
4092.145861359939
 20
1844.438449287847
 10
4092.145953246553
 20
1844.438130999044
 10
4092.145946578283
 20
1844.438106263116
  0
LWPOLYLINE
  5
1352
330
1F
100
AcDbEntity
  8
SANINDUSA
100
AcDbPolyline
 90
       11
 70
   128
 43
0.0
 10
4092.146773846282
 20
1844.438433433012
 10
4092.146825071817
 20
1844.438711905912
 10
4092.147065251643
 20
1844.438988560871
 10
4092.147424504554
 20
1844.439164573387
 10
4092.14781541568
 20
1844.43923416181
 10
4092.148188870852
 20
1844.4392186348
 10
4092.148529976795
 20
1844.439134055809
 10
4092.14882819869
 20
1844.438984895185
 10
4092.149062346274
 20
1844.438770407871
 10
4092.1491962828
 20
1844.438493693307
 10
4092.149190473444
 20
1844.438347244695
  0
LWPOLYLINE
  5
1353
330
1F
100
AcDbEntity
  8
SANINDUSA
100
AcDbPolyline
 90
       11
 70
   128
 43
0.0
 10
4092.150089187941
 20
1844.438250923589
 10
4092.15008574717
 20
1844.43840222998
 10
4092.15025240327
 20
1844.438723469213
 10
4092.150582827438
 20
1844.43899085565
 10
4092.150997303121
 20
1844.439154261783
 10
4092.151406438715
 20
1844.439210826591
 10
4092.151768749973
 20
1844.43918334885
 10
4092.152075252889
 20
1844.439088249639
 10
4092.152317550427
 20
1844.438930267528
 10
4092.152475269206
 20
1844.438709432319
 10
4092.152507668056
 20
1844.438480997518
  0
LWPOLYLINE
  5
1354
330
1F
100
AcDbEntity
  8
SANINDUSA
100
AcDbPolyline
 90
       12
 70
   128
 43
0.0
 10
4092.153255087484
 20
1844.437965119318
 10
4092.153247716531
 20
1844.438003355697
 10
4092.153341954269
 20
1844.438310498432
 10
4092.153606512279
 20
1844.438624704317
 10
4092.1540093675
 20
1844.438880169824
 10
4092.154456721313
 20
1844.439029568867
 10
4092.154862024516
 20
1844.439072901443
 10
4092.155193659637
 20
1844.439034098819
 10
4092.155449035738
 20
1844.438929850296
 10
4092.155622346953
 20
1844.43876513286
 10
4092.155695134002
 20
1844.438540542558
 10
4092.155687709965
 20
1844.438504004911
  0
LWPOLYLINE
  5
1355
330
1F
100
AcDbEntity
  8
SANINDUSA
100
AcDbPolyline
 90
       11
 70
   128
 43
0.0
 10
4092.156131376207
 20
1844.43759223266
 10
4092.156167968802
 20
1844.437814200357
 10
4092.156358380496
 20
1844.438116723732
 10
4092.156706577792
 20
1844.438420975641
 10
4092.157160146323
 20
1844.438662493661
 10
4092.157616261554
 20
1844.438797200159
 10
4092.157995882604
 20
1844.438827747539
 10
4092.158278962758
 20
1844.438778961137
 10
4092.158469445233
 20
1844.438667470649
 10
4092.158564426165
 20
1844.438498402075
 10
4092.158558012147
 20
1844.438408369258
  0
LWPOLYLINE
  5
1356
330
1F
100
AcDbEntity
  8
SANINDUSA
100
AcDbPolyline
 90
       11
 70
   128
 43
0.0
 10
4092.158557362084
 20
1844.437158310846
 10
4092.158564374943
 20
1844.437282765344
 10
4092.1586960891
 20
1844.437536442713
 10
4092.158972408783
 20
1844.437831366495
 10
4092.159385474559
 20
1844.438123220638
 10
4092.159865304057
 20
1844.438349569276
 10
4092.160305591461
 20
1844.438469672636
 10
4092.160639064547
 20
1844.438488656715
 10
4092.160858329545
 20
1844.438431704477
 10
4092.160973648701
 20
1844.438315207199
 10
4092.160980981935
 20
1844.438206577734
  0
LWPOLYLINE
  5
1357
330
1F
100
AcDbEntity
  8
SANINDUSA
100
AcDbPolyline
 90
        8
 70
   128
 43
0.0
 10
4092.160979530934
 20
1844.437417680458
 10
4092.161043117914
 20
1844.43746980472
 10
4092.161498782385
 20
1844.437747532562
 10
4092.161979004901
 20
1844.437958264784
 10
4092.16237972879
 20
1844.438064688877
 10
4092.162649076592
 20
1844.43807383819
 10
4092.16279270516
 20
1844.438010985092
 10
4092.162821431805
 20
1844.437910342649
  0
LWPOLYLINE
  5
1358
330
1F
100
AcDbEntity
  8
SANINDUSA
100
AcDbPolyline
 90
        7
 70
   128
 43
0.0
 10
4092.162816570301
 20
1844.437249803976
 10
4092.162932573047
 20
1844.437314117388
 10
4092.163387299676
 20
1844.437509650425
 10
4092.163726856161
 20
1844.43760403438
 10
4092.163917558428
 20
1844.43760570331
 10
4092.163977807548
 20
1844.437539542154
 10
4092.163975530464
 20
1844.437534058527
  0
LWPOLYLINE
  5
1359
330
1F
100
AcDbEntity
  8
SANINDUSA
100
AcDbPolyline
 90
        5
 70
   128
 43
0.0
 10
4092.163968540888
 20
1844.437007421688
 10
4092.164014266033
 20
1844.437027925686
 10
4092.164274349969
 20
1844.437112564281
 10
4092.1643761249
 20
1844.43710946484
 10
4092.164368827056
 20
1844.437091017202
  0
LWPOLYLINE
  5
135A
330
1F
100
AcDbEntity
  8
SANINDUSA
100
AcDbPolyline
 90
       17
 70
   128
 43
0.0
 10
4092.155332429495
 20
1844.433492863611
 10
4092.153385729224
 20
1844.433618897632
 10
4092.151316511372
 20
1844.433698633746
 10
4092.149181218309
 20
1844.433729881481
 10
4092.147038095442
 20
1844.433711791471
 10
4092.144945601627
 20
1844.433644840554
 10
4092.142960813988
 20
1844.433530891374
 10
4092.141137873449
 20
1844.433373013572
 10
4092.139526504253
 20
1844.433175543383
 10
4092.138170661566
 20
1844.432943845228
 10
4092.137107326809
 20
1844.432684252099
 10
4092.136365507889
 20
1844.432403842047
 10
4092.135965437789
 20
1844.43211025937
 10
4092.135918029744
 20
1844.43181152089
 10
4092.136224576433
 20
1844.431515762643
 10
4092.13687671737
 20
1844.431231061057
 10
4092.136894173149
 20
1844.4312252049
  0
LWPOLYLINE
  5
135B
330
1F
100
AcDbEntity
  8
SANINDUSA
100
AcDbPolyline
 90
       10
 70
   128
 43
0.0
 10
4092.160894173358
 20
1844.4312252049
 10
4092.161422838617
 20
1844.431438306407
 10
4092.161822908718
 20
1844.431731889084
 10
4092.161870316763
 20
1844.432030627564
 10
4092.161563770075
 20
1844.432326385812
 10
4092.160911629137
 20
1844.432611072496
 10
4092.159931683141
 20
1844.432876953915
 10
4092.15865066291
 20
1844.433116758303
 10
4092.157103510734
 20
1844.433323944048
 10
4092.155332429495
 20
1844.433492863611
  0
LWPOLYLINE
  5
135C
330
1F
100
AcDbEntity
  8
SANINDUSA
100
AcDbPolyline
 90
       13
 70
   128
 43
0.0
 10
4092.154837179157
 20
1844.433371955589
 10
4092.152936608691
 20
1844.433493534163
 10
4092.150913210979
 20
1844.433567339615
 10
4092.148828465826
 20
1844.433591121868
 10
4092.14674571708
 20
1844.433564165667
 10
4092.144728248167
 20
1844.433487275675
 10
4092.142837358799
 20
1844.433362806276
 10
4092.141130502962
 20
1844.433194527463
 10
4092.139659541819
 20
1844.432987550334
 10
4092.138469170939
 20
1844.43274817808
 10
4092.137595557768
 20
1844.432483667568
 10
4092.137065247793
 20
1844.432202065424
 10
4092.136894173149
 20
1844.431921074227
  0
LWPOLYLINE
  5
135D
330
1F
100
AcDbEntity
  8
SANINDUSA
100
AcDbPolyline
 90
        8
 70
   128
 43
0.0
 10
4092.160894173358
 20
1844.431921074227
 10
4092.160893993613
 20
1844.43193022354
 10
4092.160700279449
 20
1844.432220080928
 10
4092.16014784218
 20
1844.432500863508
 10
4092.159253468897
 20
1844.432764018015
 10
4092.158044332799
 20
1844.433001572326
 10
4092.156557174094
 20
1844.433206284479
 10
4092.154837179157
 20
1844.433371955589
  0
LWPOLYLINE
  5
135E
330
1F
100
AcDbEntity
  8
SANINDUSA
100
AcDbPolyline
 90
       36
 70
   128
 43
0.0
 10
4092.154341928355
 20
1844.42631916149
 10
4092.152548046011
 20
1844.426433170275
 10
4092.150636725171
 20
1844.426500761942
 10
4092.148669397167
 20
1844.426519775823
 10
4092.146709293753
 20
1844.426489600972
 10
4092.144819413937
 20
1844.426411191062
 10
4092.143060500428
 20
1844.42628707929
 10
4092.141489085902
 20
1844.426121259168
 10
4092.140155676912
 20
1844.42591903551
 10
4092.139103130597
 20
1844.425686949924
 10
4092.138365276318
 20
1844.42543242319
 10
4092.137965829272
 20
1844.425163650945
 10
4092.137917628672
 20
1844.424889275864
 10
4092.138222222376
 20
1844.424618104533
 10
4092.138869822186
 20
1844.424358869031
 10
4092.139839613039
 20
1844.42411989911
 10
4092.141100424036
 20
1844.423908853963
 10
4092.142611733332
 20
1844.423732543424
 10
4092.144324965004
 20
1844.423596615032
 10
4092.146185054837
 20
1844.423505449728
 10
4092.148132217917
 20
1844.423461968139
 10
4092.15010387094
 20
1844.423467570976
 10
4092.152036643282
 20
1844.423522094325
 10
4092.153868414157
 20
1844.423623764948
 10
4092.15554030861
 20
1844.42376931949
 10
4092.156998590726
 20
1844.423954078988
 10
4092.158196390767
 20
1844.424172112778
 10
4092.159095209252
 20
1844.424416402415
 10
4092.159666158419
 20
1844.424679109887
 10
4092.159890887488
 20
1844.424951771334
 10
4092.159762172189
 20
1844.425225654677
 10
4092.159284151319
 20
1844.425491923527
 10
4092.158472187047
 20
1844.425742039517
 10
4092.157352377821
 20
1844.425967956022
 10
4092.155960715536
 20
1844.426162416176
 10
4092.154341928355
 20
1844.42631916149
  0
LWPOLYLINE
  5
135F
330
1F
100
AcDbEntity
  8
SANINDUSA
100
AcDbPolyline
 90
        8
 70
   128
 43
0.0
 10
4092.154837179157
 20
1844.42743034108
 10
4092.156557174094
 20
1844.42726466997
 10
4092.158044332799
 20
1844.427059957818
 10
4092.159253468897
 20
1844.426822403506
 10
4092.16014784218
 20
1844.426559248999
 10
4092.160700279449
 20
1844.426278466419
 10
4092.160893993613
 20
1844.425988609031
 10
4092.160775072101
 20
1844.425744751529
  0
LWPOLYLINE
  5
1360
330
1F
100
AcDbEntity
  8
SANINDUSA
100
AcDbPolyline
 90
       14
 70
   128
 43
0.0
 10
4092.137013274405
 20
1844.425744751529
 10
4092.136894352894
 20
1844.425970325307
 10
4092.137065247793
 20
1844.426260465816
 10
4092.137595557768
 20
1844.42654206796
 10
4092.138469170939
 20
1844.426806563572
 10
4092.139659541819
 20
1844.427045950726
 10
4092.141130502962
 20
1844.427252912954
 10
4092.142837358799
 20
1844.427421191767
 10
4092.144728248167
 20
1844.427545676068
 10
4092.14674571708
 20
1844.427622551158
 10
4092.148828465826
 20
1844.42764952226
 10
4092.150913210979
 20
1844.427625725106
 10
4092.152936608691
 20
1844.427551919655
 10
4092.154837179157
 20
1844.42743034108
  0
LWPOLYLINE
  5
1361
330
1F
100
AcDbEntity
  8
SANINDUSA
100
AcDbPolyline
 90
       17
 70
   128
 43
0.0
 10
4092.148063019951
 20
1844.435914466218
 10
4092.148509342413
 20
1844.435930991605
 10
4092.148876253536
 20
1844.435970017747
 10
4092.149107894438
 20
1844.43602562888
 10
4092.14916899991
 20
1844.436089346245
 10
4092.149050267166
 20
1844.436151454285
 10
4092.148769772204
 20
1844.436202520565
 10
4092.148370217866
 20
1844.436234751776
 10
4092.1479124326
 20
1844.436243260339
 10
4092.147466110225
 20
1844.436226734952
 10
4092.14709919905
 20
1844.43618770881
 10
4092.146867558055
 20
1844.436132097677
 10
4092.146806452817
 20
1844.436068380312
 10
4092.146925185502
 20
1844.436006272272
 10
4092.14720568042
 20
1844.435955205992
 10
4092.147605234801
 20
1844.43592295988
 10
4092.148063019951
 20
1844.435914466218
  0
LWPOLYLINE
  5
1362
330
1F
100
AcDbEntity
  8
SANINDUSA
100
AcDbPolyline
 90
       17
 70
   128
 43
0.0
 10
4092.151092624219
 20
1844.435892218784
 10
4092.151554297583
 20
1844.435893977121
 10
4092.151976005101
 20
1844.435920188264
 10
4092.15229354582
 20
1844.4359668587
 10
4092.152458576646
 20
1844.436026880577
 10
4092.152445973523
 20
1844.436091134385
 10
4092.152257654744
 20
1844.436149830059
 10
4092.151922290606
 20
1844.436194026903
 10
4092.151490936915
 20
1844.436216989592
 10
4092.151029263551
 20
1844.436215231255
 10
4092.150607555915
 20
1844.436189035014
 10
4092.150290015314
 20
1844.436142349676
 10
4092.150124984372
 20
1844.436082327798
 10
4092.150137587611
 20
1844.436018073992
 10
4092.150325906274
 20
1844.435959378317
 10
4092.150661270528
 20
1844.435915181474
 10
4092.151092624219
 20
1844.435892218784
  0
LWPOLYLINE
  5
1363
330
1F
100
AcDbEntity
  8
SANINDUSA
100
AcDbPolyline
 90
       17
 70
   128
 43
0.0
 10
4092.148028038603
 20
1844.435990834669
 10
4092.148267000201
 20
1844.435999685958
 10
4092.148463444916
 20
1844.436020592288
 10
4092.148587465738
 20
1844.436050364808
 10
4092.148620181673
 20
1844.436084473566
 10
4092.14855661201
 20
1844.436117732957
 10
4092.148406434673
 20
1844.436145061687
 10
4092.148192512788
 20
1844.436162332133
 10
4092.147947413949
 20
1844.436166876987
 10
4092.14770845235
 20
1844.436158040599
 10
4092.147512007665
 20
1844.436137134269
 10
4092.147387986813
 20
1844.436107361749
 10
4092.147355270966
 20
1844.436073252991
 10
4092.147418840599
 20
1844.4360399936
 10
4092.147569017877
 20
1844.436012649969
 10
4092.147782939879
 20
1844.435995394424
 10
4092.148028038603
 20
1844.435990834669
  0
LWPOLYLINE
  5
1364
330
1F
100
AcDbEntity
  8
SANINDUSA
100
AcDbPolyline
 90
       17
 70
   128
 43
0.0
 10
4092.151185152048
 20
1844.435967663363
 10
4092.15143233251
 20
1844.435968602136
 10
4092.15165811537
 20
1844.43598263903
 10
4092.151828126909
 20
1844.436007628278
 10
4092.151916484741
 20
1844.436039770082
 10
4092.151909736844
 20
1844.436074161962
 10
4092.151808910931
 20
1844.436105588511
 10
4092.151629356362
 20
1844.436129251555
 10
4092.151398409085
 20
1844.436141545013
 10
4092.151151228623
 20
1844.43614060624
 10
4092.150925445763
 20
1844.436126569346
 10
4092.150755434108
 20
1844.436101580099
 10
4092.150667076392
 20
1844.436069438294
 10
4092.150673824174
 20
1844.436035046414
 10
4092.150774650203
 20
1844.436003619865
 10
4092.150954204772
 20
1844.435979956821
 10
4092.151185152048
 20
1844.435967663363
  0
LWPOLYLINE
  5
1365
330
1F
100
AcDbEntity
  8
SANINDUSA
100
AcDbPolyline
 90
       17
 70
   128
 43
0.0
 10
4092.145078223359
 20
1844.435838872627
 10
4092.145485133559
 20
1844.435869270996
 10
4092.145777468032
 20
1844.435919025973
 10
4092.145910721432
 20
1844.435980567769
 10
4092.145864607227
 20
1844.436044523552
 10
4092.145646145728
 20
1844.436101162866
 10
4092.14528859609
 20
1844.436141843036
 10
4092.144846391558
 20
1844.436160394982
 10
4092.144386854183
 20
1844.436153972582
 10
4092.143979943983
 20
1844.436123574213
 10
4092.143687609744
 20
1844.436073804334
 10
4092.143554356575
 20
1844.436012262539
 10
4092.143600470547
 20
1844.435948306755
 10
4092.143818931814
 20
1844.435891682342
 10
4092.144176481452
 20
1844.435850987271
 10
4092.144618685983
 20
1844.435832450226
 10
4092.145078223359
 20
1844.435838872627
  0
LWPOLYLINE
  5
1366
330
1F
100
AcDbEntity
  8
SANINDUSA
100
AcDbPolyline
 90
       17
 70
   128
 43
0.0
 10
4092.144917618644
 20
1844.435912067131
 10
4092.145135478975
 20
1844.435928339199
 10
4092.145291995184
 20
1844.435954982475
 10
4092.145363339151
 20
1844.435987928942
 10
4092.145338649556
 20
1844.436022171811
 10
4092.14522168522
 20
1844.436052495674
 10
4092.145030252563
 20
1844.436074281172
 10
4092.144793495696
 20
1844.436084205345
 10
4092.144547458898
 20
1844.436080778078
 10
4092.1443295988
 20
1844.436064491108
 10
4092.14417308259
 20
1844.436037847832
 10
4092.144101738624
 20
1844.436004901365
 10
4092.144126427986
 20
1844.435970658497
 10
4092.144243392322
 20
1844.435940334633
 10
4092.144434825212
 20
1844.435918564037
 10
4092.144671581846
 20
1844.435908624962
 10
4092.144917618644
 20
1844.435912067131
  0
LWPOLYLINE
  5
1367
330
1F
100
AcDbEntity
  8
SANINDUSA
100
AcDbPolyline
 90
       17
 70
   128
 43
0.0
 10
4092.154003709249
 20
1844.43577333732
 10
4092.154455844939
 20
1844.435760224298
 10
4092.154909614634
 20
1844.435772189931
 10
4092.155295936086
 20
1844.435807416276
 10
4092.155555995342
 20
1844.435860538915
 10
4092.155650201414
 20
1844.435923466519
 10
4092.155564211004
 20
1844.43598661764
 10
4092.155311116644
 20
1844.43604038103
 10
4092.154929449011
 20
1844.43607657595
 10
4092.154477313321
 20
1844.436089688972
 10
4092.154023543627
 20
1844.43607772334
 10
4092.153637222175
 20
1844.436042496995
 10
4092.153377162918
 20
1844.435989374355
 10
4092.153282956846
 20
1844.435926446751
 10
4092.153368947257
 20
1844.43586329563
 10
4092.153622041617
 20
1844.435809532241
 10
4092.154003709249
 20
1844.43577333732
  0
LWPOLYLINE
  5
1368
330
1F
100
AcDbEntity
  8
SANINDUSA
100
AcDbPolyline
 90
       17
 70
   128
 43
0.0
 10
4092.154218758151
 20
1844.435843775109
 10
4092.154460832172
 20
1844.435836756662
 10
4092.154703780703
 20
1844.435843164161
 10
4092.154910617668
 20
1844.435862029031
 10
4092.155049854119
 20
1844.435890460447
 10
4092.155100291755
 20
1844.435924151973
 10
4092.155054252756
 20
1844.435957962707
 10
4092.154918745786
 20
1844.435986751751
 10
4092.154714400109
 20
1844.436006138161
 10
4092.154472326089
 20
1844.436013156608
 10
4092.154229377557
 20
1844.436006749109
 10
4092.154022540592
 20
1844.435987884239
 10
4092.153883304141
 20
1844.435959452823
 10
4092.153832866505
 20
1844.435925761298
 10
4092.153878905505
 20
1844.435891950563
 10
4092.154014412474
 20
1844.43586316152
 10
4092.154218758151
 20
1844.435843775109
  0
LWPOLYLINE
  5
1369
330
1F
100
AcDbEntity
  8
SANINDUSA
100
AcDbPolyline
 90
       17
 70
   128
 43
0.0
 10
4092.14229914562
 20
1844.435669506029
 10
4092.142644706808
 20
1844.435712153152
 10
4092.142846704621
 20
1844.435769954756
 10
4092.142874386787
 20
1844.435834119156
 10
4092.142723539073
 20
1844.435894871191
 10
4092.142417126495
 20
1844.435942957238
 10
4092.142001797605
 20
1844.435971075729
 10
4092.141540782686
 20
1844.435974920228
 10
4092.141104266674
 20
1844.435953939394
 10
4092.140758705485
 20
1844.43591129227
 10
4092.140556708138
 20
1844.435853490666
 10
4092.140529025506
 20
1844.435789326266
 10
4092.140679873686
 20
1844.435728574232
 10
4092.140986286264
 20
1844.435680488185
 10
4092.141401614688
 20
1844.435652369693
 10
4092.141862629608
 20
1844.435648510293
 10
4092.14229914562
 20
1844.435669506029
  0
LWPOLYLINE
  5
136A
330
1F
100
AcDbEntity
  8
SANINDUSA
100
AcDbPolyline
 90
       17
 70
   128
 43
0.0
 10
4092.142021576103
 20
1844.435735577778
 10
4092.142206589851
 20
1844.435758406357
 10
4092.142314739685
 20
1844.435789356068
 10
4092.142329560753
 20
1844.435823718146
 10
4092.142248796925
 20
1844.43585623248
 10
4092.142084743056
 20
1844.435881981686
 10
4092.141862375356
 20
1844.43589704676
 10
4092.1416155474
 20
1844.43589910312
 10
4092.141381836191
 20
1844.435887867645
 10
4092.141196822442
 20
1844.435865024165
 10
4092.141088672608
 20
1844.435834089354
 10
4092.141073851075
 20
1844.435799727277
 10
4092.141154615369
 20
1844.435767198041
 10
4092.141318669237
 20
1844.435741448835
 10
4092.141541036937
 20
1844.435726398662
 10
4092.141787864894
 20
1844.435724342302
 10
4092.142021576103
 20
1844.435735577778
  0
LWPOLYLINE
  5
136B
330
1F
100
AcDbEntity
  8
SANINDUSA
100
AcDbPolyline
 90
       17
 70
   128
 43
0.0
 10
4092.156639338166
 20
1844.435564229325
 10
4092.157057561141
 20
1844.4355369602
 10
4092.157518929962
 20
1844.435534039573
 10
4092.157953205679
 20
1844.435555914477
 10
4092.1582942737
 20
1844.435599261955
 10
4092.15849021
 20
1844.435657465891
 10
4092.158511184316
 20
1844.435721674994
 10
4092.158354004074
 20
1844.435782114104
 10
4092.158042597745
 20
1844.435829574302
 10
4092.157624375235
 20
1844.435856843427
 10
4092.157163006414
 20
1844.435859764055
 10
4092.156728729766
 20
1844.43583788915
 10
4092.15638766221
 20
1844.435794556574
 10
4092.15619172591
 20
1844.435736352638
 10
4092.156170751594
 20
1844.435672143534
 10
4092.156327932302
 20
1844.435611704424
 10
4092.156639338166
 20
1844.435564229325
  0
LWPOLYLINE
  5
136C
330
1F
100
AcDbEntity
  8
SANINDUSA
100
AcDbPolyline
 90
       17
 70
   128
 43
0.0
 10
4092.156965314571
 20
1844.435625875429
 10
4092.157189231526
 20
1844.435611272291
 10
4092.157436249006
 20
1844.435609707669
 10
4092.157668761138
 20
1844.435621419982
 10
4092.157851369281
 20
1844.435644621089
 10
4092.157956273456
 20
1844.435675794319
 10
4092.157967503343
 20
1844.435710171298
 10
4092.157883348104
 20
1844.435742521719
 10
4092.157716621805
 20
1844.4357679431
 10
4092.157492703918
 20
1844.435782546238
 10
4092.157245686438
 20
1844.435784095958
 10
4092.157013175238
 20
1844.435772398547
 10
4092.156830567096
 20
1844.435749182538
 10
4092.156725661989
 20
1844.435718024209
 10
4092.156714433033
 20
1844.435683647231
 10
4092.156798587342
 20
1844.435651281909
 10
4092.156965314571
 20
1844.435625875429
  0
LWPOLYLINE
  5
136D
330
1F
100
AcDbEntity
  8
SANINDUSA
100
AcDbPolyline
 90
       17
 70
   128
 43
0.0
 10
4092.139875607726
 20
1844.435415530637
 10
4092.14014119019
 20
1844.435468116835
 10
4092.140241962087
 20
1844.435530835823
 10
4092.140162580807
 20
1844.435594150857
 10
4092.139915131193
 20
1844.435648435787
 10
4092.139537286174
 20
1844.435685390667
 10
4092.139086568888
 20
1844.435699412659
 10
4092.13863159639
 20
1844.435688370899
 10
4092.138241634865
 20
1844.435653934315
 10
4092.1379760524
 20
1844.435601348117
 10
4092.137875280503
 20
1844.435538614229
 10
4092.137954661783
 20
1844.435475299195
 10
4092.138202111397
 20
1844.435421029166
 10
4092.138579956416
 20
1844.435384059385
 10
4092.139030673702
 20
1844.435370037392
 10
4092.1394856462
 20
1844.435381079153
 10
4092.139875607726
 20
1844.435415530637
  0
LWPOLYLINE
  5
136E
330
1F
100
AcDbEntity
  8
SANINDUSA
100
AcDbPolyline
 90
       17
 70
   128
 43
0.0
 10
4092.139496036966
 20
1844.435470903352
 10
4092.139638230365
 20
1844.435499066547
 10
4092.139692183745
 20
1844.435532638863
 10
4092.139649682838
 20
1844.435566539005
 10
4092.139517197546
 20
1844.435595596269
 10
4092.139314899381
 20
1844.435615399913
 10
4092.139073584389
 20
1844.435622895197
 10
4092.138829991382
 20
1844.435616994337
 10
4092.138621205624
 20
1844.435598546699
 10
4092.138479012225
 20
1844.435570398406
 10
4092.138425058846
 20
1844.435536811188
 10
4092.138467559752
 20
1844.435502911047
 10
4092.138600045045
 20
1844.435473853782
 10
4092.138802343209
 20
1844.43545406504
 10
4092.139043658201
 20
1844.435446554855
 10
4092.139287251209
 20
1844.435452470616
 10
4092.139496036966
 20
1844.435470903352
  0
LWPOLYLINE
  5
136F
330
1F
100
AcDbEntity
  8
SANINDUSA
100
AcDbPolyline
 90
       17
 70
   128
 43
0.0
 10
4092.158857423041
 20
1844.435276174978
 10
4092.159219186913
 20
1844.435236210063
 10
4092.159663282495
 20
1844.435218567089
 10
4092.160122100424
 20
1844.435225913361
 10
4092.160525790576
 20
1844.435257131294
 10
4092.160812893111
 20
1844.435307482317
 10
4092.160939701062
 20
1844.435369292334
 10
4092.160886909042
 20
1844.43543314381
 10
4092.160662552502
 20
1844.435489321188
 10
4092.16030078863
 20
1844.435529286102
 10
4092.159856693048
 20
1844.435546929077
 10
4092.15939787512
 20
1844.435539582804
 10
4092.158994184967
 20
1844.435508364872
 10
4092.158707082432
 20
1844.435458013848
 10
4092.158580274481
 20
1844.435396203832
 10
4092.158633066502
 20
1844.435332352356
 10
4092.158857423041
 20
1844.435276174978
  0
LWPOLYLINE
  5
1370
330
1F
100
AcDbEntity
  8
SANINDUSA
100
AcDbPolyline
 90
       17
 70
   128
 43
0.0
 10
4092.159276753824
 20
1844.435325691536
 10
4092.159470441912
 20
1844.435304293469
 10
4092.159708211359
 20
1844.435294846133
 10
4092.159953863521
 20
1844.435298780039
 10
4092.160169999275
 20
1844.435315499142
 10
4092.160323714998
 20
1844.435342455343
 10
4092.160391608413
 20
1844.435375535921
 10
4092.160363342773
 20
1844.435409734086
 10
4092.160243221719
 20
1844.435439804629
 10
4092.160049533632
 20
1844.435461202697
 10
4092.159811764185
 20
1844.435470650033
 10
4092.159566112023
 20
1844.435466716126
 10
4092.159349976268
 20
1844.435449997023
 10
4092.159196260546
 20
1844.435423040823
 10
4092.15912836713
 20
1844.435389960245
 10
4092.15915663277
 20
1844.43535576208
 10
4092.159276753824
 20
1844.435325691536
  0
LWPOLYLINE
  5
1371
330
1F
100
AcDbEntity
  8
SANINDUSA
100
AcDbPolyline
 90
       31
 70
   128
 43
0.0
 10
4092.130096842695
 20
1844.49099018617
 10
4092.130193281148
 20
1844.489867055849
 10
4092.130524424065
 20
1844.488835657076
 10
4092.130547917608
 20
1844.488791639045
 10
4092.130878585551
 20
1844.488367969231
 10
4092.131030596021
 20
1844.488279366926
 10
4092.131077763784
 20
1844.488270605043
 10
4092.131092052135
 20
1844.48827415152
 10
4092.131130571638
 20
1844.488298976854
 10
4092.131392984811
 20
1844.488594407276
 10
4092.131606766183
 20
1844.488936210111
 10
4092.131949012328
 20
1844.48969536467
 10
4092.132210443888
 20
1844.490695649818
 10
4092.132265127424
 20
1844.491152936653
 10
4092.132231799115
 20
1844.492189819053
 10
4092.132193274025
 20
1844.492415780262
 10
4092.131886069823
 20
1844.493359619812
 10
4092.131750424552
 20
1844.493615442947
 10
4092.131337716405
 20
1844.494129741624
 10
4092.131153333161
 20
1844.494245255426
 10
4092.131096172307
 20
1844.494258785681
 10
4092.131080635984
 20
1844.494256669715
 10
4092.131027090523
 20
1844.494220549301
 10
4092.130978319023
 20
1844.494175249771
 10
4092.130911017928
 20
1844.494099611477
 10
4092.130824473847
 20
1844.493982816175
 10
4092.13062538502
 20
1844.493630731539
 10
4092.130344235498
 20
1844.492864275411
 10
4092.130148810495
 20
1844.491859877542
 10
4092.130099731657
 20
1844.491193974451
 10
4092.130096842695
 20
1844.49099018617
  0
LWPOLYLINE
  5
1372
330
1F
100
AcDbEntity
  8
SANINDUSA
100
AcDbPolyline
 90
       17
 70
   128
 43
0.0
 10
4092.137938263055
 20
1844.435090595916
 10
4092.138109550041
 20
1844.435150289968
 10
4092.138103662219
 20
1844.435214558676
 10
4092.137921497386
 20
1844.435273626879
 10
4092.137590786602
 20
1844.435318494276
 10
4092.137161879029
 20
1844.435342336134
 10
4092.136700070624
 20
1844.43534151657
 10
4092.136275668789
 20
1844.435316154793
 10
4092.135953284029
 20
1844.435270140008
 10
4092.135781997043
 20
1844.435210445956
 10
4092.135787884865
 20
1844.435146177248
 10
4092.135970050629
 20
1844.435087109045
 10
4092.136300760482
 20
1844.435042241648
 10
4092.136729668986
 20
1844.43501839979
 10
4092.137191476461
 20
1844.435019219354
 10
4092.137615878296
 20
1844.43504456623
 10
4092.137938263055
 20
1844.435090595916
  0
LWPOLYLINE
  5
1373
330
1F
100
AcDbEntity
  8
SANINDUSA
100
AcDbPolyline
 90
       17
 70
   128
 43
0.0
 10
4092.137477153141
 20
1844.435132304267
 10
4092.137568860475
 20
1844.435164267257
 10
4092.137565708879
 20
1844.435198674039
 10
4092.137468177054
 20
1844.435230294303
 10
4092.137291114006
 20
1844.435254314975
 10
4092.137061476868
 20
1844.43526708527
 10
4092.136814223763
 20
1844.435266653136
 10
4092.13658699875
 20
1844.435253078178
 10
4092.136414393944
 20
1844.435228431657
 10
4092.136322686608
 20
1844.435196468667
 10
4092.136325838205
 20
1844.435162061886
 10
4092.13642337003
 20
1844.435130441621
 10
4092.136600433078
 20
1844.43510642095
 10
4092.136830070216
 20
1844.435093650654
 10
4092.137077323321
 20
1844.435094082788
 10
4092.137304548335
 20
1844.435107657746
 10
4092.137477153141
 20
1844.435132304267
  0
LWPOLYLINE
  5
1374
330
1F
100
AcDbEntity
  8
SANINDUSA
100
AcDbPolyline
 90
       27
 70
   128
 43
0.0
 10
4092.129626915951
 20
1844.513602370456
 10
4092.129626930852
 20
1844.513585800365
 10
4092.129722112018
 20
1844.512286419109
 10
4092.129777896378
 20
1844.511971289352
 10
4092.13023312499
 20
1844.510682279304
 10
4092.130649366576
 20
1844.510187709764
 10
4092.13090228026
 20
1844.510060245231
 10
4092.131062573914
 20
1844.510052586034
 10
4092.131230400104
 20
1844.510122323469
 10
4092.131607824166
 20
1844.51046740456
 10
4092.131872679267
 20
1844.510808432535
 10
4092.132443335999
 20
1844.511811727718
 10
4092.132877665732
 20
1844.513043338493
 10
4092.133034373794
 20
1844.513984555439
 10
4092.132979364294
 20
1844.515313888029
 10
4092.132558399041
 20
1844.51662796183
 10
4092.132378623982
 20
1844.51696109219
 10
4092.131739954624
 20
1844.517751568989
 10
4092.131368114773
 20
1844.517990673021
 10
4092.131168893699
 20
1844.518034303621
 10
4092.131019809444
 20
1844.518001997904
 10
4092.13080273864
 20
1844.517844015793
 10
4092.130621691395
 20
1844.517633462385
 10
4092.130263212297
 20
1844.517003888324
 10
4092.129824577991
 20
1844.515590691999
 10
4092.129655148062
 20
1844.514356995061
 10
4092.129626915951
 20
1844.513602370456
  0
LWPOLYLINE
  5
1375
330
1F
100
AcDbEntity
  8
SANINDUSA
100
AcDbPolyline
 90
       17
 70
   128
 43
0.0
 10
4092.160538386713
 20
1844.434924686388
 10
4092.160824188192
 20
1844.434874186352
 10
4092.161227069024
 20
1844.434842759804
 10
4092.161685695101
 20
1844.434835190014
 10
4092.162130243305
 20
1844.434852609471
 10
4092.162493036289
 20
1844.434892395571
 10
4092.162718841035
 20
1844.43494845374
 10
4092.162773282427
 20
1844.435012290314
 10
4092.162648070764
 20
1844.435074159935
 10
4092.162362269286
 20
1844.43512464507
 10
4092.161959388453
 20
1844.435156071619
 10
4092.161500762377
 20
1844.43516365631
 10
4092.161056214172
 20
1844.435146221951
 10
4092.160693421189
 20
1844.435106450752
 10
4092.160467616443
 20
1844.435050377682
 10
4092.16041317505
 20
1844.434986556009
 10
4092.160538386713
 20
1844.434924686388
  0
LWPOLYLINE
  5
1376
330
1F
100
AcDbEntity
  8
SANINDUSA
100
AcDbPolyline
 90
       17
 70
   128
 43
0.0
 10
4092.161028464485
 20
1844.434959406093
 10
4092.161181483578
 20
1844.434932375387
 10
4092.161397186268
 20
1844.434915551976
 10
4092.161642735053
 20
1844.434911483959
 10
4092.161880746644
 20
1844.434920812085
 10
4092.162074987006
 20
1844.434942120746
 10
4092.16219588292
 20
1844.434972131685
 10
4092.162225030523
 20
1844.435006314949
 10
4092.162157992992
 20
1844.43503944023
 10
4092.162004973899
 20
1844.435066470936
 10
4092.16178927121
 20
1844.435083294348
 10
4092.161543722425
 20
1844.435087347463
 10
4092.161305710834
 20
1844.435078019336
 10
4092.161111470472
 20
1844.435056725577
 10
4092.160990574558
 20
1844.435026699737
 10
4092.160961426954
 20
1844.434992531375
 10
4092.161028464485
 20
1844.434959406093
  0
LWPOLYLINE
  5
1377
330
1F
100
AcDbEntity
  8
SANINDUSA
100
AcDbPolyline
 90
       17
 70
   128
 43
0.0
 10
4092.136591553848
 20
1844.434712255434
 10
4092.136659311291
 20
1844.434775838688
 10
4092.136547082264
 20
1844.434838185147
 10
4092.136271952812
 20
1844.434889802769
 10
4092.135875810098
 20
1844.434922853545
 10
4092.135418961916
 20
1844.43493228598
 10
4092.134970959437
 20
1844.434916669563
 10
4092.134600008067
 20
1844.434878373579
 10
4092.134362580416
 20
1844.434823239282
 10
4092.134294822972
 20
1844.434759656028
 10
4092.134407051999
 20
1844.434697309569
 10
4092.134682181451
 20
1844.434645677045
 10
4092.135078324165
 20
1844.434612641171
 10
4092.135535172348
 20
1844.434603208736
 10
4092.135983174827
 20
1844.434618825153
 10
4092.136354126196
 20
1844.434657121137
 10
4092.136591553848
 20
1844.434712255434
  0
LWPOLYLINE
  5
1378
330
1F
100
AcDbEntity
  8
SANINDUSA
100
AcDbPolyline
 90
       17
 70
   128
 43
0.0
 10
4092.136073764574
 20
1844.434738034443
 10
4092.136110042382
 20
1844.434772083596
 10
4092.136049954381
 20
1844.434805462197
 10
4092.135902649883
 20
1844.434833103851
 10
4092.135690554205
 20
1844.434850791529
 10
4092.135445957232
 20
1844.434855843023
 10
4092.135206096966
 20
1844.434847483472
 10
4092.135007488701
 20
1844.434826979474
 10
4092.134880369689
 20
1844.434797460273
 10
4092.134844092813
 20
1844.43476341112
 10
4092.134904179882
 20
1844.434730032519
 10
4092.13505148438
 20
1844.434702390865
 10
4092.135263580058
 20
1844.434684703187
 10
4092.135508177031
 20
1844.434679651693
 10
4092.135748037297
 20
1844.434688011244
 10
4092.135946645561
 20
1844.434708515242
 10
4092.136073764574
 20
1844.434738034443
  0
LWPOLYLINE
  5
1379
330
1F
100
AcDbEntity
  8
SANINDUSA
100
AcDbPolyline
 90
       17
 70
   128
 43
0.0
 10
4092.161591607307
 20
1844.434528717831
 10
4092.16178603952
 20
1844.434470409587
 10
4092.16212598623
 20
1844.434426898197
 10
4092.162559694771
 20
1844.434404814676
 10
4092.163021136236
 20
1844.434407496885
 10
4092.163440060031
 20
1844.434434557394
 10
4092.163752690118
 20
1844.43448186858
 10
4092.163911429394
 20
1844.434542233184
 10
4092.163892112832
 20
1844.434606457189
 10
4092.16369768155
 20
1844.434664750532
 10
4092.163357733909
 20
1844.434708261923
 10
4092.162924026299
 20
1844.434730360345
 10
4092.162462584835
 20
1844.434727663234
 10
4092.162043660108
 20
1844.434700602725
 10
4092.161731030953
 20
1844.434653291539
 10
4092.161572290745
 20
1844.434592941836
 10
4092.161591607307
 20
1844.434528717831
  0
LWPOLYLINE
  5
137A
330
1F
100
AcDbEntity
  8
SANINDUSA
100
AcDbPolyline
 90
       17
 70
   128
 43
0.0
 10
4092.162126013238
 20
1844.434546778039
 10
4092.162230112751
 20
1844.434515560106
 10
4092.162412121121
 20
1844.43449225469
 10
4092.16264432871
 20
1844.434480438069
 10
4092.162891385306
 20
1844.43448186858
 10
4092.163115677585
 20
1844.43449636741
 10
4092.163283059534
 20
1844.434521684483
 10
4092.163368049238
 20
1844.434554005102
 10
4092.1633577069
 20
1844.434588396982
 10
4092.16325360832
 20
1844.434619614915
 10
4092.16307159995
 20
1844.434642905429
 10
4092.162839392361
 20
1844.434654736951
 10
4092.162592335764
 20
1844.434653291539
 10
4092.162368043486
 20
1844.43463880761
 10
4092.162200661536
 20
1844.434613475636
 10
4092.162115671832
 20
1844.434581155018
 10
4092.162126013238
 20
1844.434546778039
  0
LWPOLYLINE
  5
137B
330
1F
100
AcDbEntity
  8
SANINDUSA
100
AcDbPolyline
 90
       17
 70
   128
 43
0.0
 10
4092.135908082288
 20
1844.434300879077
 10
4092.135868656609
 20
1844.434364924267
 10
4092.135656136249
 20
1844.434421995715
 10
4092.135302876283
 20
1844.434463391141
 10
4092.134862656865
 20
1844.434482837156
 10
4092.134402496901
 20
1844.434477338628
 10
4092.133992452335
 20
1844.434447774724
 10
4092.133694948789
 20
1844.434398600892
 10
4092.133555278342
 20
1844.434337342218
 10
4092.133594704021
 20
1844.434273297027
 10
4092.133807224382
 20
1844.43421622558
 10
4092.134160484348
 20
1844.434174830154
 10
4092.134600703764
 20
1844.434155384139
 10
4092.135060863729
 20
1844.434160867766
 10
4092.135470908295
 20
1844.434190446571
 10
4092.135768411842
 20
1844.434239620403
 10
4092.135908082288
 20
1844.434300879077
  0
LWPOLYLINE
  5
137C
330
1F
100
AcDbEntity
  8
SANINDUSA
100
AcDbPolyline
 90
       17
 70
   128
 43
0.0
 10
4092.135361527254
 20
1844.434309342936
 10
4092.135340418827
 20
1844.434343645409
 10
4092.135226635423
 20
1844.43437419279
 10
4092.13503749964
 20
1844.434396365718
 10
4092.13480180518
 20
1844.434406766728
 10
4092.134555434968
 20
1844.434403831199
 10
4092.134335897092
 20
1844.434387991265
 10
4092.134176612992
 20
1844.434361675814
 10
4092.134101833377
 20
1844.434328863457
 10
4092.134122941803
 20
1844.434294575885
 10
4092.134236725208
 20
1844.434264028505
 10
4092.134425860989
 20
1844.434241855577
 10
4092.134661555451
 20
1844.434231454567
 10
4092.134907925662
 20
1844.434234390095
 10
4092.135127463538
 20
1844.43425023003
 10
4092.135286747638
 20
1844.43427654548
 10
4092.135361527254
 20
1844.434309342936
  0
LWPOLYLINE
  5
137D
330
1F
100
AcDbEntity
  8
SANINDUSA
100
AcDbPolyline
 90
       17
 70
   128
 43
0.0
 10
4092.161960306738
 20
1844.434109622673
 10
4092.16205288672
 20
1844.434046650366
 10
4092.162311573673
 20
1844.433993393615
 10
4092.162696982894
 20
1844.433957988456
 10
4092.163150441062
 20
1844.433945784405
 10
4092.163602912028
 20
1844.43395867391
 10
4092.163985511448
 20
1844.433994675115
 10
4092.164239992547
 20
1844.434048319295
 10
4092.164327612307
 20
1844.434111425713
 10
4092.164235032323
 20
1844.434174398021
 10
4092.163976345371
 20
1844.43422763987
 10
4092.16359093615
 20
1844.43426305993
 10
4092.163137477983
 20
1844.434275249079
 10
4092.162685007017
 20
1844.434262374476
 10
4092.162302407596
 20
1844.434226373271
 10
4092.162047926497
 20
1844.43417272909
 10
4092.161960306738
 20
1844.434109622673
  0
LWPOLYLINE
  5
137E
330
1F
100
AcDbEntity
  8
SANINDUSA
100
AcDbPolyline
 90
       17
 70
   128
 43
0.0
 10
4092.162510230366
 20
1844.434110039905
 10
4092.162559798148
 20
1844.434076318577
 10
4092.162698298853
 20
1844.434047812656
 10
4092.162904648271
 20
1844.434028858379
 10
4092.163147430095
 20
1844.434022316769
 10
4092.16338968293
 20
1844.434029216007
 10
4092.16359452733
 20
1844.43404849811
 10
4092.16373077703
 20
1844.434077212647
 10
4092.163777688679
 20
1844.434111008481
 10
4092.163728120897
 20
1844.434144714907
 10
4092.163589620191
 20
1844.434173220829
 10
4092.163383271706
 20
1844.434192190007
 10
4092.16314048988
 20
1844.434198716715
 10
4092.162898236114
 20
1844.434191817478
 10
4092.162693391714
 20
1844.434172550277
 10
4092.162557142016
 20
1844.434143820838
 10
4092.162510230366
 20
1844.434110039905
  0
LWPOLYLINE
  5
137F
330
1F
100
AcDbEntity
  8
SANINDUSA
100
AcDbPolyline
 90
       17
 70
   128
 43
0.0
 10
4092.135894172986
 20
1844.433900738195
 10
4092.135780210766
 20
1844.433939704732
 10
4092.135478857134
 20
1844.433988416628
 10
4092.135066509407
 20
1844.434017369584
 10
4092.13460594618
 20
1844.434022152857
 10
4092.134167282071
 20
1844.43400205119
 10
4092.133817301292
 20
1844.433960104421
 10
4092.133609284807
 20
1844.433902720049
 10
4092.133574900378
 20
1844.433838615254
 10
4092.133719382967
 20
1844.433777565197
 10
4092.134020737533
 20
1844.433728868202
 10
4092.134433085259
 20
1844.433699915246
 10
4092.134893648487
 20
1844.433695131973
 10
4092.135332312595
 20
1844.433715233639
 10
4092.135682293374
 20
1844.433757180408
 10
4092.135890309859
 20
1844.43381456478
 10
4092.135894172986
 20
1844.433816546634
  0
LWPOLYLINE
  5
1380
330
1F
100
AcDbEntity
  8
SANINDUSA
100
AcDbPolyline
 90
       17
 70
   128
 43
0.0
 10
4092.135378838677
 20
1844.43386935635
 10
4092.135301482093
 20
1844.433902049497
 10
4092.135140136976
 20
1844.43392812653
 10
4092.134919365097
 20
1844.433943623737
 10
4092.134672778819
 20
1844.433946186737
 10
4092.134437917892
 20
1844.433935428098
 10
4092.134250537653
 20
1844.433912972048
 10
4092.134139165443
 20
1844.433882245854
 10
4092.134120755989
 20
1844.43384792848
 10
4092.134198112574
 20
1844.433815235332
 10
4092.13435945769
 20
1844.4337891583
 10
4092.134580228638
 20
1844.433773661092
 10
4092.134826815847
 20
1844.433771098093
 10
4092.135061676774
 20
1844.433781856731
 10
4092.135249057013
 20
1844.433804312781
 10
4092.135360429224
 20
1844.433835038975
 10
4092.135378838677
 20
1844.43386935635
  0
LWPOLYLINE
  5
1381
330
1F
100
AcDbEntity
  8
SANINDUSA
100
AcDbPolyline
 90
       14
 70
   128
 43
0.0
 10
4092.161894173521
 20
1844.433543274239
 10
4092.16209015825
 20
1844.433518791631
 10
4092.162511186835
 20
1844.433492371873
 10
4092.162972811769
 20
1844.433490390018
 10
4092.163404755455
 20
1844.433513144091
 10
4092.163741259065
 20
1844.433557162122
 10
4092.163931091476
 20
1844.433615768388
 10
4092.163945353751
 20
1844.433680007294
 10
4092.163781873111
 20
1844.433740118579
 10
4092.163465540084
 20
1844.433786952928
 10
4092.163044511501
 20
1844.433813372687
 10
4092.162582886565
 20
1844.433815354541
 10
4092.162150942881
 20
1844.433792600468
 10
4092.161894173521
 20
1844.43376247032
  0
LWPOLYLINE
  5
1382
330
1F
100
AcDbEntity
  8
SANINDUSA
100
AcDbPolyline
 90
       17
 70
   128
 43
0.0
 10
4092.162160402324
 20
1844.433672750429
 10
4092.162152766411
 20
1844.433638343648
 10
4092.162240293037
 20
1844.433606157139
 10
4092.162409658704
 20
1844.433581093386
 10
4092.162635077882
 20
1844.433566937283
 10
4092.162882232268
 20
1844.433565879301
 10
4092.163113495495
 20
1844.433578053549
 10
4092.163293659847
 20
1844.433601627186
 10
4092.163395296942
 20
1844.433633009032
 10
4092.163402932857
 20
1844.433667400912
 10
4092.163315405298
 20
1844.43369958742
 10
4092.163146039632
 20
1844.433724666075
 10
4092.162920620452
 20
1844.433738807276
 10
4092.162673466068
 20
1844.433739865259
 10
4092.16244220284
 20
1844.43372769101
 10
4092.162262038487
 20
1844.433704117373
 10
4092.162160402324
 20
1844.433672750429
  0
LWPOLYLINE
  5
1383
330
1F
100
AcDbEntity
  8
SANINDUSA
100
AcDbPolyline
 90
       11
 70
   128
 43
0.0
 10
4092.135894172986
 20
1844.433567935661
 10
4092.135575596404
 20
1844.433575788573
 10
4092.135119517494
 20
1844.433565655783
 10
4092.134725998316
 20
1844.433532008961
 10
4092.134454948057
 20
1844.433479974107
 10
4092.134347631756
 20
1844.433417448834
 10
4092.134420387607
 20
1844.433353984788
 10
4092.13466213939
 20
1844.43329920812
 10
4092.135036082168
 20
1844.433261493281
 10
4092.135485286053
 20
1844.433246547416
 10
4092.135894172986
 20
1844.433254400328
  0
LWPOLYLINE
  5
1384
330
1F
100
AcDbEntity
  8
SANINDUSA
100
AcDbPolyline
 90
       13
 70
   128
 43
0.0
 10
4092.135894172986
 20
1844.433483386472
 10
4092.135795122173
 20
1844.433491298989
 10
4092.13555461743
 20
1844.433499300913
 10
4092.135310432102
 20
1844.43349387689
 10
4092.135099741791
 20
1844.433475861386
 10
4092.134954621244
 20
1844.433447996214
 10
4092.134897163298
 20
1844.433414528207
 10
4092.134936116796
 20
1844.433380553559
 10
4092.135065551076
 20
1844.433351228074
 10
4092.135265760284
 20
1844.433331022099
 10
4092.135506265026
 20
1844.433323035077
 10
4092.135750450355
 20
1844.433328459099
 10
4092.135894172986
 20
1844.433338934616
  0
LWPOLYLINE
  5
1385
330
1F
100
AcDbEntity
  8
SANINDUSA
100
AcDbPolyline
 90
        9
 70
   128
 43
0.0
 10
4092.161894173521
 20
1844.433057749704
 10
4092.162041730408
 20
1844.43306321843
 10
4092.162442114364
 20
1844.433095270828
 10
4092.162723926056
 20
1844.433146188096
 10
4092.162844261315
 20
1844.433208236531
 10
4092.162784801025
 20
1844.433271983698
 10
4092.162554597642
 20
1844.433327714041
 10
4092.162188696835
 20
1844.433366933898
 10
4092.161894173521
 20
1844.433380881385
  0
LWPOLYLINE
  5
1386
330
1F
100
AcDbEntity
  8
SANINDUSA
100
AcDbPolyline
 90
        8
 70
   128
 43
0.0
 10
4092.161894173521
 20
1844.433137172893
 10
4092.162080262948
 20
1844.433152893618
 10
4092.162231144656
 20
1844.433180162743
 10
4092.162295572619
 20
1844.433213392333
 10
4092.162263737221
 20
1844.433247515992
 10
4092.162140485991
 20
1844.433277348117
 10
4092.161944582287
 20
1844.433298343853
 10
4092.161894173521
 20
1844.433301443294
  0
LWPOLYLINE
  5
1387
330
1F
100
AcDbEntity
  8
SANINDUSA
100
AcDbPolyline
 90
        4
 70
   128
 43
0.0
 10
4092.135894172986
 20
1844.433046439723
 10
4092.135871017512
 20
1844.433033237294
 10
4092.135870187703
 20
1844.432968968586
 10
4092.135894172986
 20
1844.432955185012
  0
SPLINE
  5
138C
330
1F
100
AcDbEntity
  8
SANINDUSA
100
AcDbSpline
210
0.0
220
0.0
230
1.0
 70
    12
 71
     3
 72
     9
 73
     5
 74
     0
 42
0.0000000001
 43
0.0000000001
 40
0.0
 40
0.0
 40
0.0
 40
0.0
 40
0.5006861120290029
 40
1.0
 40
1.0
 40
1.0
 40
1.0
 10
4092.148894186216
 20
1844.23253181024
 30
0.0
 41
1.0
 10
4092.149324656257
 20
1844.232537477354
 30
0.0
 41
1.0
 10
4092.150184416555
 20
1844.232548796052
 30
0.0
 41
1.0
 10
4092.151040603944
 20
1844.232627896318
 30
0.0
 41
1.0
 10
4092.151468110198
 20
1844.23266739218
 30
0.0
 41
1.0
  0
SPLINE
  5
138D
330
1F
100
AcDbEntity
  8
SANINDUSA
100
AcDbSpline
210
0.0
220
0.0
230
1.0
 70
    12
 71
     3
 72
    15
 73
    11
 74
     0
 42
0.0000000001
 43
0.0000000001
 40
0.0
 40
0.0
 40
0.0
 40
0.0
 40
0.1294209329942804
 40
0.2591558435108266
 40
0.3882895486845124
 40
0.5181593788167243
 40
0.6472374665187968
 40
0.7770647806533653
 40
0.9063167105209792
 40
1.0
 40
1.0
 40
1.0
 40
1.0
 10
4092.146320222106
 20
1844.281397813991
 30
0.0
 41
1.0
 10
4092.144788740978
 20
1844.281150458646
 30
0.0
 41
1.0
 10
4092.141722063321
 20
1844.280655147867
 30
0.0
 41
1.0
 10
4092.137409590245
 20
1844.278830330564
 30
0.0
 41
1.0
 10
4092.133497764391
 20
1844.276283667034
 30
0.0
 41
1.0
 10
4092.130148464167
 20
1844.273033572114
 30
0.0
 41
1.0
 10
4092.127458369051
 20
1844.269207873316
 30
0.0
 41
1.0
 10
4092.125571983189
 20
1844.26494948668
 30
0.0
 41
1.0
 10
4092.124514226295
 20
1844.260823412992
 30
0.0
 41
1.0
 10
4092.124491962525
 20
1844.258152723786
 30
0.0
 41
1.0
 10
4092.124482606698
 20
1844.257030429379
 30
0.0
 41
1.0
  0
SPLINE
  5
138E
330
1F
100
AcDbEntity
  8
SANINDUSA
100
AcDbSpline
210
0.0
220
0.0
230
1.0
 70
    12
 71
     3
 72
    16
 73
    12
 74
     0
 42
0.0000000001
 43
0.0000000001
 40
0.0
 40
0.0
 40
0.0
 40
0.0
 40
0.0339440014239481
 40
0.1543626259989523
 40
0.2755204511613707
 40
0.3959938892685501
 40
0.5170240358918898
 40
0.6377665849238304
 40
0.7585012199739145
 40
0.8795332268254185
 40
1.0
 40
1.0
 40
1.0
 40
1.0
 10
4092.173304877404
 20
1844.257036173776
 30
0.0
 41
1.0
 10
4092.173331029114
 20
1844.257470681546
 30
0.0
 41
1.0
 10
4092.173449955765
 20
1844.259446634806
 30
0.0
 41
1.0
 10
4092.17277610213
 20
1844.262961687497
 30
0.0
 41
1.0
 10
4092.171283809731
 20
1844.267362435623
 30
0.0
 41
1.0
 10
4092.168917634415
 20
1844.271401010754
 30
0.0
 41
1.0
 10
4092.165853732939
 20
1844.274918384756
 30
0.0
 41
1.0
 10
4092.16217349179
 20
1844.277800082814
 30
0.0
 41
1.0
 10
4092.158017951522
 20
1844.279919609193
 30
0.0
 41
1.0
 10
4092.153537395539
 20
1844.28127892283
 30
0.0
 41
1.0
 10
4092.150439505723
 20
1844.281448706509
 30
0.0
 41
1.0
 10
4092.148894186158
 20
1844.281533399657
 30
0.0
 41
1.0
  0
SPLINE
  5
138F
330
1F
100
AcDbEntity
  8
SANINDUSA
100
AcDbSpline
210
0.0
220
0.0
230
1.0
 70
    12
 71
     3
 72
     9
 73
     5
 74
     0
 42
0.0000000001
 43
0.0000000001
 40
0.0
 40
0.0
 40
0.0
 40
0.0
 40
0.4984667110877331
 40
0.9999999999999998
 40
0.9999999999999998
 40
0.9999999999999998
 40
0.9999999999999998
 10
4092.148894186158
 20
1844.281533399657
 30
0.0
 41
1.0
 10
4092.148465618192
 20
1844.281527783511
 30
0.0
 41
1.0
 10
4092.1476058457
 20
1844.281516516669
 30
0.0
 41
1.0
 10
4092.146749638513
 20
1844.281437462359
 30
0.0
 41
1.0
 10
4092.146320222106
 20
1844.281397813991
 30
0.0
 41
1.0
  0
LINE
  5
1392
330
1F
100
AcDbEntity
  8
SANINDUSA
100
AcDbLine
 10
4092.148894185743
 20
1844.230763511792
 30
0.0
 11
4092.148701938117
 21
1844.230779694454
 31
0.0
  0
ARC
  5
1393
330
1F
100
AcDbEntity
  8
SANINDUSA
100
AcDbCircle
 10
4092.148551896989
 20
1844.25517185986
 30
0.0
 40
0.0243141106533237
100
AcDbArc
 50
193.3933846096135
 51
262.8332896846446
  0
LWPOLYLINE
  5
1394
330
1F
100
AcDbEntity
  8
SANINDUSA
100
AcDbPolyline
 90
        3
 70
   128
 43
0.0
 10
4092.124899066214
 20
1844.249539846614
 10
4092.124611930151
 20
1844.251085268394
 10
4092.12441285995
 20
1844.253168204859
  0
LINE
  5
1395
330
1F
100
AcDbEntity
  8
SANINDUSA
100
AcDbLine
 10
4092.12441285995
 20
1844.253168197409
 30
0.0
 11
4092.124406400297
 21
1844.254054779247
 31
0.0
  0
LWPOLYLINE
  5
1396
330
1F
100
AcDbEntity
  8
SANINDUSA
100
AcDbPolyline
 90
        3
 70
   128
 43
0.0
 10
4092.173388158132
 20
1844.254050375954
 10
4092.173393122081
 20
1844.253849895731
 10
4092.173375644882
 20
1844.253171363905
  0
LWPOLYLINE
  5
1397
330
1F
100
AcDbEntity
  8
SANINDUSA
100
AcDbPolyline
 90
        3
 70
   128
 43
0.0
 10
4092.173375644882
 20
1844.253171363905
 10
4092.173255846996
 20
1844.251684704856
 10
4092.172857239072
 20
1844.249399112598
  0
ARC
  5
1398
330
1F
100
AcDbEntity
  8
SANINDUSA
100
AcDbCircle
 10
4092.149142964358
 20
1844.255255981984
 30
0.0
 40
0.024426824276015
100
AcDbArc
 50
277.0741229369426
 51
346.1269138676805
  0
SPLINE
  5
139E
330
1F
100
AcDbEntity
  8
SANINDUSA
100
AcDbSpline
210
0.0
220
0.0
230
1.0
 70
    12
 71
     3
 72
    10
 73
     6
 74
     0
 42
0.0000000001
 43
0.0000000001
 40
0.0
 40
0.0
 40
0.0
 40
0.0
 40
0.663739966726585
 40
0.9592924750062836
 40
1.0
 40
1.0
 40
1.0
 40
1.0
 10
4092.165051412929
 20
1844.277799191013
 30
0.0
 41
1.0
 10
4092.16505691484
 20
1844.277764498073
 30
0.0
 41
1.0
 10
4092.165064866661
 20
1844.277714356936
 30
0.0
 41
1.0
 10
4092.16506851823
 20
1844.277682581991
 30
0.0
 41
1.0
 10
4092.16506818869
 20
1844.277679418474
 30
0.0
 41
1.0
 10
4092.165068148796
 20
1844.2776790355
 30
0.0
 41
1.0
  0
SPLINE
  5
13A2
330
1F
100
AcDbEntity
  8
SANINDUSA
100
AcDbSpline
210
0.0
220
0.0
230
1.0
 70
    28
 71
     1
 72
     4
 73
     2
 74
     0
 42
0.0000000001
 43
0.0000000001
 40
0.0
 40
0.0
 40
1.0
 40
1.0
 10
4092.135559126895
 20
1844.337102437452
 30
0.0
 41
1.0
 10
4092.134995727029
 20
1844.335634658173
 30
0.0
 41
1.0
  0
SPLINE
  5
13A3
330
1F
100
AcDbEntity
  8
SANINDUSA
100
AcDbSpline
210
0.0
220
0.0
230
1.0
 70
    12
 71
     3
 72
    31
 73
    27
 74
     0
 42
0.0000000001
 43
0.0000000001
 40
0.0
 40
0.0
 40
0.0
 40
0.0
 40
0.0410529928484468
 40
0.0824877770158474
 40
0.1252368580952909
 40
0.1547620540740196
 40
0.1873993323911407
 40
0.216431962095648
 40
0.2500272063760053
 40
0.2867936096456451
 40
0.3368168398676093
 40
0.3744988362787841
 40
0.4396361965739975
 40
0.4993068405128746
 40
0.5286997716136904
 40
0.5594914190535966
 40
0.5914645654860401
 40
0.6248051904499324
 40
0.6506524399227686
 40
0.6874918931847465
 40
0.7243256477235018
 40
0.7498940014003689
 40
0.8124072089029679
 40
0.8748468830577554
 40
0.9371376629665768
 40
1.0
 40
1.0
 40
1.0
 40
1.0
 10
4092.162229268041
 20
1844.337102437452
 30
0.0
 41
1.0
 10
4092.162031231685
 20
1844.337517646291
 30
0.0
 41
1.0
 10
4092.161633317243
 20
1844.338351925396
 30
0.0
 41
1.0
 10
4092.160885508328
 20
1844.339536127491
 30
0.0
 41
1.0
 10
4092.16011772497
 20
1844.340546756171
 30
0.0
 41
1.0
 10
4092.15933571446
 20
1844.341417816097
 30
0.0
 41
1.0
 10
4092.158604784462
 20
1844.34212720535
 30
0.0
 41
1.0
 10
4092.157790634001
 20
1844.342814571484
 30
0.0
 41
1.0
 10
4092.156890373254
 20
1844.343471473242
 30
0.0
 41
1.0
 10
4092.155735965195
 20
1844.344179060147
 30
0.0
 41
1.0
 10
4092.154467829579
 20
1844.344790629726
 30
0.0
 41
1.0
 10
4092.152837102892
 20
1844.345378821369
 30
0.0
 41
1.0
 10
4092.151025946527
 20
1844.345791615253
 30
0.0
 41
1.0
 10
4092.149263681856
 20
1844.345921649262
 30
0.0
 41
1.0
 10
4092.147895167916
 20
1844.345875352045
 30
0.0
 41
1.0
 10
4092.146848694738
 20
1844.345763739512
 30
0.0
 41
1.0
 10
4092.145770890762
 20
1844.345565800008
 30
0.0
 41
1.0
 10
4092.144768447808
 20
1844.345299269647
 30
0.0
 41
1.0
 10
4092.143738014159
 20
1844.344946143247
 30
0.0
 41
1.0
 10
4092.142702356222
 20
1844.344503239604
 30
0.0
 41
1.0
 10
4092.141714955666
 20
1844.343976344068
 30
0.0
 41
1.0
 10
4092.140527612649
 20
1844.343228362084
 30
0.0
 41
1.0
 10
4092.139194655913
 20
1844.342188392561
 30
0.0
 41
1.0
 10
4092.137744532283
 20
1844.340679290952
 30
0.0
 41
1.0
 10
4092.136493919137
 20
1844.338991371698
 30
0.0
 41
1.0
 10
4092.135871656671
 20
1844.337733996287
 30
0.0
 41
1.0
 10
4092.135559104543
 20
1844.337102437452
 30
0.0
 41
1.0
  0
SPLINE
  5
13A4
330
1F
100
AcDbEntity
  8
SANINDUSA
100
AcDbSpline
210
0.0
220
0.0
230
1.0
 70
    28
 71
     1
 72
     4
 73
     2
 74
     0
 42
0.0000000001
 43
0.0000000001
 40
0.0
 40
0.0
 40
1.0
 40
1.0
 10
4092.162792643692
 20
1844.335634658173
 30
0.0
 41
1.0
 10
4092.162229244758
 20
1844.337102437452
 30
0.0
 41
1.0
  0
SPLINE
  5
13A6
330
1F
100
AcDbEntity
  8
SANINDUSA
100
AcDbSpline
210
0.0
220
0.0
230
1.0
 70
    28
 71
     1
 72
     4
 73
     2
 74
     0
 42
0.0000000001
 43
0.0000000001
 40
0.0
 40
0.0
 40
1.0
 40
1.0
 10
4092.163513203312
 20
1844.331454718546
 30
0.0
 41
1.0
 10
4092.162792643692
 20
1844.335634658173
 30
0.0
 41
1.0
  0
SPLINE
  5
13A7
330
1F
100
AcDbEntity
  8
SANINDUSA
100
AcDbSpline
210
0.0
220
0.0
230
1.0
 70
    12
 71
     3
 72
    13
 73
     9
 74
     0
 42
0.0000000001
 43
0.0000000001
 40
0.0
 40
0.0
 40
0.0
 40
0.0
 40
0.5002365206148085
 40
0.9958757960163923
 40
0.9988972878347629
 40
0.9996902996880878
 40
0.9999684403766394
 40
1.0
 40
1.0
 40
1.0
 40
1.0
 10
4092.134995727029
 20
1844.335634658173
 30
0.0
 41
1.0
 10
4092.134803538939
 20
1844.334945992801
 30
0.0
 41
1.0
 10
4092.134420928996
 20
1844.333574990989
 30
0.0
 41
1.0
 10
4092.13429612215
 20
1844.33216598446
 30
0.0
 41
1.0
 10
4092.134275390633
 20
1844.331462524651
 30
0.0
 41
1.0
 10
4092.134275226547
 20
1844.331456754653
 30
0.0
 41
1.0
 10
4092.134275181753
 20
1844.331455202034
 30
0.0
 41
1.0
 10
4092.134275169581
 20
1844.331454763258
 30
0.0
 41
1.0
 10
4092.134275168341
 20
1844.331454718546
 30
0.0
 41
1.0
  0
ARC
  5
13A9
330
1F
100
AcDbEntity
  8
SANINDUSA
100
AcDbCircle
 10
4092.155163115283
 20
1844.247080269582
 30
0.0
 40
0.0181960682317329
100
AcDbArc
 50
310.7803067958811
 51
337.3308322433554
  0
LWPOLYLINE
  5
13AA
330
1F
100
AcDbEntity
  8
SANINDUSA
100
AcDbPolyline
 90
       17
 70
   128
 43
0.0
 10
4092.125583826724
 20
1844.240531349615
 10
4092.125615586687
 20
1844.240428900406
 10
4092.127525837321
 20
1844.236907536224
 10
4092.130354534064
 20
1844.233654363141
 10
4092.133129134003
 20
1844.231436559991
 10
4092.136557223436
 20
1844.229471543864
 10
4092.139244242732
 20
1844.228365572229
 10
4092.142251193219
 20
1844.227493865476
 10
4092.145353803338
 20
1844.226950755403
 10
4092.148677243764
 20
1844.226739889071
 10
4092.152012989318
 20
1844.226903168545
 10
4092.155356823162
 20
1844.227452749447
 10
4092.156024244775
 20
1844.227611037031
 10
4092.159328764465
 20
1844.228654341833
 10
4092.162378994909
 20
1844.230052510337
 10
4092.164863406841
 20
1844.231577506349
 10
4092.167048066083
 20
1844.233301850096
  0
SPLINE
  5
13AF
330
1F
100
AcDbEntity
  8
SANINDUSA
100
AcDbSpline
210
0.0
220
0.0
230
1.0
 70
    12
 71
     3
 72
    16
 73
    12
 74
     0
 42
0.0000000001
 43
0.0000000001
 40
0.0
 40
0.0
 40
0.0
 40
0.0
 40
0.0335146950976201
 40
0.1544324357654172
 40
0.2750223097558874
 40
0.3961472401894813
 40
0.5165739207952789
 40
0.6377383853857407
 40
0.7582159340799859
 40
0.8792539995821153
 40
1.0
 40
1.0
 40
1.0
 40
1.0
 10
4092.124482606698
 20
1844.257030429379
 30
0.0
 41
1.0
 10
4092.124456626392
 20
1844.256601418762
 30
0.0
 41
1.0
 10
4092.124336911684
 20
1844.25462457982
 30
0.0
 41
1.0
 10
4092.125009405893
 20
1844.251115234958
 30
0.0
 41
1.0
 10
4092.126502314894
 20
1844.246707019907
 30
0.0
 41
1.0
 10
4092.128864242872
 20
1844.242672963428
 30
0.0
 41
1.0
 10
4092.131931074912
 20
1844.239150410979
 30
0.0
 41
1.0
 10
4092.135606067236
 20
1844.236270416652
 30
0.0
 41
1.0
 10
4092.139763035088
 20
1844.2341488337
 30
0.0
 41
1.0
 10
4092.144243524261
 20
1844.232787253691
 30
0.0
 41
1.0
 10
4092.147345214469
 20
1844.232616889459
 30
0.0
 41
1.0
 10
4092.148894186216
 20
1844.23253181024
 30
0.0
 41
1.0
  0
SPLINE
  5
13B0
330
1F
100
AcDbEntity
  8
SANINDUSA
100
AcDbSpline
210
0.0
220
0.0
230
1.0
 70
    12
 71
     3
 72
    15
 73
    11
 74
     0
 42
0.0000000001
 43
0.0000000001
 40
0.0
 40
0.0
 40
0.0
 40
0.0
 40
0.1300870211621987
 40
0.2591420884405402
 40
0.3889429108626132
 40
0.5181763637560635
 40
0.6477540703297216
 40
0.7773421414993966
 40
0.9065701758658507
 40
1.0
 40
1.0
 40
1.0
 40
1.0
 10
4092.151468110198
 20
1844.23266739218
 30
0.0
 41
1.0
 10
4092.153007535975
 20
1844.232916422495
 30
0.0
 41
1.0
 10
4092.156074175579
 20
1844.233412507617
 30
0.0
 41
1.0
 10
4092.160392858708
 20
1844.235242313741
 30
0.0
 41
1.0
 10
4092.164297442788
 20
1844.23778685896
 30
0.0
 41
1.0
 10
4092.167649470357
 20
1844.241043001872
 30
0.0
 41
1.0
 10
4092.170335737359
 20
1844.244866511563
 30
0.0
 41
1.0
 10
4092.172220424425
 20
1844.249128751613
 30
0.0
 41
1.0
 10
4092.173275499976
 20
1844.253249366891
 30
0.0
 41
1.0
 10
4092.173296193966
 20
1844.255916861887
 30
0.0
 41
1.0
 10
4092.173304877404
 20
1844.257036173776
 30
0.0
 41
1.0
  0
LINE
  5
13B6
330
1F
100
AcDbEntity
  8
SANINDUSA
100
AcDbLine
 10
4092.466946092334
 20
1844.231176696234
 30
0.0
 11
4092.466983029236
 21
1844.230860450014
 31
0.0
  0
LINE
  5
13B7
330
1F
100
AcDbEntity
  8
SANINDUSA
100
AcDbLine
 10
4092.474531714984
 20
1844.231742120863
 30
0.0
 11
4092.474519799332
 21
1844.231844140243
 31
0.0
  0
ARC
  5
13B8
330
1F
100
AcDbEntity
  8
SANINDUSA
100
AcDbCircle
 10
4092.474432390171
 20
1844.231730519931
 30
0.0
 40
0.0001000000000003
100
AcDbArc
 50
276.6618446373918
 51
6.661844622940865
  0
ARC
  5
13B9
330
1F
100
AcDbEntity
  8
SANINDUSA
100
AcDbCircle
 10
4092.467082354049
 20
1844.230872050946
 30
0.0
 40
0.0001
100
AcDbArc
 50
186.6618446229409
 51
276.6618446373918
  0
ARC
  5
13BA
330
1F
100
AcDbEntity
  8
SANINDUSA
100
AcDbCircle
 10
4092.421231438956
 20
1844.222919871639
 30
0.0
 40
0.0038382890163667
100
AcDbArc
 50
98.03413559757435
 51
181.7396544342224
  0
ARC
  5
13BB
330
1F
100
AcDbEntity
  8
SANINDUSA
100
AcDbCircle
 10
4092.421374508108
 20
1844.280487431799
 30
0.0
 40
0.0039941202904588
100
AcDbArc
 50
180.6626175071109
 51
278.3245053776957
  0
ARC
  5
13BC
330
1F
100
AcDbEntity
  8
SANINDUSA
100
AcDbCircle
 10
4092.481864786358
 20
1843.865883492581
 30
0.0
 40
0.3660000000000003
100
AcDbArc
 50
94.80566293828731
 51
99.61967586535619
  0
ARC
  5
13BD
330
1F
100
AcDbEntity
  8
SANINDUSA
100
AcDbCircle
 10
4092.481864786358
 20
1843.865883492581
 30
0.0
 40
0.4150000000000003
100
AcDbArc
 50
95.0241284794095
 51
98.3015231915313
  0
ARC
  5
13BE
330
1F
100
AcDbEntity
  8
SANINDUSA
100
AcDbCircle
 10
4092.368883817313
 20
1844.299792136148
 30
0.0
 40
0.0014999999999998
100
AcDbArc
 50
90.0
 51
180.0
  0
ARC
  5
13BF
330
1F
100
AcDbEntity
  8
SANINDUSA
100
AcDbCircle
 10
4092.415883817312
 20
1844.299792136148
 30
0.0
 40
0.0015000000000001
100
AcDbArc
 50
0.0
 51
90.0
  0
LINE
  5
13C0
330
1F
100
AcDbEntity
  8
SANINDUSA
100
AcDbLine
 10
4092.417383817685
 20
1844.280443081692
 30
0.0
 11
4092.417383817313
 21
1844.299792136148
 31
0.0
  0
LINE
  5
13C1
330
1F
100
AcDbEntity
  8
SANINDUSA
100
AcDbLine
 10
4092.417383817313
 20
1844.186292136148
 30
0.0
 11
4092.417383817685
 21
1844.22279930307
 31
0.0
  0
LINE
  5
13C2
330
1F
100
AcDbEntity
  8
SANINDUSA
100
AcDbLine
 10
4092.367383816941
 20
1844.286341944769
 30
0.0
 11
4092.367383817313
 21
1844.186292136148
 31
0.0
  0
LINE
  5
13C3
330
1F
100
AcDbEntity
  8
SANINDUSA
100
AcDbLine
 10
4092.367383817313
 20
1844.299792136148
 30
0.0
 11
4092.367383816941
 21
1844.294243650571
 31
0.0
  0
LINE
  5
13C4
330
1F
100
AcDbEntity
  8
SANINDUSA
100
AcDbLine
 10
4092.609952736376
 20
1844.531054938272
 30
0.0
 11
4092.609743972742
 21
1844.53254034104
 31
0.0
  0
LINE
  5
13C5
330
1F
100
AcDbEntity
  8
SANINDUSA
100
AcDbLine
 10
4092.578995201466
 20
1844.535770291523
 30
0.0
 11
4092.580244693635
 21
1844.526879752115
 31
0.0
  0
LINE
  5
13C6
330
1F
100
AcDbEntity
  8
SANINDUSA
100
AcDbLine
 10
4092.626222595923
 20
1844.440437382466
 30
0.0
 11
4092.613418670634
 21
1844.53154204479
 31
0.0
  0
LINE
  5
13C7
330
1F
100
AcDbEntity
  8
SANINDUSA
100
AcDbLine
 10
4092.576778752091
 20
1844.526392640055
 30
0.0
 11
4092.589582677379
 21
1844.435287977731
 31
0.0
  0
LINE
  5
13C8
330
1F
100
AcDbEntity
  8
SANINDUSA
100
AcDbLine
 10
4092.591213229773
 20
1844.435517141656
 30
0.0
 11
4092.592697504637
 21
1844.434922630027
 31
0.0
  0
LINE
  5
13C9
330
1F
100
AcDbEntity
  8
SANINDUSA
100
AcDbLine
 10
4092.6233207916
 20
1844.439221138195
 30
0.0
 11
4092.624592054365
 21
1844.440208220914
 31
0.0
  0
LINE
  5
13CA
330
1F
100
AcDbEntity
  8
SANINDUSA
100
AcDbLine
 10
4092.595558006046
 20
1844.432290414408
 30
0.0
 11
4092.595864190363
 21
1844.430111821373
 31
0.0
  0
LINE
  5
13CB
330
1F
100
AcDbEntity
  8
SANINDUSA
100
AcDbLine
 10
4092.62161116015
 20
1844.433730321998
 30
0.0
 11
4092.621304977416
 21
1844.435908908085
 31
0.0
  0
LINE
  5
13CC
330
1F
100
AcDbEntity
  8
SANINDUSA
100
AcDbLine
 10
4092.597689497037
 20
1844.424309386061
 30
0.0
 11
4092.598818938207
 21
1844.423458291094
 31
0.0
  0
LINE
  5
13CD
330
1F
100
AcDbEntity
  8
SANINDUSA
100
AcDbLine
 10
4092.620604835719
 20
1844.426520099315
 30
0.0
 11
4092.621455930687
 21
1844.427649540485
 31
0.0
  0
LINE
  5
13CE
330
1F
100
AcDbEntity
  8
SANINDUSA
100
AcDbLine
 10
4092.596854451773
 20
1844.430250996784
 30
0.0
 11
4092.597689497037
 21
1844.424309386061
 31
0.0
  0
LINE
  5
13CF
330
1F
100
AcDbEntity
  8
SANINDUSA
100
AcDbLine
 10
4092.621455930687
 20
1844.427649540485
 30
0.0
 11
4092.620620894907
 21
1844.43359115167
 31
0.0
  0
LINE
  5
13D0
330
1F
100
AcDbEntity
  8
SANINDUSA
100
AcDbLine
 10
4092.60846716511
 20
1844.436387145952
 30
0.0
 11
4092.60882079703
 21
1844.434154374349
 31
0.0
  0
LINE
  5
13D1
330
1F
100
AcDbEntity
  8
SANINDUSA
100
AcDbLine
 10
4092.611165099731
 20
1844.434483844607
 30
0.0
 11
4092.610870826719
 21
1844.436880523399
 31
0.0
  0
LINE
  5
13D2
330
1F
100
AcDbEntity
  8
SANINDUSA
100
AcDbLine
 10
4092.60516596186
 20
1844.436083266572
 30
0.0
 11
4092.605544397631
 21
1844.433693906443
 31
0.0
  0
LINE
  5
13D3
330
1F
100
AcDbEntity
  8
SANINDUSA
100
AcDbLine
 10
4092.607888700333
 20
1844.434023376701
 30
0.0
 11
4092.607614252446
 21
1844.436258548931
 31
0.0
  0
LINE
  5
13D4
330
1F
100
AcDbEntity
  8
SANINDUSA
100
AcDbLine
 10
4092.611684608934
 20
1844.4366764967
 30
0.0
 11
4092.612013018043
 21
1844.434603011754
 31
0.0
  0
LINE
  5
13D5
330
1F
100
AcDbEntity
  8
SANINDUSA
100
AcDbLine
 10
4092.614357320744
 20
1844.434932482013
 30
0.0
 11
4092.61404435682
 21
1844.437481338218
 31
0.0
  0
LINE
  5
13D6
330
1F
100
AcDbEntity
  8
SANINDUSA
100
AcDbLine
 10
4092.601957369326
 20
1844.435791427329
 30
0.0
 11
4092.602360451386
 21
1844.433246431979
 31
0.0
  0
LINE
  5
13D7
330
1F
100
AcDbEntity
  8
SANINDUSA
100
AcDbLine
 10
4092.604704754087
 20
1844.433575902238
 30
0.0
 11
4092.604449409721
 21
1844.435655498937
 31
0.0
  0
LINE
  5
13D8
330
1F
100
AcDbEntity
  8
SANINDUSA
100
AcDbLine
 10
4092.614643532512
 20
1844.436944061951
 30
0.0
 11
4092.614948967208
 21
1844.435015632501
 31
0.0
  0
LINE
  5
13D9
330
1F
100
AcDbEntity
  8
SANINDUSA
100
AcDbLine
 10
4092.617293269909
 20
1844.435345102759
 30
0.0
 11
4092.616963300584
 21
1844.438032472566
 31
0.0
  0
LINE
  5
13DA
330
1F
100
AcDbEntity
  8
SANINDUSA
100
AcDbLine
 10
4092.599016595362
 20
1844.435513207749
 30
0.0
 11
4092.599440605659
 21
1844.432836074424
 31
0.0
  0
LINE
  5
13DB
330
1F
100
AcDbEntity
  8
SANINDUSA
100
AcDbLine
 10
4092.601784908361
 20
1844.433165544682
 30
0.0
 11
4092.601547796009
 21
1844.435096660689
 31
0.0
  0
LINE
  5
13DC
330
1F
100
AcDbEntity
  8
SANINDUSA
100
AcDbLine
 10
4092.617185074566
 20
1844.437171245054
 30
0.0
 11
4092.617470366746
 21
1844.435369992096
 31
0.0
  0
LINE
  5
13DD
330
1F
100
AcDbEntity
  8
SANINDUSA
100
AcDbLine
 10
4092.619814669448
 20
1844.435699462355
 30
0.0
 11
4092.619469839809
 21
1844.438507819608
 31
0.0
  0
LINE
  5
13DE
330
1F
100
AcDbEntity
  8
SANINDUSA
100
AcDbLine
 10
4092.596498775956
 20
1844.435285041169
 30
0.0
 11
4092.596942270091
 21
1844.432484956258
 31
0.0
  0
LINE
  5
13DF
330
1F
100
AcDbEntity
  8
SANINDUSA
100
AcDbLine
 10
4092.599286572793
 20
1844.432814426516
 30
0.0
 11
4092.599064472792
 21
1844.434623250798
 31
0.0
  0
LINE
  5
13E0
330
1F
100
AcDbEntity
  8
SANINDUSA
100
AcDbLine
 10
4092.621785590057
 20
1844.435976457182
 30
0.0
 11
4092.621429089187
 21
1844.438879961208
 31
0.0
  0
LINE
  5
13E1
330
1F
100
AcDbEntity
  8
SANINDUSA
100
AcDbLine
 10
4092.594541806458
 20
1844.435105735496
 30
0.0
 11
4092.595000130599
 21
1844.432212006352
 31
0.0
  0
LINE
  5
13E2
330
1F
100
AcDbEntity
  8
SANINDUSA
100
AcDbLine
 10
4092.623099778897
 20
1844.436161154379
 30
0.0
 11
4092.622736248848
 21
1844.439121836856
 31
0.0
  0
LINE
  5
13E3
330
1F
100
AcDbEntity
  8
SANINDUSA
100
AcDbLine
 10
4092.593252513288
 20
1844.434976527528
 30
0.0
 11
4092.593718888425
 21
1844.432031939508
 31
0.0
  0
LINE
  5
13E4
330
1F
100
AcDbEntity
  8
SANINDUSA
100
AcDbLine
 10
4092.623686387709
 20
1844.436243596871
 30
0.0
 11
4092.623319867728
 21
1844.439228707985
 31
0.0
  0
LINE
  5
13E5
330
1F
100
AcDbEntity
  8
SANINDUSA
100
AcDbLine
 10
4092.592696208236
 20
1844.434930855468
 30
0.0
 11
4092.593167615667
 21
1844.431954463174
 31
0.0
  0
ARC
  5
13E6
330
1F
100
AcDbEntity
  8
SANINDUSA
100
AcDbCircle
 10
4092.485439575556
 20
1844.234049194132
 30
0.0
 40
0.0014995108238344
100
AcDbArc
 50
272.6951159624746
 51
351.1606047995244
  0
ARC
  5
13E7
330
1F
100
AcDbEntity
  8
SANINDUSA
100
AcDbCircle
 10
4092.338334704312
 20
1844.256892324234
 30
0.0
 40
0.1503702163805007
100
AcDbArc
 50
351.2085933745321
 51
8.901256238338831
  0
LINE
  5
13E8
330
1F
100
AcDbEntity
  8
SANINDUSA
100
AcDbLine
 10
4092.476310100136
 20
1844.28899727954
 30
0.0
 11
4092.472833614526
 21
1844.344959983662
 31
0.0
  0
ARC
  5
13E9
330
1F
100
AcDbEntity
  8
SANINDUSA
100
AcDbCircle
 10
4092.484294589161
 20
1844.289495391576
 30
0.0
 40
0.0080000076201841
100
AcDbArc
 50
183.55474694787
 51
272.5175735493094
  0
ARC
  5
13EA
330
1F
100
AcDbEntity
  8
SANINDUSA
100
AcDbCircle
 10
4092.472083941842
 20
1844.34441317777
 30
0.0
 40
0.0014999831694116
100
AcDbArc
 50
98.14051616176453
 51
158.5754010211264
  0
LINE
  5
13EB
330
1F
100
AcDbEntity
  8
SANINDUSA
100
AcDbLine
 10
4092.466799456356
 20
1844.333154002265
 30
0.0
 11
4092.466774377702
 21
1844.333060229257
 31
0.0
  0
LWPOLYLINE
  5
13EC
330
1F
100
AcDbEntity
  8
SANINDUSA
100
AcDbPolyline
 90
        3
 70
   128
 43
0.0
 10
4092.466419089315
 20
1844.324036592678
 10
4092.467426199196
 20
1844.304030703441
 10
4092.468375090239
 20
1844.285184824899
  0
ARC
  5
13ED
330
1F
100
AcDbEntity
  8
SANINDUSA
100
AcDbCircle
 10
4092.462381102792
 20
1844.284829696026
 30
0.0
 40
0.0060044984831547
100
AcDbArc
 50
325.3587587467139
 51
3.390668994636222
  0
ARC
  5
13EE
330
1F
100
AcDbEntity
  8
SANINDUSA
100
AcDbCircle
 10
4092.471835472823
 20
1844.344898675188
 30
0.0
 40
0.0010000222817647
100
AcDbArc
 50
3.555901039483721
 51
87.9329687517348
  0
LINE
  5
13EF
330
1F
100
AcDbEntity
  8
SANINDUSA
100
AcDbLine
 10
4092.466336700795
 20
1844.327321792081
 30
0.0
 11
4092.466419093514
 21
1844.324036598676
 31
0.0
  0
LWPOLYLINE
  5
13F0
330
1F
100
AcDbEntity
  8
SANINDUSA
100
AcDbPolyline
 90
        3
 70
   128
 43
0.0
 10
4092.466468374906
 20
1844.330978462533
 10
4092.466323364256
 20
1844.327853599623
 10
4092.466336700795
 20
1844.327321792081
  0
ARC
  5
13F1
330
1F
100
AcDbEntity
  8
SANINDUSA
100
AcDbCircle
 10
4092.463012665505
 20
1844.28735293
 30
0.0
 40
0.0073351299958741
100
AcDbArc
 50
274.6116926330925
 51
305.971248671741
  0
ARC
  5
13F2
330
1F
100
AcDbEntity
  8
SANINDUSA
100
AcDbCircle
 10
4092.485385554513
 20
1844.280018948109
 30
0.0
 40
0.0015149048820352
100
AcDbArc
 50
5.320320680645949
 51
91.40173167219169
  0
ARC
  5
13F3
330
1F
100
AcDbEntity
  8
SANINDUSA
100
AcDbCircle
 10
4092.448268554779
 20
1844.250529195431
 30
0.0
 40
0.027129779
100
AcDbArc
 50
88.76359055825046
 51
95.38115982891818
  0
ARC
  5
13F4
330
1F
100
AcDbEntity
  8
SANINDUSA
100
AcDbCircle
 10
4092.447253936781
 20
1844.259216147505
 30
0.0
 40
0.0271297789999999
100
AcDbArc
 50
277.9425293974449
 51
302.7012661765407
  0
LINE
  5
13F5
330
1F
100
AcDbEntity
  8
SANINDUSA
100
AcDbLine
 10
4092.609743972742
 20
1844.53254034104
 30
0.0
 11
4092.606264645218
 21
1844.557297042759
 31
0.0
  0
LINE
  5
13F6
330
1F
100
AcDbEntity
  8
SANINDUSA
100
AcDbLine
 10
4092.576556603155
 20
1844.55312184973
 30
0.0
 11
4092.578995201466
 21
1844.535770291523
 31
0.0
  0
ARC
  5
13F7
330
1F
100
AcDbEntity
  8
SANINDUSA
100
AcDbCircle
 10
4092.492383817313
 20
1844.541292136148
 30
0.0
 40
0.085
100
AcDbArc
 50
7.999999999917475
 51
180.0
  0
ARC
  5
13F8
330
1F
100
AcDbEntity
  8
SANINDUSA
100
AcDbCircle
 10
4092.492383817313
 20
1844.541292136148
 30
0.0
 40
0.1150000000000001
100
AcDbArc
 50
7.999999999917475
 51
180.0
  0
LINE
  5
13F9
330
1F
100
AcDbEntity
  8
SANINDUSA
100
AcDbLine
 10
4092.407383816978
 20
1844.301292138234
 30
0.0
 11
4092.407383817312
 21
1844.541292136148
 31
0.0
  0
LINE
  5
13FA
330
1F
100
AcDbEntity
  8
SANINDUSA
100
AcDbLine
 10
4092.377383817312
 20
1844.541292136148
 30
0.0
 11
4092.377383817648
 21
1844.301292138234
 31
0.0
  0
LWPOLYLINE
  5
13FB
330
1F
100
AcDbEntity
  8
SANINDUSA
100
AcDbPolyline
 90
        4
 70
   128
 43
0.0
 10
4092.468094866453
 20
1844.230889631495
 10
4092.467446747897
 20
1844.230813929871
 10
4092.467123832284
 20
1844.230776215032
 10
4092.467093955455
 20
1844.230772724435
  0
LWPOLYLINE
  5
13FC
330
1F
100
AcDbEntity
  8
SANINDUSA
100
AcDbPolyline
 90
        9
 70
   128
 43
0.0
 10
4092.474443990467
 20
1844.231631195233
 10
4092.474380220948
 20
1844.231623748378
 10
4092.47399282801
 20
1844.231578501002
 10
4092.47328986573
 20
1844.231496395603
 10
4092.472340140221
 20
1844.231385467634
 10
4092.471236612378
 20
1844.231256580041
 10
4092.470087315617
 20
1844.23112234293
 10
4092.469004738806
 20
1844.230995902852
 10
4092.468094866453
 20
1844.230889631495
  0
LINE
  5
13FD
330
1F
100
AcDbEntity
  8
SANINDUSA
100
AcDbLine
 10
4092.367383817313
 20
1844.292368883981
 30
0.0
 11
4092.367383817313
 21
1844.293992136148
 31
0.0
  0
LINE
  5
13FE
330
1F
100
AcDbEntity
  8
SANINDUSA
100
AcDbLine
 10
4092.367383817313
 20
1844.286592136148
 30
0.0
 11
4092.367383817313
 21
1844.292368883981
 31
0.0
  0
LWPOLYLINE
  5
13FF
330
1F
100
AcDbEntity
  8
SANINDUSA
100
AcDbPolyline
 90
       19
 70
   128
 43
0.0
 10
4092.445596214114
 20
1844.278636047677
 10
4092.44574259567
 20
1844.277382755712
 10
4092.445968605307
 20
1844.27544769092
 10
4092.446255258946
 20
1844.272993447319
 10
4092.44661078575
 20
1844.269949475364
 10
4092.447005465357
 20
1844.266570331589
 10
4092.44745054814
 20
1844.262759612933
 10
4092.447908892957
 20
1844.258835362331
 10
4092.448393501071
 20
1844.254686238304
 10
4092.448863856224
 20
1844.250659147338
 10
4092.44933334711
 20
1844.246639469699
 10
4092.449762578783
 20
1844.242964489446
 10
4092.450163874505
 20
1844.239528654203
 10
4092.450503445891
 20
1844.236621337072
 10
4092.450791161237
 20
1844.234157981411
 10
4092.45100274655
 20
1844.232346428618
 10
4092.451144430516
 20
1844.231133332536
 10
4092.451204292205
 20
1844.230620807097
 10
4092.451199114052
 20
1844.230665141777
  0
LWPOLYLINE
  5
1400
330
1F
100
AcDbEntity
  8
SANINDUSA
100
AcDbPolyline
 90
        3
 70
   128
 43
0.0
 10
4092.445524647561
 20
1844.279248775974
 10
4092.445520631699
 20
1844.279283160404
 10
4092.445596214114
 20
1844.278636047677
  0
LINE
  5
1401
330
1F
100
AcDbEntity
  8
SANINDUSA
100
AcDbLine
 10
4092.392383817313
 20
1844.301292136148
 30
0.0
 11
4092.415883817312
 21
1844.301292136148
 31
0.0
  0
LINE
  5
1402
330
1F
100
AcDbEntity
  8
SANINDUSA
100
AcDbLine
 10
4092.368883817313
 20
1844.301292136148
 30
0.0
 11
4092.392383817313
 21
1844.301292136148
 31
0.0
  0
ARC
  5
1403
330
1F
100
AcDbEntity
  8
SANINDUSA
100
AcDbCircle
 10
4092.342634120748
 20
1844.290314804895
 30
0.0
 40
0.025074391564028
100
AcDbArc
 50
350.8834700022728
 51
359.9482060940053
  0
ARC
  5
1404
330
1F
100
AcDbEntity
  8
SANINDUSA
100
AcDbCircle
 10
4092.342607320811
 20
1844.29026731786
 30
0.0
 40
0.0251011935267149
100
AcDbArc
 50
0.0566549307631742
 51
9.114740680911026
  0
LINE
  5
1405
330
1F
100
AcDbEntity
  8
SANINDUSA
100
AcDbLine
 10
4092.392383817313
 20
1844.186292136148
 30
0.0
 11
4092.417383817313
 21
1844.186292136148
 31
0.0
  0
LINE
  5
1406
330
1F
100
AcDbEntity
  8
SANINDUSA
100
AcDbLine
 10
4092.367383817313
 20
1844.186292136148
 30
0.0
 11
4092.392383817313
 21
1844.186292136148
 31
0.0
  0
LWPOLYLINE
  5
140A
330
1F
100
AcDbEntity
  8
SANINDUSA
100
AcDbPolyline
 90
       21
 70
   128
 43
0.0
 10
4092.601342130183
 20
1844.489956611828
 10
4092.602174464342
 20
1844.487407798007
 10
4092.603780541298
 20
1844.485273862318
 10
4092.606078225849
 20
1844.483620161251
 10
4092.608821246503
 20
1844.482726210788
 10
4092.611338335751
 20
1844.482797497943
 10
4092.613320473311
 20
1844.483653957084
 10
4092.61481224346
 20
1844.485192084745
 10
4092.615783843873
 20
1844.487451518014
 10
4092.616099465368
 20
1844.490279072956
 10
4092.615781102059
 20
1844.493047887519
 10
4092.615016493676
 20
1844.495402479605
 10
4092.6137758826
 20
1844.497434878782
 10
4092.611915487526
 20
1844.498974228338
 10
4092.609579119561
 20
1844.499599868492
 10
4092.607222322104
 20
1844.499239588216
 10
4092.60505895662
 20
1844.498105729059
 10
4092.603142726896
 20
1844.496248448328
 10
4092.60172824907
 20
1844.493667448
 10
4092.601273808358
 20
1844.490726614431
 10
4092.601342130183
 20
1844.489956611828
  0
LWPOLYLINE
  5
140B
330
1F
100
AcDbEntity
  8
SANINDUSA
100
AcDbPolyline
 90
       20
 70
   128
 43
0.0
 10
4092.591987166283
 20
1844.435625905231
 10
4092.593404773352
 20
1844.435825133756
 10
4092.595104548809
 20
1844.436064029173
 10
4092.59705344188
 20
1844.436337912515
 10
4092.599213499306
 20
1844.436641508773
 10
4092.601542670009
 20
1844.436968857483
 10
4092.60399563956
 20
1844.437313580946
 10
4092.606524649737
 20
1844.437669003443
 10
4092.609080482004
 20
1844.438028210834
 10
4092.611613396285
 20
1844.438384199575
 10
4092.614074069736
 20
1844.438730025724
 10
4092.616414639828
 20
1844.439058953956
 10
4092.618589523909
 20
1844.439364636377
 10
4092.620556402681
 20
1844.439641052917
 10
4092.62227698016
 20
1844.439882868961
 10
4092.623717788336
 20
1844.440085345939
 10
4092.624850768326
 20
1844.440244579748
 10
4092.625653881309
 20
1844.440357441143
 10
4092.626111481068
 20
1844.440421754555
 10
4092.626222599028
 20
1844.440437370971
  0
LWPOLYLINE
  5
140C
330
1F
100
AcDbEntity
  8
SANINDUSA
100
AcDbPolyline
 90
        5
 70
   128
 43
0.0
 10
4092.58958267021
 20
1844.435287976698
 10
4092.589672822235
 20
1844.435300642684
 10
4092.590102854845
 20
1844.435361081794
 10
4092.590879339454
 20
1844.435470217899
 10
4092.591987166283
 20
1844.435625905231
  0
LWPOLYLINE
  5
140D
330
1F
100
AcDbEntity
  8
SANINDUSA
100
AcDbPolyline
 90
       20
 70
   128
 43
0.0
 10
4092.579183239219
 20
1844.526730561689
 10
4092.580600846289
 20
1844.526929790214
 10
4092.582300636647
 20
1844.52716868563
 10
4092.584249514817
 20
1844.527442598776
 10
4092.586409572241
 20
1844.527746165232
 10
4092.588738742946
 20
1844.52807351394
 10
4092.591191712497
 20
1844.528418237404
 10
4092.593720722674
 20
1844.528773689703
 10
4092.59627655494
 20
1844.529132867292
 10
4092.598809469222
 20
1844.529488856033
 10
4092.601270142672
 20
1844.529834682182
 10
4092.603610712765
 20
1844.530163640216
 10
4092.605785596846
 20
1844.530469292835
 10
4092.607752475617
 20
1844.530745709375
 10
4092.609473067997
 20
1844.530987525419
 10
4092.610913861273
 20
1844.531190032199
 10
4092.612046856163
 20
1844.531349236206
 10
4092.612849954245
 20
1844.531462127403
 10
4092.613307554005
 20
1844.531526440815
 10
4092.613418671963
 20
1844.531542057232
  0
LWPOLYLINE
  5
140E
330
1F
100
AcDbEntity
  8
SANINDUSA
100
AcDbPolyline
 90
        5
 70
   128
 43
0.0
 10
4092.576778758046
 20
1844.526392633155
 10
4092.576868895171
 20
1844.526405299142
 10
4092.577298927782
 20
1844.526465738252
 10
4092.57807541239
 20
1844.526574874357
 10
4092.579183239219
 20
1844.526730561689
  0
LWPOLYLINE
  5
140F
330
1F
100
AcDbEntity
  8
SANINDUSA
100
AcDbPolyline
 90
       23
 70
   128
 43
0.0
 10
4092.597007605909
 20
1844.512573475078
 10
4092.597930151699
 20
1844.509774649576
 10
4092.599703270671
 20
1844.507434809641
 10
4092.602276969431
 20
1844.505575055316
 10
4092.605407703397
 20
1844.504528487161
 10
4092.608242872832
 20
1844.504574233726
 10
4092.610423866389
 20
1844.505474830106
 10
4092.612056884644
 20
1844.507103050188
 10
4092.613137755273
 20
1844.509540790752
 10
4092.613421652195
 20
1844.511064464287
 10
4092.613511580704
 20
1844.512697959379
 10
4092.613192084907
 20
1844.51581707044
 10
4092.612431216714
 20
1844.518400484756
 10
4092.61119293022
 20
1844.520665938095
 10
4092.60924917805
 20
1844.522495770887
 10
4092.606682259319
 20
1844.523351127342
 10
4092.604051816938
 20
1844.523071968988
 10
4092.601636115191
 20
1844.521937424377
 10
4092.599440935729
 20
1844.520021284059
 10
4092.597684312341
 20
1844.517259145216
 10
4092.597150418637
 20
1844.515633756355
 10
4092.596931103346
 20
1844.513938570455
 10
4092.597007605909
 20
1844.512573475078
  0
LINE
  5
1410
330
1F
100
AcDbEntity
  8
SANINDUSA
100
AcDbLine
 10
4092.601591030177
 20
1844.434744555775
 30
0.0
 11
4092.602111584615
 21
1844.43481771493
 31
0.0
  0
LINE
  5
1411
330
1F
100
AcDbEntity
  8
SANINDUSA
100
AcDbLine
 10
4092.604510875903
 20
1844.43515491333
 30
0.0
 11
4092.60529553086
 21
1844.435265189393
 31
0.0
  0
LINE
  5
1412
330
1F
100
AcDbEntity
  8
SANINDUSA
100
AcDbLine
 10
4092.607694822149
 20
1844.435602387793
 30
0.0
 11
4092.608571930259
 21
1844.435725657299
 31
0.0
  0
LWPOLYLINE
  5
1413
330
1F
100
AcDbEntity
  8
SANINDUSA
100
AcDbPolyline
 90
        3
 70
   128
 43
0.0
 10
4092.610971215842
 20
1844.436062851981
 10
4092.61164516556
 20
1844.436157578662
 10
4092.611764151333
 20
1844.436174297765
  0
LINE
  5
1414
330
1F
100
AcDbEntity
  8
SANINDUSA
100
AcDbLine
 10
4092.614163442561
 20
1844.436511493105
 30
0.0
 11
4092.614700100437
 21
1844.436586915451
 31
0.0
  0
LWPOLYLINE
  5
1415
330
1F
100
AcDbEntity
  8
SANINDUSA
100
AcDbPolyline
 90
        9
 70
   128
 43
0.0
 10
4092.596592087028
 20
1844.434695938662
 10
4092.596441779015
 20
1844.434778535799
 10
4092.59596073973
 20
1844.434975469545
 10
4092.595452505825
 20
1844.435126656726
 10
4092.595026675342
 20
1844.435206333235
 10
4092.594738442181
 20
1844.43521910353
 10
4092.594582337616
 20
1844.435181999639
 10
4092.594541821358
 20
1844.435105690793
 10
4092.59454183626
 20
1844.435105735496
  0
LWPOLYLINE
  5
1416
330
1F
100
AcDbEntity
  8
SANINDUSA
100
AcDbPolyline
 90
       11
 70
   128
 43
0.0
 10
4092.596505079148
 20
1844.435286039547
 10
4092.596549395202
 20
1844.435420343712
 10
4092.596738863465
 20
1844.435500243739
 10
4092.597013134239
 20
1844.435523623661
 10
4092.597343433378
 20
1844.435499439076
 10
4092.59771624553
 20
1844.435429195002
 10
4092.598115715859
 20
1844.435309762195
 10
4092.598510596631
 20
1844.435138875679
 10
4092.598844650862
 20
1844.43492407544
 10
4092.599041003463
 20
1844.434694835976
 10
4092.599041927336
 20
1844.434620494083
  0
LWPOLYLINE
  5
1417
330
1F
100
AcDbEntity
  8
SANINDUSA
100
AcDbPolyline
 90
       11
 70
   128
 43
0.0
 10
4092.599040228603
 20
1844.435516962842
 10
4092.599023673414
 20
1844.435628557638
 10
4092.599173176764
 20
1844.435789087847
 10
4092.599439326403
 20
1844.435879776314
 10
4092.599764007805
 20
1844.435910234288
 10
4092.60012081611
 20
1844.435889774993
 10
4092.600496295569
 20
1844.435819903449
 10
4092.600871834633
 20
1844.435697102979
 10
4092.601212579487
 20
1844.435518616871
 10
4092.601461548087
 20
1844.435291850999
 10
4092.601532969353
 20
1844.435094842747
  0
LWPOLYLINE
  5
1418
330
1F
100
AcDbEntity
  8
SANINDUSA
100
AcDbPolyline
 90
       12
 70
   128
 43
0.0
 10
4092.601965579865
 20
1844.435792723731
 10
4092.601954150675
 20
1844.435817787484
 10
4092.602032217858
 20
1844.436051378087
 10
4092.602273855088
 20
1844.436224857405
 10
4092.602601948855
 20
1844.436324233249
 10
4092.602959636328
 20
1844.436359340385
 10
4092.603324267743
 20
1844.436339998678
 10
4092.603683057902
 20
1844.436267772749
 10
4092.604015726325
 20
1844.436138952211
 10
4092.60428566086
 20
1844.435950512126
 10
4092.604438055036
 20
1844.435710186199
 10
4092.604433256862
 20
1844.435653517083
  0
LWPOLYLINE
  5
1419
330
1F
100
AcDbEntity
  8
SANINDUSA
100
AcDbPolyline
 90
       11
 70
   128
 43
0.0
 10
4092.605185080049
 20
1844.436086306409
 10
4092.605181950806
 20
1844.436271423534
 10
4092.605364564536
 20
1844.436519706682
 10
4092.60568428385
 20
1844.436704153255
 10
4092.606056216833
 20
1844.436809713081
 10
4092.606427762387
 20
1844.436846757368
 10
4092.606781054018
 20
1844.436825806335
 10
4092.607104737041
 20
1844.436748648123
 10
4092.607377920029
 20
1844.436611468033
 10
4092.607564154742
 20
1844.436411285833
 10
4092.607594344495
 20
1844.43625610514
  0
LWPOLYLINE
  5
141A
330
1F
100
AcDbEntity
  8
SANINDUSA
100
AcDbPolyline
 90
       11
 70
   128
 43
0.0
 10
4092.608484182236
 20
1844.436389857963
 10
4092.608462664959
 20
1844.43646796985
 10
4092.608565408466
 20
1844.43674694939
 10
4092.608841065047
 20
1844.437008315757
 10
4092.609220582722
 20
1844.437201166586
 10
4092.609615925429
 20
1844.437310004667
 10
4092.60998140621
 20
1844.437346184686
 10
4092.610304850814
 20
1844.437321031526
 10
4092.610576871512
 20
1844.437236631349
 10
4092.610777143119
 20
1844.43708919926
 10
4092.610869440911
 20
1844.436880344585
  0
LWPOLYLINE
  5
141B
330
1F
100
AcDbEntity
  8
SANINDUSA
100
AcDbPolyline
 90
       11
 70
   128
 43
0.0
 10
4092.611687067626
 20
1844.43667688413
 10
4092.611719686267
 20
1844.43692570372
 10
4092.611922103642
 20
1844.437218690351
 10
4092.612274307487
 20
1844.437490815357
 10
4092.612692136047
 20
1844.437689060405
 10
4092.613089162585
 20
1844.437798136905
 10
4092.613428983567
 20
1844.437830710844
 10
4092.613705668328
 20
1844.437799001173
 10
4092.61391230273
 20
1844.437705392078
 10
4092.614030141112
 20
1844.437546396688
 10
4092.614029783486
 20
1844.437479550079
  0
LWPOLYLINE
  5
141C
330
1F
100
AcDbEntity
  8
SANINDUSA
100
AcDbPolyline
 90
       11
 70
   128
 43
0.0
 10
4092.614657390592
 20
1844.436946267322
 10
4092.614651161907
 20
1844.437085205749
 10
4092.614781874893
 20
1844.437356079058
 10
4092.615071106432
 20
1844.437661254839
 10
4092.615479204534
 20
1844.437941217855
 10
4092.615911770342
 20
1844.438141549066
 10
4092.616288680313
 20
1844.438247794345
 10
4092.616584647177
 20
1844.438274229005
 10
4092.616800177572
 20
1844.438233906463
 10
4092.61693117368
 20
1844.438129657939
 10
4092.61694874215
 20
1844.438030684427
  0
LWPOLYLINE
  5
141D
330
1F
100
AcDbEntity
  8
SANINDUSA
100
AcDbPolyline
 90
       11
 70
   128
 43
0.0
 10
4092.617198008773
 20
1844.437173271612
 10
4092.617184955357
 20
1844.437235498861
 10
4092.617265362022
 20
1844.43745260878
 10
4092.617484140871
 20
1844.437735850052
 10
4092.617842618106
 20
1844.438050771192
 10
4092.61828296232
 20
1844.438335264162
 10
4092.618705916879
 20
1844.438534254268
 10
4092.619042012571
 20
1844.438634747699
 10
4092.619278270481
 20
1844.438652778104
 10
4092.619421545146
 20
1844.438602322773
 10
4092.619462135909
 20
1844.438506895737
  0
LWPOLYLINE
  5
141E
330
1F
100
AcDbEntity
  8
SANINDUSA
100
AcDbPolyline
 90
        9
 70
   128
 43
0.0
 10
4092.619543600557
 20
1844.437907123998
 10
4092.61968082535
 20
1844.438044572309
 10
4092.620087254522
 20
1844.438366228775
 10
4092.620534453271
 20
1844.438651705221
 10
4092.620923954723
 20
1844.438845956758
 10
4092.62120071399
 20
1844.438938135341
 10
4092.621364641664
 20
1844.438946003154
 10
4092.621428478238
 20
1844.438884371952
 10
4092.621427226542
 20
1844.438879752592
  0
LWPOLYLINE
  5
141F
330
1F
100
AcDbEntity
  8
SANINDUSA
100
AcDbPolyline
 90
        7
 70
   128
 43
0.0
 10
4092.621483225105
 20
1844.438439035848
 10
4092.621684003351
 20
1844.438590640262
 10
4092.622112277625
 20
1844.438873464302
 10
4092.622446302054
 20
1844.439059907631
 10
4092.622648406504
 20
1844.439141595796
 10
4092.622731271861
 20
1844.439138079122
 10
4092.622726876018
 20
1844.439120704368
  0
LWPOLYLINE
  5
1420
330
1F
100
AcDbEntity
  8
SANINDUSA
100
AcDbPolyline
 90
        5
 70
   128
 43
0.0
 10
4092.622767124054
 20
1844.438870394662
 10
4092.622931394456
 20
1844.438988560871
 10
4092.623190883276
 20
1844.439164573387
 10
4092.623307037828
 20
1844.43923416181
 10
4092.623305875537
 20
1844.439227009252
  0
ARC
  5
1421
330
1F
100
AcDbEntity
  8
SANINDUSA
100
AcDbCircle
 10
4092.59159469451
 20
1844.430493820727
 30
0.0
 40
0.0045732823962587
100
AcDbArc
 50
68.2446992144296
 51
76.01161667324473
  0
ARC
  5
1422
330
1F
100
AcDbEntity
  8
SANINDUSA
100
AcDbCircle
 10
4092.593481459632
 20
1844.432807400363
 30
0.0
 40
0.0021820646944872
100
AcDbArc
 50
58.85490831572708
 51
95.60538256670211
  0
LWPOLYLINE
  5
1423
330
1F
100
AcDbEntity
  8
SANINDUSA
100
AcDbPolyline
 90
       27
 70
   128
 43
0.0
 10
4092.604328561304
 20
1844.513602370456
 10
4092.604330915687
 20
1844.513585800365
 10
4092.604772630809
 20
1844.512286419109
 10
4092.604964021323
 20
1844.511971289352
 10
4092.606238085506
 20
1844.510682279304
 10
4092.607177454708
 20
1844.510187709764
 10
4092.607678059218
 20
1844.510060245231
 10
4092.607969958065
 20
1844.510052586034
 10
4092.608253348348
 20
1844.510122323469
 10
4092.608826625822
 20
1844.51046740456
 10
4092.609187531946
 20
1844.510808432535
 10
4092.609861913798
 20
1844.511811727718
 10
4092.610257807849
 20
1844.513043338493
 10
4092.610321152685
 20
1844.513984555439
 10
4092.610066208719
 20
1844.515313888029
 10
4092.60933977711
 20
1844.51662796183
 10
4092.609049830315
 20
1844.51696109219
 10
4092.608009505747
 20
1844.517751568989
 10
4092.607380140303
 20
1844.517990673021
 10
4092.607035223124
 20
1844.518034303621
 10
4092.606776226041
 20
1844.518001997904
 10
4092.606397796152
 20
1844.517844015793
 10
4092.606076273797
 20
1844.517633462385
 10
4092.605416137454
 20
1844.517003888324
 10
4092.604575950382
 20
1844.515590691999
 10
4092.604300472615
 20
1844.514356995061
 10
4092.604328561304
 20
1844.513602370456
  0
LWPOLYLINE
  5
1424
330
1F
100
AcDbEntity
  8
SANINDUSA
100
AcDbPolyline
 90
       31
 70
   128
 43
0.0
 10
4092.608696315167
 20
1844.49099018617
 10
4092.609074447033
 20
1844.489867055849
 10
4092.609927851436
 20
1844.488835657076
 10
4092.609981778738
 20
1844.488791639045
 10
4092.610682774065
 20
1844.488367969231
 10
4092.610972840069
 20
1844.488279366926
 10
4092.611058208821
 20
1844.488270605043
 10
4092.611083019255
 20
1844.48827415152
 10
4092.611147362468
 20
1844.488298976854
 10
4092.611552793262
 20
1844.488594407276
 10
4092.611850965498
 20
1844.488936210111
 10
4092.612268808959
 20
1844.48969536467
 10
4092.612506825207
 20
1844.490695649818
 10
4092.612519520996
 20
1844.491152936653
 10
4092.612326983092
 20
1844.492189819053
 10
4092.612240764974
 20
1844.492415780262
 10
4092.611659932611
 20
1844.493359619812
 10
4092.611417744039
 20
1844.493615442947
 10
4092.610682818768
 20
1844.494129741624
 10
4092.610351461646
 20
1844.494245255426
 10
4092.61024922478
 20
1844.494258785681
 10
4092.61022201526
 20
1844.494256669715
 10
4092.610131565211
 20
1844.494220549301
 10
4092.610049877046
 20
1844.494175249771
 10
4092.609937328575
 20
1844.494099611477
 10
4092.609792355178
 20
1844.493982816175
 10
4092.609456959841
 20
1844.493630731539
 10
4092.608984816549
 20
1844.492864275411
 10
4092.60869364786
 20
1844.491859877542
 10
4092.608674380659
 20
1844.491193974451
 10
4092.608696315167
 20
1844.49099018617
  0
LWPOLYLINE
  5
1425
330
1F
100
AcDbEntity
  8
SANINDUSA
100
AcDbPolyline
 90
       21
 70
   128
 43
0.0
 10
4092.621611166475
 20
1844.433730328516
 10
4092.621479276298
 20
1844.433711791471
 10
4092.621002960679
 20
1844.433644840554
 10
4092.620192099093
 20
1844.433530891374
 10
4092.619068775056
 20
1844.433373013572
 10
4092.61766365516
 20
1844.433175543383
 10
4092.61601505029
 20
1844.432943845228
 10
4092.614167947052
 20
1844.432684252099
 10
4092.61217271137
 20
1844.432403842047
 10
4092.610083777187
 20
1844.43211025937
 10
4092.607958126543
 20
1844.43181152089
 10
4092.605853739856
 20
1844.431515762643
 10
4092.603828031299
 20
1844.431231061057
 10
4092.601936224578
 20
1844.430965194539
 10
4092.600229952214
 20
1844.430725390152
 10
4092.598755750535
 20
1844.430518204406
 10
4092.597553837774
 20
1844.430349284843
 10
4092.596656981585
 20
1844.43022323592
 10
4092.596089649675
 20
1844.430143514708
 10
4092.595867324351
 20
1844.430112266973
 10
4092.595864195106
 20
1844.430111819938
  0
LWPOLYLINE
  5
1426
330
1F
100
AcDbEntity
  8
SANINDUSA
100
AcDbPolyline
 90
       20
 70
   128
 43
0.0
 10
4092.620604831455
 20
1844.426520103649
 10
4092.620602566479
 20
1844.426519775823
 10
4092.620387796042
 20
1844.426489600972
 10
4092.619829896567
 20
1844.426411191062
 10
4092.618946809051
 20
1844.42628707929
 10
4092.617766890405
 20
1844.426121259168
 10
4092.616328078984
 20
1844.42591903551
 10
4092.614676627992
 20
1844.425686949924
 10
4092.612865600464
 20
1844.42543242319
 10
4092.610953200338
 20
1844.425163650945
 10
4092.609000909803
 20
1844.424889275864
 10
4092.60707147765
 20
1844.424618104533
 10
4092.605226907608
 20
1844.424358869031
 10
4092.603526476501
 20
1844.42411989911
 10
4092.602024856685
 20
1844.423908853963
 10
4092.600770313022
 20
1844.423732543424
 10
4092.599803153155
 20
1844.423596615032
 10
4092.599154460905
 20
1844.423505449728
 10
4092.598845097898
 20
1844.423461968139
 10
4092.598818931459
 20
1844.423458287552
  0
LWPOLYLINE
  5
1427
330
1F
100
AcDbEntity
  8
SANINDUSA
100
AcDbPolyline
 90
       20
 70
   128
 43
0.0
 10
4092.597689497945
 20
1844.424309382275
 10
4092.597858909247
 20
1844.424333194331
 10
4092.59838405597
 20
1844.424406999782
 10
4092.599249172685
 20
1844.424528578356
 10
4092.600427958844
 20
1844.424694249467
 10
4092.601884592054
 20
1844.42489897652
 10
4092.60357484567
 20
1844.425136515931
 10
4092.605447325585
 20
1844.425399685339
 10
4092.60744516897
 20
1844.425680453018
 10
4092.60950763869
 20
1844.425970325307
 10
4092.611572105167
 20
1844.426260465816
 10
4092.613575804708
 20
1844.42654206796
 10
4092.615457880972
 20
1844.426806563572
 10
4092.617161143301
 20
1844.427045950726
 10
4092.618633825061
 20
1844.427252912954
 10
4092.619831192968
 20
1844.427421191767
 10
4092.620716858385
 20
1844.427545676068
 10
4092.621263924716
 20
1844.427622551158
 10
4092.621455747364
 20
1844.42764952226
 10
4092.621455926177
 20
1844.427649537162
  0
LWPOLYLINE
  5
1428
330
1F
100
AcDbEntity
  8
SANINDUSA
100
AcDbPolyline
 90
       10
 70
   128
 43
0.0
 10
4092.61116509485
 20
1844.434483850435
 10
4092.611118856547
 20
1844.434477338628
 10
4092.610908407447
 20
1844.434447774724
 10
4092.610558587788
 20
1844.434398600892
 10
4092.610122654316
 20
1844.434337342218
 10
4092.609666961906
 20
1844.434273297027
 10
4092.609260920165
 20
1844.43421622558
 10
4092.608966309307
 20
1844.434174830154
 10
4092.608827996729
 20
1844.434155384139
 10
4092.608820799468
 20
1844.43415437086
  0
LWPOLYLINE
  5
1429
330
1F
100
AcDbEntity
  8
SANINDUSA
100
AcDbPolyline
 90
       10
 70
   128
 43
0.0
 10
4092.607888702032
 20
1844.434023374752
 10
4092.607880014656
 20
1844.434022152857
 10
4092.607736933707
 20
1844.43400205119
 10
4092.607438508151
 20
1844.433960104421
 10
4092.607030186532
 20
1844.433902720049
 10
4092.60657409179
 20
1844.433838615254
 10
4092.60613970804
 20
1844.433777565197
 10
4092.605793121932
 20
1844.433728868202
 10
4092.60558712828
 20
1844.433699915246
 10
4092.60554439175
 20
1844.433693910078
  0
LWPOLYLINE
  5
142A
330
1F
100
AcDbEntity
  8
SANINDUSA
100
AcDbPolyline
 90
       10
 70
   128
 43
0.0
 10
4092.614357325909
 20
1844.434932479695
 10
4092.614355910299
 20
1844.43493228598
 10
4092.614244777439
 20
1844.434916669563
 10
4092.613972324608
 20
1844.434878373579
 10
4092.613580036638
 20
1844.434823239282
 10
4092.613127622484
 20
1844.434759656028
 10
4092.612683985112
 20
1844.434697309569
 10
4092.612316641687
 20
1844.434645677045
 10
4092.612081531165
 20
1844.434612641171
 10
4092.612013015626
 20
1844.434603015021
  0
LWPOLYLINE
  5
142B
330
1F
100
AcDbEntity
  8
SANINDUSA
100
AcDbPolyline
 90
       10
 70
   128
 43
0.0
 10
4092.604704756019
 20
1844.433575907782
 10
4092.604631859539
 20
1844.433565655783
 10
4092.604392457483
 20
1844.433532008961
 10
4092.604022148726
 20
1844.433479974107
 10
4092.603577319262
 20
1844.433417448834
 10
4092.603125679968
 20
1844.433353984788
 10
4092.6027359848
 20
1844.43329920812
 10
4092.602467570183
 20
1844.433261493281
 10
4092.602361310003
 20
1844.433246547416
 10
4092.602360445736
 20
1844.433246428207
  0
LWPOLYLINE
  5
142C
330
1F
100
AcDbEntity
  8
SANINDUSA
100
AcDbPolyline
 90
       10
 70
   128
 43
0.0
 10
4092.617293271898
 20
1844.43534510775
 10
4092.617267746208
 20
1844.43534151657
 10
4092.617087352751
 20
1844.435316154793
 10
4092.61675985503
 20
1844.435270140008
 10
4092.616335127233
 20
1844.435210445956
 10
4092.615877810596
 20
1844.435146177248
 10
4092.615457538245
 20
1844.435087109045
 10
4092.615138280867
 20
1844.435042241648
 10
4092.614968660948
 20
1844.43501839979
 10
4092.614948961613
 20
1844.435015628175
  0
LWPOLYLINE
  5
142D
330
1F
100
AcDbEntity
  8
SANINDUSA
100
AcDbPolyline
 90
       10
 70
   128
 43
0.0
 10
4092.601784903286
 20
1844.433165544704
 10
4092.601762789962
 20
1844.433162430361
 10
4092.601588535784
 20
1844.433137947754
 10
4092.601265717028
 20
1844.433092573718
 10
4092.600843492625
 20
1844.433033237294
 10
4092.600386146186
 20
1844.432968968586
 10
4092.599963295934
 20
1844.432909527854
 10
4092.599639314888
 20
1844.432864004806
 10
4092.59946354079
 20
1844.432839298681
 10
4092.599440607903
 20
1844.43283608003
  0
LWPOLYLINE
  5
142E
330
1F
100
AcDbEntity
  8
SANINDUSA
100
AcDbPolyline
 90
       10
 70
   128
 43
0.0
 10
4092.619814667581
 20
1844.435699457363
 10
4092.619735736129
 20
1844.435688370899
 10
4092.619490686534
 20
1844.435653934315
 10
4092.619116518377
 20
1844.435601348117
 10
4092.618670198796
 20
1844.435538614229
 10
4092.618219647286
 20
1844.435475299195
 10
4092.617833483694
 20
1844.435421029166
 10
4092.617570478199
 20
1844.435384059385
 10
4092.617470700023
 20
1844.435370037392
 10
4092.617470372198
 20
1844.435369992689
  0
LWPOLYLINE
  5
142F
330
1F
100
AcDbEntity
  8
SANINDUSA
100
AcDbPolyline
 90
       10
 70
   128
 43
0.0
 10
4092.5992865746
 20
1844.432814428643
 10
4092.599285874245
 20
1844.432814324335
 10
4092.599181193588
 20
1844.432799616889
 10
4092.598914120077
 20
1844.432762080864
 10
4092.598525289176
 20
1844.432707438306
 10
4092.598073918102
 20
1844.432644004062
 10
4092.597628701208
 20
1844.432581434087
 10
4092.597257438777
 20
1844.43252925022
 10
4092.597016636012
 20
1844.432495409683
 10
4092.596942264316
 20
1844.432484949068
  0
LWPOLYLINE
  5
1430
330
1F
100
AcDbEntity
  8
SANINDUSA
100
AcDbPolyline
 90
        8
 70
   128
 43
0.0
 10
4092.621785584567
 20
1844.435976455048
 10
4092.621774706719
 20
1844.435974920228
 10
4092.621625322578
 20
1844.435953939394
 10
4092.621321890233
 20
1844.43591129227
 10
4092.620910603282
 20
1844.435853490666
 10
4092.620454076407
 20
1844.435789326266
 10
4092.620021808622
 20
1844.435728574232
 10
4092.619814667581
 20
1844.435699457363
  0
LWPOLYLINE
  5
1431
330
1F
100
AcDbEntity
  8
SANINDUSA
100
AcDbPolyline
 90
        8
 70
   128
 43
0.0
 10
4092.596942264316
 20
1844.432484949068
 10
4092.596752796052
 20
1844.432458320692
 10
4092.596318918942
 20
1844.432397345141
 10
4092.59586270499
 20
1844.432333240346
 10
4092.595453638312
 20
1844.432275736765
 10
4092.595153975961
 20
1844.432233626083
 10
4092.59500934529
 20
1844.432213300899
 10
4092.595000136373
 20
1844.432212004498
  0
LWPOLYLINE
  5
1432
330
1F
100
AcDbEntity
  8
SANINDUSA
100
AcDbPolyline
 90
        6
 70
   128
 43
0.0
 10
4092.623099777577
 20
1844.436161154941
 10
4092.623048681495
 20
1844.436153972582
 10
4092.622832346438
 20
1844.436123574213
 10
4092.622478279946
 20
1844.436073804334
 10
4092.622040379523
 20
1844.436012262539
 10
4092.621785584567
 20
1844.435976455048
  0
LWPOLYLINE
  5
1433
330
1F
100
AcDbEntity
  8
SANINDUSA
100
AcDbPolyline
 90
        6
 70
   128
 43
0.0
 10
4092.595000136373
 20
1844.432212004498
 10
4092.59476551759
 20
1844.432179028228
 10
4092.594329092381
 20
1844.432117695049
 10
4092.593978214739
 20
1844.432068387106
 10
4092.593766305325
 20
1844.432038599686
 10
4092.593718889831
 20
1844.432031938866
  0
LWPOLYLINE
  5
1434
330
1F
100
AcDbEntity
  8
SANINDUSA
100
AcDbPolyline
 90
        5
 70
   128
 43
0.0
 10
4092.62368639159
 20
1844.436243603066
 10
4092.623684007405
 20
1844.436243260339
 10
4092.623566437242
 20
1844.436226734952
 10
4092.623288664696
 20
1844.43618770881
 10
4092.623099777577
 20
1844.436161154941
  0
LWPOLYLINE
  5
1435
330
1F
100
AcDbEntity
  8
SANINDUSA
100
AcDbPolyline
 90
        5
 70
   128
 43
0.0
 10
4092.593712199209
 20
1844.432031000093
 10
4092.593555737017
 20
1844.432009005979
 10
4092.593281972884
 20
1844.431970531181
 10
4092.593169245598
 20
1844.431954691247
 10
4092.593167621372
 20
1844.431954467729
  0
LINE
  5
1436
330
1F
100
AcDbEntity
  8
SANINDUSA
100
AcDbLine
 10
4092.452279146491
 20
1844.253168204859
 30
0.0
 11
4092.451812613485
 21
1844.254002066389
 31
0.0
  0
LWPOLYLINE
  5
1437
330
1F
100
AcDbEntity
  8
SANINDUSA
100
AcDbPolyline
 90
        3
 70
   128
 43
0.0
 10
4092.455355819044
 20
1844.249539846614
 10
4092.454117461769
 20
1844.251085268394
 10
4092.452279146491
 20
1844.253168204859
  0
SPLINE
  5
1438
330
1F
100
AcDbEntity
  8
SANINDUSA
100
AcDbSpline
210
0.0
220
0.0
230
1.0
 70
    12
 71
     3
 72
    11
 73
     7
 74
     0
 42
0.0000000001
 43
0.0000000001
 40
0.0
 40
0.0
 40
0.0
 40
0.0
 40
0.2556195921883464
 40
0.6222782700236254
 40
0.9883346632799108
 40
1.0
 40
1.0
 40
1.0
 40
1.0
 10
4092.461845706877
 20
1844.236476531312
 30
0.0
 41
1.0
 10
4092.461997991865
 20
1844.235914535525
 30
0.0
 41
1.0
 10
4092.462368713208
 20
1844.234546417521
 30
0.0
 41
1.0
 10
4092.462639269469
 20
1844.233079611258
 30
0.0
 41
1.0
 10
4092.462790499687
 20
1844.23214644207
 30
0.0
 41
1.0
 10
4092.46280830834
 20
1844.232023881987
 30
0.0
 41
1.0
 10
4092.462808858333
 20
1844.232020096913
 30
0.0
 41
1.0
  0
LWPOLYLINE
  5
1439
330
1F
100
AcDbEntity
  8
SANINDUSA
100
AcDbPolyline
 90
       11
 70
   128
 43
0.0
 10
4092.451423167912
 20
1844.255435200468
 10
4092.451192095605
 20
1844.257413664893
 10
4092.450737859784
 20
1844.261302651897
 10
4092.450294684349
 20
1844.265097038881
 10
4092.449898816375
 20
1844.268486375049
 10
4092.449539139596
 20
1844.271565849022
 10
4092.449241541056
 20
1844.274113828376
 10
4092.449002857981
 20
1844.276157410876
 10
4092.448843002049
 20
1844.277526052729
 10
4092.448757540164
 20
1844.278257759348
 10
4092.448745675115
 20
1844.278359325663
  0
LWPOLYLINE
  5
143A
330
1F
100
AcDbEntity
  8
SANINDUSA
100
AcDbPolyline
 90
        3
 70
   128
 43
0.0
 10
4092.448745675115
 20
1844.278359325663
 10
4092.448755155978
 20
1844.278278166488
 10
4092.448830898581
 20
1844.277629690305
  0
SPLINE
  5
143C
330
1F
100
AcDbEntity
  8
SANINDUSA
100
AcDbSpline
210
0.0
220
0.0
230
1.0
 70
    28
 71
     1
 72
     4
 73
     2
 74
     0
 42
0.0000000001
 43
0.0000000001
 40
0.0
 40
0.0
 40
1.0
 40
1.0
 10
4092.485509823737
 20
1844.232624208615
 30
0.0
 41
1.0
 10
4092.485510151563
 20
1844.23253181024
 30
0.0
 41
1.0
  0
ARC
  5
143D
330
1F
100
AcDbEntity
  8
SANINDUSA
100
AcDbCircle
 10
4092.502886513335
 20
1843.86665329818
 30
0.0
 40
0.3662908974984784
100
AcDbArc
 50
92.71905701849082
 51
94.44161184099815
  0
ARC
  5
143E
330
1F
100
AcDbEntity
  8
SANINDUSA
100
AcDbCircle
 10
4092.472737844651
 20
1844.208760209048
 30
0.0
 40
0.0231526077643033
100
AcDbArc
 50
85.58582778775756
 51
104.4867172393981
  0
ARC
  5
143F
330
1F
100
AcDbEntity
  8
SANINDUSA
100
AcDbCircle
 10
4092.502886513335
 20
1843.86665329818
 30
0.0
 40
0.3662908974983742
100
AcDbArc
 50
95.63091540395696
 51
96.25513655933641
  0
ARC
  5
1440
330
1F
100
AcDbEntity
  8
SANINDUSA
100
AcDbCircle
 10
4092.502886513317
 20
1843.86665329843
 30
0.0
 40
0.4152506251683236
100
AcDbArc
 50
95.42848856330868
 51
97.49161562191758
  0
ARC
  5
1446
330
1F
100
AcDbEntity
  8
SANINDUSA
100
AcDbCircle
 10
4092.502886513317
 20
1843.86665329843
 30
0.0
 40
0.4152506251680323
100
AcDbArc
 50
92.42059468136323
 51
92.51761501705297
  0
LWPOLYLINE
  5
1448
330
1F
100
AcDbEntity
  8
SANINDUSA
100
AcDbPolyline
 90
        3
 70
   128
 43
0.0
 10
4092.452279146491
 20
1844.253168197409
 10
4092.451576001672
 20
1844.254662068621
 10
4092.451423167912
 20
1844.255435200468
  0
ARC
  5
1449
330
1F
100
AcDbEntity
  8
SANINDUSA
100
AcDbCircle
 10
4092.42511845166
 20
1844.226331999018
 30
0.0
 40
0.038116959170083
100
AcDbArc
 50
6.676358364927849
 51
37.50703542082929
  0
SPLINE
  5
144A
330
1F
100
AcDbEntity
  8
SANINDUSA
100
AcDbSpline
210
0.0
220
0.0
230
1.0
 70
    28
 71
     1
 72
     4
 73
     2
 74
     0
 42
0.0000000001
 43
0.0000000001
 40
0.0
 40
0.0
 40
1.0
 40
1.0
 10
4092.486893932996
 20
1844.280153477624
 30
0.0
 41
1.0
 10
4092.486893932996
 20
1844.280159415737
 30
0.0
 41
1.0
  0
SPLINE
  5
144B
330
1F
100
AcDbEntity
  8
SANINDUSA
100
AcDbSpline
210
0.0
220
0.0
230
1.0
 70
    12
 71
     3
 72
    11
 73
     7
 74
     0
 42
0.0000000001
 43
0.0000000001
 40
0.0
 40
0.0
 40
0.0
 40
0.0
 40
0.2451803574172342
 40
0.493066629693756
 40
0.7448131198145198
 40
1.0
 40
1.0
 40
1.0
 40
1.0
 10
4092.469186130641
 20
1844.340947726801
 30
0.0
 41
1.0
 10
4092.469168900178
 20
1844.340899581028
 30
0.0
 41
1.0
 10
4092.469134249089
 20
1844.340802758125
 30
0.0
 41
1.0
 10
4092.468858823749
 20
1844.340020632627
 30
0.0
 41
1.0
 10
4092.468448495965
 20
1844.338832656397
 30
0.0
 41
1.0
 10
4092.468079739902
 20
1844.337706520204
 30
0.0
 41
1.0
 10
4092.467894110558
 20
1844.33713963075
 30
0.0
 41
1.0
  0
SPLINE
  5
144C
330
1F
100
AcDbEntity
  8
SANINDUSA
100
AcDbSpline
210
0.0
220
0.0
230
1.0
 70
    28
 71
     1
 72
     4
 73
     2
 74
     0
 42
0.0000000001
 43
0.0000000001
 40
0.0
 40
0.0
 40
1.0
 40
1.0
 10
4092.466790120778
 20
1844.333126166895
 30
0.0
 41
1.0
 10
4092.467797081647
 20
1844.336786920265
 30
0.0
 41
1.0
  0
SPLINE
  5
144D
330
1F
100
AcDbEntity
  8
SANINDUSA
100
AcDbSpline
210
0.0
220
0.0
230
1.0
 70
    28
 71
     1
 72
     4
 73
     2
 74
     0
 42
0.0000000001
 43
0.0000000001
 40
0.0
 40
0.0
 40
1.0
 40
1.0
 10
4092.466790120778
 20
1844.333126166895
 30
0.0
 41
1.0
 10
4092.466468374906
 20
1844.330978462533
 30
0.0
 41
1.0
  0
SPLINE
  5
1464
330
1F
100
AcDbEntity
  8
SANINDUSA
100
AcDbSpline
210
0.0
220
0.0
230
1.0
 70
    12
 71
     3
 72
    12
 73
     8
 74
     0
 42
0.0000000001
 43
0.0000000001
 40
0.0
 40
0.0
 40
0.0
 40
0.0
 40
0.0000774588230439
 40
0.2489632485811934
 40
0.4985304371134011
 40
0.7490026956213159
 40
1.0
 40
1.0
 40
1.0
 40
1.0
 10
4092.47068754184
 20
1844.344960907534
 30
0.0
 41
1.0
 10
4092.470687564198
 20
1844.344960967156
 30
0.0
 41
1.0
 10
4092.470759426607
 20
1844.345152599109
 30
0.0
 41
1.0
 10
4092.470500662476
 20
1844.344484507612
 30
0.0
 41
1.0
 10
4092.469901662636
 20
1844.342923134604
 30
0.0
 41
1.0
 10
4092.468968524059
 20
1844.340381245743
 30
0.0
 41
1.0
 10
4092.468252438704
 20
1844.338220734362
 30
0.0
 41
1.0
 10
4092.467894021151
 20
1844.337139347628
 30
0.0
 41
1.0
  0
LWPOLYLINE
  5
146C
330
1F
100
AcDbEntity
  8
SANINDUSA
100
AcDbPolyline
 90
       20
 70
   128
 43
0.0
 10
4092.57871908295
 20
1844.544514292911
 10
4092.578676271913
 20
1844.545327002243
 10
4092.578748259422
 20
1844.546043420271
 10
4092.578946474669
 20
1844.546592468456
 10
4092.579268846391
 20
1844.546908969119
 10
4092.579685095428
 20
1844.546956593231
 10
4092.580146837709
 20
1844.546737456754
 10
4092.580597642539
 20
1844.546272242502
 10
4092.58097018647
 20
1844.545601749853
 10
4092.581198949097
 20
1844.544803941683
 10
4092.581250298498
 20
1844.543977821306
 10
4092.581127930162
 20
1844.543209666446
 10
4092.58085751879
 20
1844.542576337293
 10
4092.580485064266
 20
1844.542156780199
 10
4092.580072242497
 20
1844.54200755997
 10
4092.579672086714
 20
1844.542139763072
 10
4092.579315844653
 20
1844.54253458424
 10
4092.579023230551
 20
1844.543154502348
 10
4092.578811842678
 20
1844.543928260044
 10
4092.57871908295
 20
1844.544514292911
  0
ARC
  5
1470
330
1F
100
AcDbEntity
  8
SANINDUSA
100
AcDbCircle
 10
4092.583565223701
 20
1844.544704467667
 30
0.0
 40
0.003539538516616
100
AcDbArc
 50
180.1062319827922
 51
218.445086646313
  0
ARC
  5
1471
330
1F
100
AcDbEntity
  8
SANINDUSA
100
AcDbCircle
 10
4092.58317648034
 20
1844.545425574782
 30
0.0
 40
0.0032337246411281
100
AcDbArc
 50
157.0843779985779
 51
193.0043641781558
  0
LWPOLYLINE
  5
1472
330
1F
100
AcDbEntity
  8
SANINDUSA
100
AcDbPolyline
 90
        9
 70
   128
 43
0.0
 10
4092.468010987817
 20
1844.230980513678
 10
4092.468945461987
 20
1844.231089657233
 10
4092.470057289777
 20
1844.231219517127
 10
4092.471237655458
 20
1844.23135738267
 10
4092.472371000527
 20
1844.231489753411
 10
4092.473346393285
 20
1844.231603676513
 10
4092.474068361996
 20
1844.231688002184
 10
4092.474466222999
 20
1844.231734471456
 10
4092.474531713603
 20
1844.231742119477
  0
LWPOLYLINE
  5
1473
330
1F
100
AcDbEntity
  8
SANINDUSA
100
AcDbPolyline
 90
        4
 70
   128
 43
0.0
 10
4092.466983031211
 20
1844.230860451297
 10
4092.467013712702
 20
1844.230864035026
 10
4092.467345352946
 20
1844.230902770594
 10
4092.468010987817
 20
1844.230980513678
  0
LINE
  5
1474
330
1F
100
AcDbEntity
  8
SANINDUSA
100
AcDbLine
 10
4092.367483817312
 20
1844.292425012301
 30
0.0
 11
4092.367483817312
 21
1844.287218050918
 31
0.0
  0
LINE
  5
1475
330
1F
100
AcDbEntity
  8
SANINDUSA
100
AcDbLine
 10
4092.367483817312
 20
1844.293366221378
 30
0.0
 11
4092.367483817312
 21
1844.292425012301
 31
0.0
  0
LWPOLYLINE
  5
147B
330
1F
100
AcDbEntity
  8
SANINDUSA
100
AcDbPolyline
 90
       18
 70
   128
 43
0.0
 10
4092.486921224472
 20
1844.233906475887
 10
4092.486921231923
 20
1844.233898477689
 10
4092.486920755086
 20
1844.234755287007
 10
4092.486919786511
 20
1844.236473338739
 10
4092.486918378351
 20
1844.23897796689
 10
4092.486916560409
 20
1844.242172958389
 10
4092.486914399741
 20
1844.245951062129
 10
4092.486911978302
 20
1844.250133128897
 10
4092.486909370599
 20
1844.254604855612
 10
4092.48690668839
 20
1844.259148592189
 10
4092.486904013632
 20
1844.263624468878
 10
4092.486901472983
 20
1844.267847942249
 10
4092.486899170754
 20
1844.271642627255
 10
4092.48689718145
 20
1844.274893673197
 10
4092.486895609376
 20
1844.277442293302
 10
4092.486894514141
 20
1844.279218653277
 10
4092.486893940447
 20
1844.280137727097
 10
4092.486893940447
 20
1844.280137727097
  0
SPLINE
  5
147D
330
1F
100
AcDbEntity
  8
SANINDUSA
100
AcDbSpline
210
0.0
220
0.0
230
1.0
 70
    28
 71
     1
 72
     4
 73
     2
 74
     0
 42
0.0000000001
 43
0.0000000001
 40
0.0
 40
0.0
 40
1.0
 40
1.0
 10
4092.486893940447
 20
1844.280137727097
 30
0.0
 41
1.0
 10
4092.486893932996
 20
1844.280153477624
 30
0.0
 41
1.0
  0
SPLINE
  5
147E
330
1F
100
AcDbEntity
  8
SANINDUSA
100
AcDbSpline
210
0.0
220
0.0
230
1.0
 70
    28
 71
     1
 72
     4
 73
     2
 74
     0
 42
0.0000000001
 43
0.0000000001
 40
0.0
 40
0.0
 40
1.0
 40
1.0
 10
4092.467797081647
 20
1844.336786920265
 30
0.0
 41
1.0
 10
4092.467894021151
 20
1844.337139347628
 30
0.0
 41
1.0
  0
LINE
  5
1485
330
1F
100
AcDbEntity
  8
SANINDUSA
100
AcDbLine
 10
4091.940341857311
 20
1844.549820602358
 30
0.0
 11
4091.940341857247
 21
1844.550011090809
 31
0.0
  0
LINE
  5
1486
330
1F
100
AcDbEntity
  8
SANINDUSA
100
AcDbLine
 10
4091.932741857247
 20
1844.550011090809
 30
0.0
 11
4091.932741857183
 21
1844.549820602358
 31
0.0
  0
ARC
  5
1487
330
1F
100
AcDbEntity
  8
SANINDUSA
100
AcDbCircle
 10
4091.932841857246
 20
1844.550011090809
 30
0.0
 40
0.0001000000000001
100
AcDbArc
 50
90.0
 51
180.0
  0
ARC
  5
1488
330
1F
100
AcDbEntity
  8
SANINDUSA
100
AcDbCircle
 10
4091.940241857247
 20
1844.550011090809
 30
0.0
 40
0.0001000000000001
100
AcDbArc
 50
0.0
 51
90.0
  0
ARC
  5
1489
330
1F
100
AcDbEntity
  8
SANINDUSA
100
AcDbCircle
 10
4091.932541857256
 20
1844.549687705712
 30
0.0
 40
0.0001000000000003
100
AcDbArc
 50
99.24418432822935
 51
99.47320530546432
  0
LINE
  5
148A
330
1F
100
AcDbEntity
  8
SANINDUSA
100
AcDbLine
 10
4091.912025604446
 20
1844.520082811777
 30
0.0
 11
4091.912041502122
 21
1844.519721189466
 31
0.0
  0
LWPOLYLINE
  5
148B
330
1F
100
AcDbEntity
  8
SANINDUSA
100
AcDbPolyline
 90
        3
 70
   128
 43
0.0
 10
4091.961042301778
 20
1844.519670798861
 10
4091.96105152746
 20
1844.520021024578
 10
4091.961056835998
 20
1844.520073239178
  0
LINE
  5
148C
330
1F
100
AcDbEntity
  8
SANINDUSA
100
AcDbLine
 10
4091.961041857246
 20
1844.469125786305
 30
0.0
 11
4091.961041857246
 21
1844.519689201518
 31
0.0
  0
LINE
  5
148D
330
1F
100
AcDbEntity
  8
SANINDUSA
100
AcDbLine
 10
4091.912041857247
 20
1844.519743593441
 30
0.0
 11
4091.912041857247
 21
1844.469129405348
 31
0.0
  0
LINE
  5
148E
330
1F
100
AcDbEntity
  8
SANINDUSA
100
AcDbLine
 10
4091.951541857246
 20
1844.32239619676
 30
0.0
 11
4091.951541857246
 21
1844.322604956411
 31
0.0
  0
LINE
  5
148F
330
1F
100
AcDbEntity
  8
SANINDUSA
100
AcDbLine
 10
4091.921541857247
 20
1844.322604956411
 30
0.0
 11
4091.921541857247
 21
1844.32239619676
 31
0.0
  0
LINE
  5
1490
330
1F
100
AcDbEntity
  8
SANINDUSA
100
AcDbLine
 10
4091.955041857247
 20
1844.309592271472
 30
0.0
 11
4091.955041857485
 21
1844.322396200568
 31
0.0
  0
LINE
  5
1491
330
1F
100
AcDbEntity
  8
SANINDUSA
100
AcDbLine
 10
4091.918041857009
 20
1844.322396200568
 30
0.0
 11
4091.918041857009
 21
1844.320429262191
 31
0.0
  0
ARC
  5
1492
330
1F
100
AcDbEntity
  8
SANINDUSA
100
AcDbCircle
 10
4091.925085287041
 20
1844.316095038518
 30
0.0
 40
0.0083224017238643
100
AcDbArc
 50
147.6579558684095
 51
180.7871957167526
  0
LWPOLYLINE
  5
1493
330
1F
100
AcDbEntity
  8
SANINDUSA
100
AcDbPolyline
 90
       18
 70
   128
 43
0.0
 10
4091.916763670791
 20
1844.315980699331
 10
4091.916832389359
 20
1844.314928915769
 10
4091.916931433652
 20
1844.314292204052
 10
4091.917084198494
 20
1844.313593846232
 10
4091.917385514874
 20
1844.312540915281
 10
4091.91774166194
 20
1844.31154201594
 10
4091.91811307152
 20
1844.310661804349
 10
4091.918489933063
 20
1844.309888881117
 10
4091.919034751181
 20
1844.308943909079
 10
4091.919523233597
 20
1844.308227565557
 10
4091.920131696437
 20
1844.307457846076
 10
4091.921066329863
 20
1844.306481760413
 10
4091.92194846743
 20
1844.305748861701
 10
4091.922901745003
 20
1844.305128749877
 10
4091.924014495734
 20
1844.304595616132
 10
4091.925285559197
 20
1844.304200616151
 10
4091.926683394287
 20
1844.303999182254
 10
4091.927179147538
 20
1844.304011460811
  0
LWPOLYLINE
  5
1494
330
1F
100
AcDbEntity
  8
SANINDUSA
100
AcDbPolyline
 90
       18
 70
   128
 43
0.0
 10
4091.917150579442
 20
1844.313547086388
 10
4091.917039362763
 20
1844.312036540777
 10
4091.91709306841
 20
1844.311177473933
 10
4091.917214816485
 20
1844.3103904095
 10
4091.917378790725
 20
1844.30968987611
 10
4091.917625203778
 20
1844.30888193515
 10
4091.917940296282
 20
1844.308038201601
 10
4091.918297043119
 20
1844.307226192624
 10
4091.918698323939
 20
1844.306443792254
 10
4091.919263828595
 20
1844.305547800333
 10
4091.919589126532
 20
1844.305104192764
 10
4091.920192221229
 20
1844.304382931859
 10
4091.92110334528
 20
1844.303499069482
 10
4091.922005713967
 20
1844.302820053369
 10
4091.92304097959
 20
1844.302232813508
 10
4091.924258478966
 20
1844.301756438285
 10
4091.925626169939
 20
1844.301456418306
 10
4091.926191472498
 20
1844.301429000169
  0
LINE
  5
1495
330
1F
100
AcDbEntity
  8
SANINDUSA
100
AcDbLine
 10
4091.921541857582
 20
1844.449010361404
 30
0.0
 11
4091.920656485532
 21
1844.447459090918
 31
0.0
  0
LINE
  5
1496
330
1F
100
AcDbEntity
  8
SANINDUSA
100
AcDbLine
 10
4091.952427245725
 20
1844.44745910582
 30
0.0
 11
4091.951541856912
 21
1844.449010406107
 31
0.0
  0
LINE
  5
1497
330
1F
100
AcDbEntity
  8
SANINDUSA
100
AcDbLine
 10
4091.912041869064
 20
1844.465633057475
 30
0.0
 11
4091.912041869064
 21
1844.4318370637
 31
0.0
  0
LINE
  5
1498
330
1F
100
AcDbEntity
  8
SANINDUSA
100
AcDbLine
 10
4091.961041869645
 20
1844.4318370637
 30
0.0
 11
4091.961041869645
 21
1844.465670414686
 31
0.0
  0
ARC
  5
1499
330
1F
100
AcDbEntity
  8
SANINDUSA
100
AcDbCircle
 10
4091.959541785914
 20
1844.432069173038
 30
0.0
 40
0.0015000818687657
100
AcDbArc
 50
278.843278608798
 51
359.9988081874349
  0
ARC
  5
149A
330
1F
100
AcDbEntity
  8
SANINDUSA
100
AcDbCircle
 10
4091.91354198912
 20
1844.432069205832
 30
0.0
 40
0.0015001200600087
100
AcDbArc
 50
180.0038671376131
 51
261.1573441894595
  0
LWPOLYLINE
  5
149B
330
1F
100
AcDbEntity
  8
SANINDUSA
100
AcDbPolyline
 90
        3
 70
   128
 43
0.0
 10
4091.951541856912
 20
1844.429540571243
 10
4091.956220870886
 20
1844.430077311069
 10
4091.959660681014
 20
1844.43059114036
  0
ARC
  5
149C
330
1F
100
AcDbEntity
  8
SANINDUSA
100
AcDbCircle
 10
4091.929409514441
 20
1844.525310989544
 30
0.0
 40
0.0960766703287584
100
AcDbArc
 50
260.4202255673515
 51
265.3028256099734
  0
LWPOLYLINE
  5
149D
330
1F
100
AcDbEntity
  8
SANINDUSA
100
AcDbPolyline
 90
        3
 70
   128
 43
0.0
 10
4091.959148824264
 20
1844.466978822321
 10
4091.959175955554
 20
1844.46715923813
 10
4091.959256939639
 20
1844.469123121768
  0
LINE
  5
149E
330
1F
100
AcDbEntity
  8
SANINDUSA
100
AcDbLine
 10
4091.91380540659
 20
1844.469116501928
 30
0.0
 11
4091.913948388819
 21
1844.466980979264
 31
0.0
  0
LINE
  5
149F
330
1F
100
AcDbEntity
  8
SANINDUSA
100
AcDbLine
 10
4091.921541857247
 20
1844.525111090809
 30
0.0
 11
4091.921541857247
 21
1844.326084283935
 31
0.0
  0
LINE
  5
14A0
330
1F
100
AcDbEntity
  8
SANINDUSA
100
AcDbLine
 10
4091.951541857246
 20
1844.326084283935
 30
0.0
 11
4091.951541857246
 21
1844.525111090809
 31
0.0
  0
LINE
  5
14A1
330
1F
100
AcDbEntity
  8
SANINDUSA
100
AcDbLine
 10
4091.951541857246
 20
1844.322604956411
 30
0.0
 11
4091.951541857246
 21
1844.326084283935
 31
0.0
  0
LINE
  5
14A2
330
1F
100
AcDbEntity
  8
SANINDUSA
100
AcDbLine
 10
4091.921541857247
 20
1844.326084283935
 30
0.0
 11
4091.921541857247
 21
1844.322604956411
 31
0.0
  0
LINE
  5
14A3
330
1F
100
AcDbEntity
  8
SANINDUSA
100
AcDbLine
 10
4091.933479649148
 20
1844.55011109081
 30
0.0
 11
4091.940241857247
 21
1844.55011109081
 31
0.0
  0
LINE
  5
14A4
330
1F
100
AcDbEntity
  8
SANINDUSA
100
AcDbLine
 10
4091.932841857246
 20
1844.55011109081
 30
0.0
 11
4091.933479649148
 21
1844.55011109081
 31
0.0
  0
ARC
  5
14A5
330
1F
100
AcDbEntity
  8
SANINDUSA
100
AcDbCircle
 10
4091.936541857246
 20
1844.525111090809
 30
0.0
 40
0.0250000000000001
100
AcDbArc
 50
306.8698976380275
 51
180.0
  0
ARC
  5
14A6
330
1F
100
AcDbEntity
  8
SANINDUSA
100
AcDbCircle
 10
4091.936541857246
 20
1844.525111090809
 30
0.0
 40
0.025
100
AcDbArc
 50
180.0
 51
233.1301023619725
  0
LINE
  5
14AA
330
1F
100
AcDbEntity
  8
SANINDUSA
100
AcDbLine
 10
4091.912053445403
 20
1844.519675774917
 30
0.0
 11
4091.912049735014
 21
1844.519706913688
 31
0.0
  0
LWPOLYLINE
  5
14AB
330
1F
100
AcDbEntity
  8
SANINDUSA
100
AcDbPolyline
 90
       10
 70
   128
 43
0.0
 10
4091.921541857582
 20
1844.471367456436
 10
4091.92010086221
 20
1844.471239649177
 10
4091.917249111507
 20
1844.470884122372
 10
4091.915016243283
 20
1844.470489442766
 10
4091.913338724572
 20
1844.470044359982
 10
4091.912356883336
 20
1844.469586015165
 10
4091.912043228794
 20
1844.469101407051
 10
4091.912424253349
 20
1844.468631051898
 10
4091.913511147772
 20
1844.468161561013
 10
4091.913875497926
 20
1844.468069658101
  0
LWPOLYLINE
  5
14AC
330
1F
100
AcDbEntity
  8
SANINDUSA
100
AcDbPolyline
 90
        9
 70
   128
 43
0.0
 10
4091.959213752349
 20
1844.468075838357
 10
4091.960181132008
 20
1844.468384389252
 10
4091.960931979168
 20
1844.468862481833
 10
4091.960979102228
 20
1844.46933488217
 10
4091.960323462312
 20
1844.469815027386
 10
4091.959019979511
 20
1844.470262621016
 10
4091.957031019081
 20
1844.470690530211
 10
4091.954524211635
 20
1844.47106272024
 10
4091.951541856912
 20
1844.471377853722
  0
ARC
  5
14AF
330
1F
100
AcDbEntity
  8
SANINDUSA
100
AcDbCircle
 10
4091.936541857246
 20
1844.322717669898
 30
0.0
 40
0.0150004231775741
100
AcDbArc
 50
180.4305466275509
 51
359.5694533724491
  0
LWPOLYLINE
  5
14B0
330
1F
100
AcDbEntity
  8
SANINDUSA
100
AcDbPolyline
 90
        6
 70
   128
 43
0.0
 10
4091.926191625234
 20
1844.301432695657
 10
4091.926308575135
 20
1844.301395442754
 10
4091.926414909822
 20
1844.301713806063
 10
4091.925786924597
 20
1844.302478414446
 10
4091.924573390794
 20
1844.303719025523
 10
4091.923595112797
 20
1844.30479654339
  0
ARC
  5
14B1
330
1F
100
AcDbEntity
  8
SANINDUSA
100
AcDbCircle
 10
4091.936533731425
 20
1844.309740954817
 30
0.0
 40
0.0185087232511056
100
AcDbArc
 50
187.8970682777435
 51
359.53973576819
  0
LWPOLYLINE
  5
14B2
330
1F
100
AcDbEntity
  8
SANINDUSA
100
AcDbPolyline
 90
       33
 70
   128
 43
0.0
 10
4091.921541857582
 20
1844.333119016558
 10
4091.920255128343
 20
1844.331085335881
 10
4091.91919245017
 20
1844.328756165177
 10
4091.918467458387
 20
1844.326303195626
 10
4091.918094264392
 20
1844.323774185449
 10
4091.918080132503
 20
1844.321218353183
 10
4091.918425336529
 20
1844.318685438901
 10
4091.919123157907
 20
1844.31622476545
 10
4091.920160014232
 20
1844.313884195358
 10
4091.921515725601
 20
1844.311709311277
 10
4091.923163902063
 20
1844.309742432505
 10
4091.925072466072
 20
1844.308021840126
 10
4091.927204268102
 20
1844.30658104685
 10
4091.929517816335
 20
1844.30544805196
 10
4091.931968079463
 20
1844.304644953877
 10
4091.93450736562
 20
1844.304187354118
 10
4091.937086251031
 20
1844.304084178478
 10
4091.939654540319
 20
1844.304337408811
 10
4091.942162245095
 20
1844.304942142636
 10
4091.944560554859
 20
1844.305886593134
 10
4091.946802790325
 20
1844.307152402073
 10
4091.948845308323
 20
1844.308714893133
 10
4091.950648353484
 20
1844.310543682844
 10
4091.952176831711
 20
1844.312603172332
 10
4091.953400993769
 20
1844.314853262574
 10
4091.954297009904
 20
1844.317250173957
 10
4091.954847443898
 20
1844.319747250945
 10
4091.955041579951
 20
1844.322295885951
 10
4091.954875640619
 20
1844.324846473009
 10
4091.954352853869
 20
1844.327349361449
 10
4091.95348339719
 20
1844.329755839378
 10
4091.952284192715
 20
1844.332019087345
 10
4091.951541856912
 20
1844.333119016558
  0
LWPOLYLINE
  5
14B3
330
1F
100
AcDbEntity
  8
SANINDUSA
100
AcDbPolyline
 90
       13
 70
   128
 43
0.0
 10
4091.927179898184
 20
1844.303987231523
 10
4091.927202267622
 20
1844.303983327419
 10
4091.927406517838
 20
1844.304302823216
 10
4091.926745261114
 20
1844.305063691408
 10
4091.925418238204
 20
1844.306301977903
 10
4091.923491066371
 20
1844.308245730073
 10
4091.921442475219
 20
1844.310812648803
 10
4091.919882927139
 20
1844.313443091184
 10
4091.91887690318
 20
1844.315858792931
 10
4091.918295830537
 20
1844.318053972394
 10
4091.918065296535
 20
1844.319810595781
 10
4091.918042790194
 20
1844.320339020759
 10
4091.918043248404
 20
1844.320429262191
  0
LWPOLYLINE
  5
14B4
330
1F
100
AcDbEntity
  8
SANINDUSA
100
AcDbPolyline
 90
       27
 70
   128
 43
0.0
 10
4091.917274599944
 20
1844.313166346818
 10
4091.917274614846
 20
1844.313163992435
 10
4091.917369796012
 20
1844.312722277314
 10
4091.917425580372
 20
1844.312530886799
 10
4091.917880808984
 20
1844.311256822616
 10
4091.91829705057
 20
1844.310317453414
 10
4091.918549964254
 20
1844.309816848904
 10
4091.918710257907
 20
1844.309524950057
 10
4091.918878084097
 20
1844.309241559774
 10
4091.919255508159
 20
1844.308668282301
 10
4091.919520363261
 20
1844.308307376176
 10
4091.920091019992
 20
1844.307632994324
 10
4091.920525349726
 20
1844.307237100274
 10
4091.920682057788
 20
1844.307173755438
 10
4091.920627048287
 20
1844.307428699404
 10
4091.920206083034
 20
1844.308155131012
 10
4091.920026307974
 20
1844.308445077807
 10
4091.919387638617
 20
1844.309485402376
 10
4091.919015798767
 20
1844.31011476782
 10
4091.918816577692
 20
1844.310459684998
 10
4091.918667493437
 20
1844.310718682081
 10
4091.918450422634
 20
1844.311097111971
 10
4091.918269375388
 20
1844.311418634326
 10
4091.917910896291
 20
1844.312078770668
 10
4091.917472261985
 20
1844.31291895774
 10
4091.917302832056
 20
1844.313194435508
 10
4091.917274599944
 20
1844.313166346818
  0
LWPOLYLINE
  5
14B5
330
1F
100
AcDbEntity
  8
SANINDUSA
100
AcDbPolyline
 90
       31
 70
   128
 43
0.0
 10
4091.917744526688
 20
1844.308798592955
 10
4091.917840965141
 20
1844.308420461089
 10
4091.918172108058
 20
1844.307567056686
 10
4091.918195601602
 20
1844.307513129384
 10
4091.918526269544
 20
1844.306812134058
 10
4091.918678280015
 20
1844.306522068054
 10
4091.918725447778
 20
1844.306436699301
 10
4091.918739736128
 20
1844.306411888868
 10
4091.918778255631
 20
1844.306347545654
 10
4091.919040668805
 20
1844.30594211486
 10
4091.919254450177
 20
1844.305643942625
 10
4091.919596696321
 20
1844.305226099164
 10
4091.919858127881
 20
1844.304988082916
 10
4091.919912811418
 20
1844.304975387126
 10
4091.919879483108
 20
1844.30516792503
 10
4091.919840958018
 20
1844.305254143149
 10
4091.919533753817
 20
1844.305834975511
 10
4091.919398108546
 20
1844.306077164084
 10
4091.918985400398
 20
1844.306812089354
 10
4091.918801017154
 20
1844.307143446476
 10
4091.9187438563
 20
1844.307245683342
 10
4091.918728319977
 20
1844.307272892863
 10
4091.918674774517
 20
1844.307363342911
 10
4091.918626003017
 20
1844.307445031077
 10
4091.918558701922
 20
1844.307557579547
 10
4091.91847215784
 20
1844.307702552945
 10
4091.918273069014
 20
1844.308037948281
 10
4091.917991919492
 20
1844.308510091573
 10
4091.917796494488
 20
1844.308801260263
 10
4091.917747415651
 20
1844.308820527464
 10
4091.917744526688
 20
1844.308798592955
  0
LWPOLYLINE
  5
14B8
330
1F
100
AcDbEntity
  8
SANINDUSA
100
AcDbPolyline
 90
        3
 70
   128
 43
0.0
 10
4091.91205408429
 20
1844.465633064926
 10
4091.912049658645
 20
1844.46591890645
 10
4091.912082182292
 20
1844.46607174021
  0
LWPOLYLINE
  5
14B9
330
1F
100
AcDbEntity
  8
SANINDUSA
100
AcDbPolyline
 90
        7
 70
   128
 43
0.0
 10
4091.912082182292
 20
1844.46607174021
 10
4091.912278678317
 20
1844.466302812517
 10
4091.913159778391
 20
1844.466757048339
 10
4091.914720486898
 20
1844.467200223774
 10
4091.916832935114
 20
1844.467596091748
 10
4091.9195561484
 20
1844.467955768526
 10
4091.921541857582
 20
1844.468143057496
  0
LWPOLYLINE
  5
14BA
330
1F
100
AcDbEntity
  8
SANINDUSA
100
AcDbPolyline
 90
        7
 70
   128
 43
0.0
 10
4091.951541856912
 20
1844.468141857952
 10
4091.953188518111
 20
1844.467992872417
 10
4091.955935111318
 20
1844.4676445615
 10
4091.958202255939
 20
1844.467236154199
 10
4091.959798406858
 20
1844.466802232385
 10
4091.960770990748
 20
1844.46633005929
 10
4091.961001558278
 20
1844.46607174021
  0
LINE
  5
14BB
330
1F
100
AcDbEntity
  8
SANINDUSA
100
AcDbLine
 10
4091.961001558278
 20
1844.46607174021
 30
0.0
 11
4091.961035842125
 21
1844.465670399785
 31
0.0
  0
LWPOLYLINE
  5
14BC
330
1F
100
AcDbEntity
  8
SANINDUSA
100
AcDbPolyline
 90
        9
 70
   128
 43
0.0
 10
4091.959291795318
 20
1844.469124652863
 10
4091.959291813944
 20
1844.469125539482
 10
4091.959118749995
 20
1844.469456367612
 10
4091.958589637701
 20
1844.469782069743
 10
4091.957712817985
 20
1844.470097508699
 10
4091.956502119128
 20
1844.470397711218
 10
4091.954976635103
 20
1844.470677946181
 10
4091.953160423834
 20
1844.470933787942
 10
4091.951541856912
 20
1844.471115675241
  0
LWPOLYLINE
  5
14BD
330
1F
100
AcDbEntity
  8
SANINDUSA
100
AcDbPolyline
 90
        9
 70
   128
 43
0.0
 10
4091.921541857582
 20
1844.471115671516
 10
4091.919992432047
 20
1844.470942326308
 10
4091.918166451205
 20
1844.470687423319
 10
4091.916630262558
 20
1844.470407978118
 10
4091.915408091669
 20
1844.470108397723
 10
4091.914519211326
 20
1844.469793413252
 10
4091.913977643524
 20
1844.469467986793
 10
4091.913791926627
 20
1844.46913725552
 10
4091.913791954566
 20
1844.469124198377
  0
ARC
  5
14BE
330
1F
100
AcDbEntity
  8
SANINDUSA
100
AcDbCircle
 10
4091.936541857246
 20
1844.525111090809
 30
0.0
 40
0.0150000000000002
100
AcDbArc
 50
0.0
 51
180.0
  0
ARC
  5
14BF
330
1F
100
AcDbEntity
  8
SANINDUSA
100
AcDbCircle
 10
4091.936541857246
 20
1844.322718024988
 30
0.0
 40
0.0150004258500564
100
AcDbArc
 50
180.4319028993072
 51
359.5680971006927
  0
LWPOLYLINE
  5
14C7
330
1F
100
AcDbEntity
  8
SANINDUSA
100
AcDbPolyline
 90
       14
 70
   128
 43
0.0
 10
4091.920669613455
 20
1844.447452675969
 10
4091.920482788284
 20
1844.447076972992
 10
4091.920402221431
 20
1844.446780618698
 10
4091.920379046399
 20
1844.446629900903
 10
4091.920368433047
 20
1844.446481582195
 10
4091.920367840726
 20
1844.44640837279
 10
4091.920370411177
 20
1844.446335804135
 10
4091.920385073919
 20
1844.446193244726
 10
4091.920449296061
 20
1844.44592971769
 10
4091.920692315374
 20
1844.445492867798
 10
4091.921475735541
 20
1844.444956344038
 10
4091.921475783971
 20
1844.444956321687
 10
4091.921475860339
 20
1844.444956284434
 10
4091.921475860339
 20
1844.444956284434
  0
SPLINE
  5
14C8
330
1F
100
AcDbEntity
  8
SANINDUSA
100
AcDbSpline
210
0.0
220
0.0
230
1.0
 70
    12
 71
     3
 72
    17
 73
    13
 74
     0
 42
0.0000000001
 43
0.0000000001
 40
0.0
 40
0.0
 40
0.0
 40
0.0
 40
0.4688802718556438
 40
0.6528045280431244
 40
0.7165330240164699
 40
0.7408602504462522
 40
0.7516927649116228
 40
0.7621532128392641
 40
0.7837324004804687
 40
0.808915710222822
 40
0.8738709787482523
 40
1.0
 40
1.0
 40
1.0
 40
1.0
 10
4091.951607909102
 20
1844.444956299335
 30
0.0
 41
1.0
 10
4091.951885996276
 20
1844.44509137177
 30
0.0
 41
1.0
 10
4091.952273166682
 20
1844.445279428087
 30
0.0
 41
1.0
 10
4091.952592544167
 20
1844.445768241829
 30
0.0
 41
1.0
 10
4091.952691648123
 20
1844.446115302624
 30
0.0
 41
1.0
 10
4091.952712869412
 20
1844.446307048229
 30
0.0
 41
1.0
 10
4091.952716445967
 20
1844.446409067287
 30
0.0
 41
1.0
 10
4091.952715563432
 20
1844.446509700333
 30
0.0
 41
1.0
 10
4091.952705201442
 20
1844.446644764293
 30
0.0
 41
1.0
 10
4091.952668698685
 20
1844.446865726511
 30
0.0
 41
1.0
 10
4091.952575890803
 20
1844.44718126639
 30
0.0
 41
1.0
 10
4091.952478398665
 20
1844.447344741282
 30
0.0
 41
1.0
 10
4091.952414047022
 20
1844.447452646166
 30
0.0
 41
1.0
  0
SPLINE
  5
14CD
330
1F
100
AcDbEntity
  8
SANINDUSA
100
AcDbSpline
210
0.0
220
0.0
230
1.0
 70
    12
 71
     3
 72
    12
 73
     8
 74
     0
 42
0.0000000001
 43
0.0000000001
 40
0.0
 40
0.0
 40
0.0
 40
0.0
 40
0.1997444242665221
 40
0.4253217894727783
 40
0.6508647149009152
 40
0.8757102797732706
 40
1.0
 40
1.0
 40
1.0
 40
1.0
 10
4091.951541856912
 20
1844.430597622365
 30
0.0
 41
1.0
 10
4091.952536542247
 20
1844.430597064751
 30
0.0
 41
1.0
 10
4091.954654555544
 20
1844.430595877408
 30
0.0
 41
1.0
 10
4091.95709320623
 20
1844.430593622309
 30
0.0
 41
1.0
 10
4091.958848505433
 20
1844.430591096928
 30
0.0
 41
1.0
 10
4091.959736670822
 20
1844.430588805101
 30
0.0
 41
1.0
 10
4091.959681062173
 20
1844.430587417358
 30
0.0
 41
1.0
 10
4091.959661265884
 20
1844.430586923331
 30
0.0
 41
1.0
  0
SPLINE
  5
14CE
330
1F
100
AcDbEntity
  8
SANINDUSA
100
AcDbSpline
210
0.0
220
0.0
230
1.0
 70
    12
 71
     3
 72
    12
 73
     8
 74
     0
 42
0.0000000001
 43
0.0000000001
 40
0.0
 40
0.0
 40
0.0
 40
0.0
 40
0.1090730608306239
 40
0.3343780509764109
 40
0.5597482198044785
 40
0.7843295326007867
 40
1.0
 40
1.0
 40
1.0
 40
1.0
 10
4091.913422621836
 20
1844.430586915881
 30
0.0
 41
1.0
 10
4091.913397299014
 20
1844.430587350294
 30
0.0
 41
1.0
 10
4091.913319668518
 20
1844.430588682047
 30
0.0
 41
1.0
 10
4091.914149748289
 20
1844.430590921011
 30
0.0
 41
1.0
 10
4091.915846474807
 20
1844.430593464576
 30
0.0
 41
1.0
 10
4091.918302961848
 20
1844.43059578075
 30
0.0
 41
1.0
 10
4091.920476892703
 20
1844.430597026834
 30
0.0
 41
1.0
 10
4091.921541857582
 20
1844.430597637266
 30
0.0
 41
1.0
  0
ENDSEC
  0
SECTION
  2
OBJECTS
  0
DICTIONARY
  5
C
330
0
100
AcDbDictionary
281
     1
  3
ACAD_2007HEADERVARS_RT
350
155C
  3
ACAD_COLOR
350
EE6
  3
ACAD_GROUP
350
D
  3
ACAD_LAYOUT
350
1A
  3
ACAD_MATERIAL
350
EE5
  3
ACAD_MLEADERSTYLE
350
10A5
  3
ACAD_MLINESTYLE
350
17
  3
ACAD_PLOTSETTINGS
350
19
  3
ACAD_PLOTSTYLENAME
350
E
  3
ACAD_SCALELIST
350
1093
  3
ACAD_TABLESTYLE
350
EE7
  3
ACAD_VISUALSTYLE
350
1082
  3
ACDB_RECOMPOSE_DATA
350
155A
  3
ACDBHEADERROUNDTRIPXREC
350
1592
  3
AcDbVariableDictionary
350
3D
  3
ASE_INDEX_DICTIONARY
350
1066
  3
DWGPROPS
350
1591
  0
DICTIONARY
  5
155E
330
8
100
AcDbDictionary
280
     1
281
     1
  3
ACAD_XREC_ROUNDTRIP
360
155F
  0
DICTIONARY
  5
1051
330
2
100
AcDbDictionary
280
     1
281
     1
  3
ACAD_LAYERFILTERS
360
1065
  3
ACLYDICTIONARY
360
1064
  0
DICTIONARY
  5
1538
330
10
100
AcDbDictionary
280
     1
281
     1
  3
ADSK_XREC_LAYER_RECONCILED
360
1539
  0
DICTIONARY
  5
153A
330
2F
100
AcDbDictionary
280
     1
281
     1
  3
ADSK_XREC_LAYER_RECONCILED
360
153B
  0
DICTIONARY
  5
153C
330
30
100
AcDbDictionary
280
     1
281
     1
  3
ADSK_XREC_LAYER_RECONCILED
360
153D
  0
DICTIONARY
  5
153E
330
31
100
AcDbDictionary
280
     1
281
     1
  3
ADSK_XREC_LAYER_RECONCILED
360
153F
  0
DICTIONARY
  5
1540
330
32
100
AcDbDictionary
280
     1
281
     1
  3
ADSK_XREC_LAYER_RECONCILED
360
1541
  0
DICTIONARY
  5
1542
330
33
100
AcDbDictionary
280
     1
281
     1
  3
ADSK_XREC_LAYER_RECONCILED
360
1543
  0
DICTIONARY
  5
1544
330
34
100
AcDbDictionary
280
     1
281
     1
  3
ADSK_XREC_LAYER_RECONCILED
360
1545
  0
DICTIONARY
  5
1546
330
35
100
AcDbDictionary
280
     1
281
     1
  3
ADSK_XREC_LAYER_RECONCILED
360
1547
  0
DICTIONARY
  5
1548
330
36
100
AcDbDictionary
280
     1
281
     1
  3
ADSK_XREC_LAYER_RECONCILED
360
1549
  0
DICTIONARY
  5
154A
330
37
100
AcDbDictionary
280
     1
281
     1
  3
ADSK_XREC_LAYER_RECONCILED
360
154B
  0
DICTIONARY
  5
154C
330
5D6
100
AcDbDictionary
280
     1
281
     1
  3
ADSK_XREC_LAYER_RECONCILED
360
154D
  0
DICTIONARY
  5
154E
330
8AF
100
AcDbDictionary
280
     1
281
     1
  3
ADSK_XREC_LAYER_RECONCILED
360
154F
  0
DICTIONARY
  5
1550
330
8F8
100
AcDbDictionary
280
     1
281
     1
  3
ADSK_XREC_LAYER_RECONCILED
360
1551
  0
DICTIONARY
  5
1552
330
91D
100
AcDbDictionary
280
     1
281
     1
  3
ADSK_XREC_LAYER_RECONCILED
360
1553
  0
DICTIONARY
  5
1554
330
C7B
100
AcDbDictionary
280
     1
281
     1
  3
ADSK_XREC_LAYER_RECONCILED
360
1555
  0
DICTIONARY
  5
1556
330
1060
100
AcDbDictionary
280
     1
281
     1
  3
ADSK_XREC_LAYER_RECONCILED
360
1557
  0
DICTIONARY
  5
155C
102
{ACAD_REACTORS
330
C
102
}
330
C
100
AcDbDictionary
281
     1
  3
DIMJOGANG
350
155D
  0
DICTIONARY
  5
EE6
102
{ACAD_REACTORS
330
C
102
}
330
C
100
AcDbDictionary
281
     1
  0
DICTIONARY
  5
D
102
{ACAD_REACTORS
330
C
102
}
330
C
100
AcDbDictionary
281
     1
  0
DICTIONARY
  5
1A
102
{ACAD_REACTORS
330
C
102
}
330
C
100
AcDbDictionary
281
     1
  3
Layout1
350
1E
  3
Layout2
350
26
  3
Model
350
22
  0
DICTIONARY
  5
EE5
102
{ACAD_REACTORS
330
C
102
}
330
C
100
AcDbDictionary
281
     1
  3
ByBlock
350
1072
  3
ByLayer
350
106A
  3
Global
350
107A
  0
DICTIONARY
  5
10A5
102
{ACAD_REACTORS
330
C
102
}
330
C
100
AcDbDictionary
281
     1
  3
Standard
350
10A6
  0
DICTIONARY
  5
17
102
{ACAD_REACTORS
330
C
102
}
330
C
100
AcDbDictionary
281
     1
  3
Standard
350
18
  0
DICTIONARY
  5
19
102
{ACAD_REACTORS
330
C
102
}
330
C
100
AcDbDictionary
281
     1
  0
ACDBDICTIONARYWDFLT
  5
E
102
{ACAD_REACTORS
330
C
102
}
330
C
100
AcDbDictionary
281
     1
  3
Normal
350
F
100
AcDbDictionaryWithDefault
340
F
  0
DICTIONARY
  5
1093
102
{ACAD_REACTORS
330
C
102
}
330
C
100
AcDbDictionary
281
     1
  3
A0
350
1094
  3
A1
350
1095
  3
A2
350
1096
  3
A3
350
1097
  3
A4
350
1098
  3
A5
350
1099
  3
A6
350
109A
  3
A7
350
109B
  3
A8
350
109C
  3
A9
350
109D
  3
B0
350
109E
  3
B1
350
109F
  3
B2
350
10A0
  3
B3
350
10A1
  3
B4
350
10A2
  3
B5
350
10A3
  3
B6
350
10A4
  0
DICTIONARY
  5
EE7
102
{ACAD_REACTORS
330
C
102
}
330
C
100
AcDbDictionary
281
     1
  3
Standard
350
EE8
  0
DICTIONARY
  5
1082
102
{ACAD_REACTORS
330
C
102
}
330
C
100
AcDbDictionary
281
     1
  3
2dWireframe
350
1088
  3
3D Hidden
350
108A
  3
3dWireframe
350
1089
  3
Basic
350
1087
  3
Brighten
350
108E
  3
ColorChange
350
1092
  3
Conceptual
350
108B
  3
Dim
350
108D
  3
Facepattern
350
1091
  3
Flat
350
1083
  3
FlatWithEdges
350
1084
  3
Gouraud
350
1085
  3
GouraudWithEdges
350
1086
  3
Linepattern
350
1090
  3
Realistic
350
108C
  3
Thicken
350
108F
  0
XRECORD
  5
155A
102
{ACAD_REACTORS
330
C
102
}
330
C
100
AcDbXrecord
280
     1
 90
        1
330
EE8
  0
DICTIONARY
  5
1592
102
{ACAD_REACTORS
330
C
102
}
330
C
100
AcDbDictionary
281
     1
  0
DICTIONARY
  5
3D
102
{ACAD_REACTORS
330
C
102
}
330
C
100
AcDbDictionary
281
     1
  3
CANNOSCALE
350
1573
  3
CMLEADERSTYLE
350
1572
  3
CTABLESTYLE
350
1049
  3
DIMASSOC
350
3F
  3
HIDETEXT
350
3E
  3
INDEXCTL
350
1575
  3
PROJECTNAME
350
1589
  3
SORTENTS
350
1574
  0
DICTIONARY
  5
1066
102
{ACAD_REACTORS
330
C
102
}
330
C
100
AcDbDictionary
281
     1
  3
ASEBlockHierarchyIndexRecord
350
1067
1001
DCO15
1040
1602247867.484
  0
XRECORD
  5
1591
102
{ACAD_REACTORS
330
C
102
}
330
C
100
AcDbXrecord
280
     1
  1
DWGPROPS COOKIE
  2

  3

  4

  6

  7

  8
Julio
  9

300
=
301
=
302
=
303
=
304
=
305
=
306
=
307
=
308
=
309
=
 40
0.0049421180555556
 41
2454610.602409387
 42
2454928.432932211
  1

 90
        0
  0
XRECORD
  5
155F
102
{ACAD_REACTORS
330
155E
102
}
330
155E
100
AcDbXrecord
280
     1
102
VTR_0.000_0.000_1.000_1.000_VISUALSTYLE
340
1088
102
VTR_0.000_0.000_1.000_1.000_GRIDDISPLAY
 70
     3
102
VTR_0.000_0.000_1.000_1.000_GRIDMAJOR
 70
     5
102
VTR_0.000_0.000_1.000_1.000_DEFAULTLIGHTING
280
     1
102
VTR_0.000_0.000_1.000_1.000_DEFAULTLIGHTINGTYPE
 70
     1
102
VTR_0.000_0.000_1.000_1.000_BRIGHTNESS
141
0.0
102
VTR_0.000_0.000_1.000_1.000_CONTRAST
142
0.0
  0
DICTIONARY
  5
1065
102
{ACAD_REACTORS
330
1051
102
}
330
1051
100
AcDbDictionary
281
     1
  0
DICTIONARY
  5
1064
102
{ACAD_REACTORS
330
1051
102
}
330
1051
100
AcDbDictionary
281
     1
1001
ACAD
1000
<All
  0
XRECORD
  5
1539
102
{ACAD_REACTORS
330
1538
102
}
330
1538
100
AcDbXrecord
280
     1
290
     1
  0
XRECORD
  5
153B
102
{ACAD_REACTORS
330
153A
102
}
330
153A
100
AcDbXrecord
280
     1
290
     1
  0
XRECORD
  5
153D
102
{ACAD_REACTORS
330
153C
102
}
330
153C
100
AcDbXrecord
280
     1
290
     1
  0
XRECORD
  5
153F
102
{ACAD_REACTORS
330
153E
102
}
330
153E
100
AcDbXrecord
280
     1
290
     1
  0
XRECORD
  5
1541
102
{ACAD_REACTORS
330
1540
102
}
330
1540
100
AcDbXrecord
280
     1
290
     1
  0
XRECORD
  5
1543
102
{ACAD_REACTORS
330
1542
102
}
330
1542
100
AcDbXrecord
280
     1
290
     1
  0
XRECORD
  5
1545
102
{ACAD_REACTORS
330
1544
102
}
330
1544
100
AcDbXrecord
280
     1
290
     1
  0
XRECORD
  5
1547
102
{ACAD_REACTORS
330
1546
102
}
330
1546
100
AcDbXrecord
280
     1
290
     1
  0
XRECORD
  5
1549
102
{ACAD_REACTORS
330
1548
102
}
330
1548
100
AcDbXrecord
280
     1
290
     1
  0
XRECORD
  5
154B
102
{ACAD_REACTORS
330
154A
102
}
330
154A
100
AcDbXrecord
280
     1
290
     1
  0
XRECORD
  5
154D
102
{ACAD_REACTORS
330
154C
102
}
330
154C
100
AcDbXrecord
280
     1
290
     1
  0
XRECORD
  5
154F
102
{ACAD_REACTORS
330
154E
102
}
330
154E
100
AcDbXrecord
280
     1
290
     1
  0
XRECORD
  5
1551
102
{ACAD_REACTORS
330
1550
102
}
330
1550
100
AcDbXrecord
280
     1
290
     1
  0
XRECORD
  5
1553
102
{ACAD_REACTORS
330
1552
102
}
330
1552
100
AcDbXrecord
280
     1
290
     1
  0
XRECORD
  5
1555
102
{ACAD_REACTORS
330
1554
102
}
330
1554
100
AcDbXrecord
280
     1
290
     1
  0
XRECORD
  5
1557
102
{ACAD_REACTORS
330
1556
102
}
330
1556
100
AcDbXrecord
280
     1
290
     1
  0
XRECORD
  5
155D
102
{ACAD_REACTORS
330
155C
102
}
330
155C
100
AcDbXrecord
280
     1
 40
1.570796326794896
  0
LAYOUT
  5
1E
102
{ACAD_XDICTIONARY
360
1593
102
}
102
{ACAD_REACTORS
330
1A
102
}
330
1A
100
AcDbPlotSettings
  1

  2
Ploter HP500
  4

  6

 40
0.0
 41
0.0
 42
0.0
 43
0.0
 44
0.0
 45
0.0
 46
0.0
 47
0.0
 48
0.0
 49
0.0
140
0.0
141
0.0
142
1.0
143
1.0
 70
   688
 72
     0
 73
     0
 74
     5
  7
sanindusa.ctb
 75
    16
147
1.0
148
0.0
149
0.0
100
AcDbLayout
  1
Layout1
 70
     1
 71
     1
 10
0.0
 20
0.0
 11
420.0
 21
297.0
 12
0.0
 22
0.0
 32
0.0
 14
1.000000000000000E+20
 24
1.000000000000000E+20
 34
1.000000000000000E+20
 15
-1.000000000000000E+20
 25
-1.000000000000000E+20
 35
-1.000000000000000E+20
146
0.0
 13
0.0
 23
0.0
 33
0.0
 16
1.0
 26
0.0
 36
0.0
 17
0.0
 27
1.0
 37
0.0
 76
     0
330
1B
  0
LAYOUT
  5
26
102
{ACAD_XDICTIONARY
360
1597
102
}
102
{ACAD_REACTORS
330
1A
102
}
330
1A
100
AcDbPlotSettings
  1

  2
Ploter HP500
  4

  6

 40
0.0
 41
0.0
 42
0.0
 43
0.0
 44
0.0
 45
0.0
 46
0.0
 47
0.0
 48
0.0
 49
0.0
140
0.0
141
0.0
142
1.0
143
1.0
 70
   688
 72
     0
 73
     0
 74
     5
  7
sanindusa.ctb
 75
    16
147
1.0
148
0.0
149
0.0
100
AcDbLayout
  1
Layout2
 70
     1
 71
     2
 10
0.0
 20
0.0
 11
12.0
 21
9.0
 12
0.0
 22
0.0
 32
0.0
 14
0.0
 24
0.0
 34
0.0
 15
0.0
 25
0.0
 35
0.0
146
0.0
 13
0.0
 23
0.0
 33
0.0
 16
1.0
 26
0.0
 36
0.0
 17
0.0
 27
1.0
 37
0.0
 76
     0
330
23
  0
LAYOUT
  5
22
102
{ACAD_XDICTIONARY
360
1595
102
}
102
{ACAD_REACTORS
330
1A
102
}
330
1A
100
AcDbPlotSettings
  1

  2
Ploter HP500
  4
User268
  6

 40
4.995333194732666
 41
16.97565841674804
 42
4.995330810546875
 43
16.97567749023437
 44
209.9733276367187
 45
296.9259948730469
 46
0.0
 47
0.0
 48
0.0
 49
0.0
140
0.0
141
0.0
142
1.0
143
1.0
 70
 11952
 72
     1
 73
     1
 74
     0
  7
sanindusa.ctb
 75
     0
147
1.0
148
-427.5957866592534
149
7.362384574453926
100
AcDbLayout
  1
Model
 70
     1
 71
     0
 10
0.0
 20
0.0
 11
12.0
 21
9.0
 12
0.0
 22
0.0
 32
0.0
 14
0.0
 24
0.0
 34
0.0
 15
0.0
 25
0.0
 35
0.0
146
0.0
 13
0.0
 23
0.0
 33
0.0
 16
1.0
 26
0.0
 36
0.0
 17
0.0
 27
1.0
 37
0.0
 76
     0
330
1F
  0
MATERIAL
  5
1072
102
{ACAD_XDICTIONARY
360
1073
102
}
102
{ACAD_REACTORS
330
EE5
102
}
330
EE5
100
AcDbMaterial
  1
ByBlock
 72
     0
 73
     2
 43
0.0008202099737533
 43
0.0
 43
0.0
 43
0.0
 43
0.0
 43
0.0008202099737533
 43
0.0
 43
0.0
 43
0.0
 43
0.0
 43
1.0
 43
0.0
 43
0.0
 43
0.0
 43
0.0
 43
1.0
 77
     0
 78
     2
 47
0.0008202099737533
 47
0.0
 47
0.0
 47
0.0
 47
0.0
 47
0.0008202099737533
 47
0.0
 47
0.0
 47
0.0
 47
0.0
 47
1.0
 47
0.0
 47
0.0
 47
0.0
 47
0.0
 47
1.0
171
     0
172
     2
 49
0.0008202099737533
 49
0.0
 49
0.0
 49
0.0
 49
0.0
 49
0.0008202099737533
 49
0.0
 49
0.0
 49
0.0
 49
0.0
 49
1.0
 49
0.0
 49
0.0
 49
0.0
 49
0.0
 49
1.0
175
     0
176
     2
142
0.0008202099737533
142
0.0
142
0.0
142
0.0
142
0.0
142
0.0008202099737533
142
0.0
142
0.0
142
0.0
142
0.0
142
1.0
142
0.0
142
0.0
142
0.0
142
0.0
142
1.0
179
     0
270
     2
144
0.0008202099737533
144
0.0
144
0.0
144
0.0
144
0.0
144
0.0008202099737533
144
0.0
144
0.0
144
0.0
144
0.0
144
1.0
144
0.0
144
0.0
144
0.0
144
0.0
144
1.0
274
     2
147
0.0008202099737533
147
0.0
147
0.0
147
0.0
147
0.0
147
0.0008202099737533
147
0.0
147
0.0
147
0.0
147
0.0
147
1.0
147
0.0
147
0.0
147
0.0
147
0.0
147
1.0
  0
MATERIAL
  5
106A
102
{ACAD_XDICTIONARY
360
106B
102
}
102
{ACAD_REACTORS
330
EE5
102
}
330
EE5
100
AcDbMaterial
  1
ByLayer
 72
     0
 73
     2
 43
0.0008202099737533
 43
0.0
 43
0.0
 43
0.0
 43
0.0
 43
0.0008202099737533
 43
0.0
 43
0.0
 43
0.0
 43
0.0
 43
1.0
 43
0.0
 43
0.0
 43
0.0
 43
0.0
 43
1.0
 77
     0
 78
     2
 47
0.0008202099737533
 47
0.0
 47
0.0
 47
0.0
 47
0.0
 47
0.0008202099737533
 47
0.0
 47
0.0
 47
0.0
 47
0.0
 47
1.0
 47
0.0
 47
0.0
 47
0.0
 47
0.0
 47
1.0
171
     0
172
     2
 49
0.0008202099737533
 49
0.0
 49
0.0
 49
0.0
 49
0.0
 49
0.0008202099737533
 49
0.0
 49
0.0
 49
0.0
 49
0.0
 49
1.0
 49
0.0
 49
0.0
 49
0.0
 49
0.0
 49
1.0
175
     0
176
     2
142
0.0008202099737533
142
0.0
142
0.0
142
0.0
142
0.0
142
0.0008202099737533
142
0.0
142
0.0
142
0.0
142
0.0
142
1.0
142
0.0
142
0.0
142
0.0
142
0.0
142
1.0
179
     0
270
     2
144
0.0008202099737533
144
0.0
144
0.0
144
0.0
144
0.0
144
0.0008202099737533
144
0.0
144
0.0
144
0.0
144
0.0
144
1.0
144
0.0
144
0.0
144
0.0
144
0.0
144
1.0
274
     2
147
0.0008202099737533
147
0.0
147
0.0
147
0.0
147
0.0
147
0.0008202099737533
147
0.0
147
0.0
147
0.0
147
0.0
147
1.0
147
0.0
147
0.0
147
0.0
147
0.0
147
1.0
  0
MATERIAL
  5
107A
102
{ACAD_XDICTIONARY
360
107B
102
}
102
{ACAD_REACTORS
330
EE5
102
}
330
EE5
100
AcDbMaterial
  1
Global
 72
     0
 73
     2
 43
0.0008202099737533
 43
0.0
 43
0.0
 43
0.0
 43
0.0
 43
0.0008202099737533
 43
0.0
 43
0.0
 43
0.0
 43
0.0
 43
1.0
 43
0.0
 43
0.0
 43
0.0
 43
0.0
 43
1.0
 77
     0
 78
     2
 47
0.0008202099737533
 47
0.0
 47
0.0
 47
0.0
 47
0.0
 47
0.0008202099737533
 47
0.0
 47
0.0
 47
0.0
 47
0.0
 47
1.0
 47
0.0
 47
0.0
 47
0.0
 47
0.0
 47
1.0
171
     0
172
     2
 49
0.0008202099737533
 49
0.0
 49
0.0
 49
0.0
 49
0.0
 49
0.0008202099737533
 49
0.0
 49
0.0
 49
0.0
 49
0.0
 49
1.0
 49
0.0
 49
0.0
 49
0.0
 49
0.0
 49
1.0
175
     0
176
     2
142
0.0008202099737533
142
0.0
142
0.0
142
0.0
142
0.0
142
0.0008202099737533
142
0.0
142
0.0
142
0.0
142
0.0
142
1.0
142
0.0
142
0.0
142
0.0
142
0.0
142
1.0
179
     0
270
     2
144
0.0008202099737533
144
0.0
144
0.0
144
0.0
144
0.0
144
0.0008202099737533
144
0.0
144
0.0
144
0.0
144
0.0
144
1.0
144
0.0
144
0.0
144
0.0
144
0.0
144
1.0
274
     2
147
0.0008202099737533
147
0.0
147
0.0
147
0.0
147
0.0
147
0.0008202099737533
147
0.0
147
0.0
147
0.0
147
0.0
147
1.0
147
0.0
147
0.0
147
0.0
147
0.0
147
1.0
  0
ACAD_PROXY_OBJECT
  5
10A6
102
{ACAD_REACTORS
330
10A5
102
}
330
10A5
100
AcDbProxyObject
 90
      499
 91
      509
 95
   983063
 70
     0
 93
      618
310
40901902A4063FBFFFFFE000000000000002040AD7A3703D0AD73F4254DD185B99185C99000000000000000104090141901A00000000000004100000000000000041025764000000000000300FC0
340
14
340
0
340
11
340
0
 94
        0
1001
ACAD_MLEADERVER
1070
     2
1001
ACAD
1000
AcRTDxfName
1000
MLEADERSTYLE
1000
AcRTDxfName
1000
MLEADERSTYLE
  0
MLINESTYLE
  5
18
102
{ACAD_REACTORS
330
17
102
}
330
17
100
AcDbMlineStyle
  2
STANDARD
 70
     0
  3

 62
   256
 51
90.0
 52
90.0
 71
     2
 49
0.5
 62
   256
  6
BYLAYER
 49
-0.5
 62
   256
  6
BYLAYER
  0
ACDBPLACEHOLDER
  5
F
102
{ACAD_REACTORS
330
E
102
}
330
E
  0
ACAD_PROXY_OBJECT
  5
1094
102
{ACAD_REACTORS
330
1093
102
}
330
1093
100
AcDbProxyObject
 90
      499
 91
      508
 95
   983063
 70
     0
 93
       49
310
904313A3100598
 94
        0
1001
ACAD
1000
AcRTDxfName
1000
SCALE
1000
AcRTDxfName
1000
SCALE
  0
ACAD_PROXY_OBJECT
  5
1095
102
{ACAD_REACTORS
330
1093
102
}
330
1093
100
AcDbProxyObject
 90
      499
 91
      508
 95
   983063
 70
     0
 93
      113
310
904313A32004000000000000004004
 94
        0
1001
ACAD
1000
AcRTDxfName
1000
SCALE
1000
AcRTDxfName
1000
SCALE
  0
ACAD_PROXY_OBJECT
  5
1096
102
{ACAD_REACTORS
330
1093
102
}
330
1093
100
AcDbProxyObject
 90
      499
 91
      508
 95
   983063
 70
     0
 93
      113
310
904313A34004000000000000104074
 94
        0
1001
ACAD
1000
AcRTDxfName
1000
SCALE
1000
AcRTDxfName
1000
SCALE
  0
ACAD_PROXY_OBJECT
  5
1097
102
{ACAD_REACTORS
330
1093
102
}
330
1093
100
AcDbProxyObject
 90
      499
 91
      508
 95
   983063
 70
     0
 93
      113
310
904313A35004000000000000144004
 94
        0
1001
ACAD
1000
AcRTDxfName
1000
SCALE
1000
AcRTDxfName
1000
SCALE
  0
ACAD_PROXY_OBJECT
  5
1098
102
{ACAD_REACTORS
330
1093
102
}
330
1093
100
AcDbProxyObject
 90
      499
 91
      508
 95
   983063
 70
     0
 93
      113
310
904313A38004000000000000204000
 94
        0
1001
ACAD
1000
AcRTDxfName
1000
SCALE
1000
AcRTDxfName
1000
SCALE
  0
ACAD_PROXY_OBJECT
  5
1099
102
{ACAD_REACTORS
330
1093
102
}
330
1093
100
AcDbProxyObject
 90
      499
 91
      508
 95
   983063
 70
     0
 93
      121
310
905313A3130004000000000000244009
 94
        0
1001
ACAD
1000
AcRTDxfName
1000
SCALE
1000
AcRTDxfName
1000
SCALE
  0
ACAD_PROXY_OBJECT
  5
109A
102
{ACAD_REACTORS
330
1093
102
}
330
1093
100
AcDbProxyObject
 90
      499
 91
      508
 95
   983063
 70
     0
 93
      121
310
905313A3136004000000000000304000
 94
        0
1001
ACAD
1000
AcRTDxfName
1000
SCALE
1000
AcRTDxfName
1000
SCALE
  0
ACAD_PROXY_OBJECT
  5
109B
102
{ACAD_REACTORS
330
1093
102
}
330
1093
100
AcDbProxyObject
 90
      499
 91
      508
 95
   983063
 70
     0
 93
      121
310
905313A3230004000000000000344009
 94
        0
1001
ACAD
1000
AcRTDxfName
1000
SCALE
1000
AcRTDxfName
1000
SCALE
  0
ACAD_PROXY_OBJECT
  5
109C
102
{ACAD_REACTORS
330
1093
102
}
330
1093
100
AcDbProxyObject
 90
      499
 91
      508
 95
   983063
 70
     0
 93
      121
310
905313A33300040000000000003E4000
 94
        0
1001
ACAD
1000
AcRTDxfName
1000
SCALE
1000
AcRTDxfName
1000
SCALE
  0
ACAD_PROXY_OBJECT
  5
109D
102
{ACAD_REACTORS
330
1093
102
}
330
1093
100
AcDbProxyObject
 90
      499
 91
      508
 95
   983063
 70
     0
 93
      121
310
905313A3430004000000000000444000
 94
        0
1001
ACAD
1000
AcRTDxfName
1000
SCALE
1000
AcRTDxfName
1000
SCALE
  0
ACAD_PROXY_OBJECT
  5
109E
102
{ACAD_REACTORS
330
1093
102
}
330
1093
100
AcDbProxyObject
 90
      499
 91
      508
 95
   983063
 70
     0
 93
      121
310
905313A3530004000000000000494000
 94
        0
1001
ACAD
1000
AcRTDxfName
1000
SCALE
1000
AcRTDxfName
1000
SCALE
  0
ACAD_PROXY_OBJECT
  5
109F
102
{ACAD_REACTORS
330
1093
102
}
330
1093
100
AcDbProxyObject
 90
      499
 91
      508
 95
   983063
 70
     0
 93
      129
310
906313A313030004000000000000594000
 94
        0
1001
ACAD
1000
AcRTDxfName
1000
SCALE
1000
AcRTDxfName
1000
SCALE
  0
ACAD_PROXY_OBJECT
  5
10A0
102
{ACAD_REACTORS
330
1093
102
}
330
1093
100
AcDbProxyObject
 90
      499
 91
      508
 95
   983063
 70
     0
 93
      113
310
904323A31000000000000000010140
 94
        0
1001
ACAD
1000
AcRTDxfName
1000
SCALE
1000
AcRTDxfName
1000
SCALE
  0
ACAD_PROXY_OBJECT
  5
10A1
102
{ACAD_REACTORS
330
1093
102
}
330
1093
100
AcDbProxyObject
 90
      499
 91
      508
 95
   983063
 70
     0
 93
      113
310
904343A31000000000000000410159
 94
        0
1001
ACAD
1000
AcRTDxfName
1000
SCALE
1000
AcRTDxfName
1000
SCALE
  0
ACAD_PROXY_OBJECT
  5
10A2
102
{ACAD_REACTORS
330
1093
102
}
330
1093
100
AcDbProxyObject
 90
      499
 91
      508
 95
   983063
 70
     0
 93
      113
310
904383A31000000000000000810140
 94
        0
1001
ACAD
1000
AcRTDxfName
1000
SCALE
1000
AcRTDxfName
1000
SCALE
  0
ACAD_PROXY_OBJECT
  5
10A3
102
{ACAD_REACTORS
330
1093
102
}
330
1093
100
AcDbProxyObject
 90
      499
 91
      508
 95
   983063
 70
     0
 93
      121
310
90531303A31000000000000000910140
 94
        0
1001
ACAD
1000
AcRTDxfName
1000
SCALE
1000
AcRTDxfName
1000
SCALE
  0
ACAD_PROXY_OBJECT
  5
10A4
102
{ACAD_REACTORS
330
1093
102
}
330
1093
100
AcDbProxyObject
 90
      499
 91
      508
 95
   983063
 70
     0
 93
      129
310
9063130303A31000000000000001650100
 94
        0
1001
ACAD
1000
AcRTDxfName
1000
SCALE
1000
AcRTDxfName
1000
SCALE
  0
TABLESTYLE
  5
EE8
102
{ACAD_XDICTIONARY
360
1558
102
}
102
{ACAD_REACTORS
330
EE7
102
}
330
EE7
100
AcDbTableStyle
  3
Standard
 70
     0
 71
     0
 40
1.5
 41
1.5
280
     0
281
     0
  7
Standard
140
4.5
170
     2
 62
     0
 63
     7
283
     0
274
    -2
284
     1
 64
     0
275
    -2
285
     1
 65
     0
276
    -2
286
     1
 66
     0
277
    -2
287
     1
 67
     0
278
    -2
288
     1
 68
     0
279
    -2
289
     1
 69
     0
  7
Standard
140
6.0
170
     5
 62
     0
 63
     7
283
     0
274
    -2
284
     1
 64
     0
275
    -2
285
     1
 65
     0
276
    -2
286
     1
 66
     0
277
    -2
287
     1
 67
     0
278
    -2
288
     1
 68
     0
279
    -2
289
     1
 69
     0
  7
Standard
140
4.5
170
     5
 62
     0
 63
     7
283
     0
274
    -2
284
     1
 64
     0
275
    -2
285
     1
 65
     0
276
    -2
286
     1
 66
     0
277
    -2
287
     1
 67
     0
278
    -2
288
     1
 68
     0
279
    -2
289
     1
 69
     0
  0
ACAD_PROXY_OBJECT
  5
1088
102
{ACAD_REACTORS
330
1082
102
}
330
1082
100
AcDbProxyObject
 90
      499
 91
      507
 95
   983063
 70
     0
 93
      444
310
430C9915DA5C99599C985B59401049028333333333333E3BF0000000000000FB0107901411070040501600405405064090741402480A0340
 94
        0
1001
ACAD
1000
AcDbSavedByObjectVersion
1070
     0
1000
AcRTDxfName
1000
VISUALSTYLE
1000
AcRTDxfName
1000
VISUALSTYLE
  0
ACAD_PROXY_OBJECT
  5
108A
102
{ACAD_REACTORS
330
1082
102
}
330
1082
100
AcDbProxyObject
 90
      499
 91
      507
 95
   983063
 70
     0
 93
      508
310
428CD108121A5919195B8010640502408333333333333E3BF0000000000000FB01079024090700405020000000000001110200405405064090740C02480A0340
 94
        0
1001
ACAD
1000
AcDbSavedByObjectVersion
1070
     0
1000
AcRTDxfName
1000
VISUALSTYLE
1000
AcRTDxfName
1000
VISUALSTYLE
  0
ACAD_PROXY_OBJECT
  5
1089
102
{ACAD_REACTORS
330
1082
102
}
330
1082
100
AcDbProxyObject
 90
      499
 91
      507
 95
   983063
 70
     0
 93
      444
310
430CD915DA5C99599C985B59401059028333333333333E3BF0000000000000FB0107901411070040501600405405064090741402480A0340
 94
        0
1001
ACAD
1000
AcDbSavedByObjectVersion
1070
     0
1000
AcRTDxfName
1000
VISUALSTYLE
1000
AcRTDxfName
1000
VISUALSTYLE
  0
ACAD_PROXY_OBJECT
  5
1087
102
{ACAD_REACTORS
330
1082
102
}
330
1082
100
AcDbProxyObject
 90
      499
 91
      507
 95
   983063
 70
     0
 93
      396
310
4190985CDA58C0107406404333333333333E3BF0000000000000FB0107A41107004050150841D405064090741402480A0356
 94
        0
1001
ACAD
1000
AcDbSavedByObjectVersion
1070
     0
1000
AcRTDxfName
1000
VISUALSTYLE
1000
AcRTDxfName
1000
VISUALSTYLE
  0
ACAD_PROXY_OBJECT
  5
108E
102
{ACAD_REACTORS
330
1082
102
}
330
1082
100
AcDbProxyObject
 90
      499
 91
      507
 95
   983063
 70
     0
 93
      436
310
42509C9A59DA1D195B8010C409028333333333333E3BF0000000000000FB010790141107004050150841D405064090741402480A029956
 94
        0
1001
ACAD
1000
AcDbSavedByObjectVersion
1070
     0
1000
AcRTDxfName
1000
VISUALSTYLE
1000
AcRTDxfName
1000
VISUALSTYLE
  0
ACAD_PROXY_OBJECT
  5
1092
102
{ACAD_REACTORS
330
1082
102
}
330
1082
100
AcDbProxyObject
 90
      499
 91
      507
 95
   983063
 70
     0
 93
      460
310
4310DBDB1BDC90DA185B99D9401104090240C333333333333E3BF0000000000000FB0108901411070040501508421405064090741402480A0354
 94
        0
1001
ACAD
1000
AcDbSavedByObjectVersion
1070
     0
1000
AcRTDxfName
1000
VISUALSTYLE
1000
AcRTDxfName
1000
VISUALSTYLE
  0
ACAD_PROXY_OBJECT
  5
108B
102
{ACAD_REACTORS
330
1082
102
}
330
1082
100
AcDbProxyObject
 90
      499
 91
      507
 95
   983063
 70
     0
 93
      508
310
42D0DBDB98D95C1D1D585B0010940D028333333333333E3BF0000000000000FB0107902409070040501000000000000111010841D405064090740C02480A0340
 94
        0
1001
ACAD
1000
AcDbSavedByObjectVersion
1070
     0
1000
AcRTDxfName
1000
VISUALSTYLE
1000
AcRTDxfName
1000
VISUALSTYLE
  0
ACAD_PROXY_OBJECT
  5
108D
102
{ACAD_REACTORS
330
1082
102
}
330
1082
100
AcDbProxyObject
 90
      499
 91
      507
 95
   983063
 70
     0
 93
      420
310
41111A5B4010B409028333333333333E3BF0000000000000FB010790141107004050150841D405064090741402480A02677FFFFFD4
 94
        0
1001
ACAD
1000
AcDbSavedByObjectVersion
1070
     0
1000
AcRTDxfName
1000
VISUALSTYLE
1000
AcRTDxfName
1000
VISUALSTYLE
  0
ACAD_PROXY_OBJECT
  5
1091
102
{ACAD_REACTORS
330
1082
102
}
330
1082
100
AcDbProxyObject
 90
      499
 91
      507
 95
   983063
 70
     0
 93
      452
310
43119858D95C185D1D195C9B8010F409028333333333333E3BF0000000000000FB010790141107004050150841D405064090741402480A0355
 94
        0
1001
ACAD
1000
AcDbSavedByObjectVersion
1070
     0
1000
AcRTDxfName
1000
VISUALSTYLE
1000
AcRTDxfName
1000
VISUALSTYLE
  0
ACAD_PROXY_OBJECT
  5
1083
102
{ACAD_REACTORS
330
1082
102
}
330
1082
100
AcDbProxyObject
 90
      499
 91
      507
 95
   983063
 70
     0
 93
      396
310
41519B185D00240901404333333333333E3BF0000000000000F9010740A41107004050150841D405064090741402480A1B53
 94
        0
1001
ACAD
1000
AcDbSavedByObjectVersion
1070
     0
1000
AcRTDxfName
1000
VISUALSTYLE
1000
AcRTDxfName
1000
VISUALSTYLE
  0
ACAD_PROXY_OBJECT
  5
1084
102
{ACAD_REACTORS
330
1082
102
}
330
1082
100
AcDbProxyObject
 90
      499
 91
      507
 95
   983063
 70
     0
 93
      484
310
43919B185D15DA5D1A115919D95CC010140901404333333333333E3BF0000000000000F9010740901411070040501600405405064090741402480A1B54
 94
        0
1001
ACAD
1000
AcDbSavedByObjectVersion
1070
     0
1000
AcRTDxfName
1000
VISUALSTYLE
1000
AcRTDxfName
1000
VISUALSTYLE
  0
ACAD_PROXY_OBJECT
  5
1085
102
{ACAD_REACTORS
330
1082
102
}
330
1082
100
AcDbProxyObject
 90
      499
 91
      507
 95
   983063
 70
     0
 93
      420
310
4211DBDD5C985D590010240902404333333333333E3BF0000000000000F9010740A411070040501641D405064090741402480A1B55
 94
        0
1001
ACAD
1000
AcDbSavedByObjectVersion
1070
     0
1000
AcRTDxfName
1000
VISUALSTYLE
1000
AcRTDxfName
1000
VISUALSTYLE
  0
ACAD_PROXY_OBJECT
  5
1086
102
{ACAD_REACTORS
330
1082
102
}
330
1082
100
AcDbProxyObject
 90
      499
 91
      507
 95
   983063
 70
     0
 93
      508
310
4451DBDD5C985D5915DA5D1A115919D95CC010340902404333333333333E3BF0000000000000F9010740901411070040501600405405064090741402480A1B50
 94
        0
1001
ACAD
1000
AcDbSavedByObjectVersion
1070
     0
1000
AcRTDxfName
1000
VISUALSTYLE
1000
AcRTDxfName
1000
VISUALSTYLE
  0
ACAD_PROXY_OBJECT
  5
1090
102
{ACAD_REACTORS
330
1082
102
}
330
1082
100
AcDbProxyObject
 90
      499
 91
      507
 95
   983063
 70
     0
 93
      452
310
43131A5B995C185D1D195C9B8010E409028333333333333E3BF0000000000000FB010790141107004050750841D405064090741402483A0350
 94
        0
1001
ACAD
1000
AcDbSavedByObjectVersion
1070
     0
1000
AcRTDxfName
1000
VISUALSTYLE
1000
AcRTDxfName
1000
VISUALSTYLE
  0
ACAD_PROXY_OBJECT
  5
108C
102
{ACAD_REACTORS
330
1082
102
}
330
1082
100
AcDbProxyObject
 90
      499
 91
      507
 95
   983063
 70
     0
 93
      428
310
429499585B1A5CDD1A58C0108409028333333333333E3BF0000000000000FB01079019070040501508421405064090741402480A1B45
 94
        0
1001
ACAD
1000
AcDbSavedByObjectVersion
1070
     0
1000
AcRTDxfName
1000
VISUALSTYLE
1000
AcRTDxfName
1000
VISUALSTYLE
  0
ACAD_PROXY_OBJECT
  5
108F
102
{ACAD_REACTORS
330
1082
102
}
330
1082
100
AcDbProxyObject
 90
      499
 91
      507
 95
   983063
 70
     0
 93
      420
310
42151A1A58DAD95B8010D409028333333333333E3BF0000000000000FB010790141107004050150C41D405064090741402480A0354
 94
        0
1001
ACAD
1000
AcDbSavedByObjectVersion
1070
     0
1000
AcRTDxfName
1000
VISUALSTYLE
1000
AcRTDxfName
1000
VISUALSTYLE
  0
DICTIONARYVAR
  5
1573
102
{ACAD_REACTORS
330
3D
102
}
330
3D
100
DictionaryVariables
280
     0
  1
1:1
  0
DICTIONARYVAR
  5
1572
102
{ACAD_REACTORS
330
3D
102
}
330
3D
100
DictionaryVariables
280
     0
  1
STANDARD
  0
DICTIONARYVAR
  5
1049
102
{ACAD_REACTORS
330
3D
102
}
330
3D
100
DictionaryVariables
280
     0
  1
STANDARD
  0
DICTIONARYVAR
  5
3F
102
{ACAD_REACTORS
330
3D
102
}
330
3D
100
DictionaryVariables
280
     0
  1
2
  0
DICTIONARYVAR
  5
3E
102
{ACAD_REACTORS
330
3D
102
}
330
3D
100
DictionaryVariables
280
     0
  1
1
  0
DICTIONARYVAR
  5
1575
102
{ACAD_REACTORS
330
3D
102
}
330
3D
100
DictionaryVariables
280
     0
  1
0
  0
DICTIONARYVAR
  5
1589
102
{ACAD_REACTORS
330
3D
102
}
330
3D
100
DictionaryVariables
280
     0
  1

  0
DICTIONARYVAR
  5
1574
102
{ACAD_REACTORS
330
3D
102
}
330
3D
100
DictionaryVariables
280
     0
  1
127
  0
XRECORD
  5
1067
102
{ACAD_REACTORS
330
1066
102
}
330
1066
100
AcDbXrecord
280
     1
  0
DICTIONARY
  5
1593
330
1E
100
AcDbDictionary
280
     1
281
     1
  3
ACAD_XREC_ROUNDTRIP
360
1594
  0
DICTIONARY
  5
1597
330
26
100
AcDbDictionary
280
     1
281
     1
  3
ACAD_XREC_ROUNDTRIP
360
1598
  0
DICTIONARY
  5
1595
330
22
100
AcDbDictionary
280
     1
281
     1
  3
ACAD_XREC_ROUNDTRIP
360
1596
  0
DICTIONARY
  5
1073
330
1072
100
AcDbDictionary
280
     1
281
     1
  3
ACAD_XREC_ROUNDTRIP
360
1568
  3
BUMPTILE
360
1075
  3
DIFFUSETILE
360
1074
  3
OPACITYTILE
360
1078
  3
REFLECTIONTILE
360
1077
  3
REFRACTIONTILE
360
1079
  3
SPECULARTILE
360
1076
  0
DICTIONARY
  5
106B
330
106A
100
AcDbDictionary
280
     1
281
     1
  3
ACAD_XREC_ROUNDTRIP
360
1567
  3
BUMPTILE
360
106D
  3
DIFFUSETILE
360
106C
  3
OPACITYTILE
360
1070
  3
REFLECTIONTILE
360
106F
  3
REFRACTIONTILE
360
1071
  3
SPECULARTILE
360
106E
  0
DICTIONARY
  5
107B
330
107A
100
AcDbDictionary
280
     1
281
     1
  3
ACAD_XREC_ROUNDTRIP
360
1569
  3
BUMPTILE
360
107D
  3
DIFFUSETILE
360
107C
  3
OPACITYTILE
360
1080
  3
REFLECTIONTILE
360
107F
  3
REFRACTIONTILE
360
1081
  3
SPECULARTILE
360
107E
  0
DICTIONARY
  5
1558
330
EE8
100
AcDbDictionary
280
     1
281
     1
  3
ACAD_ROUNDTRIP_2008_TABLESTYLE_CELLSTYLEMAP
360
1559
  3
ACAD_XREC_ROUNDTRIP
360
1566
  0
XRECORD
  5
1594
102
{ACAD_REACTORS
330
1593
102
}
330
1593
100
AcDbXrecord
280
     1
102
SHADEPLOT
 70
     0
102
SHADEPLOTRESLEVEL
 70
     2
102
SHADEPLOTCUSTOMDPI
 70
   300
  0
XRECORD
  5
1598
102
{ACAD_REACTORS
330
1597
102
}
330
1597
100
AcDbXrecord
280
     1
102
SHADEPLOT
 70
     0
102
SHADEPLOTRESLEVEL
 70
     2
102
SHADEPLOTCUSTOMDPI
 70
   300
  0
XRECORD
  5
1596
102
{ACAD_REACTORS
330
1595
102
}
330
1595
100
AcDbXrecord
280
     1
102
SHADEPLOT
 70
     0
102
SHADEPLOTRESLEVEL
 70
     2
102
SHADEPLOTCUSTOMDPI
 70
   300
  0
XRECORD
  5
1568
102
{ACAD_REACTORS
330
1073
102
}
330
1073
100
AcDbXrecord
280
     1
102
MATERIAL
148
0.0
149
0.0
149
0.0
 93
        0
 94
      127
282
     0
 72
     0
 77
     0
171
     0
175
     0
179
     0
273
     0
  0
XRECORD
  5
1075
102
{ACAD_REACTORS
330
1073
102
}
330
1073
100
AcDbXrecord
280
     1
270
     1
271
     1
  0
XRECORD
  5
1074
102
{ACAD_REACTORS
330
1073
102
}
330
1073
100
AcDbXrecord
280
     1
270
     1
271
     1
  0
XRECORD
  5
1078
102
{ACAD_REACTORS
330
1073
102
}
330
1073
100
AcDbXrecord
280
     1
270
     1
271
     1
  0
XRECORD
  5
1077
102
{ACAD_REACTORS
330
1073
102
}
330
1073
100
AcDbXrecord
280
     1
270
     1
271
     1
  0
XRECORD
  5
1079
102
{ACAD_REACTORS
330
1073
102
}
330
1073
100
AcDbXrecord
280
     1
270
     1
271
     1
  0
XRECORD
  5
1076
102
{ACAD_REACTORS
330
1073
102
}
330
1073
100
AcDbXrecord
280
     1
270
     1
271
     1
  0
XRECORD
  5
1567
102
{ACAD_REACTORS
330
106B
102
}
330
106B
100
AcDbXrecord
280
     1
102
MATERIAL
148
0.0
149
0.0
149
0.0
 93
        0
 94
      127
282
     0
 72
     0
 77
     0
171
     0
175
     0
179
     0
273
     0
  0
XRECORD
  5
106D
102
{ACAD_REACTORS
330
106B
102
}
330
106B
100
AcDbXrecord
280
     1
270
     1
271
     1
  0
XRECORD
  5
106C
102
{ACAD_REACTORS
330
106B
102
}
330
106B
100
AcDbXrecord
280
     1
270
     1
271
     1
  0
XRECORD
  5
1070
102
{ACAD_REACTORS
330
106B
102
}
330
106B
100
AcDbXrecord
280
     1
270
     1
271
     1
  0
XRECORD
  5
106F
102
{ACAD_REACTORS
330
106B
102
}
330
106B
100
AcDbXrecord
280
     1
270
     1
271
     1
  0
XRECORD
  5
1071
102
{ACAD_REACTORS
330
106B
102
}
330
106B
100
AcDbXrecord
280
     1
270
     1
271
     1
  0
XRECORD
  5
106E
102
{ACAD_REACTORS
330
106B
102
}
330
106B
100
AcDbXrecord
280
     1
270
     1
271
     1
  0
XRECORD
  5
1569
102
{ACAD_REACTORS
330
107B
102
}
330
107B
100
AcDbXrecord
280
     1
102
MATERIAL
148
0.0
149
0.0
149
0.0
 93
        0
 94
      127
282
     0
 72
     0
 77
     0
171
     0
175
     0
179
     0
273
     0
  0
XRECORD
  5
107D
102
{ACAD_REACTORS
330
107B
102
}
330
107B
100
AcDbXrecord
280
     1
270
     1
271
     1
  0
XRECORD
  5
107C
102
{ACAD_REACTORS
330
107B
102
}
330
107B
100
AcDbXrecord
280
     1
270
     1
271
     1
  0
XRECORD
  5
1080
102
{ACAD_REACTORS
330
107B
102
}
330
107B
100
AcDbXrecord
280
     1
270
     1
271
     1
  0
XRECORD
  5
107F
102
{ACAD_REACTORS
330
107B
102
}
330
107B
100
AcDbXrecord
280
     1
270
     1
271
     1
  0
XRECORD
  5
1081
102
{ACAD_REACTORS
330
107B
102
}
330
107B
100
AcDbXrecord
280
     1
270
     1
271
     1
  0
XRECORD
  5
107E
102
{ACAD_REACTORS
330
107B
102
}
330
107B
100
AcDbXrecord
280
     1
270
     1
271
     1
  0
ACAD_PROXY_OBJECT
  5
1559
102
{ACAD_REACTORS
330
1558
102
}
330
1558
100
AcDbProxyObject
 90
      499
 91
      510
 95
   983063
 70
     0
 93
     5232
310
40D054060020000020000003200101A412A5058000000C10000000000000006101010000000000003E0FC000000000000F83F0000000000003E0FC000000000000F83F02B5E8DC0F42B1CFC0AD7A3703D0AC73F419019018000000C1003FBFFFFFE02B5E8DC0F42A9CFD029018000000C1003FBFFFFFE02B5E8DC0F42A9CFD
310
049018000000C1003FBFFFFFE02B5E8DC0F42A9CFD089018000000C1003FBFFFFFE02B5E8DC0F42A9CFD109018000000C1003FBFFFFFE02B5E8DC0F42A9CFD209018000000C1003FBFFFFFE02B5E8DC0F42A9CFD01405075F5449544C450041501A8000000C800406904A94160000003040000000000000012404040000000
310
00000F83F0000000000003E0FC000000000000F83F0000000000003E0FC0AD7A3703D0AC73F02B5E8DC0F42B1CFD0640640600000030400FEFFFFFF80AD7A3703D0AA73F40A40600000030400FEFFFFFF80AD7A3703D0AA73F41240600000030400FEFFFFFF80AD7A3703D0AA73F42240600000030400FEFFFFFF80AD7A370
310
3D0AA73F44240600000030400FEFFFFFF80AD7A3703D0AA73F48240600000030400FEFFFFFF80AD7A3703D0AA73F409014217D2115051115480105406A0000003200101A412A5028000000C10000000000000004901010000000000003E0FC000000000000F83F0000000000003E0FC000000000000F83F02B5E8DC0F42B1C
310
FC0AD7A3703D0AC73F419019018000000C1003FBFFFFFE02B5E8DC0F42A9CFD029018000000C1003FBFFFFFE02B5E8DC0F42A9CFD049018000000C1003FBFFFFFE02B5E8DC0F42A9CFD089018000000C1003FBFFFFFE02B5E8DC0F42A9CFD109018000000C1003FBFFFFFE02B5E8DC0F42A9CFD209018000000C1003FBFFFF
310
FE02B5E8DC0F42A9CFD03409065F44415441006C
340
11
340
0
340
0
340
0
340
0
340
0
340
0
340
11
340
0
340
0
340
0
340
0
340
0
340
0
340
11
340
0
340
0
340
0
340
0
340
0
340
0
 94
        0
1001
ACAD
1000
AcRTDxfName
1000
CELLSTYLEMAP
1000
AcRTDxfName
1000
CELLSTYLEMAP
  0
XRECORD
  5
1566
102
{ACAD_REACTORS
330
1558
102
}
330
1558
100
AcDbXrecord
280
     1
102
ACAD_ROUNDTRIP_PRE2007_TABLESTYLE
 90
        4
 91
        0
  1

 92
        4
 93
        0
  2

 94
        4
 95
        0
  3

  0
ENDSEC
  0
EOF
