  0
SECTION
  2
HEADER
  9
$ACADVER
  1
AC1015
  9
$ACADMAINTVER
 70
    20
  9
$DWGCODEPAGE
  3
ANSI_1252
  9
$INSBASE
 10
0.0
 20
0.0
 30
0.0
  9
$EXTMIN
 10
4218.669374501671
 20
2134.787374226646
 30
0.0
  9
$EXTMAX
 10
4219.989957794344
 20
2135.277124226646
 30
0.0
  9
$LIMMIN
 10
0.0
 20
0.0
  9
$LIMMAX
 10
420.0
 20
297.0
  9
$ORTHOMODE
 70
     1
  9
$REGENMODE
 70
     1
  9
$FILLMODE
 70
     1
  9
$QTEXTMODE
 70
     0
  9
$MIRRTEXT
 70
     1
  9
$LTSCALE
 40
1.0
  9
$ATTMODE
 70
     1
  9
$TEXTSIZE
 40
2.5
  9
$TRACEWID
 40
1.0
  9
$TEXTSTYLE
  7
SANINDUSA
  9
$CLAYER
  8
0
  9
$CELTYPE
  6
ByLayer
  9
$CECOLOR
 62
   256
  9
$CELTSCALE
 40
1.0
  9
$DISPSILH
 70
     0
  9
$DIMSCALE
 40
1.0
  9
$DIMASZ
 40
2.0
  9
$DIMEXO
 40
1.0
  9
$DIMDLI
 40
1.0
  9
$DIMRND
 40
0.0
  9
$DIMDLE
 40
0.0
  9
$DIMEXE
 40
1.0
  9
$DIMTP
 40
0.0
  9
$DIMTM
 40
0.0
  9
$DIMTXT
 40
2.0
  9
$DIMCEN
 40
0.0
  9
$DIMTSZ
 40
0.0
  9
$DIMTOL
 70
     0
  9
$DIMLIM
 70
     0
  9
$DIMTIH
 70
     0
  9
$DIMTOH
 70
     0
  9
$DIMSE1
 70
     0
  9
$DIMSE2
 70
     0
  9
$DIMTAD
 70
     1
  9
$DIMZIN
 70
     8
  9
$DIMBLK
  1

  9
$DIMASO
 70
     1
  9
$DIMSHO
 70
     1
  9
$DIMPOST
  1

  9
$DIMAPOST
  1

  9
$DIMALT
 70
     0
  9
$DIMALTD
 70
     3
  9
$DIMALTF
 40
0.03937007874016
  9
$DIMLFAC
 40
1.0
  9
$DIMTOFL
 70
     1
  9
$DIMTVP
 40
0.0
  9
$DIMTIX
 70
     0
  9
$DIMSOXD
 70
     0
  9
$DIMSAH
 70
     0
  9
$DIMBLK1
  1

  9
$DIMBLK2
  1

  9
$DIMSTYLE
  2
SANINDUSA
  9
$DIMCLRD
 70
   256
  9
$DIMCLRE
 70
   256
  9
$DIMCLRT
 70
   256
  9
$DIMTFAC
 40
1.0
  9
$DIMGAP
 40
1.0
  9
$DIMJUST
 70
     0
  9
$DIMSD1
 70
     0
  9
$DIMSD2
 70
     0
  9
$DIMTOLJ
 70
     0
  9
$DIMTZIN
 70
     8
  9
$DIMALTZ
 70
     0
  9
$DIMALTTZ
 70
     0
  9
$DIMUPT
 70
     0
  9
$DIMDEC
 70
     1
  9
$DIMTDEC
 70
     1
  9
$DIMALTU
 70
     2
  9
$DIMALTTD
 70
     3
  9
$DIMTXSTY
  7
SANINDUSA
  9
$DIMAUNIT
 70
     0
  9
$DIMADEC
 70
     1
  9
$DIMALTRND
 40
0.0
  9
$DIMAZIN
 70
     0
  9
$DIMDSEP
 70
    44
  9
$DIMATFIT
 70
     3
  9
$DIMFRAC
 70
     0
  9
$DIMLDRBLK
  1

  9
$DIMLUNIT
 70
     2
  9
$DIMLWD
 70
    -1
  9
$DIMLWE
 70
    -1
  9
$DIMTMOVE
 70
     0
  9
$LUNITS
 70
     2
  9
$LUPREC
 70
     4
  9
$SKETCHINC
 40
1.0
  9
$FILLETRAD
 40
3.0
  9
$AUNITS
 70
     0
  9
$AUPREC
 70
     0
  9
$MENU
  1
.
  9
$ELEVATION
 40
0.0
  9
$PELEVATION
 40
0.0
  9
$THICKNESS
 40
0.0
  9
$LIMCHECK
 70
     0
  9
$CHAMFERA
 40
10.0
  9
$CHAMFERB
 40
10.0
  9
$CHAMFERC
 40
20.0
  9
$CHAMFERD
 40
0.0
  9
$SKPOLY
 70
     0
  9
$TDCREATE
 40
2458884.450552025
  9
$TDUCREATE
 40
2458884.450552025
  9
$TDUPDATE
 40
2458884.456439676
  9
$TDUUPDATE
 40
2458884.456439676
  9
$TDINDWG
 40
0.0058888889
  9
$TDUSRTIMER
 40
0.0058888657
  9
$USRTIMER
 70
     1
  9
$ANGBASE
 50
0.0
  9
$ANGDIR
 70
     0
  9
$PDMODE
 70
     0
  9
$PDSIZE
 40
0.0
  9
$PLINEWID
 40
0.0
  9
$SPLFRAME
 70
     0
  9
$SPLINETYPE
 70
     6
  9
$SPLINESEGS
 70
     8
  9
$HANDSEED
  5
1B02
  9
$SURFTAB1
 70
     6
  9
$SURFTAB2
 70
     6
  9
$SURFTYPE
 70
     6
  9
$SURFU
 70
     6
  9
$SURFV
 70
     6
  9
$UCSBASE
  2

  9
$UCSNAME
  2

  9
$UCSORG
 10
0.0
 20
0.0
 30
0.0
  9
$UCSXDIR
 10
1.0
 20
0.0
 30
0.0
  9
$UCSYDIR
 10
0.0
 20
1.0
 30
0.0
  9
$UCSORTHOREF
  2

  9
$UCSORTHOVIEW
 70
     0
  9
$UCSORGTOP
 10
0.0
 20
0.0
 30
0.0
  9
$UCSORGBOTTOM
 10
0.0
 20
0.0
 30
0.0
  9
$UCSORGLEFT
 10
0.0
 20
0.0
 30
0.0
  9
$UCSORGRIGHT
 10
0.0
 20
0.0
 30
0.0
  9
$UCSORGFRONT
 10
0.0
 20
0.0
 30
0.0
  9
$UCSORGBACK
 10
0.0
 20
0.0
 30
0.0
  9
$PUCSBASE
  2

  9
$PUCSNAME
  2

  9
$PUCSORG
 10
0.0
 20
0.0
 30
0.0
  9
$PUCSXDIR
 10
1.0
 20
0.0
 30
0.0
  9
$PUCSYDIR
 10
0.0
 20
1.0
 30
0.0
  9
$PUCSORTHOREF
  2

  9
$PUCSORTHOVIEW
 70
     0
  9
$PUCSORGTOP
 10
0.0
 20
0.0
 30
0.0
  9
$PUCSORGBOTTOM
 10
0.0
 20
0.0
 30
0.0
  9
$PUCSORGLEFT
 10
0.0
 20
0.0
 30
0.0
  9
$PUCSORGRIGHT
 10
0.0
 20
0.0
 30
0.0
  9
$PUCSORGFRONT
 10
0.0
 20
0.0
 30
0.0
  9
$PUCSORGBACK
 10
0.0
 20
0.0
 30
0.0
  9
$USERI1
 70
     0
  9
$USERI2
 70
     0
  9
$USERI3
 70
     0
  9
$USERI4
 70
     0
  9
$USERI5
 70
     0
  9
$USERR1
 40
0.0
  9
$USERR2
 40
0.0
  9
$USERR3
 40
0.0
  9
$USERR4
 40
0.0
  9
$USERR5
 40
0.0
  9
$WORLDVIEW
 70
     1
  9
$SHADEDGE
 70
     3
  9
$SHADEDIF
 70
    70
  9
$TILEMODE
 70
     1
  9
$MAXACTVP
 70
    64
  9
$PINSBASE
 10
0.0
 20
0.0
 30
0.0
  9
$PLIMCHECK
 70
     0
  9
$PEXTMIN
 10
1.000000000000000E+20
 20
1.000000000000000E+20
 30
1.000000000000000E+20
  9
$PEXTMAX
 10
-1.000000000000000E+20
 20
-1.000000000000000E+20
 30
-1.000000000000000E+20
  9
$PLIMMIN
 10
0.0
 20
0.0
  9
$PLIMMAX
 10
420.0
 20
297.0
  9
$UNITMODE
 70
     0
  9
$VISRETAIN
 70
     1
  9
$PLINEGEN
 70
     0
  9
$PSLTSCALE
 70
     1
  9
$TREEDEPTH
 70
  3020
  9
$CMLSTYLE
  2
Standard
  9
$CMLJUST
 70
     0
  9
$CMLSCALE
 40
20.0
  9
$PROXYGRAPHICS
 70
     1
  9
$MEASUREMENT
 70
     1
  9
$CELWEIGHT
370
    -1
  9
$ENDCAPS
280
     0
  9
$JOINSTYLE
280
     0
  9
$LWDISPLAY
290
     0
  9
$INSUNITS
 70
     4
  9
$HYPERLINKBASE
  1

  9
$STYLESHEET
  1
sanindusa.ctb
  9
$XEDIT
290
     1
  9
$CEPSNTYPE
380
     0
  9
$PSTYLEMODE
290
     1
  9
$FINGERPRINTGUID
  2
{72EAE0C0-B9FF-45B5-B8C2-9C609D093FAD}
  9
$VERSIONGUID
  2
{E74ACFE4-12D5-4645-AC2C-270889DE6FED}
  9
$EXTNAMES
290
     1
  9
$PSVPSCALE
 40
0.0
  9
$OLESTARTUP
290
     0
  0
ENDSEC
  0
SECTION
  2
CLASSES
  0
CLASS
  1
ACDBDICTIONARYWDFLT
  2
AcDbDictionaryWithDefault
  3
ObjectDBX Classes
 90
        0
280
     0
281
     0
  0
CLASS
  1
ACDBPLACEHOLDER
  2
AcDbPlaceHolder
  3
ObjectDBX Classes
 90
        0
280
     0
281
     0
  0
CLASS
  1
LAYOUT
  2
AcDbLayout
  3
ObjectDBX Classes
 90
        0
280
     0
281
     0
  0
CLASS
  1
DICTIONARYVAR
  2
AcDbDictionaryVar
  3
ObjectDBX Classes
 90
        0
280
     0
281
     0
  0
CLASS
  1
DIMASSOC
  2
AcDbDimAssoc
  3
"AcDbDimAssoc|Product Desc:     AcDim ARX App For Dimension|Company:          Autodesk, Inc.|WEB Address:      www.autodesk.com"
 90
        0
280
     0
281
     0
  0
CLASS
  1
TABLESTYLE
  2
AcDbTableStyle
  3
ObjectDBX Classes
 90
     4095
280
     0
281
     0
  0
CLASS
  1
MATERIAL
  2
AcDbMaterial
  3
ObjectDBX Classes
 90
     1153
280
     0
281
     0
  0
CLASS
  1
VISUALSTYLE
  2
AcDbVisualStyle
  3
ObjectDBX Classes
 90
     4095
280
     0
281
     0
  0
CLASS
  1
SCALE
  2
AcDbScale
  3
ObjectDBX Classes
 90
     1153
280
     0
281
     0
  0
CLASS
  1
MLEADERSTYLE
  2
AcDbMLeaderStyle
  3
ACDB_MLEADERSTYLE_CLASS
 90
     4095
280
     0
281
     0
  0
CLASS
  1
ACDBSECTIONVIEWSTYLE
  2
AcDbSectionViewStyle
  3
ObjectDBX Classes
 90
     1025
280
     0
281
     0
  0
CLASS
  1
ACDBDETAILVIEWSTYLE
  2
AcDbDetailViewStyle
  3
ObjectDBX Classes
 90
     1025
280
     0
281
     0
  0
CLASS
  1
CELLSTYLEMAP
  2
AcDbCellStyleMap
  3
ObjectDBX Classes
 90
     1152
280
     0
281
     0
  0
CLASS
  1
SOLID_BACKGROUND
  2
AcDbSolidBackground
  3
SCENEOE
 90
     4095
280
     0
281
     0
  0
CLASS
  1
NPOCOLLECTION
  2
AcDbImpNonPersistentObjectsCollection
  3
ObjectDBX Classes
 90
     1153
280
     0
281
     0
  0
ENDSEC
  0
SECTION
  2
TABLES
  0
TABLE
  2
VPORT
  5
8
330
0
100
AcDbSymbolTable
 70
     1
  0
VPORT
  5
1068
330
8
100
AcDbSymbolTableRecord
100
AcDbViewportTableRecord
  2
*Active
 70
     0
 10
0.0
 20
0.0
 11
1.0
 21
1.0
 12
4219.329666148007
 22
2135.032249226645
 13
0.0
 23
0.0
 14
10.0
 24
10.0
 15
10.0
 25
10.0
 16
0.0
 26
0.0
 36
1.0
 17
0.0
 27
0.0
 37
0.0
 40
0.7812466346970588
 41
1.696774193548387
 42
50.0
 43
0.0
 44
0.0
 50
0.0
 51
0.0
 71
     0
 72
   100
 73
     1
 74
     2
 75
     0
 76
     0
 77
     0
 78
     0
281
     0
 65
     1
110
0.0
120
0.0
130
0.0
111
1.0
121
0.0
131
0.0
112
0.0
122
1.0
132
0.0
 79
     0
146
0.0
1001
ACAD_NAV_VCDISPLAY
1070
     3
  0
ENDTAB
  0
TABLE
  2
LTYPE
  5
5
330
0
100
AcDbSymbolTable
 70
     6
  0
LTYPE
  5
14
330
5
100
AcDbSymbolTableRecord
100
AcDbLinetypeTableRecord
  2
ByBlock
 70
     0
  3

 72
    65
 73
     0
 40
0.0
  0
LTYPE
  5
15
330
5
100
AcDbSymbolTableRecord
100
AcDbLinetypeTableRecord
  2
ByLayer
 70
     0
  3

 72
    65
 73
     0
 40
0.0
  0
LTYPE
  5
16
330
5
100
AcDbSymbolTableRecord
100
AcDbLinetypeTableRecord
  2
Continuous
 70
     0
  3
Solid line
 72
    65
 73
     0
 40
0.0
  0
LTYPE
  5
2D
330
5
100
AcDbSymbolTableRecord
100
AcDbLinetypeTableRecord
  2
DASHDOT
 70
     0
  3
Dash dot __ . __ . __ . __ . __ . __ . __ . __
 72
    65
 73
     4
 40
25.4
 49
12.7
 74
     0
 49
-6.349999999999999
 74
     0
 49
0.0
 74
     0
 49
-6.349999999999999
 74
     0
  0
LTYPE
  5
2E
330
5
100
AcDbSymbolTableRecord
100
AcDbLinetypeTableRecord
  2
HIDDEN
 70
     0
  3
Hidden __ __ __ __ __ __ __ __ __ __ __ __ __ _
 72
    65
 73
     2
 40
9.524999999999998
 49
6.349999999999999
 74
     0
 49
-3.174999999999999
 74
     0
  0
LTYPE
  5
C75
330
5
100
AcDbSymbolTableRecord
100
AcDbLinetypeTableRecord
  2
AM_ISO02W050
 70
     0
  3
__ __ __ __ __ __ __ __ __ __ __ __ __ __ __
 72
    65
 73
     2
 40
7.5
 49
6.0
 74
     0
 49
-1.5
 74
     0
  0
LTYPE
  5
C76
330
5
100
AcDbSymbolTableRecord
100
AcDbLinetypeTableRecord
  2
AM_ISO08W050
 70
     0
  3
____ . ____ . ____ . ____ . ____ . ____ . ____
 72
    65
 73
     4
 40
18.0
 49
12.0
 74
     0
 49
-1.5
 74
     0
 49
3.0
 74
     0
 49
-1.5
 74
     0
  0
ENDTAB
  0
TABLE
  2
LAYER
  5
2
102
{ACAD_XDICTIONARY
360
1051
102
}
330
0
100
AcDbSymbolTable
 70
    17
  0
LAYER
  5
10
102
{ACAD_XDICTIONARY
360
19FB
102
}
330
2
100
AcDbSymbolTableRecord
100
AcDbLayerTableRecord
  2
0
 70
     0
 62
     7
  6
Continuous
370
    -3
390
F
  0
LAYER
  5
2F
102
{ACAD_XDICTIONARY
360
19FD
102
}
330
2
100
AcDbSymbolTableRecord
100
AcDbLayerTableRecord
  2
1
 70
     0
 62
     1
  6
Continuous
370
    -3
390
F
  0
LAYER
  5
30
102
{ACAD_XDICTIONARY
360
19FF
102
}
330
2
100
AcDbSymbolTableRecord
100
AcDbLayerTableRecord
  2
2
 70
     0
 62
     2
  6
Continuous
370
    -3
390
F
  0
LAYER
  5
31
102
{ACAD_XDICTIONARY
360
1A01
102
}
330
2
100
AcDbSymbolTableRecord
100
AcDbLayerTableRecord
  2
3
 70
     0
 62
     3
  6
Continuous
370
    -3
390
F
  0
LAYER
  5
32
102
{ACAD_XDICTIONARY
360
1A03
102
}
330
2
100
AcDbSymbolTableRecord
100
AcDbLayerTableRecord
  2
4
 70
     0
 62
     4
  6
Continuous
370
    -3
390
F
  0
LAYER
  5
33
102
{ACAD_XDICTIONARY
360
1A05
102
}
330
2
100
AcDbSymbolTableRecord
100
AcDbLayerTableRecord
  2
5
 70
     0
 62
     5
  6
Continuous
370
    -3
390
F
  0
LAYER
  5
34
102
{ACAD_XDICTIONARY
360
1A07
102
}
330
2
100
AcDbSymbolTableRecord
100
AcDbLayerTableRecord
  2
6
 70
     0
 62
     6
  6
Continuous
370
    -3
390
F
  0
LAYER
  5
35
102
{ACAD_XDICTIONARY
360
1A09
102
}
330
2
100
AcDbSymbolTableRecord
100
AcDbLayerTableRecord
  2
7
 70
     0
 62
     7
  6
Continuous
370
    -3
390
F
  0
LAYER
  5
36
102
{ACAD_XDICTIONARY
360
1A0B
102
}
330
2
100
AcDbSymbolTableRecord
100
AcDbLayerTableRecord
  2
cen
 70
     0
 62
     7
  6
DASHDOT
370
    -3
390
F
  0
LAYER
  5
37
102
{ACAD_XDICTIONARY
360
1A0D
102
}
330
2
100
AcDbSymbolTableRecord
100
AcDbLayerTableRecord
  2
hid
 70
     0
 62
     7
  6
HIDDEN
370
    -3
390
F
  0
LAYER
  5
5D6
102
{ACAD_XDICTIONARY
360
1A0F
102
}
330
2
100
AcDbSymbolTableRecord
100
AcDbLayerTableRecord
  2
hatch
 70
     0
 62
     9
  6
Continuous
370
    -3
390
F
  0
LAYER
  5
8AF
102
{ACAD_XDICTIONARY
360
1A11
102
}
330
2
100
AcDbSymbolTableRecord
100
AcDbLayerTableRecord
  2
9
 70
     0
 62
     9
  6
Continuous
370
    -3
390
F
  0
LAYER
  5
8F8
102
{ACAD_XDICTIONARY
360
1A13
102
}
330
2
100
AcDbSymbolTableRecord
100
AcDbLayerTableRecord
  2
leg fin
 70
     0
 62
     9
  6
Continuous
370
    -3
390
F
  0
LAYER
  5
91D
102
{ACAD_XDICTIONARY
360
1A15
102
}
330
2
100
AcDbSymbolTableRecord
100
AcDbLayerTableRecord
  2
cotas
 70
     0
 62
     1
  6
Continuous
370
    -3
390
F
  0
LAYER
  5
92F
330
2
100
AcDbSymbolTableRecord
100
AcDbLayerTableRecord
  2
Defpoints
 70
     0
 62
     7
  6
Continuous
290
     0
370
    -3
390
F
  0
LAYER
  5
C7B
102
{ACAD_XDICTIONARY
360
1A17
102
}
330
2
100
AcDbSymbolTableRecord
100
AcDbLayerTableRecord
  2
SANINDUSA
 70
     0
 62
     3
  6
Continuous
370
    -3
390
F
  0
LAYER
  5
1060
102
{ACAD_XDICTIONARY
360
1A19
102
}
330
2
100
AcDbSymbolTableRecord
100
AcDbLayerTableRecord
  2
hid1
 70
     0
 62
     9
  6
HIDDEN
370
    -3
390
F
1001
AcAecLayerStandard
1000

1000

  0
ENDTAB
  0
TABLE
  2
STYLE
  5
3
330
0
100
AcDbSymbolTable
 70
     4
  0
STYLE
  5
11
330
3
100
AcDbSymbolTableRecord
100
AcDbTextStyleTableRecord
  2
Standard
 70
     0
 40
0.0
 41
1.0
 50
0.0
 71
     0
 42
2.5
  3
Avgardn.ttf
  4

1001
ACAD
1000
AvantGarde Bk BT
1071
       34
  0
STYLE
  5
2C
330
3
100
AcDbSymbolTableRecord
100
AcDbTextStyleTableRecord
  2

 70
     1
 40
0.0
 41
1.0
 50
0.0
 71
     0
 42
2.5
  3
ltypeshp.shx
  4

  0
STYLE
  5
91F
330
3
100
AcDbSymbolTableRecord
100
AcDbTextStyleTableRecord
  2
SANINDUSA
 70
     0
 40
0.0
 41
1.0
 50
0.0
 71
     0
 42
2.5
  3
verdana.ttf
  4

1001
ACAD
1000
Verdana
1071
       34
  0
STYLE
  5
C7C
330
3
100
AcDbSymbolTableRecord
100
AcDbTextStyleTableRecord
  2
futura
 70
     0
 40
0.0
 41
1.0
 50
0.0
 71
     0
 42
2.5
  3
zuricrm.ttf
  4

1001
ACAD
1000
Zurich BT
1071
       34
  0
ENDTAB
  0
TABLE
  2
VIEW
  5
6
330
0
100
AcDbSymbolTable
 70
     0
  0
ENDTAB
  0
TABLE
  2
UCS
  5
7
330
0
100
AcDbSymbolTable
 70
     0
  0
ENDTAB
  0
TABLE
  2
APPID
  5
9
330
0
100
AcDbSymbolTable
 70
    15
  0
APPID
  5
12
330
9
100
AcDbSymbolTableRecord
100
AcDbRegAppTableRecord
  2
ACAD
 70
     0
  0
APPID
  5
3A
330
9
100
AcDbSymbolTableRecord
100
AcDbRegAppTableRecord
  2
DCO15
 70
     0
  0
APPID
  5
EEE
330
9
100
AcDbSymbolTableRecord
100
AcDbRegAppTableRecord
  2
ACAD_DSTYLE_DIMTEXT_FILL
 70
     0
  0
APPID
  5
EEF
330
9
100
AcDbSymbolTableRecord
100
AcDbRegAppTableRecord
  2
ACAD_DSTYLE_DIMEXT_LENGTH
 70
     0
  0
APPID
  5
EF0
330
9
100
AcDbSymbolTableRecord
100
AcDbRegAppTableRecord
  2
ACAD_DSTYLE_DIMEXT_ENABLED
 70
     0
  0
APPID
  5
EF1
330
9
100
AcDbSymbolTableRecord
100
AcDbRegAppTableRecord
  2
ACAD_DSTYLE_DIM_LINETYPE
 70
     0
  0
APPID
  5
EF2
330
9
100
AcDbSymbolTableRecord
100
AcDbRegAppTableRecord
  2
ACAD_DSTYLE_DIM_EXT1_LINETYPE
 70
     0
  0
APPID
  5
EF3
330
9
100
AcDbSymbolTableRecord
100
AcDbRegAppTableRecord
  2
ACAD_DSTYLE_DIM_EXT2_LINETYPE
 70
     0
  0
APPID
  5
FAF
330
9
100
AcDbSymbolTableRecord
100
AcDbRegAppTableRecord
  2
ACAD_DSTYLE_DIMJOGGED_JOGANGLE_SYMBOL
 70
     0
  0
APPID
  5
1013
330
9
100
AcDbSymbolTableRecord
100
AcDbRegAppTableRecord
  2
ACAD_DSTYLE_DIMARC_LENGTH_SYMBOL
 70
     0
  0
APPID
  5
1061
330
9
100
AcDbSymbolTableRecord
100
AcDbRegAppTableRecord
  2
AcAecLayerStandard
 70
     0
  0
APPID
  5
10BC
330
9
100
AcDbSymbolTableRecord
100
AcDbRegAppTableRecord
  2
ACAD_NAV_VCDISPLAY
 70
     0
  0
APPID
  5
114C
330
9
100
AcDbSymbolTableRecord
100
AcDbRegAppTableRecord
  2
ACAD_DSTYLE_DIMJAG
 70
     0
  0
APPID
  5
114D
330
9
100
AcDbSymbolTableRecord
100
AcDbRegAppTableRecord
  2
ACAD_DSTYLE_DIMTALN
 70
     0
  0
APPID
  5
1AFB
330
9
100
AcDbSymbolTableRecord
100
AcDbRegAppTableRecord
  2
ACAD_MLEADERVER
 70
     0
  0
ENDTAB
  0
TABLE
  2
DIMSTYLE
  5
A
330
0
100
AcDbSymbolTable
 70
     4
100
AcDbDimStyleTable
 71
     1
340
921
  0
DIMSTYLE
105
45
330
A
100
AcDbSymbolTableRecord
100
AcDbDimStyleTableRecord
  2
STANDARD
 70
     0
289
     0
340
11
  0
DIMSTYLE
105
921
330
A
100
AcDbSymbolTableRecord
100
AcDbDimStyleTableRecord
  2
SANINDUSA
 70
     0
 41
2.0
 42
1.0
 43
1.0
 44
1.0
 73
     0
 74
     0
 77
     1
 78
     8
140
2.0
141
0.0
143
0.03937007874016
147
1.0
171
     3
172
     1
176
   256
177
   256
178
   256
179
     1
271
     1
272
     1
274
     3
278
    44
283
     0
284
     8
340
91F
371
    -1
372
    -1
1001
ACAD_DSTYLE_DIMJOGGED_JOGANGLE_SYMBOL
1070
   384
1040
1.570796326794896
  0
DIMSTYLE
105
C7D
330
A
100
AcDbSymbolTableRecord
100
AcDbDimStyleTableRecord
  2
AM_ISO
 70
     0
  4
"
 41
2.5
 42
1.0
 43
10.0
 44
1.0
 47
0.1
 48
0.1
 73
     0
 74
     0
 77
     1
 78
     8
 79
     2
140
3.5
141
0.0
143
0.0393701
146
0.71
147
1.5
172
     1
176
   256
177
   256
178
     2
271
     2
272
     3
274
     4
283
     0
284
     8
340
11
371
    -1
372
    -1
  0
ENDTAB
  0
TABLE
  2
BLOCK_RECORD
  5
1
330
0
100
AcDbSymbolTable
 70
    29
  0
BLOCK_RECORD
  5
1F
330
1
100
AcDbSymbolTableRecord
100
AcDbBlockTableRecord
  2
*Model_Space
340
22
  0
BLOCK_RECORD
  5
1B
330
1
100
AcDbSymbolTableRecord
100
AcDbBlockTableRecord
  2
*Paper_Space
340
1E
  0
BLOCK_RECORD
  5
23
330
1
100
AcDbSymbolTableRecord
100
AcDbBlockTableRecord
  2
*Paper_Space0
340
26
  0
BLOCK_RECORD
  5
919
330
1
100
AcDbSymbolTableRecord
100
AcDbBlockTableRecord
  2
_DotSmall
340
0
  0
BLOCK_RECORD
  5
922
330
1
100
AcDbSymbolTableRecord
100
AcDbBlockTableRecord
  2
base para cotas
340
0
310
2800000020000000200000000100080000000000000400000000000000000000000000000000000000000000000080000080000000808000800000008000800080800000C0C0C000C0DCC000F0CAA6000020400000206000002080000020A0000020C0000020E00000400000004020000040400000406000004080000040A0
310
000040C0000040E00000600000006020000060400000606000006080000060A0000060C0000060E00000800000008020000080400000806000008080000080A0000080C0000080E00000A0000000A0200000A0400000A0600000A0800000A0A00000A0C00000A0E00000C0000000C0200000C0400000C0600000C0800000C0
310
A00000C0C00000C0E00000E0000000E0200000E0400000E0600000E0800000E0A00000E0C00000E0E00040000000400020004000400040006000400080004000A0004000C0004000E00040200000402020004020400040206000402080004020A0004020C0004020E000404000004040200040404000404060004040800040
310
40A0004040C0004040E00040600000406020004060400040606000406080004060A0004060C0004060E00040800000408020004080400040806000408080004080A0004080C0004080E00040A0000040A0200040A0400040A0600040A0800040A0A00040A0C00040A0E00040C0000040C0200040C0400040C0600040C08000
310
40C0A00040C0C00040C0E00040E0000040E0200040E0400040E0600040E0800040E0A00040E0C00040E0E00080000000800020008000400080006000800080008000A0008000C0008000E00080200000802020008020400080206000802080008020A0008020C0008020E00080400000804020008040400080406000804080
310
008040A0008040C0008040E00080600000806020008060400080606000806080008060A0008060C0008060E00080800000808020008080400080806000808080008080A0008080C0008080E00080A0000080A0200080A0400080A0600080A0800080A0A00080A0C00080A0E00080C0000080C0200080C0400080C0600080C0
310
800080C0A00080C0C00080C0E00080E0000080E0200080E0400080E0600080E0800080E0A00080E0C00080E0E000C0000000C0002000C0004000C0006000C0008000C000A000C000C000C000E000C0200000C0202000C0204000C0206000C0208000C020A000C020C000C020E000C0400000C0402000C0404000C0406000C0
310
408000C040A000C040C000C040E000C0600000C0602000C0604000C0606000C0608000C060A000C060C000C060E000C0800000C0802000C0804000C0806000C0808000C080A000C080C000C080E000C0A00000C0A02000C0A04000C0A06000C0A08000C0A0A000C0A0C000C0A0E000C0C00000C0C02000C0C04000C0C06000
310
C0C08000C0C0A000F0FBFF00A4A0A000808080000000FF0000FF000000FFFF00FF000000FF00FF00FFFF0000FFFFFF00A4A4A4A4A4A4A4A4A4A4A4A4A4A4A4A4A4A4A4A4A4A4A4A4A4A4A4A4A4A4A4A4A4A4A4A4A4A4A4A4A4A4A4A4A4A4A4A4A4A4A4A4A4A4A4A4A4A4A4A4A4A4A4A4A4A4A4A4A4A4A4A4A4A4A4A4A4A4A4
310
A4A4A4A4A4A4A4A4A4A4A4A4A4A4A4A4A4A4A4A4A4A4A4A4A4A4A4A4A4A4A4A4A4A4A4A4A4A4A4A4A4A4A4A4A4A4A4A4A4A4A4A4A4A4A4A4A4A4A4A4A4A4A4A4A4A4A4A4A4A4A4A4A4A4A4A4A4A4A4A4A4A4A4A4A4A4A4A4A4A4A4A4A4A4A4A4A4A4A4A4A4A4A4A4A4A4A4A4A4A4A4A4A4A4A4A4A4A4A4A4A4A4A4A4A4A4A4
310
A4A4A4A4A4A4A4A4A4A4A4A4A4A4A4A4A4A4A4A4A4A4A4A4A4A4A4A4A4A4A4A4A4A4A4A4A4A4A4A4A4A4A4A4A4A4A4A4A4A4A4A4A4A4A4A4A4A4A4A4A4A4A4A4A4A4A4A4A4A4A4A4A4A4A4A4A4A4A4A4A4A4A4A4A4A4A4A4A4A4A4A4A4A4A4A4A4A4A4A4A4A4A4A4A4A4A4A4A4A4A4A4A4A4A4A4A4A4A4A4A4A4A4A4A4A4A4
310
A4A4A4A4A4A4A4A4A4A4A4A4A4A4A4A4A4A4A4A4A4A4A4A4A4A4A4A4A4A4A4A4A4A4A4A4A4A4A4A4A4A4A4A4A4A4A4A4A4A4A4A4A4A4A4A4A4A4A4A4A4A4A4A4A4A4A4A4A4A4A4A4A4A4A4A4A4A4A4A4A4A4A4A4A4A4A4A4A4A4A4A4A4A4A4A4A4A4A4A4A4A4A4A4A4A4A4A4A4A4A4A4A4A4A4A4F9F9F9F9F9F9F9F9F9F9F9
310
F9F9F9F9F9F9F9F9F9F9F9F9F9F9F9F9F9F9F9A4A4F9F9F9F9F9F9F9F9F9F9F9F9F9F9F9F9F9F9F9F9F9F9F9F9F9F9F9F9F9F9A4A4F9F9F9F9F9F9F9F9F9F9F9F9F9F9F9F9F9F9F9F9F9F9F9F9F9F9F9F9F9F9A4A4F9A4A4A4A4A4A4A4A4A4A4A4A4A4A4A4A4A4A4A4A4A4A4A4A4A4A4A4A4F9A4A4A4A4A4A4A4A4A4A4A4A4
310
A4A4A4A4A4A4A4A4A4A4A4A4A4A4A4A4A4A4A4A4A4A4A4A4A4A4A4A4A4A4A4A4A4A4A4A4A4A4A4A4A4A4A4A4A4A4A4A4A4A4A4A4A4A4A4A4A4A4A4A4A4A4A4A4A4A4A4A4A4A4A4A4A4A4A4A4A4A4A4A4A4A4A4A4A4A4A4A4A4A4A4A4A4A4A4A4A4A4A4A4A4A4A4A4A4A4A4A4A4A4A4A4A4A4A4A4A4A4A4A4A4A4A4A4A4A4A4
310
A4A4A4A4A4A4A4A4A4A4A4A4A4A4A4A4A4A4A4A4A4A4A4A4A4A4A4A4A4A4A4A4A4A4A4A4A4A4A4A4A4A4A4A4A4A4A4A4A4A4A4A4A4A4A4A4A4A4A4A4A4A4A4A4A4A4A4A4A4A4A4A4A4A4A4A4A4A4A4A4A4A4A4A4A4A4A4A4A4A4A4A4A4A4A4A4A4A4A4A4A4A4A4A4A4A4A4A4A4A4A4A4A4A4A4A4A4A4A4A4A4A4A4A4A4A4A4
310
A4A4A4A4A4A4A4A4A4A4A4A4A4A4A4A4A4A4A4A4A4A4A4A4A4A4A4A4A4A4A4A4A4A4A4A4A4A4A4A4A4A4A4A4A4A4A4A4A4A4A4A4A4A4A4A4A4A4A4A4A4A4A4A4A4A4A4A4A4A4A4A4A4A4A4A4A4A4A4A4A4A4A4A4A4A4A4A4A4A4A4A4A4A4A4A4A4A4A4A4A4A4A4A4A4A4A4A4A4A4A4A4A4A4A4A4A4A4A4A4A4A4A4A4A4A4A4
310
A4A4A4A4A4A4A4A4A4A4A4A4A4A4A4A4A4A4A4A4A4A4A4A4A4A4A4A4A4A4A4A4A4A4A4A4A4A4A4A4A4A4A4A4A4A4A4A4A4A4A4A4A4A4A4A4
1001
ACAD
1000
DesignCenter Data
1002
{
1070
     1
1070
     4
1002
}
  0
BLOCK_RECORD
  5
AA8
330
1
100
AcDbSymbolTableRecord
100
AcDbBlockTableRecord
  2
_CLOSED
340
0
  0
BLOCK_RECORD
  5
B79
330
1
100
AcDbSymbolTableRecord
100
AcDbBlockTableRecord
  2
nota revisoes
340
0
1001
ACAD
1000
DesignCenter Data
1002
{
1070
     1
1070
     4
1002
}
  0
BLOCK_RECORD
  5
B8E
330
1
100
AcDbSymbolTableRecord
100
AcDbBlockTableRecord
  2
a3l
340
0
1001
ACAD
1000
DesignCenter Data
1002
{
1070
     1
1070
     4
1002
}
  0
BLOCK_RECORD
  5
B9E
330
1
100
AcDbSymbolTableRecord
100
AcDbBlockTableRecord
  2
legenda desenvolvimento
340
0
1001
ACAD
1000
DesignCenter Data
1002
{
1070
     1
1070
     4
1002
}
  0
BLOCK_RECORD
  5
10CC
330
1
100
AcDbSymbolTableRecord
100
AcDbBlockTableRecord
  2
*D7
340
0
  0
BLOCK_RECORD
  5
10D8
330
1
100
AcDbSymbolTableRecord
100
AcDbBlockTableRecord
  2
*D8
340
0
  0
BLOCK_RECORD
  5
10E6
330
1
100
AcDbSymbolTableRecord
100
AcDbBlockTableRecord
  2
*D9
340
0
  0
BLOCK_RECORD
  5
10F2
330
1
100
AcDbSymbolTableRecord
100
AcDbBlockTableRecord
  2
*D10
340
0
  0
BLOCK_RECORD
  5
1100
330
1
100
AcDbSymbolTableRecord
100
AcDbBlockTableRecord
  2
*D11
340
0
  0
BLOCK_RECORD
  5
110C
330
1
100
AcDbSymbolTableRecord
100
AcDbBlockTableRecord
  2
*D12
340
0
  0
BLOCK_RECORD
  5
111A
330
1
100
AcDbSymbolTableRecord
100
AcDbBlockTableRecord
  2
*D13
340
0
  0
BLOCK_RECORD
  5
1126
330
1
100
AcDbSymbolTableRecord
100
AcDbBlockTableRecord
  2
*D14
340
0
  0
BLOCK_RECORD
  5
1134
330
1
100
AcDbSymbolTableRecord
100
AcDbBlockTableRecord
  2
*D15
340
0
  0
BLOCK_RECORD
  5
1140
330
1
100
AcDbSymbolTableRecord
100
AcDbBlockTableRecord
  2
*D16
340
0
  0
BLOCK_RECORD
  5
18DF
330
1
100
AcDbSymbolTableRecord
100
AcDbBlockTableRecord
  2
*D18
340
0
  0
BLOCK_RECORD
  5
18EB
330
1
100
AcDbSymbolTableRecord
100
AcDbBlockTableRecord
  2
*D19
340
0
  0
BLOCK_RECORD
  5
18F7
330
1
100
AcDbSymbolTableRecord
100
AcDbBlockTableRecord
  2
*D20
340
0
  0
BLOCK_RECORD
  5
1903
330
1
100
AcDbSymbolTableRecord
100
AcDbBlockTableRecord
  2
*D21
340
0
  0
BLOCK_RECORD
  5
190F
330
1
100
AcDbSymbolTableRecord
100
AcDbBlockTableRecord
  2
*D22
340
0
  0
BLOCK_RECORD
  5
191B
330
1
100
AcDbSymbolTableRecord
100
AcDbBlockTableRecord
  2
*D23
340
0
  0
BLOCK_RECORD
  5
1927
330
1
100
AcDbSymbolTableRecord
100
AcDbBlockTableRecord
  2
*D24
340
0
  0
BLOCK_RECORD
  5
1933
330
1
100
AcDbSymbolTableRecord
100
AcDbBlockTableRecord
  2
*D25
340
0
  0
BLOCK_RECORD
  5
1941
330
1
100
AcDbSymbolTableRecord
100
AcDbBlockTableRecord
  2
*D26
340
0
  0
BLOCK_RECORD
  5
194D
330
1
100
AcDbSymbolTableRecord
100
AcDbBlockTableRecord
  2
*D27
340
0
  0
ENDTAB
  0
ENDSEC
  0
SECTION
  2
BLOCKS
  0
BLOCK
  5
20
330
1F
100
AcDbEntity
  8
0
100
AcDbBlockBegin
  2
*Model_Space
 70
     0
 10
0.0
 20
0.0
 30
0.0
  3
*Model_Space
  1

  0
ENDBLK
  5
21
330
1F
100
AcDbEntity
  8
0
100
AcDbBlockEnd
  0
BLOCK
  5
1C
330
1B
100
AcDbEntity
 67
     1
  8
0
100
AcDbBlockBegin
  2
*Paper_Space
 70
     0
 10
0.0
 20
0.0
 30
0.0
  3
*Paper_Space
  1

  0
ENDBLK
  5
1D
330
1B
100
AcDbEntity
 67
     1
  8
0
100
AcDbBlockEnd
  0
BLOCK
  5
24
330
23
100
AcDbEntity
 67
     1
  8
0
100
AcDbBlockBegin
  2
*Paper_Space0
 70
     0
 10
0.0
 20
0.0
 30
0.0
  3
*Paper_Space0
  1

  0
ENDBLK
  5
25
330
23
100
AcDbEntity
 67
     1
  8
0
100
AcDbBlockEnd
  0
BLOCK
  5
91B
330
919
100
AcDbEntity
  8
0
100
AcDbBlockBegin
  2
_DotSmall
 70
     0
 10
0.0
 20
0.0
 30
0.0
  3
_DotSmall
  1

  0
LWPOLYLINE
  5
91A
330
919
100
AcDbEntity
  8
0
  6
ByBlock
 62
     0
100
AcDbPolyline
 90
        2
 70
     1
 43
0.5
 10
-0.0625
 20
0.0
 42
1.0
 10
0.0625
 20
0.0
 42
1.0
  0
ENDBLK
  5
91C
330
919
100
AcDbEntity
  8
0
100
AcDbBlockEnd
  0
BLOCK
  5
92A
330
922
100
AcDbEntity
  8
0
100
AcDbBlockBegin
  2
base para cotas
 70
     0
 10
0.0
 20
0.0
 30
0.0
  3
base para cotas
  1

  0
LINE
  5
B36
330
922
100
AcDbEntity
  8
cotas
100
AcDbLine
 10
0.0
 20
-30.0
 30
0.0
 11
327.1260136525398
 21
-30.0
 31
0.0
  0
LINE
  5
B37
330
922
100
AcDbEntity
  8
cotas
100
AcDbLine
 10
0.0
 20
-25.0
 30
0.0
 11
327.1260136525398
 21
-25.0
 31
0.0
  0
LINE
  5
B38
330
922
100
AcDbEntity
  8
cotas
100
AcDbLine
 10
0.0
 20
-20.0
 30
0.0
 11
327.1260136525398
 21
-20.0
 31
0.0
  0
LINE
  5
B39
330
922
100
AcDbEntity
  8
cotas
100
AcDbLine
 10
0.0
 20
-15.0
 30
0.0
 11
327.1260136525398
 21
-15.0
 31
0.0
  0
LINE
  5
B3A
330
922
100
AcDbEntity
  8
cotas
100
AcDbLine
 10
0.0
 20
-10.0
 30
0.0
 11
327.1260136525398
 21
-10.0
 31
0.0
  0
LINE
  5
B3B
330
922
100
AcDbEntity
  8
cotas
100
AcDbLine
 10
0.0
 20
0.0
 30
0.0
 11
0.0
 21
-30.0
 31
0.0
  0
LINE
  5
B3C
330
922
100
AcDbEntity
  8
cotas
100
AcDbLine
 10
327.1260136525398
 20
-30.0
 30
0.0
 11
327.1260136525398
 21
0.0
 31
0.0
  0
ENDBLK
  5
92B
330
922
100
AcDbEntity
  8
0
100
AcDbBlockEnd
  0
BLOCK
  5
AAD
330
AA8
100
AcDbEntity
  8
0
100
AcDbBlockBegin
  2
_CLOSED
 70
     0
 10
0.0
 20
0.0
 30
0.0
  3
_CLOSED
  1

  0
LINE
  5
AA9
330
AA8
100
AcDbEntity
  8
0
100
AcDbLine
 10
-1.0
 20
0.166667
 30
0.0
 11
0.0
 21
0.0
 31
0.0
  0
LINE
  5
AAA
330
AA8
100
AcDbEntity
  8
0
100
AcDbLine
 10
0.0
 20
0.0
 30
0.0
 11
-1.0
 21
-0.166667
 31
0.0
  0
LINE
  5
AAB
330
AA8
100
AcDbEntity
  8
0
100
AcDbLine
 10
-1.0
 20
0.166667
 30
0.0
 11
-1.0
 21
-0.166667
 31
0.0
  0
LINE
  5
AAC
330
AA8
100
AcDbEntity
  8
0
100
AcDbLine
 10
0.0
 20
0.0
 30
0.0
 11
-1.0
 21
0.0
 31
0.0
  0
ENDBLK
  5
AAE
330
AA8
100
AcDbEntity
  8
0
100
AcDbBlockEnd
  0
BLOCK
  5
B7C
330
B79
100
AcDbEntity
  8
0
100
AcDbBlockBegin
  2
nota revisoes
 70
     0
 10
0.0
 20
0.0
 30
0.0
  3
nota revisoes
  1

  0
CIRCLE
  5
B7A
330
B79
100
AcDbEntity
  8
4
100
AcDbCircle
 10
0.0
 20
0.0
 30
0.0
 40
13.69426055101189
  0
TEXT
  5
B7B
330
B79
100
AcDbEntity
  8
4
100
AcDbText
 10
-5.496248358154345
 20
-5.354545554066362
 30
0.0
 40
12.0
  1
1
  7
SANINDUSA
 72
     1
 11
-0.249774214433728
 21
-5.354545554066362
 31
0.0
100
AcDbText
  0
ENDBLK
  5
B7D
330
B79
100
AcDbEntity
  8
0
100
AcDbBlockEnd
  0
BLOCK
  5
B9C
330
B8E
100
AcDbEntity
  8
0
100
AcDbBlockBegin
  2
a3l
 70
     0
 10
0.0
 20
0.0
 30
0.0
  3
a3l
  1

  0
LINE
  5
B8F
330
B8E
100
AcDbEntity
  8
1
100
AcDbLine
 10
-364.2925296599447
 20
-362.1188951399395
 30
0.0
 11
-364.2925296599447
 21
-65.11889513993946
 31
0.0
  0
LINE
  5
B90
330
B8E
100
AcDbEntity
  8
4
100
AcDbLine
 10
-369.2925296599447
 20
-357.1188951399395
 30
0.0
 11
-369.2925296599447
 21
-70.11889513993946
 31
0.0
  0
LINE
  5
B91
330
B8E
100
AcDbEntity
  8
1
100
AcDbLine
 10
-784.2925296599446
 20
-65.11889513993946
 30
0.0
 11
-784.2925296599446
 21
-362.1188951399395
 31
0.0
  0
LINE
  5
B92
330
B8E
100
AcDbEntity
  8
4
100
AcDbLine
 10
-759.2925296599446
 20
-357.1188951399395
 30
0.0
 11
-759.2925296599446
 21
-70.11889513993946
 31
0.0
  0
LINE
  5
B93
330
B8E
100
AcDbEntity
  8
1
100
AcDbLine
 10
-784.2925296599446
 20
-362.1188951399395
 30
0.0
 11
-364.2925296599447
 21
-362.1188951399395
 31
0.0
  0
LINE
  5
B94
330
B8E
100
AcDbEntity
  8
4
100
AcDbLine
 10
-759.2925296599446
 20
-357.1188951399395
 30
0.0
 11
-369.2925296599447
 21
-357.1188951399395
 31
0.0
  0
LINE
  5
B95
330
B8E
100
AcDbEntity
  8
1
100
AcDbLine
 10
-654.2925296599446
 20
-357.1188951399395
 30
0.0
 11
-654.2925296599446
 21
-362.1188951399395
 31
0.0
  0
LINE
  5
B96
330
B8E
100
AcDbEntity
  8
1
100
AcDbLine
 10
-364.2925296599447
 20
-65.11889513993946
 30
0.0
 11
-784.2925296599446
 21
-65.11889513993946
 31
0.0
  0
LINE
  5
B97
330
B8E
100
AcDbEntity
  8
4
100
AcDbLine
 10
-369.2925296599447
 20
-70.11889513993946
 30
0.0
 11
-759.2925296599446
 21
-70.11889513993946
 31
0.0
  0
LINE
  5
B98
330
B8E
100
AcDbEntity
  8
1
100
AcDbLine
 10
-654.2925296599446
 20
-65.11889513993946
 30
0.0
 11
-654.2925296599446
 21
-70.11889513993946
 31
0.0
  0
LINE
  5
B99
330
B8E
100
AcDbEntity
  8
1
100
AcDbLine
 10
-549.2925296599446
 20
-70.11889513993946
 30
0.0
 11
-549.2925296599446
 21
-65.11889513993946
 31
0.0
  0
LINE
  5
B9A
330
B8E
100
AcDbEntity
  8
1
100
AcDbLine
 10
-369.2925296599447
 20
-65.11889513993946
 30
0.0
 11
-364.2925296599447
 21
-65.11889513993946
 31
0.0
  0
LINE
  5
B9B
330
B8E
100
AcDbEntity
  8
1
100
AcDbLine
 10
-549.2925296599446
 20
-357.1188951399395
 30
0.0
 11
-549.2925296599446
 21
-362.1188951399395
 31
0.0
  0
ENDBLK
  5
B9D
330
B8E
100
AcDbEntity
  8
0
100
AcDbBlockEnd
  0
BLOCK
  5
C13
330
B9E
100
AcDbEntity
  8
0
100
AcDbBlockBegin
  2
legenda desenvolvimento
 70
     2
 10
0.0
 20
0.0
 30
0.0
  3
legenda desenvolvimento
  1

  0
ATTDEF
  5
B9F
330
B9E
100
AcDbEntity
  8
1
100
AcDbText
 10
-108.606245802552
 20
55.5
 30
0.0
 40
4.0
  1
XXXXXXXXXXXXXX
 41
0.8
  7
SANINDUSA
 72
     4
 11
-87.5
 21
57.5
 31
0.0
100
AcDbAttributeDefinition
  3
Nome do Produto:
  2
PRODUTO
 70
     0
  0
ATTDEF
  5
BA0
330
B9E
100
AcDbEntity
  8
1
100
AcDbText
 10
-97.9997966101695
 20
41.25
 30
0.0
 40
3.0
  1
XXXXXXXXX
 41
0.8
  7
futura
 72
     4
 11
-87.5
 21
42.75
 31
0.0
100
AcDbAttributeDefinition
  3
Nome da Peça:
  2
PECA
 70
     0
  0
ATTDEF
  5
BA1
330
B9E
100
AcDbEntity
  8
1
100
AcDbText
 10
-133.4422431161853
 20
21.11745296763252
 30
0.0
 40
2.5
  1
X
 41
0.8
  7
SANINDUSA
 72
     4
 11
-132.5
 21
22.36745296763252
 31
0.0
100
AcDbAttributeDefinition
  3
Cod. TESTE:
  2
TESTE
 70
     0
  0
ATTDEF
  5
BA2
330
B9E
100
AcDbEntity
  8
1
100
AcDbText
 10
-124.3844862323707
 20
21.11745296763252
 30
0.0
 40
2.5
  1
XX
 41
0.8
  7
SANINDUSA
 72
     4
 11
-122.5
 21
22.36745296763252
 31
0.0
100
AcDbAttributeDefinition
  3
Cod. Ano:
  2
ANO
 70
     0
  0
ATTDEF
  5
BA3
330
B9E
100
AcDbEntity
  8
1
100
AcDbText
 10
-112.526889953052
 20
21.11745296763252
 30
0.0
 40
2.5
  1
XXX
 41
0.8
  7
SANINDUSA
 72
     4
 11
-109.700160604496
 21
22.36745296763252
 31
0.0
100
AcDbAttributeDefinition
  3
Cod. Sequência:
  2
SEQUENCIA
 70
     0
  0
ATTDEF
  5
BA4
330
B9E
100
AcDbEntity
  8
1
100
AcDbText
 10
-99.35382430979316
 20
21.11745296763252
 30
0.0
 40
2.5
  1
XX
 41
0.8
  7
SANINDUSA
 72
     4
 11
-97.46933807742244
 21
22.36745296763252
 31
0.0
100
AcDbAttributeDefinition
  3
Cod. Tipo:
  2
TIPO
 70
     0
  0
ATTDEF
  5
BA5
330
B9E
100
AcDbEntity
  8
1
100
AcDbText
 10
-87.42035911468438
 20
21.11745296763252
 30
0.0
 40
2.5
  1
XXX
 41
0.8
  7
SANINDUSA
 72
     4
 11
-84.59362976612828
 21
22.36745296763252
 31
0.0
100
AcDbAttributeDefinition
  3
Cod. Produto:
  2
PRODUTO
 70
     0
  0
ATTDEF
  5
BA6
330
B9E
100
AcDbEntity
  8
1
100
AcDbText
 10
-74.62051971917853
 20
21.11745296763252
 30
0.0
 40
2.5
  1
XXX
 41
0.8
  7
SANINDUSA
 72
     4
 11
-71.79379037062244
 21
22.36745296763252
 31
0.0
100
AcDbAttributeDefinition
  3
Cod. Peça:
  2
PECA
 70
     0
  0
ATTDEF
  5
BA7
330
B9E
100
AcDbEntity
  8
1
100
AcDbText
 10
-61.10603446650329
 20
21.11745296763252
 30
0.0
 40
2.5
  1
XX
 41
0.8
  7
SANINDUSA
 72
     4
 11
-59.22154823413257
 21
22.36745296763252
 31
0.0
100
AcDbAttributeDefinition
  3
Cod. Revisão:
  2
REV
 70
     0
  0
ATTDEF
  5
BA8
330
B9E
100
AcDbEntity
  8
1
100
AcDbText
 10
-48.43615325006194
 20
21.11745296763252
 30
0.0
 40
2.5
  1
XX
 41
0.8
  7
SANINDUSA
 72
     4
 11
-46.55166701769121
 21
22.36745296763252
 31
0.0
100
AcDbAttributeDefinition
  3
Cod. Alteração:
  2
ALT
 70
     0
  0
ATTDEF
  5
BA9
330
B9E
100
AcDbEntity
  8
1
100
AcDbText
 10
-35.19086635325722
 20
23.98875083948959
 30
0.0
 40
3.0
  1
1/XXX
 41
0.8
  7
SANINDUSA
 72
     4
 11
-30.0
 21
25.25
 31
0.0
100
AcDbAttributeDefinition
  3
Escala geral:
  2
ESCALA
 70
     0
  0
ATTDEF
  5
BAA
330
B9E
100
AcDbEntity
  8
1
100
AcDbText
 10
-15.65345869711215
 20
23.75
 30
0.0
 40
3.0
  1
XXXXX
 41
0.8
  7
SANINDUSA
 72
     4
 11
-10.0
 21
25.25
 31
0.0
100
AcDbAttributeDefinition
  3
Folha:
  2
FOLHA
 70
     0
  0
ATTDEF
  5
BAB
330
B9E
100
AcDbEntity
  8
1
100
AcDbText
 10
-178.5146998822042
 20
56.9531347542807
 30
0.0
 40
2.0
  1
xx
 41
0.8
  7
SANINDUSA
 72
     4
 11
-177.2123493113513
 21
57.70330265219877
 31
0.0
100
AcDbAttributeDefinition
  3
revisão
  2
REV.
 70
     0
  0
ATTDEF
  5
BAC
330
B9E
100
AcDbEntity
  8
1
100
AcDbText
 10
-172.7849640077129
 20
56.9531347542807
 30
0.0
 40
2.0
  1
xx
 41
0.8
  7
SANINDUSA
 72
     4
 11
-171.48261343686
 21
57.70330265219877
 31
0.0
100
AcDbAttributeDefinition
  3
alteração
  2
ALT.
 70
     0
  0
ATTDEF
  5
BAD
330
B9E
100
AcDbEntity
  8
1
100
AcDbText
 10
-168.007199951307
 20
56.70330265219877
 30
0.0
 40
2.0
  1
xx/xx/xxxx
 41
0.8
  7
SANINDUSA
 11
-168.007199951307
 21
57.70330265219877
 31
0.0
100
AcDbAttributeDefinition
  3
data
  2
DATA
 70
     0
 74
     2
  0
ATTDEF
  5
BAE
330
B9E
100
AcDbEntity
  8
1
100
AcDbText
 10
-168.5396372253371
 20
13.15916722632639
 30
0.0
 40
2.0
  1
XX/XX/XXXX
 41
0.8
  7
SANINDUSA
 72
     4
 11
-161.5099528734231
 21
14.0
 31
0.0
100
AcDbAttributeDefinition
  3
Data projecto
  2
DATA_PROJ
 70
     0
  0
ATTDEF
  5
BAF
330
B9E
100
AcDbEntity
  8
1
100
AcDbText
 10
-150.8658110728766
 20
13.24983210208193
 30
0.0
 40
2.0
  1
xxxxxxxx
 41
0.8
  7
SANINDUSA
 72
     4
 11
-145.6564087894649
 21
14.0
 31
0.0
100
AcDbAttributeDefinition
  3
nome de quem projectou
  2
NOME
 70
     0
  0
ATTDEF
  5
BB0
330
B9E
100
AcDbEntity
  8
1
100
AcDbText
 10
-168.5396372253371
 20
9.159167226326394
 30
0.0
 40
2.0
  1
XX/XX/XXXX
 41
0.8
  7
SANINDUSA
 72
     4
 11
-161.5099528734231
 21
10.0
 31
0.0
100
AcDbAttributeDefinition
  3
Data desenhou
  2
DATA_DES
 70
     0
  0
ATTDEF
  5
BB1
330
B9E
100
AcDbEntity
  8
1
100
AcDbText
 10
-151.516986358303
 20
9.249832102081933
 30
0.0
 40
2.0
  1
xxxxxxxxx
 41
0.8
  7
SANINDUSA
 72
     4
 11
-145.6564087894649
 21
10.0
 31
0.0
100
AcDbAttributeDefinition
  3
nome
  2
NOME
 70
     0
  0
ATTDEF
  5
BB2
330
B9E
100
AcDbEntity
  8
1
100
AcDbText
 10
-127.2924214135946
 20
14.1979876583216
 30
0.0
 40
2.0
  1
Vitreous China
 41
0.8
  7
SANINDUSA
 72
     4
 11
-119.231709526422
 21
15.22216495852308
 31
0.0
100
AcDbAttributeDefinition
  3
Nome do Material:
  2
MATERIAL
 70
     0
  0
ATTDEF
  5
BB3
330
B9E
100
AcDbEntity
  8
1
100
AcDbText
 10
-103.1563452122093
 20
14.38019043949261
 30
0.0
 40
2.0
  1
Branco
 41
0.8
  7
SANINDUSA
 72
     4
 11
-99.33418268702462
 21
15.35937109765245
 31
0.0
100
AcDbAttributeDefinition
  3
cor da peça
  2
COR
 70
     0
  0
ATTDEF
  5
BB4
330
B9E
100
AcDbEntity
  8
1
100
AcDbText
 10
-116.7235057085292
 20
5.975822699798522
 30
0.0
 40
2.0
  1
Vidrado
 41
0.8
  7
SANINDUSA
 72
     4
 11
-112.5
 21
7.0
 31
0.0
100
AcDbAttributeDefinition
  3
Tipo de acabamento:
  2
ACABAMENTO
 70
     0
  0
ATTDEF
  5
BB5
330
B9E
100
AcDbEntity
  8
1
100
AcDbText
 10
-79.18527869967246
 20
16.65066409850533
 30
0.0
 40
2.0
  1
XXXXXXX
 41
0.8
  7
SANINDUSA
 72
     4
 11
-73.90871724903445
 21
17.65066409850533
 31
0.0
100
AcDbAttributeDefinition
  3
Normas
  2
NORMAS
 70
     0
  0
ATTDEF
  5
BB6
330
B9E
100
AcDbEntity
  8
1
100
AcDbText
 10
-30.55312290127603
 20
14.0
 30
0.0
 40
2.0
  1
XXXXXXXXXXXXXX
 41
0.8
  7
SANINDUSA
 72
     4
 11
-20.0
 21
15.0
 31
0.0
100
AcDbAttributeDefinition
  3
Substitui o desenho:
  2
SUBSTITUI
 70
     0
  0
ATTDEF
  5
BB7
330
B9E
100
AcDbEntity
  8
1
100
AcDbText
 10
-31.30691739422431
 20
6.0
 30
0.0
 40
2.0
  1
XXXXXXXXXXXXXXX
 41
0.8
  7
SANINDUSA
 72
     4
 11
-20.0
 21
7.0
 31
0.0
100
AcDbAttributeDefinition
  3
Substituido por:
  2
SUBSTITUIDO
 70
     0
  0
ATTDEF
  5
BB8
330
B9E
100
AcDbEntity
  8
1
100
AcDbText
 10
-110.0220608548302
 20
1.478208457928303
 30
0.0
 40
2.0
  1
XXXXXXXXXXXXXXXXXXXXXXXXXXXXXXXXXX
 41
0.8
  7
SANINDUSA
 11
-110.0220608548302
 21
2.478208457928303
 31
0.0
100
AcDbAttributeDefinition
  3
Localização do desenho:
  2
LOC-DWG
 70
     0
 74
     2
  0
LINE
  5
BB9
330
B9E
100
AcDbEntity
  8
3
100
AcDbLine
 10
-135.0
 20
4.0
 30
0.0
 11
0.0000000000004547
 21
4.0
 31
0.0
  0
LINE
  5
BBA
330
B9E
100
AcDbEntity
  8
3
100
AcDbLine
 10
-90.00000000000046
 20
12.0
 30
0.0
 11
-135.0
 21
12.0
 31
0.0
  0
LINE
  5
BBB
330
B9E
100
AcDbEntity
  8
3
100
AcDbLine
 10
-135.0
 20
32.5
 30
0.0
 11
-40.0
 21
32.5
 31
0.0
  0
TEXT
  5
BBC
330
B9E
100
AcDbEntity
  8
1
100
AcDbText
 10
-134.0
 20
1.25
 30
0.0
 40
2.0
  1
Localização do des.:
 41
0.8
  7
SANINDUSA
 11
-134.0
 21
2.25
 31
0.0
100
AcDbText
 73
     2
  0
LINE
  5
BBD
330
B9E
100
AcDbEntity
  8
3
100
AcDbLine
 10
-180.0
 20
65.0
 30
0.0
 11
0.0
 21
65.0
 31
0.0
  0
LINE
  5
BBE
330
B9E
100
AcDbEntity
  8
leg fin
100
AcDbLine
 10
-40.0
 20
25.05956924886846
 30
0.0
 11
-135.0
 21
25.05956924886846
 31
0.0
  0
LINE
  5
BBF
330
B9E
100
AcDbEntity
  8
leg fin
100
AcDbLine
 10
-40.0
 20
28.5
 30
0.0
 11
-135.0
 21
28.5
 31
0.0
  0
LINE
  5
BC0
330
B9E
100
AcDbEntity
  8
3
100
AcDbLine
 10
-135.0
 20
50.0
 30
0.0
 11
-40.0
 21
50.0
 31
0.0
  0
TEXT
  5
BC1
330
B9E
100
AcDbEntity
  8
1
100
AcDbText
 10
-134.0
 20
29.75
 30
0.0
 40
2.0
  1
Desenho nº:
 41
0.8
  7
SANINDUSA
 11
-134.0
 21
30.75
 31
0.0
100
AcDbText
 73
     2
  0
TEXT
  5
BC2
330
B9E
100
AcDbEntity
  8
1
100
AcDbText
 10
-134.0
 20
9.25
 30
0.0
 40
2.0
  1
Acabamento:
 41
0.8
  7
SANINDUSA
 11
-134.0
 21
10.25
 31
0.0
100
AcDbText
 73
     2
  0
LINE
  5
BC3
330
B9E
100
AcDbEntity
  8
3
100
AcDbLine
 10
-180.0
 20
20.0
 30
0.0
 11
0.0
 21
20.0
 31
0.0
  0
LINE
  5
BC4
330
B9E
100
AcDbEntity
  8
1
100
AcDbLine
 10
-174.5810776056337
 20
55.5
 30
0.0
 11
-174.5810776056337
 21
65.0
 31
0.0
  0
LINE
  5
BC5
330
B9E
100
AcDbEntity
  8
1
100
AcDbLine
 10
-168.9210461879161
 20
55.5
 30
0.0
 11
-168.9210461879161
 21
65.0
 31
0.0
  0
LINE
  5
BC6
330
B9E
100
AcDbEntity
  8
1
100
AcDbLine
 10
-154.0988595589306
 20
55.5
 30
0.0
 11
-154.0988595589306
 21
65.0
 31
0.0
  0
LINE
  5
BC7
330
B9E
100
AcDbEntity
  8
3
100
AcDbLine
 10
-180.0
 20
65.0
 30
0.0
 11
-180.0
 21
0.0
 31
0.0
  0
LINE
  5
BC8
330
B9E
100
AcDbEntity
  8
3
100
AcDbLine
 10
-135.0
 20
0.0
 30
0.0
 11
-135.0
 21
65.0
 31
0.0
  0
TEXT
  5
BC9
330
B9E
100
AcDbEntity
  8
1
100
AcDbText
 10
-179.0
 20
9.75
 30
0.0
 40
1.5
  1
Des.
 41
0.8
  7
SANINDUSA
 11
-179.0
 21
10.5
 31
0.0
100
AcDbText
 73
     2
  0
LINE
  5
BCA
330
B9E
100
AcDbEntity
  8
1
100
AcDbLine
 10
-168.9210461879161
 20
20.0
 30
0.0
 11
-168.9210461879161
 21
0.0
 31
0.0
  0
LINE
  5
BCB
330
B9E
100
AcDbEntity
  8
1
100
AcDbLine
 10
-154.0988595589306
 20
20.0
 30
0.0
 11
-154.0988595589306
 21
0.0
 31
0.0
  0
LINE
  5
BCC
330
B9E
100
AcDbEntity
  8
1
100
AcDbLine
 10
-180.0
 20
4.0
 30
0.0
 11
-135.0
 21
4.0
 31
0.0
  0
LINE
  5
BCD
330
B9E
100
AcDbEntity
  8
1
100
AcDbLine
 10
-180.0
 20
8.0
 30
0.0
 11
-135.0
 21
8.0
 31
0.0
  0
TEXT
  5
BCE
330
B9E
100
AcDbEntity
  8
1
100
AcDbText
 10
-179.0
 20
1.73257823687436
 30
0.0
 40
1.5
  1
Aprov.
 41
0.8
  7
SANINDUSA
 11
-179.0
 21
2.48257823687436
 31
0.0
100
AcDbText
 73
     2
  0
TEXT
  5
BCF
330
B9E
100
AcDbEntity
  8
1
100
AcDbText
 10
-179.0
 20
5.75
 30
0.0
 40
1.5
  1
Ver.
 41
0.8
  7
SANINDUSA
 11
-179.0
 21
6.5
 31
0.0
100
AcDbText
 73
     2
  0
LINE
  5
BD0
330
B9E
100
AcDbEntity
  8
1
100
AcDbLine
 10
-180.0
 20
16.0
 30
0.0
 11
-135.0
 21
16.0
 31
0.0
  0
LINE
  5
BD1
330
B9E
100
AcDbEntity
  8
1
100
AcDbLine
 10
-180.0
 20
12.0
 30
0.0
 11
-135.0
 21
12.0
 31
0.0
  0
TEXT
  5
BD2
330
B9E
100
AcDbEntity
  8
1
100
AcDbText
 10
-179.0
 20
13.75
 30
0.0
 40
1.5
  1
Proj.
 41
0.8
  7
SANINDUSA
 11
-179.0
 21
14.5
 31
0.0
100
AcDbText
 73
     2
  0
TEXT
  5
BD3
330
B9E
100
AcDbEntity
  8
1
100
AcDbText
 10
-167.9210461879161
 20
17.75
 30
0.0
 40
1.5
  1
Data
 41
0.8
  7
SANINDUSA
 11
-167.9210461879161
 21
18.5
 31
0.0
100
AcDbText
 73
     2
  0
TEXT
  5
BD4
330
B9E
100
AcDbEntity
  8
1
100
AcDbText
 10
-153.0988595589306
 20
17.75
 30
0.0
 40
1.5
  1
Nome
 41
0.8
  7
SANINDUSA
 11
-153.0988595589306
 21
18.5
 31
0.0
100
AcDbText
 73
     2
  0
LINE
  5
BD5
330
B9E
100
AcDbEntity
  8
leg fin
100
AcDbLine
 10
-130.0
 20
20.0
 30
0.0
 11
-130.0
 21
28.5
 31
0.0
  0
TEXT
  5
BD6
330
B9E
100
AcDbEntity
  8
1
100
AcDbText
 10
-134.0
 20
17.25
 30
0.0
 40
2.0
  1
Material:
 41
0.8
  7
SANINDUSA
 11
-134.0
 21
18.25
 31
0.0
100
AcDbText
 73
     2
  0
TEXT
  5
BD7
330
B9E
100
AcDbEntity
  8
1
100
AcDbText
 10
-129.0
 20
26.43288406845113
 30
0.0
 40
1.5
  1
Ano:
 41
0.8
  7
SANINDUSA
 11
-129.0
 21
27.18288406845113
 31
0.0
100
AcDbText
 73
     2
  0
LINE
  5
BD8
330
B9E
100
AcDbEntity
  8
1
100
AcDbLine
 10
-180.0
 20
55.5
 30
0.0
 11
-135.0
 21
55.5
 31
0.0
  0
TEXT
  5
BD9
330
B9E
100
AcDbEntity
  8
1
100
AcDbText
 10
-179.0
 20
52.67772246885193
 30
0.0
 40
1.5
  1
descrição
 41
0.8
  7
SANINDUSA
 11
-179.0
 21
53.42772246885193
 31
0.0
100
AcDbText
 73
     2
  0
TEXT
  5
BDA
330
B9E
100
AcDbEntity
  8
1
100
AcDbText
 10
-134.0
 20
47.25
 30
0.0
 40
2.0
  1
Peça:
 41
0.8
  7
SANINDUSA
 11
-134.0
 21
48.25
 31
0.0
100
AcDbText
 73
     2
  0
LINE
  5
BDB
330
B9E
100
AcDbEntity
  8
1
100
AcDbLine
 10
-180.0
 20
59.5
 30
0.0
 11
-135.0
 21
59.5
 31
0.0
  0
TEXT
  5
BDC
330
B9E
100
AcDbEntity
  8
1
100
AcDbText
 10
-173.5810776056337
 20
62.75
 30
0.0
 40
1.5
  1
Alt.
 41
0.8
  7
SANINDUSA
 11
-173.5810776056337
 21
63.5
 31
0.0
100
AcDbText
 73
     2
  0
TEXT
  5
BDD
330
B9E
100
AcDbEntity
  8
1
100
AcDbText
 10
-179.0
 20
62.75
 30
0.0
 40
1.5
  1
Rev.
 41
0.8
  7
SANINDUSA
 11
-179.0
 21
63.5
 31
0.0
100
AcDbText
 73
     2
  0
TEXT
  5
BDE
330
B9E
100
AcDbEntity
  8
1
100
AcDbText
 10
-167.9210461879161
 20
62.75
 30
0.0
 40
1.5
  1
Data
 41
0.8
  7
SANINDUSA
 11
-167.9210461879161
 21
63.5
 31
0.0
100
AcDbText
 73
     2
  0
TEXT
  5
BDF
330
B9E
100
AcDbEntity
  8
1
100
AcDbText
 10
-153.0988595589306
 20
62.75
 30
0.0
 40
1.5
  1
Nome
 41
0.8
  7
SANINDUSA
 11
-153.0988595589306
 21
63.5
 31
0.0
100
AcDbText
 73
     2
  0
TEXT
  5
BE0
330
B9E
100
AcDbEntity
  8
1
100
AcDbText
 10
-134.0
 20
62.25
 30
0.0
 40
2.0
  1
Produto:
 41
0.8
  7
SANINDUSA
 11
-134.0
 21
63.25
 31
0.0
100
AcDbText
 73
     2
  0
LINE
  5
BE1
330
B9E
100
AcDbEntity
  8
3
100
AcDbLine
 10
-40.0
 20
4.0
 30
0.0
 11
-40.0
 21
65.0
 31
0.0
  0
LWPOLYLINE
  5
BE2
102
{ACAD_REACTORS
330
BEC
102
}
330
B9E
100
AcDbEntity
  8
9
100
AcDbPolyline
 90
       12
 70
     1
 43
0.0
 10
-3.038714600644652
 20
58.90010174665076
 10
-5.726962862472191
 20
58.90010174665076
 10
-5.726962862472191
 20
58.5001017466509
 10
-3.038748516195028
 20
58.5001017466509
 42
-0.4142135623731731
 10
-2.638748516194482
 20
58.1001017466508
 10
-2.638748516194482
 20
57.42799728675596
 10
-5.21497371544865
 20
57.42799728675596
 42
0.4142135623731289
 10
-6.014973715448377
 20
56.627997286756
 10
-6.014973715448377
 20
55.92380871629643
 42
0.4142135623731132
 10
-5.21497371544865
 20
55.12380871629648
 10
-2.23871460064447
 20
55.12380871629648
 10
-2.23871460064447
 20
58.10010174665103
 42
0.4142135623730717
  0
LWPOLYLINE
  5
BE3
102
{ACAD_REACTORS
330
BEC
102
}
330
B9E
100
AcDbEntity
  8
9
100
AcDbPolyline
 90
       20
 70
     1
 43
0.0
 10
-10.01531287095122
 20
57.82799728675581
 10
-10.01531287095122
 20
58.10010174665103
 42
-0.4142135623730744
 10
-9.615312870951584
 20
58.5001017466509
 10
-6.92703069357276
 20
58.5001017466509
 10
-6.92703069357276
 20
58.90010174665076
 10
-9.615346786501959
 20
58.90010174665076
 42
0.4142135623730883
 10
-10.41534678650168
 20
58.1001017466508
 10
-10.41534678650168
 20
57.82796337120567
 42
0.4142135623730717
 10
-9.615346786501959
 20
57.02796337120571
 10
-7.423079531965413
 20
57.02796337120571
 42
-0.4142135623730847
 10
-7.023079531965322
 20
56.62796337120562
 10
-7.023079531965322
 20
55.90786840766487
 42
-0.4142135623730744
 10
-7.423079531965413
 20
55.507868407665
 10
-10.41534678650168
 20
55.507868407665
 10
-10.41534678650168
 20
55.12380871629648
 10
-7.445787917283723
 20
55.12380871629648
 42
0.4114777732064574
 10
-6.645822882998345
 20
55.9163291493976
 10
-6.639238813324936
 20
56.62051771985716
 42
0.4169546541682913
 10
-7.439203847610315
 20
57.42799728675596
 10
-9.615312870951584
 20
57.42799728675596
 42
-0.4142135623731576
  0
LWPOLYLINE
  5
BE4
102
{ACAD_REACTORS
330
BEC
102
}
330
B9E
100
AcDbEntity
  8
9
100
AcDbPolyline
 90
       12
 70
     1
 43
0.0
 10
-14.41561811090378
 20
58.90010174665076
 10
-14.79964388672215
 20
58.90010174665076
 10
-14.79964388672215
 20
55.92380871629643
 42
0.4142135623731133
 10
-13.99964388672242
 20
55.12380871629648
 10
-11.8233508563676
 20
55.12380871629648
 42
0.4142135623730872
 10
-11.02335085636741
 20
55.92380871629643
 10
-11.02335085636741
 20
58.90010174665076
 10
-11.42338477191788
 20
58.90010174665076
 10
-11.42338477191788
 20
55.91567577726095
 42
-0.4131711701795318
 10
-11.82196067063523
 20
55.51567831234956
 10
-14.0141940096214
 20
55.50787335710947
 42
-0.4152567234624407
 10
-14.41561811090378
 20
55.90787082202087
  0
LWPOLYLINE
  5
BE5
102
{ACAD_REACTORS
330
BEC
102
}
330
B9E
100
AcDbEntity
  8
9
100
AcDbPolyline
 90
        6
 70
     1
 43
0.0
 10
-15.80771578768872
 20
55.507868407665
 10
-18.39994912667453
 20
55.507868407665
 42
-0.4142135623731731
 10
-18.79994912667462
 20
55.90786840766487
 10
-18.79994912667462
 20
58.10010174665103
 42
-0.4142135623730744
 10
-18.39994912667453
 20
58.5001017466509
 10
-15.80771578768872
 20
58.5001017466509
  0
LWPOLYLINE
  5
BE6
102
{ACAD_REACTORS
330
BEC
102
}
330
B9E
100
AcDbEntity
  8
9
100
AcDbPolyline
 90
        8
 70
     1
 43
0.0
 10
-15.4236900118708
 20
59.87619128370352
 10
-15.80771578768872
 20
59.87619128370352
 10
-15.80771578768872
 20
58.90010174665076
 10
-18.39176256411201
 20
58.90010174665076
 42
0.4131164467977967
 10
-19.19175694739761
 20
58.1030995310698
 10
-19.1999120763262
 20
55.92680650071542
 42
0.4153115297271718
 10
-18.39991769304061
 20
55.12380871629648
 10
-15.4236900118708
 20
55.12380871629648
  0
LWPOLYLINE
  5
BE7
102
{ACAD_REACTORS
330
BEC
102
}
330
B9E
100
AcDbEntity
  8
9
100
AcDbPolyline
 90
       10
 70
     1
 43
0.0
 10
-20.59201288790928
 20
58.90010174665076
 10
-23.56830591826338
 20
58.90010174665076
 10
-23.56830591826338
 20
55.12380871629648
 10
-23.18424622689509
 20
55.12380871629648
 10
-23.18424622689509
 20
58.5001017466509
 10
-20.59204680345965
 20
58.5001017466509
 42
-0.4142135623730898
 10
-20.19204680345956
 20
58.1001017466508
 10
-20.19204680345956
 20
55.12380871629648
 10
-19.79201288790909
 20
55.12380871629648
 10
-19.79201288790909
 20
58.10010174665103
 42
0.4142135623731132
  0
LWPOLYLINE
  5
BE8
102
{ACAD_REACTORS
330
BEC
102
}
330
B9E
100
AcDbEntity
  8
9
100
AcDbPolyline
 90
        4
 70
     1
 43
0.0
 10
-24.19231812786165
 20
58.90010174665076
 10
-24.57637781922995
 20
58.90010174665076
 10
-24.57637781922995
 20
55.12380871629648
 10
-24.19231812786165
 20
55.12380871629648
  0
LWPOLYLINE
  5
BE9
102
{ACAD_REACTORS
330
BEC
102
}
330
B9E
100
AcDbEntity
  8
9
100
AcDbPolyline
 90
       10
 70
     1
 43
0.0
 10
-28.57661522808212
 20
58.5001017466509
 10
-25.98444972019706
 20
58.5001017466509
 42
-0.4142135623731731
 10
-25.58444972019652
 20
58.1001017466508
 10
-25.58444972019652
 20
55.12380871629648
 10
-25.2004239443786
 20
55.12380871629648
 10
-25.2004239443786
 20
58.10010174665103
 42
0.4142135623730717
 10
-26.00042394437833
 20
58.90010174665076
 10
-28.97664914363259
 20
58.90010174665076
 10
-28.97664914363259
 20
55.12380871629648
 10
-28.57661522808212
 20
55.12380871629648
  0
LWPOLYLINE
  5
BEA
102
{ACAD_REACTORS
330
BEC
102
}
330
B9E
100
AcDbEntity
  8
9
100
AcDbPolyline
 90
       12
 70
     1
 43
0.0
 10
-29.58465321349832
 20
58.10010174665103
 42
0.4142135623730716
 10
-30.3846532134985
 20
58.90010174665076
 10
-33.07296930642724
 20
58.90010174665076
 10
-33.07296930642724
 20
58.5001017466509
 10
-30.38468712904842
 20
58.5001017466509
 42
-0.4142135623730067
 10
-29.98468712904878
 20
58.1001017466508
 10
-29.98468712904878
 20
57.42799728675618
 10
-32.56098015940324
 20
57.42799728675596
 42
0.4142135623731289
 10
-33.36098015940343
 20
56.627997286756
 10
-33.36098015940343
 20
55.92380871629643
 42
0.4142135623731132
 10
-32.56098015940324
 20
55.12380871629648
 10
-29.58465321349832
 20
55.12380871629648
  0
LWPOLYLINE
  5
BEB
102
{ACAD_REACTORS
330
BEC
102
}
330
B9E
100
AcDbEntity
  8
9
100
AcDbPolyline
 90
       20
 70
     1
 43
0.0
 10
-34.7850262845518
 20
57.42799728675596
 10
-36.96125148380543
 20
57.42799728675596
 42
-0.4142135623730898
 10
-37.36125148380552
 20
57.82799728675604
 10
-37.36125148380552
 20
58.10010174665103
 42
-0.4142135623730744
 10
-36.96125148380543
 20
58.5001017466509
 10
-34.27303713752781
 20
58.50010174665067
 10
-34.27303713752781
 20
58.90010174665076
 10
-36.96128539935535
 20
58.90010174665076
 42
0.4142135623731289
 10
-37.76128539935553
 20
58.1001017466508
 10
-37.76128539935553
 20
57.82796337120567
 42
0.4142135623730716
 10
-36.9612853993558
 20
57.02796337120571
 10
-34.76901814481926
 20
57.02796337120571
 42
-0.414213562373168
 10
-34.36901814481962
 20
56.62796337120562
 10
-34.36901814481962
 20
55.90786840766487
 42
-0.4142135623730744
 10
-34.76901814481926
 20
55.507868407665
 10
-37.76128539935553
 20
55.507868407665
 10
-37.76128539935553
 20
55.12380871629648
 10
-34.7850262845518
 20
55.12380871629648
 42
0.4142135623731289
 10
-33.98502628455162
 20
55.92380871629643
 10
-33.98502628455162
 20
56.627997286756
 42
0.4142135623731132
  0
HATCH
  5
BEC
330
B9E
100
AcDbEntity
  8
9
100
AcDbHatch
 10
0.0
 20
0.0
 30
0.0
210
0.0
220
0.0
230
1.0
  2
SOLID
 70
     1
 71
     1
 91
       13
 92
        7
 72
     1
 73
     1
 93
       20
 10
-34.36901814481962
 20
55.90786840766487
 42
-0.414213562372991
 10
-34.76901814481926
 20
55.507868407665
 42
0.0
 10
-37.76128539935553
 20
55.507868407665
 42
0.0
 10
-37.76128539935553
 20
55.12380871629648
 42
0.0
 10
-34.7850262845518
 20
55.12380871629648
 42
0.4142135623731705
 10
-33.98502628455162
 20
55.92380871629666
 42
0.0
 10
-33.98502628455162
 20
56.627997286756
 42
0.4142135623731547
 10
-34.7850262845518
 20
57.42799728675596
 42
0.0
 10
-36.96125148380543
 20
57.42799728675596
 42
-0.4142135623730898
 10
-37.36125148380552
 20
57.82799728675604
 42
0.0
 10
-37.36125148380552
 20
58.1001017466508
 42
-0.4142135623731575
 10
-36.96125148380543
 20
58.5001017466509
 42
0.0
 10
-34.27303713752781
 20
58.50010174665067
 42
0.0
 10
-34.27303713752781
 20
58.90010174665076
 42
0.0
 10
-36.96128539935535
 20
58.90010174665076
 42
0.4142135623731705
 10
-37.76128539935553
 20
58.10010174665058
 42
0.0
 10
-37.76128539935553
 20
57.82796337120544
 42
0.4142135623730299
 10
-36.9612853993558
 20
57.02796337120571
 42
0.0
 10
-34.76901814481926
 20
57.02796337120571
 42
-0.4142135623730015
 10
-34.36901814481962
 20
56.62796337120608
 42
0.0
 97
        1
330
BEB
 92
        7
 72
     1
 73
     1
 93
       12
 10
-33.36098015940343
 20
55.92380871629666
 42
0.4142135623731547
 10
-32.56098015940324
 20
55.12380871629648
 42
0.0
 10
-29.58465321349877
 20
55.12380871629648
 42
0.0
 10
-29.58465321349832
 20
58.10010174665058
 42
0.4142135623731964
 10
-30.3846532134985
 20
58.90010174665076
 42
0.0
 10
-33.07296930642724
 20
58.90010174665076
 42
0.0
 10
-33.07296930642724
 20
58.50010174665067
 42
0.0
 10
-30.38468712904887
 20
58.5001017466509
 42
-0.4142135623732564
 10
-29.98468712904878
 20
58.10010174665103
 42
0.0
 10
-29.98468712904923
 20
57.42799728675596
 42
0.0
 10
-32.56098015940324
 20
57.42799728675596
 42
0.4142135623731705
 10
-33.36098015940343
 20
56.627997286756
 42
0.0
 97
        1
330
BEA
 92
       22
 72
     1
 73
     1
 93
        6
 10
-32.97692046803468
 20
56.62796337120562
 42
-0.4142135623731576
 10
-32.57692046803459
 20
57.02796337120571
 42
0.0
 10
-29.98468712904878
 20
57.02796337120571
 42
0.0
 10
-29.98468712904878
 20
55.507868407665
 42
0.0
 10
-32.57692046803459
 20
55.507868407665
 42
-0.4142135623731731
 10
-32.97692046803468
 20
55.90786840766487
 42
0.0
 97
        1
330
C11
 92
        7
 72
     1
 73
     1
 93
       10
 10
-28.57661522808212
 20
58.5001017466509
 42
0.0
 10
-25.98444972019661
 20
58.5001017466509
 42
-0.4142135623730067
 10
-25.58444972019652
 20
58.10010174665058
 42
0.0
 10
-25.58444972019606
 20
55.12380871629648
 42
0.0
 10
-25.20042394437906
 20
55.12380871629648
 42
0.0
 10
-25.2004239443786
 20
58.1001017466508
 42
0.4142135623731134
 10
-26.00042394437833
 20
58.90010174665076
 42
0.0
 10
-28.97664914363259
 20
58.90010174665076
 42
0.0
 10
-28.97664914363259
 20
55.12380871629648
 42
0.0
 10
-28.57661522808212
 20
55.12380871629648
 42
0.0
 97
        1
330
BE9
 92
        7
 72
     0
 73
     1
 93
        4
 10
-24.57637781922995
 20
55.12380871629648
 10
-24.19231812786165
 20
55.12380871629648
 10
-24.19231812786165
 20
58.90010174665076
 10
-24.57637781922995
 20
58.90010174665076
 97
        1
330
BE8
 92
        7
 72
     0
 73
     1
 93
        4
 10
-24.19231812786165
 20
59.87619128370352
 10
-24.5763778192304
 20
59.87619128370352
 10
-24.5763778192304
 20
59.28412752246913
 10
-24.1923181278612
 20
59.28412752246913
 97
        1
330
C12
 92
        7
 72
     1
 73
     1
 93
       10
 10
-23.18424622689509
 20
58.5001017466509
 42
0.0
 10
-20.59204680345965
 20
58.5001017466509
 42
-0.4142135623730898
 10
-20.19204680345956
 20
58.1001017466508
 42
0.0
 10
-20.19204680345956
 20
55.12380871629648
 42
0.0
 10
-19.79201288790909
 20
55.12380871629648
 42
0.0
 10
-19.79201288790909
 20
58.1001017466508
 42
0.4142135623731547
 10
-20.59201288790928
 20
58.90010174665076
 42
0.0
 10
-23.56830591826338
 20
58.90010174665076
 42
0.0
 10
-23.56830591826338
 20
55.12380871629648
 42
0.0
 10
-23.18424622689463
 20
55.12380871629648
 42
0.0
 97
        1
330
BE7
 92
        7
 72
     1
 73
     1
 93
        8
 10
-19.1999120763262
 20
55.92680650071542
 42
0.4153115297271299
 10
-18.39991769304061
 20
55.12380871629648
 42
0.0
 10
-15.4236900118708
 20
55.12380871629648
 42
0.0
 10
-15.4236900118708
 20
59.87619128370352
 42
0.0
 10
-15.80771578768872
 20
59.87619128370352
 42
0.0
 10
-15.80771578768872
 20
58.90010174665076
 42
0.0
 10
-18.39176256411201
 20
58.90010174665076
 42
0.4131164467977965
 10
-19.19175694739761
 20
58.1030995310698
 42
0.0
 97
        1
330
BE6
 92
       22
 72
     1
 73
     1
 93
        6
 10
-18.79994912667462
 20
58.1001017466508
 42
-0.4142135623731575
 10
-18.39994912667453
 20
58.5001017466509
 42
0.0
 10
-15.80771578768872
 20
58.50010174665067
 42
0.0
 10
-15.80771578768827
 20
55.507868407665
 42
0.0
 10
-18.39994912667453
 20
55.507868407665
 42
-0.4142135623731731
 10
-18.79994912667462
 20
55.90786840766487
 42
0.0
 97
        1
330
BE5
 92
        7
 72
     1
 73
     1
 93
       12
 10
-14.79964388672215
 20
55.92380871629621
 42
0.4142135623729885
 10
-13.99964388672242
 20
55.12380871629648
 42
0.0
 10
-11.8233508563676
 20
55.12380871629648
 42
0.4142135623731289
 10
-11.02335085636741
 20
55.92380871629666
 42
0.0
 10
-11.02335085636741
 20
58.90010174665076
 42
0.0
 10
-11.42338477191788
 20
58.90010174665076
 42
0.0
 10
-11.42338477191788
 20
55.91567577726095
 42
-0.4131711701795319
 10
-11.82196067063523
 20
55.51567831234956
 42
0.0
 10
-14.01419400962095
 20
55.50787335710947
 42
-0.4152567234626918
 10
-14.41561811090378
 20
55.90787082202087
 42
0.0
 10
-14.41561811090378
 20
58.90010174665076
 42
0.0
 10
-14.7996438867226
 20
58.90010174665076
 42
0.0
 97
        1
330
BE4
 92
        7
 72
     1
 73
     1
 93
       20
 10
-7.423079531965413
 20
57.02796337120571
 42
-0.414213562373168
 10
-7.023079531965322
 20
56.62796337120562
 42
0.0
 10
-7.023079531965322
 20
55.90786840766487
 42
-0.4142135623731575
 10
-7.423079531965413
 20
55.507868407665
 42
0.0
 10
-10.41534678650168
 20
55.507868407665
 42
0.0
 10
-10.41534678650168
 20
55.12380871629648
 42
0.0
 10
-7.445787917283723
 20
55.12380871629648
 42
0.4114777732065809
 10
-6.645822882998345
 20
55.91632914939783
 42
0.0
 10
-6.639238813324936
 20
56.62051771985716
 42
0.4169546541682913
 10
-7.439203847610315
 20
57.42799728675596
 42
0.0
 10
-9.615312870951584
 20
57.42799728675596
 42
-0.4142135623729911
 10
-10.01531287095122
 20
57.82799728675581
 42
0.0
 10
-10.01531287095122
 20
58.10010174665103
 42
-0.414213562372991
 10
-9.615312870951584
 20
58.5001017466509
 42
0.0
 10
-6.92703069357276
 20
58.50010174665067
 42
0.0
 10
-6.927030693572305
 20
58.90010174665076
 42
0.0
 10
-9.615346786501959
 20
58.90010174665076
 42
0.4142135623730467
 10
-10.41534678650168
 20
58.10010174665103
 42
0.0
 10
-10.41534678650168
 20
57.82796337120544
 42
0.4142135623730301
 10
-9.615346786501959
 20
57.02796337120571
 42
0.0
 97
        1
330
BE3
 92
        7
 72
     1
 73
     1
 93
       12
 10
-5.21497371544865
 20
57.42799728675596
 42
0.4142135623730871
 10
-6.014973715448377
 20
56.627997286756
 42
0.0
 10
-6.014973715448377
 20
55.92380871629621
 42
0.4142135623730715
 10
-5.21497371544865
 20
55.12380871629648
 42
0.0
 10
-2.23871460064447
 20
55.12380871629648
 42
0.0
 10
-2.23871460064447
 20
58.10010174665058
 42
0.414213562373155
 10
-3.038714600644652
 20
58.90010174665076
 42
0.0
 10
-5.726962862471737
 20
58.90010174665076
 42
0.0
 10
-5.726962862472191
 20
58.5001017466509
 42
0.0
 10
-3.038748516194573
 20
58.5001017466509
 42
-0.4142135623730067
 10
-2.638748516194482
 20
58.10010174665058
 42
0.0
 10
-2.638748516194482
 20
57.42799728675596
 42
0.0
 97
        1
330
BE2
 92
       22
 72
     1
 73
     1
 93
        6
 10
-2.638748516194937
 20
57.02796337120571
 42
0.0
 10
-2.638748516194482
 20
55.50786840766477
 42
0.0
 10
-5.21497371544865
 20
55.507868407665
 42
-0.4142135623731731
 10
-5.614973715448741
 20
55.90786840766509
 42
0.0
 10
-5.614973715448741
 20
56.62796337120562
 42
-0.4142135623731576
 10
-5.21497371544865
 20
57.02796337120571
 42
0.0
 97
        1
330
C0D
 75
     0
 76
     1
 47
0.0407044778999864
 98
       13
 10
-34.18710075113677
 20
56.16907953933765
 10
-33.12851374392494
 20
56.49471602641233
 10
-33.12851374392494
 20
56.49471602641233
 10
-28.77202873835904
 20
57.51232930166111
 10
-24.41554807250941
 20
57.91937341678636
 10
-24.41554807250941
 20
59.384734621186
 10
-23.31624584658039
 20
58.3264175319116
 10
-19.04119127844888
 20
57.75655517324913
 10
-19.04119127844888
 20
57.75655517324913
 10
-14.64399105416578
 20
57.43091868617466
 10
-8.048195057457178
 20
57.22739662861204
 10
-4.017427461911665
 20
57.18669281458665
 10
-4.017427461911665
 20
57.18669281458665
  0
TEXT
  5
BED
330
B9E
100
AcDbEntity
  8
leg fin
100
AcDbText
 10
3.391127401597259
 20
2.107634911895729
 30
0.0
 40
1.5
  1
Este desenho é propriedade da Sanindusa, S.A., e não pode ser copiado nem divulgado sem nossa autorização.
 50
90.0
 41
0.8
  7
SANINDUSA
100
AcDbText
  0
LINE
  5
BEE
330
B9E
100
AcDbEntity
  8
3
100
AcDbLine
 10
-90.0
 20
4.0
 30
0.0
 11
-90.0
 21
12.0
 31
0.0
  0
TEXT
  5
BEF
330
B9E
100
AcDbEntity
  8
1
100
AcDbText
 10
-39.0
 20
9.25
 30
0.0
 40
2.0
  1
Substituido por:
 41
0.8
  7
SANINDUSA
 11
-39.0
 21
10.25
 31
0.0
100
AcDbText
 73
     2
  0
POINT
  5
BF0
330
B9E
100
AcDbEntity
  8
SANINDUSA
100
AcDbPoint
 10
0.0
 20
0.0
 30
0.0
  0
TEXT
  5
BF1
330
B9E
100
AcDbEntity
  8
1
100
AcDbText
 10
-89.0
 20
16.74927010445663
 30
0.0
 40
2.0
  1
Normas:
 41
0.8
  7
SANINDUSA
 11
-89.0
 21
17.74927010445663
 31
0.0
100
AcDbText
 73
     2
  0
LINE
  5
BF2
330
B9E
100
AcDbEntity
  8
3
100
AcDbLine
 10
-90.0
 20
12.0
 30
0.0
 11
-90.0
 21
20.0
 31
0.0
  0
LINE
  5
BF3
330
B9E
100
AcDbEntity
  8
3
100
AcDbLine
 10
-110.546019464768
 20
12.0
 30
0.0
 11
-110.546019464768
 21
20.0
 31
0.0
  0
TEXT
  5
BF4
330
B9E
100
AcDbEntity
  8
1
100
AcDbText
 10
-109.6177520618648
 20
17.25
 30
0.0
 40
2.0
  1
Cor:
 41
0.8
  7
SANINDUSA
 11
-109.6177520618648
 21
18.25
 31
0.0
100
AcDbText
 73
     2
  0
LINE
  5
BF5
330
B9E
100
AcDbEntity
  8
leg fin
100
AcDbLine
 10
-91.42857142857156
 20
20.0
 30
0.0
 11
-91.42857142857156
 21
28.5
 31
0.0
  0
LINE
  5
BF6
330
B9E
100
AcDbEntity
  8
leg fin
100
AcDbLine
 10
-104.2857142857142
 20
20.0
 30
0.0
 11
-104.2857142857142
 21
28.5
 31
0.0
  0
LINE
  5
BF7
330
B9E
100
AcDbEntity
  8
leg fin
100
AcDbLine
 10
-117.1428571428573
 20
20.0
 30
0.0
 11
-117.1428571428573
 21
28.5
 31
0.0
  0
POINT
  5
BF8
330
B9E
100
AcDbEntity
  8
SANINDUSA
100
AcDbPoint
 10
-117.1428571428573
 20
28.5
 30
0.0
  0
POINT
  5
BF9
330
B9E
100
AcDbEntity
  8
SANINDUSA
100
AcDbPoint
 10
-104.2857142857142
 20
28.5
 30
0.0
  0
POINT
  5
BFA
330
B9E
100
AcDbEntity
  8
SANINDUSA
100
AcDbPoint
 10
-91.42857142857156
 20
28.5
 30
0.0
  0
TEXT
  5
BFB
330
B9E
100
AcDbEntity
  8
1
100
AcDbText
 10
-116.200160604496
 20
26.43288406845113
 30
0.0
 40
1.5
  1
Nº Seq.:
 41
0.8
  7
SANINDUSA
 11
-116.200160604496
 21
27.18288406845113
 31
0.0
100
AcDbText
 73
     2
  0
TEXT
  5
BFC
330
B9E
100
AcDbEntity
  8
1
100
AcDbText
 10
-103.2106584078738
 20
26.43288406845113
 30
0.0
 40
1.5
  1
Tipo:
 41
0.8
  7
SANINDUSA
 11
-103.2106584078738
 21
27.18288406845113
 31
0.0
100
AcDbText
 73
     2
  0
TEXT
  5
BFD
330
B9E
100
AcDbEntity
  8
1
100
AcDbText
 10
-90.22114672289353
 20
26.43288406845113
 30
0.0
 40
1.5
  1
Prod.:
 41
0.8
  7
SANINDUSA
 11
-90.22114672289353
 21
27.18288406845113
 31
0.0
100
AcDbText
 73
     2
  0
TEXT
  5
BFE
330
B9E
100
AcDbEntity
  8
1
100
AcDbText
 10
-64.77320576346574
 20
26.43288406845113
 30
0.0
 40
1.5
  1
Rev.:
 41
0.8
  7
SANINDUSA
 11
-64.77320576346574
 21
27.18288406845113
 31
0.0
100
AcDbText
 73
     2
  0
LINE
  5
BFF
330
B9E
100
AcDbEntity
  8
leg fin
100
AcDbLine
 10
-52.85714285714266
 20
20.0
 30
0.0
 11
-52.85714285714266
 21
28.5
 31
0.0
  0
LINE
  5
C00
330
B9E
100
AcDbEntity
  8
leg fin
100
AcDbLine
 10
-65.71428571428578
 20
20.0
 30
0.0
 11
-65.71428571428578
 21
28.5
 31
0.0
  0
LINE
  5
C01
330
B9E
100
AcDbEntity
  8
leg fin
100
AcDbLine
 10
-78.57142857142844
 20
20.0
 30
0.0
 11
-78.57142857142844
 21
28.5
 31
0.0
  0
POINT
  5
C02
330
B9E
100
AcDbEntity
  8
SANINDUSA
100
AcDbPoint
 10
-78.57142857142844
 20
28.5
 30
0.0
  0
POINT
  5
C03
330
B9E
100
AcDbEntity
  8
SANINDUSA
100
AcDbPoint
 10
-65.71428571428578
 20
28.5
 30
0.0
  0
POINT
  5
C04
330
B9E
100
AcDbEntity
  8
SANINDUSA
100
AcDbPoint
 10
-52.85714285714266
 20
28.5
 30
0.0
  0
TEXT
  5
C05
330
B9E
100
AcDbEntity
  8
1
100
AcDbText
 10
-77.61097961686573
 20
26.43288406845113
 30
0.0
 40
1.5
  1
Peça:
 41
0.8
  7
SANINDUSA
 11
-77.61097961686573
 21
27.18288406845113
 31
0.0
100
AcDbText
 73
     2
  0
TEXT
  5
C06
330
B9E
100
AcDbEntity
  8
1
100
AcDbText
 10
-52.06538060077036
 20
26.43288406845113
 30
0.0
 40
1.5
  1
Alt.:
 41
0.8
  7
SANINDUSA
 11
-52.06538060077036
 21
27.18288406845113
 31
0.0
100
AcDbText
 73
     2
  0
LINE
  5
C07
330
B9E
100
AcDbEntity
  8
3
100
AcDbLine
 10
0.0
 20
12.0
 30
0.0
 11
-40.0
 21
12.0
 31
0.0
  0
LINE
  5
C08
330
B9E
100
AcDbEntity
  8
3
100
AcDbLine
 10
-40.0
 20
32.5
 30
0.0
 11
0.0
 21
32.5
 31
0.0
  0
TEXT
  5
C09
330
B9E
100
AcDbEntity
  8
1
100
AcDbText
 10
-19.0
 20
29.75
 30
0.0
 40
2.0
  1
Folha:
 41
0.8
  7
SANINDUSA
 11
-19.0
 21
30.75
 31
0.0
100
AcDbText
 73
     2
  0
LINE
  5
C0A
330
B9E
100
AcDbEntity
  8
3
100
AcDbLine
 10
-20.0
 20
32.5
 30
0.0
 11
-20.0
 21
20.0
 31
0.0
  0
TEXT
  5
C0B
330
B9E
100
AcDbEntity
  8
1
100
AcDbText
 10
-39.0
 20
29.75
 30
0.0
 40
2.0
  1
Escala:
 41
0.8
  7
SANINDUSA
 11
-39.0
 21
30.75
 31
0.0
100
AcDbText
 73
     2
  0
TEXT
  5
C0C
330
B9E
100
AcDbEntity
  8
1
100
AcDbText
 10
-39.0
 20
17.25
 30
0.0
 40
2.0
  1
Substitui:
 41
0.8
  7
SANINDUSA
 11
-39.0
 21
18.25
 31
0.0
100
AcDbText
 73
     2
  0
LWPOLYLINE
  5
C0D
102
{ACAD_REACTORS
330
BEC
102
}
330
B9E
100
AcDbEntity
  8
9
100
AcDbPolyline
 90
        6
 70
     1
 43
0.0
 10
-2.638748516194482
 20
57.02796337120571
 10
-2.638748516194482
 20
55.50786840766477
 10
-5.21497371544865
 20
55.507868407665
 42
-0.4142135623730898
 10
-5.614973715448741
 20
55.90786840766487
 10
-5.614973715448741
 20
56.62796337120562
 42
-0.4142135623731576
 10
-5.21497371544865
 20
57.02796337120571
  0
LINE
  5
C0E
330
B9E
100
AcDbEntity
  8
3
100
AcDbLine
 10
-40.0
 20
50.0
 30
0.0
 11
0.0
 21
50.0
 31
0.0
  0
ATTDEF
  5
C0F
330
B9E
100
AcDbEntity
  8
1
100
AcDbText
 10
-31.30691739422431
 20
40.25
 30
0.0
 40
2.0
  1
XXXXXXXXXXXXXXX
 41
0.8
  7
SANINDUSA
 72
     4
 11
-20.0
 21
41.25
 31
0.0
100
AcDbAttributeDefinition
  3
Observações:
  2
OBS
 70
     0
  0
TEXT
  5
C10
330
B9E
100
AcDbEntity
  8
1
100
AcDbText
 10
-39.0
 20
47.25
 30
0.0
 40
2.0
  1
Observações:
 41
0.8
  7
SANINDUSA
 11
-39.0
 21
48.25
 31
0.0
100
AcDbText
 73
     2
  0
LWPOLYLINE
  5
C11
102
{ACAD_REACTORS
330
BEC
102
}
330
B9E
100
AcDbEntity
  8
9
100
AcDbPolyline
 90
        6
 70
     1
 43
0.0
 10
-29.98468712904878
 20
57.02796337120571
 10
-29.98468712904878
 20
55.507868407665
 10
-32.57692046803459
 20
55.507868407665
 42
-0.4142135623731731
 10
-32.97692046803468
 20
55.90786840766487
 10
-32.97692046803468
 20
56.62796337120562
 42
-0.4142135623731576
 10
-32.57692046803459
 20
57.02796337120571
  0
LWPOLYLINE
  5
C12
102
{ACAD_REACTORS
330
BEC
102
}
330
B9E
100
AcDbEntity
  8
9
100
AcDbPolyline
 90
        4
 70
     1
 43
0.0
 10
-24.19231812786165
 20
59.87619128370352
 10
-24.57637781922995
 20
59.87619128370352
 10
-24.57637781922995
 20
59.28412752246913
 10
-24.19231812786165
 20
59.28412752246913
  0
ENDBLK
  5
C14
330
B9E
100
AcDbEntity
  8
0
100
AcDbBlockEnd
  0
BLOCK
  5
10CD
330
10CC
100
AcDbEntity
  8
0
100
AcDbBlockBegin
  2
*D7
 70
     1
 10
0.0
 20
0.0
 30
0.0
  3
*D7
  1

  0
LINE
  5
10CE
330
10CC
100
AcDbEntity
  8
0
100
AcDbLine
 10
3611.513675029379
 20
1862.260673015274
 30
0.0
 11
3611.513675029379
 21
1824.095323446183
 31
0.0
  0
LINE
  5
10CF
330
10CC
100
AcDbEntity
  8
0
100
AcDbLine
 10
3911.513675029379
 20
1862.260673015274
 30
0.0
 11
3911.513675029379
 21
1824.095323446183
 31
0.0
  0
LINE
  5
10D0
330
10CC
100
AcDbEntity
  8
0
100
AcDbLine
 10
3621.513675029379
 20
1829.095323446183
 30
0.0
 11
3901.513675029379
 21
1829.095323446183
 31
0.0
  0
SOLID
  5
10D1
330
10CC
100
AcDbEntity
  8
0
100
AcDbTrace
 10
3621.513675029379
 20
1830.76199011285
 30
0.0
 11
3621.513675029379
 21
1827.428656779516
 31
0.0
 12
3611.513675029379
 22
1829.095323446183
 32
0.0
 13
3611.513675029379
 23
1829.095323446183
 33
0.0
  0
SOLID
  5
10D2
330
10CC
100
AcDbEntity
  8
0
100
AcDbTrace
 10
3901.513675029379
 20
1830.76199011285
 30
0.0
 11
3901.513675029379
 21
1827.428656779516
 31
0.0
 12
3911.513675029379
 22
1829.095323446183
 32
0.0
 13
3911.513675029379
 23
1829.095323446183
 33
0.0
  0
MTEXT
  5
10D3
330
10CC
100
AcDbEntity
  8
0
100
AcDbMText
 10
3761.513675029379
 20
1839.303516864585
 30
0.0
 40
10.0
 41
0.0
 71
     5
 72
     1
  1
300
  7
SANINDUSA
 73
     1
 44
1.0
1001
ACAD
1000
MTEXTBEGIN
1070
    73
1070
     1
1070
    44
1040
1.0
1070
    74
1070
     0
1000
MTEXTEND
  0
POINT
  5
10D4
330
10CC
100
AcDbEntity
  8
Defpoints
 62
     0
100
AcDbPoint
 10
3611.513675029379
 20
1867.260673015275
 30
0.0
  0
POINT
  5
10D5
330
10CC
100
AcDbEntity
  8
Defpoints
 62
     0
100
AcDbPoint
 10
3911.513675029379
 20
1867.260673015275
 30
0.0
  0
POINT
  5
10D6
330
10CC
100
AcDbEntity
  8
Defpoints
 62
     0
100
AcDbPoint
 10
3911.513675029379
 20
1829.095323446183
 30
0.0
  0
ENDBLK
  5
10D7
330
10CC
100
AcDbEntity
  8
0
100
AcDbBlockEnd
  0
BLOCK
  5
10D9
330
10D8
100
AcDbEntity
  8
0
100
AcDbBlockBegin
  2
*D8
 70
     1
 10
0.0
 20
0.0
 30
0.0
  3
*D8
  1

  0
LINE
  5
10DA
330
10D8
100
AcDbEntity
  8
0
100
AcDbLine
 10
3890.6851148567
 20
1864.095323446183
 30
0.0
 11
3951.513675029378
 21
1864.095323446183
 31
0.0
  0
LINE
  5
10DB
330
10D8
100
AcDbEntity
  8
0
100
AcDbLine
 10
3893.151019502679
 20
1872.010668548655
 30
0.0
 11
3951.513675029378
 21
1872.010668548655
 31
0.0
  0
LINE
  5
10DC
330
10D8
100
AcDbEntity
  8
0
100
AcDbLine
 10
3946.513675029379
 20
1854.095323446183
 30
0.0
 11
3946.513675029379
 21
1844.095323446183
 31
0.0
  0
LINE
  5
10DD
330
10D8
100
AcDbEntity
  8
0
100
AcDbLine
 10
3946.513675029379
 20
1882.010668548655
 30
0.0
 11
3946.513675029379
 21
1909.116108441201
 31
0.0
  0
LINE
  5
10DE
330
10D8
100
AcDbEntity
  8
0
100
AcDbLine
 10
3946.513675029379
 20
1864.095323446183
 30
0.0
 11
3946.513675029379
 21
1872.010668548655
 31
0.0
  0
SOLID
  5
10DF
330
10D8
100
AcDbEntity
  8
0
100
AcDbTrace
 10
3944.847008362712
 20
1854.095323446183
 30
0.0
 11
3948.180341696046
 21
1854.095323446183
 31
0.0
 12
3946.513675029379
 22
1864.095323446183
 32
0.0
 13
3946.513675029379
 23
1864.095323446183
 33
0.0
  0
SOLID
  5
10E0
330
10D8
100
AcDbEntity
  8
0
100
AcDbTrace
 10
3944.847008362712
 20
1882.010668548655
 30
0.0
 11
3948.180341696046
 21
1882.010668548655
 31
0.0
 12
3946.513675029379
 22
1872.010668548655
 32
0.0
 13
3946.513675029379
 23
1872.010668548655
 33
0.0
  0
MTEXT
  5
10E1
330
10D8
100
AcDbEntity
  8
0
100
AcDbMText
 10
3936.285333860809
 20
1900.563388494928
 30
0.0
 40
10.0
 41
0.0
 71
     5
 72
     1
  1
8
  7
SANINDUSA
 11
0.0000000000000001
 21
1.0
 31
0.0
 73
     1
 44
1.0
1001
ACAD
1000
MTEXTBEGIN
1070
    73
1070
     1
1070
    44
1040
1.0
1070
    74
1070
     0
1000
MTEXTEND
  0
POINT
  5
10E2
330
10D8
100
AcDbEntity
  8
Defpoints
 62
     0
100
AcDbPoint
 10
3885.685114856701
 20
1864.095323446183
 30
0.0
  0
POINT
  5
10E3
330
10D8
100
AcDbEntity
  8
Defpoints
 62
     0
100
AcDbPoint
 10
3888.151019502679
 20
1872.010668548655
 30
0.0
  0
POINT
  5
10E4
330
10D8
100
AcDbEntity
  8
Defpoints
 62
     0
100
AcDbPoint
 10
3946.513675029379
 20
1872.010668548655
 30
0.0
  0
ENDBLK
  5
10E5
330
10D8
100
AcDbEntity
  8
0
100
AcDbBlockEnd
  0
BLOCK
  5
10E7
330
10E6
100
AcDbEntity
  8
0
100
AcDbBlockBegin
  2
*D9
 70
     1
 10
0.0
 20
0.0
 30
0.0
  3
*D9
  1

  0
LINE
  5
10E8
330
10E6
100
AcDbEntity
  8
0
100
AcDbLine
 10
3890.6851148567
 20
1864.095323446183
 30
0.0
 11
3986.513675029378
 21
1864.095323446183
 31
0.0
  0
LINE
  5
10E9
330
10E6
100
AcDbEntity
  8
0
100
AcDbLine
 10
3766.513675029379
 20
2002.756019009285
 30
0.0
 11
3986.513675029378
 21
2002.756019009285
 31
0.0
  0
LINE
  5
10EA
330
10E6
100
AcDbEntity
  8
0
100
AcDbLine
 10
3981.513675029379
 20
1874.095323446183
 30
0.0
 11
3981.513675029379
 21
1992.756019009284
 31
0.0
  0
SOLID
  5
10EB
330
10E6
100
AcDbEntity
  8
0
100
AcDbTrace
 10
3979.847008362713
 20
1874.095323446183
 30
0.0
 11
3983.180341696046
 21
1874.095323446183
 31
0.0
 12
3981.513675029379
 22
1864.095323446183
 32
0.0
 13
3981.513675029379
 23
1864.095323446183
 33
0.0
  0
SOLID
  5
10EC
330
10E6
100
AcDbEntity
  8
0
100
AcDbTrace
 10
3979.847008362713
 20
1992.756019009284
 30
0.0
 11
3983.180341696046
 21
1992.756019009284
 31
0.0
 12
3981.513675029379
 22
2002.756019009285
 32
0.0
 13
3981.513675029379
 23
2002.756019009285
 33
0.0
  0
MTEXT
  5
10ED
330
10E6
100
AcDbEntity
  8
0
100
AcDbMText
 10
3971.305481610977
 20
1933.425671227734
 30
0.0
 40
10.0
 41
0.0
 71
     5
 72
     1
  1
139
  7
SANINDUSA
 11
0.0000000000000001
 21
1.0
 31
0.0
 73
     1
 44
1.0
1001
ACAD
1000
MTEXTBEGIN
1070
    73
1070
     1
1070
    44
1040
1.0
1070
    74
1070
     0
1000
MTEXTEND
  0
POINT
  5
10EE
330
10E6
100
AcDbEntity
  8
Defpoints
 62
     0
100
AcDbPoint
 10
3885.685114856701
 20
1864.095323446183
 30
0.0
  0
POINT
  5
10EF
330
10E6
100
AcDbEntity
  8
Defpoints
 62
     0
100
AcDbPoint
 10
3761.513675029379
 20
2002.756019009285
 30
0.0
  0
POINT
  5
10F0
330
10E6
100
AcDbEntity
  8
Defpoints
 62
     0
100
AcDbPoint
 10
3981.513675029379
 20
2002.756019009285
 30
0.0
  0
ENDBLK
  5
10F1
330
10E6
100
AcDbEntity
  8
0
100
AcDbBlockEnd
  0
BLOCK
  5
10F3
330
10F2
100
AcDbEntity
  8
0
100
AcDbBlockBegin
  2
*D10
 70
     1
 10
0.0
 20
0.0
 30
0.0
  3
*D10
  1

  0
LINE
  5
10F4
330
10F2
100
AcDbEntity
  8
0
100
AcDbLine
 10
4204.860856038282
 20
1983.956019009285
 30
0.0
 11
4168.860856038281
 21
1983.956019009285
 31
0.0
  0
LINE
  5
10F5
330
10F2
100
AcDbEntity
  8
0
100
AcDbLine
 10
4204.860856038282
 20
1963.556019009284
 30
0.0
 11
4168.860856038281
 21
1963.556019009284
 31
0.0
  0
LINE
  5
10F6
330
10F2
100
AcDbEntity
  8
0
100
AcDbLine
 10
4173.860856038282
 20
1993.956019009285
 30
0.0
 11
4173.860856038282
 21
2003.956019009285
 31
0.0
  0
LINE
  5
10F7
330
10F2
100
AcDbEntity
  8
0
100
AcDbLine
 10
4173.860856038282
 20
1953.556019009283
 30
0.0
 11
4173.860856038282
 21
1908.2699209569
 31
0.0
  0
LINE
  5
10F8
330
10F2
100
AcDbEntity
  8
0
100
AcDbLine
 10
4173.860856038282
 20
1983.956019009285
 30
0.0
 11
4173.860856038282
 21
1963.556019009284
 31
0.0
  0
SOLID
  5
10F9
330
10F2
100
AcDbEntity
  8
0
100
AcDbTrace
 10
4172.194189371615
 20
1993.956019009285
 30
0.0
 11
4175.527522704949
 21
1993.956019009285
 31
0.0
 12
4173.860856038282
 22
1983.956019009285
 32
0.0
 13
4173.860856038282
 23
1983.956019009285
 33
0.0
  0
SOLID
  5
10FA
330
10F2
100
AcDbEntity
  8
0
100
AcDbTrace
 10
4172.194189371615
 20
1953.556019009283
 30
0.0
 11
4175.527522704949
 21
1953.556019009283
 31
0.0
 12
4173.860856038282
 22
1963.556019009284
 32
0.0
 13
4173.860856038282
 23
1963.556019009284
 33
0.0
  0
MTEXT
  5
10FB
330
10F2
100
AcDbEntity
  8
0
100
AcDbMText
 10
4160.512188028431
 20
1925.912969983092
 30
0.0
 40
10.0
 41
0.0
 71
     5
 72
     1
  1
G {\H0.7x;\S1/2;}"
  7
SANINDUSA
 11
0.0000000000000001
 21
1.0
 31
0.0
 73
     1
 44
1.0
1001
ACAD
1000
MTEXTBEGIN
1070
    73
1070
     1
1070
    44
1040
1.0
1070
    74
1070
     0
1000
MTEXTEND
  0
POINT
  5
10FC
330
10F2
100
AcDbEntity
  8
Defpoints
 62
     0
100
AcDbPoint
 10
4209.860856038281
 20
1983.956019009285
 30
0.0
  0
POINT
  5
10FD
330
10F2
100
AcDbEntity
  8
Defpoints
 62
     0
100
AcDbPoint
 10
4209.860856038281
 20
1963.556019009284
 30
0.0
  0
POINT
  5
10FE
330
10F2
100
AcDbEntity
  8
Defpoints
 62
     0
100
AcDbPoint
 10
4173.860856038282
 20
1963.556019009284
 30
0.0
  0
ENDBLK
  5
10FF
330
10F2
100
AcDbEntity
  8
0
100
AcDbBlockEnd
  0
BLOCK
  5
1101
330
1100
100
AcDbEntity
  8
0
100
AcDbBlockBegin
  2
*D11
 70
     1
 10
0.0
 20
0.0
 30
0.0
  3
*D11
  1

  0
LINE
  5
1102
330
1100
100
AcDbEntity
  8
0
100
AcDbLine
 10
4224.110856038278
 20
2002.756019009285
 30
0.0
 11
4133.860856038281
 21
2002.756019009285
 31
0.0
  0
LINE
  5
1103
330
1100
100
AcDbEntity
  8
0
100
AcDbLine
 10
4224.110856038278
 20
1944.756019009284
 30
0.0
 11
4133.860856038281
 21
1944.756019009284
 31
0.0
  0
LINE
  5
1104
330
1100
100
AcDbEntity
  8
0
100
AcDbLine
 10
4138.860856038282
 20
1992.756019009284
 30
0.0
 11
4138.860856038282
 21
1954.756019009284
 31
0.0
  0
SOLID
  5
1105
330
1100
100
AcDbEntity
  8
0
100
AcDbTrace
 10
4137.194189371615
 20
1992.756019009284
 30
0.0
 11
4140.527522704949
 21
1992.756019009284
 31
0.0
 12
4138.860856038282
 22
2002.756019009285
 32
0.0
 13
4138.860856038282
 23
2002.756019009285
 33
0.0
  0
SOLID
  5
1106
330
1100
100
AcDbEntity
  8
0
100
AcDbTrace
 10
4137.194189371615
 20
1954.756019009284
 30
0.0
 11
4140.527522704949
 21
1954.756019009284
 31
0.0
 12
4138.860856038282
 22
1944.756019009284
 32
0.0
 13
4138.860856038282
 23
1944.756019009284
 33
0.0
  0
MTEXT
  5
1107
102
{ACAD_XDICTIONARY
360
1AFE
102
}
330
1100
100
AcDbEntity
  8
0
100
AcDbMText
 10
4128.249707616522
 20
1973.756019009285
 30
0.0
 40
10.0
 41
0.0
 71
     5
 72
     1
  1
\U+00F858
  7
SANINDUSA
 11
0.0000000000000001
 21
1.0
 31
0.0
 73
     1
 44
1.0
1001
ACAD
1000
MTEXTBEGIN
1070
    73
1070
     1
1070
    44
1040
1.0
1070
    74
1070
     0
1000
MTEXTEND
  0
POINT
  5
1108
330
1100
100
AcDbEntity
  8
Defpoints
 62
     0
100
AcDbPoint
 10
4229.110856038277
 20
2002.756019009285
 30
0.0
  0
POINT
  5
1109
330
1100
100
AcDbEntity
  8
Defpoints
 62
     0
100
AcDbPoint
 10
4229.110856038277
 20
1944.756019009284
 30
0.0
  0
POINT
  5
110A
330
1100
100
AcDbEntity
  8
Defpoints
 62
     0
100
AcDbPoint
 10
4138.860856038282
 20
1944.756019009284
 30
0.0
  0
ENDBLK
  5
110B
330
1100
100
AcDbEntity
  8
0
100
AcDbBlockEnd
  0
BLOCK
  5
110D
330
110C
100
AcDbEntity
  8
0
100
AcDbBlockBegin
  2
*D12
 70
     1
 10
0.0
 20
0.0
 30
0.0
  3
*D12
  1

  0
LINE
  5
110E
330
110C
100
AcDbEntity
  8
0
100
AcDbLine
 10
4229.110856038277
 20
1939.756019009285
 30
0.0
 11
4229.110856038277
 21
1904.756019009284
 31
0.0
  0
LINE
  5
110F
330
110C
100
AcDbEntity
  8
0
100
AcDbLine
 10
4237.110856038277
 20
1940.006019009284
 30
0.0
 11
4237.110856038277
 21
1904.756019009284
 31
0.0
  0
LINE
  5
1110
330
110C
100
AcDbEntity
  8
0
100
AcDbLine
 10
4219.110856038278
 20
1909.756019009284
 30
0.0
 11
4209.110856038278
 21
1909.756019009284
 31
0.0
  0
LINE
  5
1111
330
110C
100
AcDbEntity
  8
0
100
AcDbLine
 10
4247.110856038278
 20
1909.756019009284
 30
0.0
 11
4274.216295930823
 21
1909.756019009284
 31
0.0
  0
LINE
  5
1112
330
110C
100
AcDbEntity
  8
0
100
AcDbLine
 10
4229.110856038277
 20
1909.756019009284
 30
0.0
 11
4237.110856038277
 21
1909.756019009284
 31
0.0
  0
SOLID
  5
1113
330
110C
100
AcDbEntity
  8
0
100
AcDbTrace
 10
4219.110856038278
 20
1911.422685675951
 30
0.0
 11
4219.110856038278
 21
1908.089352342617
 31
0.0
 12
4229.110856038277
 22
1909.756019009284
 32
0.0
 13
4229.110856038277
 23
1909.756019009284
 33
0.0
  0
SOLID
  5
1114
330
110C
100
AcDbEntity
  8
0
100
AcDbTrace
 10
4247.110856038278
 20
1911.422685675951
 30
0.0
 11
4247.110856038278
 21
1908.089352342617
 31
0.0
 12
4237.110856038277
 22
1909.756019009284
 32
0.0
 13
4237.110856038277
 23
1909.756019009284
 33
0.0
  0
MTEXT
  5
1115
330
110C
100
AcDbEntity
  8
0
100
AcDbMText
 10
4265.663575984551
 20
1919.984360177854
 30
0.0
 40
10.0
 41
0.0
 71
     5
 72
     1
  1
8
  7
SANINDUSA
 73
     1
 44
1.0
1001
ACAD
1000
MTEXTBEGIN
1070
    73
1070
     1
1070
    44
1040
1.0
1070
    74
1070
     0
1000
MTEXTEND
  0
POINT
  5
1116
330
110C
100
AcDbEntity
  8
Defpoints
 62
     0
100
AcDbPoint
 10
4229.110856038277
 20
1944.756019009284
 30
0.0
  0
POINT
  5
1117
330
110C
100
AcDbEntity
  8
Defpoints
 62
     0
100
AcDbPoint
 10
4237.110856038277
 20
1945.006019009284
 30
0.0
  0
POINT
  5
1118
330
110C
100
AcDbEntity
  8
Defpoints
 62
     0
100
AcDbPoint
 10
4237.110856038277
 20
1909.756019009284
 30
0.0
  0
ENDBLK
  5
1119
330
110C
100
AcDbEntity
  8
0
100
AcDbBlockEnd
  0
BLOCK
  5
111B
330
111A
100
AcDbEntity
  8
0
100
AcDbBlockBegin
  2
*D13
 70
     1
 10
0.0
 20
0.0
 30
0.0
  3
*D13
  1

  0
LINE
  5
111C
330
111A
100
AcDbEntity
  8
0
100
AcDbLine
 10
4418.860856038278
 20
1862.260673015274
 30
0.0
 11
4418.860856038278
 21
1824.095323446183
 31
0.0
  0
LINE
  5
111D
330
111A
100
AcDbEntity
  8
0
100
AcDbLine
 10
4718.860856038282
 20
1862.260673015274
 30
0.0
 11
4718.860856038282
 21
1824.095323446183
 31
0.0
  0
LINE
  5
111E
330
111A
100
AcDbEntity
  8
0
100
AcDbLine
 10
4428.860856038278
 20
1829.095323446183
 30
0.0
 11
4708.860856038281
 21
1829.095323446183
 31
0.0
  0
SOLID
  5
111F
330
111A
100
AcDbEntity
  8
0
100
AcDbTrace
 10
4428.860856038278
 20
1830.76199011285
 30
0.0
 11
4428.860856038278
 21
1827.428656779516
 31
0.0
 12
4418.860856038278
 22
1829.095323446183
 32
0.0
 13
4418.860856038278
 23
1829.095323446183
 33
0.0
  0
SOLID
  5
1120
330
111A
100
AcDbEntity
  8
0
100
AcDbTrace
 10
4708.860856038281
 20
1830.76199011285
 30
0.0
 11
4708.860856038281
 21
1827.428656779516
 31
0.0
 12
4718.860856038282
 22
1829.095323446183
 32
0.0
 13
4718.860856038282
 23
1829.095323446183
 33
0.0
  0
MTEXT
  5
1121
330
111A
100
AcDbEntity
  8
0
100
AcDbMText
 10
4568.86085603828
 20
1839.303516864585
 30
0.0
 40
10.0
 41
0.0
 71
     5
 72
     1
  1
300
  7
SANINDUSA
 73
     1
 44
1.0
1001
ACAD
1000
MTEXTBEGIN
1070
    73
1070
     1
1070
    44
1040
1.0
1070
    74
1070
     0
1000
MTEXTEND
  0
POINT
  5
1122
330
111A
100
AcDbEntity
  8
Defpoints
 62
     0
100
AcDbPoint
 10
4418.860856038278
 20
1867.260673015275
 30
0.0
  0
POINT
  5
1123
330
111A
100
AcDbEntity
  8
Defpoints
 62
     0
100
AcDbPoint
 10
4718.860856038282
 20
1867.260673015275
 30
0.0
  0
POINT
  5
1124
330
111A
100
AcDbEntity
  8
Defpoints
 62
     0
100
AcDbPoint
 10
4718.860856038282
 20
1829.095323446183
 30
0.0
  0
ENDBLK
  5
1125
330
111A
100
AcDbEntity
  8
0
100
AcDbBlockEnd
  0
BLOCK
  5
1127
330
1126
100
AcDbEntity
  8
0
100
AcDbBlockBegin
  2
*D14
 70
     1
 10
0.0
 20
0.0
 30
0.0
  3
*D14
  1

  0
LINE
  5
1128
330
1126
100
AcDbEntity
  8
0
100
AcDbLine
 10
4414.110856038278
 20
1867.010673015275
 30
0.0
 11
4378.860856038282
 21
1867.010673015275
 31
0.0
  0
LINE
  5
1129
330
1126
100
AcDbEntity
  8
0
100
AcDbLine
 10
4437.223509256273
 20
1872.010668548655
 30
0.0
 11
4378.860856038282
 21
1872.010668548655
 31
0.0
  0
LINE
  5
112A
330
1126
100
AcDbEntity
  8
0
100
AcDbLine
 10
4383.860856038281
 20
1857.010673015275
 30
0.0
 11
4383.860856038281
 21
1847.010673015274
 31
0.0
  0
LINE
  5
112B
330
1126
100
AcDbEntity
  8
0
100
AcDbLine
 10
4383.860856038281
 20
1882.010668548655
 30
0.0
 11
4383.860856038281
 21
1908.525107769609
 31
0.0
  0
LINE
  5
112C
330
1126
100
AcDbEntity
  8
0
100
AcDbLine
 10
4383.860856038281
 20
1867.010673015275
 30
0.0
 11
4383.860856038281
 21
1872.010668548655
 31
0.0
  0
SOLID
  5
112D
330
1126
100
AcDbEntity
  8
0
100
AcDbTrace
 10
4382.194189371615
 20
1857.010673015275
 30
0.0
 11
4385.527522704949
 21
1857.010673015275
 31
0.0
 12
4383.860856038281
 22
1867.010673015275
 32
0.0
 13
4383.860856038281
 23
1867.010673015275
 33
0.0
  0
SOLID
  5
112E
330
1126
100
AcDbEntity
  8
0
100
AcDbTrace
 10
4382.194189371615
 20
1882.010668548655
 30
0.0
 11
4385.527522704949
 21
1882.010668548655
 31
0.0
 12
4383.860856038281
 22
1872.010668548655
 32
0.0
 13
4383.860856038281
 23
1872.010668548655
 33
0.0
  0
MTEXT
  5
112F
330
1126
100
AcDbEntity
  8
0
100
AcDbMText
 10
4373.75675932908
 20
1900.267888159133
 30
0.0
 40
10.0
 41
0.0
 71
     5
 72
     1
  1
5
  7
SANINDUSA
 11
0.0000000000000001
 21
1.0
 31
0.0
 73
     1
 44
1.0
1001
ACAD
1000
MTEXTBEGIN
1070
    73
1070
     1
1070
    44
1040
1.0
1070
    74
1070
     0
1000
MTEXTEND
  0
POINT
  5
1130
330
1126
100
AcDbEntity
  8
Defpoints
 62
     0
100
AcDbPoint
 10
4419.110856038278
 20
1867.010673015275
 30
0.0
  0
POINT
  5
1131
330
1126
100
AcDbEntity
  8
Defpoints
 62
     0
100
AcDbPoint
 10
4442.223509256273
 20
1872.010668548655
 30
0.0
  0
POINT
  5
1132
330
1126
100
AcDbEntity
  8
Defpoints
 62
     0
100
AcDbPoint
 10
4383.860856038281
 20
1872.010668548655
 30
0.0
  0
ENDBLK
  5
1133
330
1126
100
AcDbEntity
  8
0
100
AcDbBlockEnd
  0
BLOCK
  5
1135
330
1134
100
AcDbEntity
  8
0
100
AcDbBlockBegin
  2
*D15
 70
     1
 10
0.0
 20
0.0
 30
0.0
  3
*D15
  1

  0
LINE
  5
1136
330
1134
100
AcDbEntity
  8
0
100
AcDbLine
 10
3795.513675029379
 20
1773.203802126863
 30
0.0
 11
3951.513675029379
 21
1773.203802126863
 31
0.0
  0
LINE
  5
1137
330
1134
100
AcDbEntity
  8
0
100
AcDbLine
 10
3901.513675029379
 20
1283.453802126864
 30
0.0
 11
3951.513675029379
 21
1283.453802126864
 31
0.0
  0
LINE
  5
1138
330
1134
100
AcDbEntity
  8
0
100
AcDbLine
 10
3946.513675029379
 20
1763.203802126864
 30
0.0
 11
3946.513675029379
 21
1293.453802126864
 31
0.0
  0
SOLID
  5
1139
330
1134
100
AcDbEntity
  8
0
100
AcDbTrace
 10
3944.847008362713
 20
1763.203802126864
 30
0.0
 11
3948.180341696046
 21
1763.203802126864
 31
0.0
 12
3946.513675029379
 22
1773.203802126863
 32
0.0
 13
3946.513675029379
 23
1773.203802126863
 33
0.0
  0
SOLID
  5
113A
330
1134
100
AcDbEntity
  8
0
100
AcDbTrace
 10
3944.847008362713
 20
1293.453802126864
 30
0.0
 11
3948.180341696046
 21
1293.453802126864
 31
0.0
 12
3946.513675029379
 22
1283.453802126864
 32
0.0
 13
3946.513675029379
 23
1283.453802126864
 33
0.0
  0
MTEXT
  5
113B
330
1134
100
AcDbEntity
  8
0
100
AcDbMText
 10
3936.308839569339
 20
1528.328802126864
 30
0.0
 40
10.0
 41
0.0
 71
     5
 72
     1
  1
490
  7
SANINDUSA
 11
0.0000000000000001
 21
1.0
 31
0.0
 73
     1
 44
1.0
1001
ACAD
1000
MTEXTBEGIN
1070
    73
1070
     1
1070
    44
1040
1.0
1070
    74
1070
     0
1000
MTEXTEND
  0
POINT
  5
113C
330
1134
100
AcDbEntity
  8
Defpoints
 62
     0
100
AcDbPoint
 10
3790.513675029379
 20
1773.203802126863
 30
0.0
  0
POINT
  5
113D
330
1134
100
AcDbEntity
  8
Defpoints
 62
     0
100
AcDbPoint
 10
3896.513675029379
 20
1283.453802126864
 30
0.0
  0
POINT
  5
113E
330
1134
100
AcDbEntity
  8
Defpoints
 62
     0
100
AcDbPoint
 10
3946.513675029379
 20
1283.453802126864
 30
0.0
  0
ENDBLK
  5
113F
330
1134
100
AcDbEntity
  8
0
100
AcDbBlockEnd
  0
BLOCK
  5
1141
330
1140
100
AcDbEntity
  8
0
100
AcDbBlockBegin
  2
*D16
 70
     1
 10
0.0
 20
0.0
 30
0.0
  3
*D16
  1

  0
LINE
  5
1142
330
1140
100
AcDbEntity
  8
0
100
AcDbLine
 10
3901.513675029379
 20
1283.578802126864
 30
0.0
 11
3986.513675029378
 21
1283.578802126864
 31
0.0
  0
LINE
  5
1143
330
1140
100
AcDbEntity
  8
0
100
AcDbLine
 10
3775.71367502938
 20
1793.453802126864
 30
0.0
 11
3986.513675029378
 21
1793.453802126864
 31
0.0
  0
LINE
  5
1144
330
1140
100
AcDbEntity
  8
0
100
AcDbLine
 10
3981.513675029379
 20
1293.578802126864
 30
0.0
 11
3981.513675029379
 21
1783.453802126863
 31
0.0
  0
SOLID
  5
1145
330
1140
100
AcDbEntity
  8
0
100
AcDbTrace
 10
3979.847008362713
 20
1293.578802126864
 30
0.0
 11
3983.180341696046
 21
1293.578802126864
 31
0.0
 12
3981.513675029379
 22
1283.578802126864
 32
0.0
 13
3981.513675029379
 23
1283.578802126864
 33
0.0
  0
SOLID
  5
1146
330
1140
100
AcDbEntity
  8
0
100
AcDbTrace
 10
3979.847008362713
 20
1783.453802126863
 30
0.0
 11
3983.180341696046
 21
1783.453802126863
 31
0.0
 12
3981.513675029379
 22
1793.453802126864
 32
0.0
 13
3981.513675029379
 23
1793.453802126864
 33
0.0
  0
MTEXT
  5
1147
330
1140
100
AcDbEntity
  8
0
100
AcDbMText
 10
3971.308839569338
 20
1538.516302126865
 30
0.0
 40
10.0
 41
0.0
 71
     5
 72
     1
  1
510
  7
SANINDUSA
 11
0.0000000000000001
 21
1.0
 31
0.0
 73
     1
 44
1.0
1001
ACAD
1000
MTEXTBEGIN
1070
    73
1070
     1
1070
    44
1040
1.0
1070
    74
1070
     0
1000
MTEXTEND
  0
POINT
  5
1148
330
1140
100
AcDbEntity
  8
Defpoints
 62
     0
100
AcDbPoint
 10
3896.513675029379
 20
1283.578802126864
 30
0.0
  0
POINT
  5
1149
330
1140
100
AcDbEntity
  8
Defpoints
 62
     0
100
AcDbPoint
 10
3770.713675029379
 20
1793.453802126864
 30
0.0
  0
POINT
  5
114A
330
1140
100
AcDbEntity
  8
Defpoints
 62
     0
100
AcDbPoint
 10
3981.513675029379
 20
1793.453802126864
 30
0.0
  0
ENDBLK
  5
114B
330
1140
100
AcDbEntity
  8
0
100
AcDbBlockEnd
  0
BLOCK
  5
18E0
330
18DF
100
AcDbEntity
  8
0
100
AcDbBlockBegin
  2
*D18
 70
     1
 10
0.0
 20
0.0
 30
0.0
  3
*D18
  1

  0
LINE
  5
18E2
330
18DF
100
AcDbEntity
  8
0
100
AcDbLine
 10
4013.131000194321
 20
2027.628422208759
 30
0.0
 11
4013.131000194321
 21
1989.463072639667
 31
0.0
  0
LINE
  5
18E3
330
18DF
100
AcDbEntity
  8
0
100
AcDbLine
 10
4313.131000194321
 20
2027.628422208759
 30
0.0
 11
4313.131000194321
 21
1989.463072639667
 31
0.0
  0
LINE
  5
18E4
330
18DF
100
AcDbEntity
  8
0
100
AcDbLine
 10
4015.131000194321
 20
1990.463072639667
 30
0.0
 11
4311.131000194321
 21
1990.463072639667
 31
0.0
  0
SOLID
  5
18E5
330
18DF
100
AcDbEntity
  8
0
100
AcDbTrace
 10
4015.131000194321
 20
1990.796405973
 30
0.0
 11
4015.131000194321
 21
1990.129739306334
 31
0.0
 12
4013.131000194321
 22
1990.463072639667
 32
0.0
 13
4013.131000194321
 23
1990.463072639667
 33
0.0
  0
SOLID
  5
18E6
330
18DF
100
AcDbEntity
  8
0
100
AcDbTrace
 10
4311.131000194321
 20
1990.796405973
 30
0.0
 11
4311.131000194321
 21
1990.129739306334
 31
0.0
 12
4313.131000194321
 22
1990.463072639667
 32
0.0
 13
4313.131000194321
 23
1990.463072639667
 33
0.0
  0
MTEXT
  5
18E7
330
18DF
100
AcDbEntity
  8
0
100
AcDbMText
 10
4163.131000194321
 20
1992.504711323347
 30
0.0
 40
2.0
 41
0.0
 71
     5
 72
     1
  1
300
  7
SANINDUSA
 73
     1
 44
1.0
1001
ACAD
1000
MTEXTBEGIN
1070
    73
1070
     1
1070
    44
1040
1.0
1070
    74
1070
     0
1000
MTEXTEND
  0
POINT
  5
18E8
330
18DF
100
AcDbEntity
  8
Defpoints
 62
     0
100
AcDbPoint
 10
4013.131000194321
 20
2028.628422208759
 30
0.0
  0
POINT
  5
18E9
330
18DF
100
AcDbEntity
  8
Defpoints
 62
     0
100
AcDbPoint
 10
4313.131000194321
 20
2028.628422208759
 30
0.0
  0
POINT
  5
18EA
330
18DF
100
AcDbEntity
  8
Defpoints
 62
     0
100
AcDbPoint
 10
4313.131000194321
 20
1990.463072639667
 30
0.0
  0
ENDBLK
  5
18E1
330
18DF
100
AcDbEntity
  8
0
100
AcDbBlockEnd
  0
BLOCK
  5
18EC
330
18EB
100
AcDbEntity
  8
0
100
AcDbBlockBegin
  2
*D19
 70
     1
 10
0.0
 20
0.0
 30
0.0
  3
*D19
  1

  0
LINE
  5
18EE
330
18EB
100
AcDbEntity
  8
0
100
AcDbLine
 10
4288.302440021642
 20
2025.463072639667
 30
0.0
 11
4349.131000194321
 21
2025.463072639667
 31
0.0
  0
LINE
  5
18EF
330
18EB
100
AcDbEntity
  8
0
100
AcDbLine
 10
4290.768344667621
 20
2033.378417742139
 30
0.0
 11
4349.131000194321
 21
2033.378417742139
 31
0.0
  0
LINE
  5
18F0
330
18EB
100
AcDbEntity
  8
0
100
AcDbLine
 10
4348.131000194321
 20
2027.463072639667
 30
0.0
 11
4348.131000194321
 21
2031.378417742139
 31
0.0
  0
SOLID
  5
18F1
330
18EB
100
AcDbEntity
  8
0
100
AcDbTrace
 10
4347.797666860988
 20
2027.463072639667
 30
0.0
 11
4348.464333527654
 21
2027.463072639667
 31
0.0
 12
4348.131000194321
 22
2025.463072639667
 32
0.0
 13
4348.131000194321
 23
2025.463072639667
 33
0.0
  0
SOLID
  5
18F2
330
18EB
100
AcDbEntity
  8
0
100
AcDbTrace
 10
4347.797666860988
 20
2031.378417742139
 30
0.0
 11
4348.464333527654
 21
2031.378417742139
 31
0.0
 12
4348.131000194321
 22
2033.378417742139
 32
0.0
 13
4348.131000194321
 23
2033.378417742139
 33
0.0
  0
MTEXT
  5
18F3
330
18EB
100
AcDbEntity
  8
0
100
AcDbMText
 10
4345.862363525416
 20
2029.420745190904
 30
0.0
 40
2.0
 41
0.0
 71
     5
 72
     1
  1
7,9
  7
SANINDUSA
 11
0.0000000000000001
 21
1.0
 31
0.0
 73
     1
 44
1.0
1001
ACAD
1000
MTEXTBEGIN
1070
    73
1070
     1
1070
    44
1040
1.0
1070
    74
1070
     0
1000
MTEXTEND
  0
POINT
  5
18F4
330
18EB
100
AcDbEntity
  8
Defpoints
 62
     0
100
AcDbPoint
 10
4287.302440021643
 20
2025.463072639667
 30
0.0
  0
POINT
  5
18F5
330
18EB
100
AcDbEntity
  8
Defpoints
 62
     0
100
AcDbPoint
 10
4289.768344667621
 20
2033.378417742139
 30
0.0
  0
POINT
  5
18F6
330
18EB
100
AcDbEntity
  8
Defpoints
 62
     0
100
AcDbPoint
 10
4348.131000194321
 20
2033.378417742139
 30
0.0
  0
ENDBLK
  5
18ED
330
18EB
100
AcDbEntity
  8
0
100
AcDbBlockEnd
  0
BLOCK
  5
18F8
330
18F7
100
AcDbEntity
  8
0
100
AcDbBlockBegin
  2
*D20
 70
     1
 10
0.0
 20
0.0
 30
0.0
  3
*D20
  1

  0
LINE
  5
18FA
330
18F7
100
AcDbEntity
  8
0
100
AcDbLine
 10
4288.302440021642
 20
2025.463072639667
 30
0.0
 11
4384.131000194321
 21
2025.463072639667
 31
0.0
  0
LINE
  5
18FB
330
18F7
100
AcDbEntity
  8
0
100
AcDbLine
 10
4164.131000194321
 20
2164.123768202768
 30
0.0
 11
4384.131000194321
 21
2164.123768202768
 31
0.0
  0
LINE
  5
18FC
330
18F7
100
AcDbEntity
  8
0
100
AcDbLine
 10
4383.13100019432
 20
2027.463072639667
 30
0.0
 11
4383.131000194321
 21
2162.123768202769
 31
0.0
  0
SOLID
  5
18FD
330
18F7
100
AcDbEntity
  8
0
100
AcDbTrace
 10
4382.797666860986
 20
2027.463072639667
 30
0.0
 11
4383.464333527653
 21
2027.463072639667
 31
0.0
 12
4383.13100019432
 22
2025.463072639667
 32
0.0
 13
4383.13100019432
 23
2025.463072639667
 33
0.0
  0
SOLID
  5
18FE
330
18F7
100
AcDbEntity
  8
0
100
AcDbTrace
 10
4382.797666860988
 20
2162.123768202769
 30
0.0
 11
4383.464333527654
 21
2162.123768202769
 31
0.0
 12
4383.131000194321
 22
2164.123768202768
 32
0.0
 13
4383.131000194321
 23
2164.123768202768
 33
0.0
  0
MTEXT
  5
18FF
330
18F7
100
AcDbEntity
  8
0
100
AcDbMText
 10
4380.859677158726
 20
2094.793420421218
 30
0.0
 40
2.0
 41
0.0
 71
     5
 72
     1
  1
138,7
  7
SANINDUSA
 11
0.0000000000000001
 21
1.0
 31
0.0
 73
     1
 44
1.0
1001
ACAD
1000
MTEXTBEGIN
1070
    73
1070
     1
1070
    44
1040
1.0
1070
    74
1070
     0
1000
MTEXTEND
  0
POINT
  5
1900
330
18F7
100
AcDbEntity
  8
Defpoints
 62
     0
100
AcDbPoint
 10
4287.302440021643
 20
2025.463072639667
 30
0.0
  0
POINT
  5
1901
330
18F7
100
AcDbEntity
  8
Defpoints
 62
     0
100
AcDbPoint
 10
4163.131000194321
 20
2164.123768202768
 30
0.0
  0
POINT
  5
1902
330
18F7
100
AcDbEntity
  8
Defpoints
 62
     0
100
AcDbPoint
 10
4383.131000194321
 20
2164.123768202768
 30
0.0
  0
ENDBLK
  5
18F9
330
18F7
100
AcDbEntity
  8
0
100
AcDbBlockEnd
  0
BLOCK
  5
1904
330
1903
100
AcDbEntity
  8
0
100
AcDbBlockBegin
  2
*D21
 70
     1
 10
0.0
 20
0.0
 30
0.0
  3
*D21
  1

  0
LINE
  5
1906
330
1903
100
AcDbEntity
  8
0
100
AcDbLine
 10
4610.478181203224
 20
2145.32376820277
 30
0.0
 11
4574.478181203224
 21
2145.32376820277
 31
0.0
  0
LINE
  5
1907
330
1903
100
AcDbEntity
  8
0
100
AcDbLine
 10
4610.478181203224
 20
2124.923768202768
 30
0.0
 11
4574.478181203224
 21
2124.923768202768
 31
0.0
  0
LINE
  5
1908
330
1903
100
AcDbEntity
  8
0
100
AcDbLine
 10
4575.478181203224
 20
2143.323768202769
 30
0.0
 11
4575.478181203224
 21
2126.923768202768
 31
0.0
  0
SOLID
  5
1909
330
1903
100
AcDbEntity
  8
0
100
AcDbTrace
 10
4575.144847869891
 20
2143.323768202769
 30
0.0
 11
4575.811514536557
 21
2143.323768202769
 31
0.0
 12
4575.478181203224
 22
2145.32376820277
 32
0.0
 13
4575.478181203224
 23
2145.32376820277
 33
0.0
  0
SOLID
  5
190A
330
1903
100
AcDbEntity
  8
0
100
AcDbTrace
 10
4575.144847869891
 20
2126.923768202768
 30
0.0
 11
4575.811514536557
 21
2126.923768202768
 31
0.0
 12
4575.478181203224
 22
2124.923768202768
 32
0.0
 13
4575.478181203224
 23
2124.923768202768
 33
0.0
  0
MTEXT
  5
190B
330
1903
100
AcDbEntity
  8
0
100
AcDbMText
 10
4572.808447601254
 20
2135.123768202769
 30
0.0
 40
2.0
 41
0.0
 71
     5
 72
     1
  1
G {\H0.7x;\S1/2;}"
  7
SANINDUSA
 11
0.0000000000000001
 21
1.0
 31
0.0
 73
     1
 44
1.0
1001
ACAD
1000
MTEXTBEGIN
1070
    73
1070
     1
1070
    44
1040
1.0
1070
    74
1070
     0
1000
MTEXTEND
  0
POINT
  5
190C
330
1903
100
AcDbEntity
  8
Defpoints
 62
     0
100
AcDbPoint
 10
4611.478181203223
 20
2145.32376820277
 30
0.0
  0
POINT
  5
190D
330
1903
100
AcDbEntity
  8
Defpoints
 62
     0
100
AcDbPoint
 10
4611.478181203223
 20
2124.923768202768
 30
0.0
  0
POINT
  5
190E
330
1903
100
AcDbEntity
  8
Defpoints
 62
     0
100
AcDbPoint
 10
4575.478181203224
 20
2124.923768202768
 30
0.0
  0
ENDBLK
  5
1905
330
1903
100
AcDbEntity
  8
0
100
AcDbBlockEnd
  0
BLOCK
  5
1910
330
190F
100
AcDbEntity
  8
0
100
AcDbBlockBegin
  2
*D22
 70
     1
 10
0.0
 20
0.0
 30
0.0
  3
*D22
  1

  0
LINE
  5
1912
330
190F
100
AcDbEntity
  8
0
100
AcDbLine
 10
4629.728181203221
 20
2164.123768202768
 30
0.0
 11
4539.478181203224
 21
2164.123768202768
 31
0.0
  0
LINE
  5
1913
330
190F
100
AcDbEntity
  8
0
100
AcDbLine
 10
4629.728181203221
 20
2106.123768202769
 30
0.0
 11
4539.478181203224
 21
2106.123768202769
 31
0.0
  0
LINE
  5
1914
330
190F
100
AcDbEntity
  8
0
100
AcDbLine
 10
4540.478181203224
 20
2162.123768202769
 30
0.0
 11
4540.478181203224
 21
2108.123768202769
 31
0.0
  0
SOLID
  5
1915
330
190F
100
AcDbEntity
  8
0
100
AcDbTrace
 10
4540.144847869891
 20
2162.123768202769
 30
0.0
 11
4540.811514536557
 21
2162.123768202769
 31
0.0
 12
4540.478181203224
 22
2164.123768202768
 32
0.0
 13
4540.478181203224
 23
2164.123768202768
 33
0.0
  0
SOLID
  5
1916
330
190F
100
AcDbEntity
  8
0
100
AcDbTrace
 10
4540.144847869891
 20
2108.123768202769
 30
0.0
 11
4540.811514536557
 21
2108.123768202769
 31
0.0
 12
4540.478181203224
 22
2106.123768202769
 32
0.0
 13
4540.478181203224
 23
2106.123768202769
 33
0.0
  0
MTEXT
  5
1917
102
{ACAD_XDICTIONARY
360
1B00
102
}
330
190F
100
AcDbEntity
  8
0
100
AcDbMText
 10
4538.355951518871
 20
2135.123768202769
 30
0.0
 40
2.0
 41
0.0
 71
     5
 72
     1
  1
\U+00F858
  7
SANINDUSA
 11
0.0000000000000001
 21
1.0
 31
0.0
 73
     1
 44
1.0
1001
ACAD
1000
MTEXTBEGIN
1070
    73
1070
     1
1070
    44
1040
1.0
1070
    74
1070
     0
1000
MTEXTEND
  0
POINT
  5
1918
330
190F
100
AcDbEntity
  8
Defpoints
 62
     0
100
AcDbPoint
 10
4630.72818120322
 20
2164.123768202768
 30
0.0
  0
POINT
  5
1919
330
190F
100
AcDbEntity
  8
Defpoints
 62
     0
100
AcDbPoint
 10
4630.72818120322
 20
2106.123768202769
 30
0.0
  0
POINT
  5
191A
330
190F
100
AcDbEntity
  8
Defpoints
 62
     0
100
AcDbPoint
 10
4540.478181203224
 20
2106.123768202769
 30
0.0
  0
ENDBLK
  5
1911
330
190F
100
AcDbEntity
  8
0
100
AcDbBlockEnd
  0
BLOCK
  5
191C
330
191B
100
AcDbEntity
  8
0
100
AcDbBlockBegin
  2
*D23
 70
     1
 10
0.0
 20
0.0
 30
0.0
  3
*D23
  1

  0
LINE
  5
191E
330
191B
100
AcDbEntity
  8
0
100
AcDbLine
 10
4630.72818120322
 20
2105.123768202769
 30
0.0
 11
4630.72818120322
 21
2070.123768202769
 31
0.0
  0
LINE
  5
191F
330
191B
100
AcDbEntity
  8
0
100
AcDbLine
 10
4638.72818120322
 20
2105.373768202769
 30
0.0
 11
4638.72818120322
 21
2070.123768202769
 31
0.0
  0
LINE
  5
1920
330
191B
100
AcDbEntity
  8
0
100
AcDbLine
 10
4632.72818120322
 20
2071.123768202768
 30
0.0
 11
4636.728181203221
 21
2071.123768202768
 31
0.0
  0
SOLID
  5
1921
330
191B
100
AcDbEntity
  8
0
100
AcDbTrace
 10
4632.72818120322
 20
2071.457101536102
 30
0.0
 11
4632.72818120322
 21
2070.790434869435
 31
0.0
 12
4630.72818120322
 22
2071.123768202768
 32
0.0
 13
4630.72818120322
 23
2071.123768202768
 33
0.0
  0
SOLID
  5
1922
330
191B
100
AcDbEntity
  8
0
100
AcDbTrace
 10
4636.728181203221
 20
2071.457101536102
 30
0.0
 11
4636.728181203221
 21
2070.790434869435
 31
0.0
 12
4638.72818120322
 22
2071.123768202768
 32
0.0
 13
4638.72818120322
 23
2071.123768202768
 33
0.0
  0
MTEXT
  5
1923
330
191B
100
AcDbEntity
  8
0
100
AcDbMText
 10
4634.728181203221
 20
2073.169436436483
 30
0.0
 40
2.0
 41
0.0
 71
     5
 72
     1
  1
8
  7
SANINDUSA
 73
     1
 44
1.0
1001
ACAD
1000
MTEXTBEGIN
1070
    73
1070
     1
1070
    44
1040
1.0
1070
    74
1070
     0
1000
MTEXTEND
  0
POINT
  5
1924
330
191B
100
AcDbEntity
  8
Defpoints
 62
     0
100
AcDbPoint
 10
4630.72818120322
 20
2106.123768202769
 30
0.0
  0
POINT
  5
1925
330
191B
100
AcDbEntity
  8
Defpoints
 62
     0
100
AcDbPoint
 10
4638.72818120322
 20
2106.373768202769
 30
0.0
  0
POINT
  5
1926
330
191B
100
AcDbEntity
  8
Defpoints
 62
     0
100
AcDbPoint
 10
4638.72818120322
 20
2071.123768202768
 30
0.0
  0
ENDBLK
  5
191D
330
191B
100
AcDbEntity
  8
0
100
AcDbBlockEnd
  0
BLOCK
  5
1928
330
1927
100
AcDbEntity
  8
0
100
AcDbBlockBegin
  2
*D24
 70
     1
 10
0.0
 20
0.0
 30
0.0
  3
*D24
  1

  0
LINE
  5
192A
330
1927
100
AcDbEntity
  8
0
100
AcDbLine
 10
4820.47818120322
 20
2027.628422208759
 30
0.0
 11
4820.47818120322
 21
1989.463072639667
 31
0.0
  0
LINE
  5
192B
330
1927
100
AcDbEntity
  8
0
100
AcDbLine
 10
5120.478181203225
 20
2027.628422208759
 30
0.0
 11
5120.478181203225
 21
1989.463072639667
 31
0.0
  0
LINE
  5
192C
330
1927
100
AcDbEntity
  8
0
100
AcDbLine
 10
4822.47818120322
 20
1990.463072639667
 30
0.0
 11
5118.478181203224
 21
1990.463072639667
 31
0.0
  0
SOLID
  5
192D
330
1927
100
AcDbEntity
  8
0
100
AcDbTrace
 10
4822.47818120322
 20
1990.796405973
 30
0.0
 11
4822.47818120322
 21
1990.129739306334
 31
0.0
 12
4820.47818120322
 22
1990.463072639667
 32
0.0
 13
4820.47818120322
 23
1990.463072639667
 33
0.0
  0
SOLID
  5
192E
330
1927
100
AcDbEntity
  8
0
100
AcDbTrace
 10
5118.478181203224
 20
1990.796405973
 30
0.0
 11
5118.478181203224
 21
1990.129739306334
 31
0.0
 12
5120.478181203225
 22
1990.463072639667
 32
0.0
 13
5120.478181203225
 23
1990.463072639667
 33
0.0
  0
MTEXT
  5
192F
330
1927
100
AcDbEntity
  8
0
100
AcDbMText
 10
4970.478181203223
 20
1992.504711323347
 30
0.0
 40
2.0
 41
0.0
 71
     5
 72
     1
  1
300
  7
SANINDUSA
 73
     1
 44
1.0
1001
ACAD
1000
MTEXTBEGIN
1070
    73
1070
     1
1070
    44
1040
1.0
1070
    74
1070
     0
1000
MTEXTEND
  0
POINT
  5
1930
330
1927
100
AcDbEntity
  8
Defpoints
 62
     0
100
AcDbPoint
 10
4820.47818120322
 20
2028.628422208759
 30
0.0
  0
POINT
  5
1931
330
1927
100
AcDbEntity
  8
Defpoints
 62
     0
100
AcDbPoint
 10
5120.478181203225
 20
2028.628422208759
 30
0.0
  0
POINT
  5
1932
330
1927
100
AcDbEntity
  8
Defpoints
 62
     0
100
AcDbPoint
 10
5120.478181203225
 20
1990.463072639667
 30
0.0
  0
ENDBLK
  5
1929
330
1927
100
AcDbEntity
  8
0
100
AcDbBlockEnd
  0
BLOCK
  5
1934
330
1933
100
AcDbEntity
  8
0
100
AcDbBlockBegin
  2
*D25
 70
     1
 10
0.0
 20
0.0
 30
0.0
  3
*D25
  1

  0
LINE
  5
1936
330
1933
100
AcDbEntity
  8
0
100
AcDbLine
 10
4819.72818120322
 20
2028.378422208759
 30
0.0
 11
4784.478181203224
 21
2028.378422208759
 31
0.0
  0
LINE
  5
1937
330
1933
100
AcDbEntity
  8
0
100
AcDbLine
 10
4842.840834421216
 20
2033.378417742139
 30
0.0
 11
4784.478181203224
 21
2033.378417742139
 31
0.0
  0
LINE
  5
1938
330
1933
100
AcDbEntity
  8
0
100
AcDbLine
 10
4785.478181203224
 20
2026.378422208759
 30
0.0
 11
4785.478181203224
 21
2024.378422208759
 31
0.0
  0
LINE
  5
1939
330
1933
100
AcDbEntity
  8
0
100
AcDbLine
 10
4785.478181203224
 20
2035.378417742139
 30
0.0
 11
4785.478181203224
 21
2037.378417742139
 31
0.0
  0
LINE
  5
193A
330
1933
100
AcDbEntity
  8
0
100
AcDbLine
 10
4785.478181203224
 20
2028.378422208759
 30
0.0
 11
4785.478181203224
 21
2033.378417742139
 31
0.0
  0
SOLID
  5
193B
330
1933
100
AcDbEntity
  8
0
100
AcDbTrace
 10
4785.144847869891
 20
2026.378422208759
 30
0.0
 11
4785.811514536557
 21
2026.378422208759
 31
0.0
 12
4785.478181203224
 22
2028.378422208759
 32
0.0
 13
4785.478181203224
 23
2028.378422208759
 33
0.0
  0
SOLID
  5
193C
330
1933
100
AcDbEntity
  8
0
100
AcDbTrace
 10
4785.144847869891
 20
2035.378417742139
 30
0.0
 11
4785.811514536557
 21
2035.378417742139
 31
0.0
 12
4785.478181203224
 22
2033.378417742139
 32
0.0
 13
4785.478181203224
 23
2033.378417742139
 33
0.0
  0
MTEXT
  5
193D
330
1933
100
AcDbEntity
  8
0
100
AcDbMText
 10
4783.457361861383
 20
2030.87841997545
 30
0.0
 40
2.0
 41
0.0
 71
     5
 72
     1
  1
5
  7
SANINDUSA
 11
0.0000000000000001
 21
1.0
 31
0.0
 73
     1
 44
1.0
1001
ACAD
1000
MTEXTBEGIN
1070
    73
1070
     1
1070
    44
1040
1.0
1070
    74
1070
     0
1000
MTEXTEND
  0
POINT
  5
193E
330
1933
100
AcDbEntity
  8
Defpoints
 62
     0
100
AcDbPoint
 10
4820.728181203221
 20
2028.378422208759
 30
0.0
  0
POINT
  5
193F
330
1933
100
AcDbEntity
  8
Defpoints
 62
     0
100
AcDbPoint
 10
4843.840834421215
 20
2033.378417742139
 30
0.0
  0
POINT
  5
1940
330
1933
100
AcDbEntity
  8
Defpoints
 62
     0
100
AcDbPoint
 10
4785.478181203224
 20
2033.378417742139
 30
0.0
  0
ENDBLK
  5
1935
330
1933
100
AcDbEntity
  8
0
100
AcDbBlockEnd
  0
BLOCK
  5
1942
330
1941
100
AcDbEntity
  8
0
100
AcDbBlockBegin
  2
*D26
 70
     1
 10
0.0
 20
0.0
 30
0.0
  3
*D26
  1

  0
LINE
  5
1944
330
1941
100
AcDbEntity
  8
0
100
AcDbLine
 10
4193.131000194321
 20
1934.571551320347
 30
0.0
 11
4349.131000194321
 21
1934.571551320347
 31
0.0
  0
LINE
  5
1945
330
1941
100
AcDbEntity
  8
0
100
AcDbLine
 10
4299.131000194321
 20
1444.821551320347
 30
0.0
 11
4349.131000194321
 21
1444.821551320347
 31
0.0
  0
LINE
  5
1946
330
1941
100
AcDbEntity
  8
0
100
AcDbLine
 10
4348.131000194322
 20
1932.571551320347
 30
0.0
 11
4348.131000194322
 21
1446.821551320347
 31
0.0
  0
SOLID
  5
1947
330
1941
100
AcDbEntity
  8
0
100
AcDbTrace
 10
4347.797666860989
 20
1932.571551320347
 30
0.0
 11
4348.464333527655
 21
1932.571551320347
 31
0.0
 12
4348.131000194322
 22
1934.571551320347
 32
0.0
 13
4348.131000194322
 23
1934.571551320347
 33
0.0
  0
SOLID
  5
1948
330
1941
100
AcDbEntity
  8
0
100
AcDbTrace
 10
4347.797666860989
 20
1446.821551320347
 30
0.0
 11
4348.464333527655
 21
1446.821551320347
 31
0.0
 12
4348.131000194322
 22
1444.821551320347
 32
0.0
 13
4348.131000194322
 23
1444.821551320347
 33
0.0
  0
MTEXT
  5
1949
330
1941
100
AcDbEntity
  8
0
100
AcDbMText
 10
4345.859677158728
 20
1689.696551320348
 30
0.0
 40
2.0
 41
0.0
 71
     5
 72
     1
  1
489,8
  7
SANINDUSA
 11
0.0000000000000001
 21
1.0
 31
0.0
 73
     1
 44
1.0
1001
ACAD
1000
MTEXTBEGIN
1070
    73
1070
     1
1070
    44
1040
1.0
1070
    74
1070
     0
1000
MTEXTEND
  0
POINT
  5
194A
330
1941
100
AcDbEntity
  8
Defpoints
 62
     0
100
AcDbPoint
 10
4192.131000194321
 20
1934.571551320347
 30
0.0
  0
POINT
  5
194B
330
1941
100
AcDbEntity
  8
Defpoints
 62
     0
100
AcDbPoint
 10
4298.131000194321
 20
1444.821551320347
 30
0.0
  0
POINT
  5
194C
330
1941
100
AcDbEntity
  8
Defpoints
 62
     0
100
AcDbPoint
 10
4348.131000194322
 20
1444.821551320347
 30
0.0
  0
ENDBLK
  5
1943
330
1941
100
AcDbEntity
  8
0
100
AcDbBlockEnd
  0
BLOCK
  5
194E
330
194D
100
AcDbEntity
  8
0
100
AcDbBlockBegin
  2
*D27
 70
     1
 10
0.0
 20
0.0
 30
0.0
  3
*D27
  1

  0
LINE
  5
1950
330
194D
100
AcDbEntity
  8
0
100
AcDbLine
 10
4299.131000194321
 20
1444.946551320348
 30
0.0
 11
4384.131000194321
 21
1444.946551320348
 31
0.0
  0
LINE
  5
1951
330
194D
100
AcDbEntity
  8
0
100
AcDbLine
 10
4173.331000194322
 20
1954.821551320347
 30
0.0
 11
4384.131000194321
 21
1954.821551320347
 31
0.0
  0
LINE
  5
1952
330
194D
100
AcDbEntity
  8
0
100
AcDbLine
 10
4383.131000194321
 20
1446.946551320348
 30
0.0
 11
4383.131000194321
 21
1952.821551320347
 31
0.0
  0
SOLID
  5
1953
330
194D
100
AcDbEntity
  8
0
100
AcDbTrace
 10
4382.797666860988
 20
1446.946551320348
 30
0.0
 11
4383.464333527654
 21
1446.946551320348
 31
0.0
 12
4383.131000194321
 22
1444.946551320348
 32
0.0
 13
4383.131000194321
 23
1444.946551320348
 33
0.0
  0
SOLID
  5
1954
330
194D
100
AcDbEntity
  8
0
100
AcDbTrace
 10
4382.797666860988
 20
1952.821551320347
 30
0.0
 11
4383.464333527654
 21
1952.821551320347
 31
0.0
 12
4383.131000194321
 22
1954.821551320347
 32
0.0
 13
4383.131000194321
 23
1954.821551320347
 33
0.0
  0
MTEXT
  5
1955
330
194D
100
AcDbEntity
  8
0
100
AcDbMText
 10
4380.862363525416
 20
1699.884051320348
 30
0.0
 40
2.0
 41
0.0
 71
     5
 72
     1
  1
509,9
  7
SANINDUSA
 11
0.0000000000000001
 21
1.0
 31
0.0
 73
     1
 44
1.0
1001
ACAD
1000
MTEXTBEGIN
1070
    73
1070
     1
1070
    44
1040
1.0
1070
    74
1070
     0
1000
MTEXTEND
  0
POINT
  5
1956
330
194D
100
AcDbEntity
  8
Defpoints
 62
     0
100
AcDbPoint
 10
4298.131000194321
 20
1444.946551320348
 30
0.0
  0
POINT
  5
1957
330
194D
100
AcDbEntity
  8
Defpoints
 62
     0
100
AcDbPoint
 10
4172.331000194321
 20
1954.821551320347
 30
0.0
  0
POINT
  5
1958
330
194D
100
AcDbEntity
  8
Defpoints
 62
     0
100
AcDbPoint
 10
4383.131000194321
 20
1954.821551320347
 30
0.0
  0
ENDBLK
  5
194F
330
194D
100
AcDbEntity
  8
0
100
AcDbBlockEnd
  0
ENDSEC
  0
SECTION
  2
ENTITIES
  0
LINE
  5
1519
330
1F
100
AcDbEntity
  8
SANINDUSA
100
AcDbLine
 10
4219.258467434355
 20
2135.123768202769
 30
0.0
 11
4219.258467434355
 21
2135.073768202769
 31
0.0
  0
LINE
  5
151A
330
1F
100
AcDbEntity
  8
SANINDUSA
100
AcDbLine
 10
4219.278967434354
 20
2135.073768202769
 30
0.0
 11
4219.278967434354
 21
2135.123768202769
 31
0.0
  0
LINE
  5
151B
330
1F
100
AcDbEntity
  8
SANINDUSA
100
AcDbLine
 10
4219.278967434354
 20
2135.063768202769
 30
0.0
 11
4219.278967434354
 21
2135.073768202769
 31
0.0
  0
LINE
  5
151C
330
1F
100
AcDbEntity
  8
SANINDUSA
100
AcDbLine
 10
4219.258467434355
 20
2135.073768202769
 30
0.0
 11
4219.258467434355
 21
2135.063768202769
 31
0.0
  0
LINE
  5
151D
330
1F
100
AcDbEntity
  8
SANINDUSA
100
AcDbLine
 10
4219.373988874114
 20
2135.016407507239
 30
0.0
 11
4219.373988874114
 21
2135.017022855464
 31
0.0
  0
LINE
  5
151E
330
1F
100
AcDbEntity
  8
SANINDUSA
100
AcDbLine
 10
4219.368488874294
 20
2135.017022855464
 30
0.0
 11
4219.368488874294
 21
2135.016407507239
 31
0.0
  0
ARC
  5
151F
330
1F
100
AcDbEntity
  8
SANINDUSA
100
AcDbCircle
 10
4219.168388874114
 20
2135.016407507206
 30
0.0
 40
0.0006000000000141
100
AcDbArc
 50
270.0000085981843
 51
0.0000032047777853
  0
ARC
  5
1520
330
1F
100
AcDbEntity
  8
SANINDUSA
100
AcDbCircle
 10
4219.164088874292
 20
2135.016407507206
 30
0.0
 40
0.0006000000000141
100
AcDbArc
 50
179.9999967952222
 51
269.9999914018157
  0
LINE
  5
1521
330
1F
100
AcDbEntity
  8
SANINDUSA
100
AcDbLine
 10
4219.394488874113
 20
2135.016407507239
 30
0.0
 11
4219.394488874113
 21
2135.017022855464
 31
0.0
  0
LINE
  5
1522
330
1F
100
AcDbEntity
  8
SANINDUSA
100
AcDbLine
 10
4219.388988874293
 20
2135.017022855464
 30
0.0
 11
4219.388988874293
 21
2135.016407507239
 31
0.0
  0
ARC
  5
1523
330
1F
100
AcDbEntity
  8
SANINDUSA
100
AcDbCircle
 10
4219.291388874113
 20
2135.016407507206
 30
0.0
 40
0.0006000000000141
100
AcDbArc
 50
270.0000085981843
 51
0.0000032047777853
  0
ARC
  5
1524
330
1F
100
AcDbEntity
  8
SANINDUSA
100
AcDbCircle
 10
4219.287088874294
 20
2135.016407507206
 30
0.0
 40
0.0006000000000141
100
AcDbArc
 50
179.9999967952222
 51
269.9999914018157
  0
ARC
  5
1525
330
1F
100
AcDbEntity
  8
SANINDUSA
100
AcDbCircle
 10
4219.250388874114
 20
2135.016407507206
 30
0.0
 40
0.0006000000000141
100
AcDbArc
 50
270.0000085981843
 51
0.0000032047777853
  0
ARC
  5
1526
330
1F
100
AcDbEntity
  8
SANINDUSA
100
AcDbCircle
 10
4219.246088874293
 20
2135.016407507206
 30
0.0
 40
0.0006000000000141
100
AcDbArc
 50
179.9999967952222
 51
269.9999914018157
  0
ARC
  5
1527
330
1F
100
AcDbEntity
  8
SANINDUSA
100
AcDbCircle
 10
4219.229888874113
 20
2135.016407507206
 30
0.0
 40
0.0006000000000141
100
AcDbArc
 50
270.0000085981843
 51
0.0000032047777853
  0
ARC
  5
1528
330
1F
100
AcDbEntity
  8
SANINDUSA
100
AcDbCircle
 10
4219.225588874293
 20
2135.016407507206
 30
0.0
 40
0.0006000000000141
100
AcDbArc
 50
179.9999967952222
 51
269.9999914018157
  0
ARC
  5
1529
330
1F
100
AcDbEntity
  8
SANINDUSA
100
AcDbCircle
 10
4219.373388874113
 20
2135.016407507206
 30
0.0
 40
0.0006000000000141
100
AcDbArc
 50
270.0000085981843
 51
0.0000032047777853
  0
ARC
  5
152A
330
1F
100
AcDbEntity
  8
SANINDUSA
100
AcDbCircle
 10
4219.369088874293
 20
2135.016407507206
 30
0.0
 40
0.0006000000000141
100
AcDbArc
 50
179.9999967952222
 51
269.9999914018157
  0
LINE
  5
152B
330
1F
100
AcDbEntity
  8
SANINDUSA
100
AcDbLine
 10
4219.189488874113
 20
2135.016407507239
 30
0.0
 11
4219.189488874113
 21
2135.017022855464
 31
0.0
  0
LINE
  5
152C
330
1F
100
AcDbEntity
  8
SANINDUSA
100
AcDbLine
 10
4219.183988874293
 20
2135.017022855464
 30
0.0
 11
4219.183988874293
 21
2135.016407507239
 31
0.0
  0
LINE
  5
152D
330
1F
100
AcDbEntity
  8
SANINDUSA
100
AcDbLine
 10
4219.168988874113
 20
2135.016407507239
 30
0.0
 11
4219.168988874113
 21
2135.017022855464
 31
0.0
  0
LINE
  5
152E
330
1F
100
AcDbEntity
  8
SANINDUSA
100
AcDbLine
 10
4219.163488874293
 20
2135.017022855464
 30
0.0
 11
4219.163488874293
 21
2135.016407507239
 31
0.0
  0
LINE
  5
152F
330
1F
100
AcDbEntity
  8
SANINDUSA
100
AcDbLine
 10
4219.230488874114
 20
2135.016407507239
 30
0.0
 11
4219.230488874114
 21
2135.017022855464
 31
0.0
  0
LINE
  5
1530
330
1F
100
AcDbEntity
  8
SANINDUSA
100
AcDbLine
 10
4219.224988874294
 20
2135.017022855464
 30
0.0
 11
4219.224988874294
 21
2135.016407507239
 31
0.0
  0
LINE
  5
1531
330
1F
100
AcDbEntity
  8
SANINDUSA
100
AcDbLine
 10
4219.291988874114
 20
2135.016407507239
 30
0.0
 11
4219.291988874114
 21
2135.017022855464
 31
0.0
  0
LINE
  5
1532
330
1F
100
AcDbEntity
  8
SANINDUSA
100
AcDbLine
 10
4219.286488874293
 20
2135.017022855464
 30
0.0
 11
4219.286488874293
 21
2135.016407507239
 31
0.0
  0
LINE
  5
1533
330
1F
100
AcDbEntity
  8
SANINDUSA
100
AcDbLine
 10
4219.332988874113
 20
2135.016407507239
 30
0.0
 11
4219.332988874113
 21
2135.017022855464
 31
0.0
  0
LINE
  5
1534
330
1F
100
AcDbEntity
  8
SANINDUSA
100
AcDbLine
 10
4219.327488874293
 20
2135.017022855464
 30
0.0
 11
4219.327488874293
 21
2135.016407507239
 31
0.0
  0
ARC
  5
1535
330
1F
100
AcDbEntity
  8
SANINDUSA
100
AcDbCircle
 10
4219.352888874114
 20
2135.016407507206
 30
0.0
 40
0.0006000000000141
100
AcDbArc
 50
270.0000085981843
 51
0.0000032047777853
  0
ARC
  5
1536
330
1F
100
AcDbEntity
  8
SANINDUSA
100
AcDbCircle
 10
4219.348588874293
 20
2135.016407507206
 30
0.0
 40
0.0006000000000141
100
AcDbArc
 50
179.9999967952222
 51
269.9999914018157
  0
LINE
  5
1537
330
1F
100
AcDbEntity
  8
SANINDUSA
100
AcDbLine
 10
4219.250988874113
 20
2135.016407507239
 30
0.0
 11
4219.250988874113
 21
2135.017022855464
 31
0.0
  0
LINE
  5
1538
330
1F
100
AcDbEntity
  8
SANINDUSA
100
AcDbLine
 10
4219.245488874292
 20
2135.017022855464
 30
0.0
 11
4219.245488874292
 21
2135.016407507239
 31
0.0
  0
LINE
  5
1539
330
1F
100
AcDbEntity
  8
SANINDUSA
100
AcDbLine
 10
4219.271488874113
 20
2135.016407507239
 30
0.0
 11
4219.271488874113
 21
2135.017022855464
 31
0.0
  0
LINE
  5
153A
330
1F
100
AcDbEntity
  8
SANINDUSA
100
AcDbLine
 10
4219.265988874293
 20
2135.017022855464
 30
0.0
 11
4219.265988874293
 21
2135.016407507239
 31
0.0
  0
ARC
  5
153B
330
1F
100
AcDbEntity
  8
SANINDUSA
100
AcDbCircle
 10
4219.188888874113
 20
2135.016407507206
 30
0.0
 40
0.0006000000000141
100
AcDbArc
 50
270.0000085981843
 51
0.0000032047777853
  0
ARC
  5
153C
330
1F
100
AcDbEntity
  8
SANINDUSA
100
AcDbCircle
 10
4219.184588874294
 20
2135.016407507206
 30
0.0
 40
0.0006000000000141
100
AcDbArc
 50
179.9999967952222
 51
269.9999914018157
  0
LINE
  5
153D
330
1F
100
AcDbEntity
  8
SANINDUSA
100
AcDbLine
 10
4219.312488874113
 20
2135.016407507239
 30
0.0
 11
4219.312488874113
 21
2135.017022855464
 31
0.0
  0
LINE
  5
153E
330
1F
100
AcDbEntity
  8
SANINDUSA
100
AcDbLine
 10
4219.306988874293
 20
2135.017022855464
 30
0.0
 11
4219.306988874293
 21
2135.016407507239
 31
0.0
  0
ARC
  5
153F
330
1F
100
AcDbEntity
  8
SANINDUSA
100
AcDbCircle
 10
4219.332388874113
 20
2135.016407507206
 30
0.0
 40
0.0006000000000141
100
AcDbArc
 50
270.0000085981843
 51
0.0000032047777853
  0
ARC
  5
1540
330
1F
100
AcDbEntity
  8
SANINDUSA
100
AcDbCircle
 10
4219.328088874293
 20
2135.016407507206
 30
0.0
 40
0.0006000000000141
100
AcDbArc
 50
179.9999967952222
 51
269.9999914018157
  0
ARC
  5
1541
330
1F
100
AcDbEntity
  8
SANINDUSA
100
AcDbCircle
 10
4219.393888874113
 20
2135.016407507206
 30
0.0
 40
0.0006000000000141
100
AcDbArc
 50
270.0000085981843
 51
0.0000032047777853
  0
ARC
  5
1542
330
1F
100
AcDbEntity
  8
SANINDUSA
100
AcDbCircle
 10
4219.389588874293
 20
2135.016407507206
 30
0.0
 40
0.0006000000000141
100
AcDbArc
 50
179.9999967952222
 51
269.9999914018157
  0
LINE
  5
1543
330
1F
100
AcDbEntity
  8
SANINDUSA
100
AcDbLine
 10
4219.209988874113
 20
2135.016407507239
 30
0.0
 11
4219.209988874113
 21
2135.017022855464
 31
0.0
  0
LINE
  5
1544
330
1F
100
AcDbEntity
  8
SANINDUSA
100
AcDbLine
 10
4219.204488874293
 20
2135.017022855464
 30
0.0
 11
4219.204488874293
 21
2135.016407507239
 31
0.0
  0
ARC
  5
1545
330
1F
100
AcDbEntity
  8
SANINDUSA
100
AcDbCircle
 10
4219.270888874113
 20
2135.016407507206
 30
0.0
 40
0.0006000000000141
100
AcDbArc
 50
270.0000085981843
 51
0.0000032047777853
  0
ARC
  5
1546
330
1F
100
AcDbEntity
  8
SANINDUSA
100
AcDbCircle
 10
4219.266588874293
 20
2135.016407507206
 30
0.0
 40
0.0006000000000141
100
AcDbArc
 50
179.9999967952222
 51
269.9999914018157
  0
LINE
  5
1547
330
1F
100
AcDbEntity
  8
SANINDUSA
100
AcDbLine
 10
4219.353488874113
 20
2135.016407507239
 30
0.0
 11
4219.353488874113
 21
2135.017022855464
 31
0.0
  0
LINE
  5
1548
330
1F
100
AcDbEntity
  8
SANINDUSA
100
AcDbLine
 10
4219.347988874293
 20
2135.017022855464
 30
0.0
 11
4219.347988874293
 21
2135.016407507239
 31
0.0
  0
ARC
  5
1549
330
1F
100
AcDbEntity
  8
SANINDUSA
100
AcDbCircle
 10
4219.311888874114
 20
2135.016407507206
 30
0.0
 40
0.0006000000000141
100
AcDbArc
 50
270.0000085981843
 51
0.0000032047777853
  0
ARC
  5
154A
330
1F
100
AcDbEntity
  8
SANINDUSA
100
AcDbCircle
 10
4219.307588874293
 20
2135.016407507206
 30
0.0
 40
0.0006000000000141
100
AcDbArc
 50
179.9999967952222
 51
269.9999914018157
  0
LINE
  5
154B
330
1F
100
AcDbEntity
  8
SANINDUSA
100
AcDbLine
 10
4219.148488874114
 20
2135.016407507239
 30
0.0
 11
4219.148488874114
 21
2135.017022855464
 31
0.0
  0
LINE
  5
154C
330
1F
100
AcDbEntity
  8
SANINDUSA
100
AcDbLine
 10
4219.142988874293
 20
2135.017022855464
 30
0.0
 11
4219.142988874293
 21
2135.016407507239
 31
0.0
  0
ARC
  5
154D
330
1F
100
AcDbEntity
  8
SANINDUSA
100
AcDbCircle
 10
4219.147888874114
 20
2135.016407507206
 30
0.0
 40
0.0006000000000141
100
AcDbArc
 50
270.0000085981843
 51
0.0000032047777853
  0
ARC
  5
154E
330
1F
100
AcDbEntity
  8
SANINDUSA
100
AcDbCircle
 10
4219.143588874294
 20
2135.016407507206
 30
0.0
 40
0.0006000000000141
100
AcDbArc
 50
179.9999967952222
 51
269.9999914018157
  0
ARC
  5
154F
330
1F
100
AcDbEntity
  8
SANINDUSA
100
AcDbCircle
 10
4219.209388874114
 20
2135.016407507206
 30
0.0
 40
0.0006000000000141
100
AcDbArc
 50
270.0000085981843
 51
0.0000032047777853
  0
ARC
  5
1550
330
1F
100
AcDbEntity
  8
SANINDUSA
100
AcDbCircle
 10
4219.205088874293
 20
2135.016407507206
 30
0.0
 40
0.0006000000000141
100
AcDbArc
 50
179.9999967952222
 51
269.9999914018157
  0
ARC
  5
1551
330
1F
100
AcDbEntity
  8
SANINDUSA
100
AcDbCircle
 10
4219.291288874182
 20
2135.015507507205
 30
0.0
 40
0.0003000000000002
100
AcDbArc
 50
89.99999598751399
 51
180.0000128712213
  0
ARC
  5
1552
330
1F
100
AcDbEntity
  8
SANINDUSA
100
AcDbCircle
 10
4219.287188874225
 20
2135.015507507205
 30
0.0
 40
0.0003000000000002
100
AcDbArc
 50
359.9999871287786
 51
90.000004012486
  0
ARC
  5
1553
330
1F
100
AcDbEntity
  8
SANINDUSA
100
AcDbCircle
 10
4219.352788874182
 20
2135.015507507205
 30
0.0
 40
0.0003000000000002
100
AcDbArc
 50
89.99999598751399
 51
180.0000128712213
  0
ARC
  5
1554
330
1F
100
AcDbEntity
  8
SANINDUSA
100
AcDbCircle
 10
4219.348688874225
 20
2135.015507507205
 30
0.0
 40
0.0003000000000002
100
AcDbArc
 50
359.9999871287786
 51
90.000004012486
  0
ARC
  5
1555
330
1F
100
AcDbEntity
  8
SANINDUSA
100
AcDbCircle
 10
4219.188788874182
 20
2135.015507507205
 30
0.0
 40
0.0003000000000002
100
AcDbArc
 50
89.99999598751399
 51
180.0000128712213
  0
ARC
  5
1556
330
1F
100
AcDbEntity
  8
SANINDUSA
100
AcDbCircle
 10
4219.184688874224
 20
2135.015507507205
 30
0.0
 40
0.0003000000000003
100
AcDbArc
 50
359.9999871287786
 51
90.000004012486
  0
ARC
  5
1557
330
1F
100
AcDbEntity
  8
SANINDUSA
100
AcDbCircle
 10
4219.373288874183
 20
2135.015507507205
 30
0.0
 40
0.0003000000000002
100
AcDbArc
 50
89.99999598751399
 51
180.0000128712213
  0
ARC
  5
1558
330
1F
100
AcDbEntity
  8
SANINDUSA
100
AcDbCircle
 10
4219.369188874224
 20
2135.015507507205
 30
0.0
 40
0.0003000000000002
100
AcDbArc
 50
359.9999871287786
 51
90.000004012486
  0
ARC
  5
1559
330
1F
100
AcDbEntity
  8
SANINDUSA
100
AcDbCircle
 10
4219.270788874182
 20
2135.015507507205
 30
0.0
 40
0.0003000000000002
100
AcDbArc
 50
89.99999598751399
 51
180.0000128712213
  0
ARC
  5
155A
330
1F
100
AcDbEntity
  8
SANINDUSA
100
AcDbCircle
 10
4219.266688874224
 20
2135.015507507205
 30
0.0
 40
0.0003000000000002
100
AcDbArc
 50
359.9999871287786
 51
90.000004012486
  0
ARC
  5
155B
330
1F
100
AcDbEntity
  8
SANINDUSA
100
AcDbCircle
 10
4219.332288874182
 20
2135.015507507205
 30
0.0
 40
0.0003000000000002
100
AcDbArc
 50
89.99999598751399
 51
180.0000128712213
  0
ARC
  5
155C
330
1F
100
AcDbEntity
  8
SANINDUSA
100
AcDbCircle
 10
4219.328188874224
 20
2135.015507507205
 30
0.0
 40
0.0003000000000002
100
AcDbArc
 50
359.9999871287786
 51
90.000004012486
  0
ARC
  5
155D
330
1F
100
AcDbEntity
  8
SANINDUSA
100
AcDbCircle
 10
4219.311788874182
 20
2135.015507507205
 30
0.0
 40
0.0003000000000002
100
AcDbArc
 50
89.99999598751399
 51
180.0000128712213
  0
ARC
  5
155E
330
1F
100
AcDbEntity
  8
SANINDUSA
100
AcDbCircle
 10
4219.307688874224
 20
2135.015507507205
 30
0.0
 40
0.0003000000000002
100
AcDbArc
 50
359.9999871287786
 51
90.000004012486
  0
ARC
  5
155F
330
1F
100
AcDbEntity
  8
SANINDUSA
100
AcDbCircle
 10
4219.168288874182
 20
2135.015507507205
 30
0.0
 40
0.0003000000000002
100
AcDbArc
 50
89.99999598751399
 51
180.0000128712213
  0
ARC
  5
1560
330
1F
100
AcDbEntity
  8
SANINDUSA
100
AcDbCircle
 10
4219.164188874224
 20
2135.015507507205
 30
0.0
 40
0.0003000000000002
100
AcDbArc
 50
359.9999871287786
 51
90.000004012486
  0
ARC
  5
1561
330
1F
100
AcDbEntity
  8
SANINDUSA
100
AcDbCircle
 10
4219.209288874182
 20
2135.015507507205
 30
0.0
 40
0.0003000000000002
100
AcDbArc
 50
89.99999598751399
 51
180.0000128712213
  0
ARC
  5
1562
330
1F
100
AcDbEntity
  8
SANINDUSA
100
AcDbCircle
 10
4219.205188874224
 20
2135.015507507205
 30
0.0
 40
0.0003000000000002
100
AcDbArc
 50
359.9999871287786
 51
90.000004012486
  0
ARC
  5
1563
330
1F
100
AcDbEntity
  8
SANINDUSA
100
AcDbCircle
 10
4219.250288874182
 20
2135.015507507205
 30
0.0
 40
0.0003000000000002
100
AcDbArc
 50
89.99999598751399
 51
180.0000128712213
  0
ARC
  5
1564
330
1F
100
AcDbEntity
  8
SANINDUSA
100
AcDbCircle
 10
4219.246188874224
 20
2135.015507507205
 30
0.0
 40
0.0003000000000002
100
AcDbArc
 50
359.9999871287786
 51
90.000004012486
  0
ARC
  5
1565
330
1F
100
AcDbEntity
  8
SANINDUSA
100
AcDbCircle
 10
4219.229788874183
 20
2135.015507507205
 30
0.0
 40
0.0003000000000002
100
AcDbArc
 50
89.99999598751399
 51
180.0000128712213
  0
ARC
  5
1566
330
1F
100
AcDbEntity
  8
SANINDUSA
100
AcDbCircle
 10
4219.225688874224
 20
2135.015507507205
 30
0.0
 40
0.0003000000000002
100
AcDbArc
 50
359.9999871287786
 51
90.000004012486
  0
ARC
  5
1567
330
1F
100
AcDbEntity
  8
SANINDUSA
100
AcDbCircle
 10
4219.393788874182
 20
2135.015507507205
 30
0.0
 40
0.0003000000000002
100
AcDbArc
 50
89.99999598751399
 51
180.0000128712213
  0
ARC
  5
1568
330
1F
100
AcDbEntity
  8
SANINDUSA
100
AcDbCircle
 10
4219.389688874224
 20
2135.015507507205
 30
0.0
 40
0.0003000000000002
100
AcDbArc
 50
359.9999871287786
 51
90.000004012486
  0
ARC
  5
1569
330
1F
100
AcDbEntity
  8
SANINDUSA
100
AcDbCircle
 10
4219.147788874183
 20
2135.015507507205
 30
0.0
 40
0.0003000000000002
100
AcDbArc
 50
89.99999598751399
 51
180.0000128712213
  0
ARC
  5
156A
330
1F
100
AcDbEntity
  8
SANINDUSA
100
AcDbCircle
 10
4219.143688874225
 20
2135.015507507205
 30
0.0
 40
0.0003000000000002
100
AcDbArc
 50
359.9999871287786
 51
90.000004012486
  0
ARC
  5
156B
330
1F
100
AcDbEntity
  8
SANINDUSA
100
AcDbCircle
 10
4219.269888874182
 20
2135.014707507206
 30
0.0
 40
0.0005999999999999
100
AcDbArc
 50
270.0000019801879
 51
359.9999899427299
  0
ARC
  5
156C
330
1F
100
AcDbEntity
  8
SANINDUSA
100
AcDbCircle
 10
4219.267588874224
 20
2135.014707507206
 30
0.0
 40
0.0005999999999999
100
AcDbArc
 50
180.0000100572701
 51
269.9999980198121
  0
ARC
  5
156D
330
1F
100
AcDbEntity
  8
SANINDUSA
100
AcDbCircle
 10
4219.331388874183
 20
2135.014707507206
 30
0.0
 40
0.0005999999999998
100
AcDbArc
 50
270.0000019801879
 51
359.9999899427299
  0
ARC
  5
156E
330
1F
100
AcDbEntity
  8
SANINDUSA
100
AcDbCircle
 10
4219.329088874224
 20
2135.014707507206
 30
0.0
 40
0.0005999999999998
100
AcDbArc
 50
180.0000100572701
 51
269.9999980198121
  0
LINE
  5
156F
330
1F
100
AcDbEntity
  8
SANINDUSA
100
AcDbLine
 10
4219.229488874183
 20
2135.0147075071
 30
0.0
 11
4219.229488874183
 21
2135.015507507138
 31
0.0
  0
LINE
  5
1570
330
1F
100
AcDbEntity
  8
SANINDUSA
100
AcDbLine
 10
4219.225988874224
 20
2135.015507507138
 30
0.0
 11
4219.225988874224
 21
2135.0147075071
 31
0.0
  0
LINE
  5
1571
330
1F
100
AcDbEntity
  8
SANINDUSA
100
AcDbLine
 10
4219.208988874181
 20
2135.0147075071
 30
0.0
 11
4219.208988874181
 21
2135.015507507138
 31
0.0
  0
LINE
  5
1572
330
1F
100
AcDbEntity
  8
SANINDUSA
100
AcDbLine
 10
4219.205488874224
 20
2135.015507507138
 30
0.0
 11
4219.205488874224
 21
2135.0147075071
 31
0.0
  0
ARC
  5
1573
330
1F
100
AcDbEntity
  8
SANINDUSA
100
AcDbCircle
 10
4219.208388874182
 20
2135.014707507206
 30
0.0
 40
0.0005999999999998
100
AcDbArc
 50
270.0000019801879
 51
359.9999899427299
  0
ARC
  5
1574
330
1F
100
AcDbEntity
  8
SANINDUSA
100
AcDbCircle
 10
4219.206088874225
 20
2135.014707507206
 30
0.0
 40
0.0005999999999997
100
AcDbArc
 50
180.0000100572701
 51
269.9999980198121
  0
LINE
  5
1575
330
1F
100
AcDbEntity
  8
SANINDUSA
100
AcDbLine
 10
4219.352488874181
 20
2135.0147075071
 30
0.0
 11
4219.352488874181
 21
2135.015507507138
 31
0.0
  0
LINE
  5
1576
330
1F
100
AcDbEntity
  8
SANINDUSA
100
AcDbLine
 10
4219.348988874224
 20
2135.015507507138
 30
0.0
 11
4219.348988874224
 21
2135.0147075071
 31
0.0
  0
LINE
  5
1577
330
1F
100
AcDbEntity
  8
SANINDUSA
100
AcDbLine
 10
4219.372988874183
 20
2135.0147075071
 30
0.0
 11
4219.372988874183
 21
2135.015507507138
 31
0.0
  0
LINE
  5
1578
330
1F
100
AcDbEntity
  8
SANINDUSA
100
AcDbLine
 10
4219.369488874225
 20
2135.015507507138
 30
0.0
 11
4219.369488874225
 21
2135.0147075071
 31
0.0
  0
LINE
  5
1579
330
1F
100
AcDbEntity
  8
SANINDUSA
100
AcDbLine
 10
4219.393488874182
 20
2135.0147075071
 30
0.0
 11
4219.393488874182
 21
2135.015507507138
 31
0.0
  0
LINE
  5
157A
330
1F
100
AcDbEntity
  8
SANINDUSA
100
AcDbLine
 10
4219.389988874224
 20
2135.015507507138
 30
0.0
 11
4219.389988874224
 21
2135.0147075071
 31
0.0
  0
ARC
  5
157B
330
1F
100
AcDbEntity
  8
SANINDUSA
100
AcDbCircle
 10
4219.372388874182
 20
2135.014707507206
 30
0.0
 40
0.0005999999999997
100
AcDbArc
 50
270.0000019801879
 51
359.9999899427299
  0
ARC
  5
157C
330
1F
100
AcDbEntity
  8
SANINDUSA
100
AcDbCircle
 10
4219.370088874224
 20
2135.014707507206
 30
0.0
 40
0.0005999999999999
100
AcDbArc
 50
180.0000100572701
 51
269.9999980198121
  0
LINE
  5
157D
330
1F
100
AcDbEntity
  8
SANINDUSA
100
AcDbLine
 10
4219.331988874182
 20
2135.0147075071
 30
0.0
 11
4219.331988874182
 21
2135.015507507138
 31
0.0
  0
LINE
  5
157E
330
1F
100
AcDbEntity
  8
SANINDUSA
100
AcDbLine
 10
4219.328488874224
 20
2135.015507507138
 30
0.0
 11
4219.328488874224
 21
2135.0147075071
 31
0.0
  0
LINE
  5
157F
330
1F
100
AcDbEntity
  8
SANINDUSA
100
AcDbLine
 10
4219.147488874182
 20
2135.0147075071
 30
0.0
 11
4219.147488874182
 21
2135.015507507138
 31
0.0
  0
LINE
  5
1580
330
1F
100
AcDbEntity
  8
SANINDUSA
100
AcDbLine
 10
4219.143988874225
 20
2135.015507507138
 30
0.0
 11
4219.143988874225
 21
2135.0147075071
 31
0.0
  0
ARC
  5
1581
330
1F
100
AcDbEntity
  8
SANINDUSA
100
AcDbCircle
 10
4219.228888874182
 20
2135.014707507206
 30
0.0
 40
0.0005999999999998
100
AcDbArc
 50
270.0000019801879
 51
359.9999899427299
  0
ARC
  5
1582
330
1F
100
AcDbEntity
  8
SANINDUSA
100
AcDbCircle
 10
4219.226588874223
 20
2135.014707507206
 30
0.0
 40
0.0005999999999999
100
AcDbArc
 50
180.0000100572701
 51
269.9999980198121
  0
LINE
  5
1583
330
1F
100
AcDbEntity
  8
SANINDUSA
100
AcDbLine
 10
4219.249988874182
 20
2135.0147075071
 30
0.0
 11
4219.249988874182
 21
2135.015507507138
 31
0.0
  0
LINE
  5
1584
330
1F
100
AcDbEntity
  8
SANINDUSA
100
AcDbLine
 10
4219.246488874224
 20
2135.015507507138
 30
0.0
 11
4219.246488874224
 21
2135.0147075071
 31
0.0
  0
LINE
  5
1585
330
1F
100
AcDbEntity
  8
SANINDUSA
100
AcDbLine
 10
4219.188488874182
 20
2135.0147075071
 30
0.0
 11
4219.188488874182
 21
2135.015507507138
 31
0.0
  0
LINE
  5
1586
330
1F
100
AcDbEntity
  8
SANINDUSA
100
AcDbLine
 10
4219.184988874224
 20
2135.015507507138
 30
0.0
 11
4219.184988874224
 21
2135.0147075071
 31
0.0
  0
LINE
  5
1587
330
1F
100
AcDbEntity
  8
SANINDUSA
100
AcDbLine
 10
4219.290988874182
 20
2135.0147075071
 30
0.0
 11
4219.290988874182
 21
2135.015507507138
 31
0.0
  0
LINE
  5
1588
330
1F
100
AcDbEntity
  8
SANINDUSA
100
AcDbLine
 10
4219.287488874225
 20
2135.015507507138
 30
0.0
 11
4219.287488874225
 21
2135.0147075071
 31
0.0
  0
ARC
  5
1589
330
1F
100
AcDbEntity
  8
SANINDUSA
100
AcDbCircle
 10
4219.310888874182
 20
2135.014707507206
 30
0.0
 40
0.0005999999999998
100
AcDbArc
 50
270.0000019801879
 51
359.9999899427299
  0
ARC
  5
158A
330
1F
100
AcDbEntity
  8
SANINDUSA
100
AcDbCircle
 10
4219.308588874224
 20
2135.014707507206
 30
0.0
 40
0.0005999999999998
100
AcDbArc
 50
180.0000100572701
 51
269.9999980198121
  0
LINE
  5
158B
330
1F
100
AcDbEntity
  8
SANINDUSA
100
AcDbLine
 10
4219.270488874182
 20
2135.0147075071
 30
0.0
 11
4219.270488874182
 21
2135.015507507138
 31
0.0
  0
LINE
  5
158C
330
1F
100
AcDbEntity
  8
SANINDUSA
100
AcDbLine
 10
4219.266988874225
 20
2135.015507507138
 30
0.0
 11
4219.266988874225
 21
2135.0147075071
 31
0.0
  0
ARC
  5
158D
330
1F
100
AcDbEntity
  8
SANINDUSA
100
AcDbCircle
 10
4219.146888874183
 20
2135.014707507206
 30
0.0
 40
0.0005999999999997
100
AcDbArc
 50
270.0000019801879
 51
359.9999899427299
  0
ARC
  5
158E
330
1F
100
AcDbEntity
  8
SANINDUSA
100
AcDbCircle
 10
4219.144588874224
 20
2135.014707507206
 30
0.0
 40
0.0005999999999998
100
AcDbArc
 50
180.0000100572701
 51
269.9999980198121
  0
ARC
  5
158F
330
1F
100
AcDbEntity
  8
SANINDUSA
100
AcDbCircle
 10
4219.351888874182
 20
2135.014707507206
 30
0.0
 40
0.0005999999999998
100
AcDbArc
 50
270.0000019801879
 51
359.9999899427299
  0
ARC
  5
1590
330
1F
100
AcDbEntity
  8
SANINDUSA
100
AcDbCircle
 10
4219.349588874225
 20
2135.014707507206
 30
0.0
 40
0.0005999999999997
100
AcDbArc
 50
180.0000100572701
 51
269.9999980198121
  0
ARC
  5
1591
330
1F
100
AcDbEntity
  8
SANINDUSA
100
AcDbCircle
 10
4219.249388874183
 20
2135.014707507206
 30
0.0
 40
0.0005999999999999
100
AcDbArc
 50
270.0000019801879
 51
359.9999899427299
  0
ARC
  5
1592
330
1F
100
AcDbEntity
  8
SANINDUSA
100
AcDbCircle
 10
4219.247088874225
 20
2135.014707507206
 30
0.0
 40
0.0005999999999998
100
AcDbArc
 50
180.0000100572701
 51
269.9999980198121
  0
ARC
  5
1593
330
1F
100
AcDbEntity
  8
SANINDUSA
100
AcDbCircle
 10
4219.392888874182
 20
2135.014707507206
 30
0.0
 40
0.0005999999999999
100
AcDbArc
 50
270.0000019801879
 51
359.9999899427299
  0
ARC
  5
1594
330
1F
100
AcDbEntity
  8
SANINDUSA
100
AcDbCircle
 10
4219.390588874225
 20
2135.014707507206
 30
0.0
 40
0.0005999999999999
100
AcDbArc
 50
180.0000100572701
 51
269.9999980198121
  0
ARC
  5
1595
330
1F
100
AcDbEntity
  8
SANINDUSA
100
AcDbCircle
 10
4219.187888874182
 20
2135.014707507206
 30
0.0
 40
0.0005999999999998
100
AcDbArc
 50
270.0000019801879
 51
359.9999899427299
  0
ARC
  5
1596
330
1F
100
AcDbEntity
  8
SANINDUSA
100
AcDbCircle
 10
4219.185588874224
 20
2135.014707507206
 30
0.0
 40
0.0005999999999998
100
AcDbArc
 50
180.0000100572701
 51
269.9999980198121
  0
ARC
  5
1597
330
1F
100
AcDbEntity
  8
SANINDUSA
100
AcDbCircle
 10
4219.167388874182
 20
2135.014707507206
 30
0.0
 40
0.0005999999999998
100
AcDbArc
 50
270.0000019801879
 51
359.9999899427299
  0
ARC
  5
1598
330
1F
100
AcDbEntity
  8
SANINDUSA
100
AcDbCircle
 10
4219.165088874224
 20
2135.014707507206
 30
0.0
 40
0.0005999999999998
100
AcDbArc
 50
180.0000100572701
 51
269.9999980198121
  0
ARC
  5
1599
330
1F
100
AcDbEntity
  8
SANINDUSA
100
AcDbCircle
 10
4219.290388874182
 20
2135.014707507206
 30
0.0
 40
0.0005999999999998
100
AcDbArc
 50
270.0000019801879
 51
359.9999899427299
  0
ARC
  5
159A
330
1F
100
AcDbEntity
  8
SANINDUSA
100
AcDbCircle
 10
4219.288088874225
 20
2135.014707507206
 30
0.0
 40
0.0005999999999998
100
AcDbArc
 50
180.0000100572701
 51
269.9999980198121
  0
LINE
  5
159B
330
1F
100
AcDbEntity
  8
SANINDUSA
100
AcDbLine
 10
4219.167988874183
 20
2135.0147075071
 30
0.0
 11
4219.167988874183
 21
2135.015507507138
 31
0.0
  0
LINE
  5
159C
330
1F
100
AcDbEntity
  8
SANINDUSA
100
AcDbLine
 10
4219.164488874223
 20
2135.015507507138
 30
0.0
 11
4219.164488874223
 21
2135.0147075071
 31
0.0
  0
LINE
  5
159D
330
1F
100
AcDbEntity
  8
SANINDUSA
100
AcDbLine
 10
4219.311488874182
 20
2135.0147075071
 30
0.0
 11
4219.311488874182
 21
2135.015507507138
 31
0.0
  0
LINE
  5
159E
330
1F
100
AcDbEntity
  8
SANINDUSA
100
AcDbLine
 10
4219.307988874223
 20
2135.015507507138
 30
0.0
 11
4219.307988874223
 21
2135.0147075071
 31
0.0
  0
ARC
  5
159F
330
1F
100
AcDbEntity
  8
SANINDUSA
100
AcDbCircle
 10
4219.289925647097
 20
2135.025022852308
 30
0.0
 40
0.0030000000000001
100
AcDbArc
 50
243.4349488345742
 51
270.0
  0
ARC
  5
15A0
330
1F
100
AcDbEntity
  8
SANINDUSA
100
AcDbCircle
 10
4219.247509221612
 20
2135.025022852308
 30
0.0
 40
0.0030000000000001
100
AcDbArc
 50
270.0
 51
296.5650511654258
  0
LINE
  5
15A1
330
1F
100
AcDbEntity
  8
SANINDUSA
100
AcDbLine
 10
4219.288584006311
 20
2135.022339570735
 30
0.0
 11
4219.285850871314
 21
2135.023706138233
 31
0.0
  0
LINE
  5
15A2
330
1F
100
AcDbEntity
  8
SANINDUSA
100
AcDbLine
 10
4219.251583997396
 20
2135.023706138233
 30
0.0
 11
4219.248850862399
 21
2135.022339570735
 31
0.0
  0
ARC
  5
15A3
330
1F
100
AcDbEntity
  8
SANINDUSA
100
AcDbCircle
 10
4219.252925638411
 20
2135.021022856774
 30
0.0
 40
0.0030000000000005
100
AcDbArc
 50
89.99999968733876
 51
116.5650560476962
  0
ARC
  5
15A4
330
1F
100
AcDbEntity
  8
SANINDUSA
100
AcDbCircle
 10
4219.284509230298
 20
2135.021022856774
 30
0.0
 40
0.0030000000000005
100
AcDbArc
 50
63.43494395230378
 51
90.00000031266125
  0
LINE
  5
15A5
330
1F
100
AcDbEntity
  8
SANINDUSA
100
AcDbLine
 10
4219.252717434113
 20
2135.035522857457
 30
0.0
 11
4219.252717434113
 21
2135.024322856774
 31
0.0
  0
LINE
  5
15A6
330
1F
100
AcDbEntity
  8
SANINDUSA
100
AcDbLine
 10
4219.284717434596
 20
2135.024322856774
 30
0.0
 11
4219.284717434596
 21
2135.035522857457
 31
0.0
  0
ARC
  5
15A7
330
1F
100
AcDbEntity
  8
SANINDUSA
100
AcDbCircle
 10
4219.253717433733
 20
2135.035522856775
 30
0.0
 40
0.0010000000000022
100
AcDbArc
 50
89.9999564358662
 51
179.9999608912889
  0
ARC
  5
15A8
330
1F
100
AcDbEntity
  8
SANINDUSA
100
AcDbCircle
 10
4219.283717434976
 20
2135.035522856775
 30
0.0
 40
0.0010000000000021
100
AcDbArc
 50
0.0000391087110218
 51
90.00004356413381
  0
ARC
  5
15A9
330
1F
100
AcDbEntity
  8
SANINDUSA
100
AcDbCircle
 10
4219.253017434493
 20
2135.024322856774
 30
0.0
 40
0.0003000000000002
100
AcDbArc
 50
180.0
 51
270.0
  0
ARC
  5
15AA
330
1F
100
AcDbEntity
  8
SANINDUSA
100
AcDbCircle
 10
4219.284417434216
 20
2135.024322856774
 30
0.0
 40
0.0003000000000002
100
AcDbArc
 50
270.0
 51
0.0
  0
LINE
  5
15AB
330
1F
100
AcDbEntity
  8
SANINDUSA
100
AcDbLine
 10
4219.257317434228
 20
2135.063568202768
 30
0.0
 11
4219.257317434228
 21
2135.048768202218
 31
0.0
  0
LINE
  5
15AC
330
1F
100
AcDbEntity
  8
SANINDUSA
100
AcDbLine
 10
4219.280117434482
 20
2135.048768202218
 30
0.0
 11
4219.280117434482
 21
2135.063568202768
 31
0.0
  0
LINE
  5
15AD
330
1F
100
AcDbEntity
  8
SANINDUSA
100
AcDbLine
 10
4219.258767434494
 20
2135.043028052769
 30
0.0
 11
4219.259717434881
 21
2135.042362857386
 31
0.0
  0
LINE
  5
15AE
330
1F
100
AcDbEntity
  8
SANINDUSA
100
AcDbLine
 10
4219.277717433828
 20
2135.042362857386
 30
0.0
 11
4219.278667434217
 21
2135.043028052769
 31
0.0
  0
ARC
  5
15AF
330
1F
100
AcDbEntity
  8
SANINDUSA
100
AcDbCircle
 10
4219.257517434356
 20
2135.063568202768
 30
0.0
 40
0.0002000000000007
100
AcDbArc
 50
90.0
 51
180.0
  0
ARC
  5
15B0
330
1F
100
AcDbEntity
  8
SANINDUSA
100
AcDbCircle
 10
4219.279917434355
 20
2135.063568202768
 30
0.0
 40
0.0002000000000007
100
AcDbArc
 50
0.0
 51
90.0
  0
ARC
  5
15B1
330
1F
100
AcDbEntity
  8
SANINDUSA
100
AcDbCircle
 10
4219.268717425629
 20
2135.030322848555
 30
0.0
 40
0.0124000110317335
100
AcDbArc
 50
30.00001441969061
 51
43.46402220116631
  0
ARC
  5
15B2
330
1F
100
AcDbEntity
  8
SANINDUSA
100
AcDbCircle
 10
4219.268717443081
 20
2135.030322848555
 30
0.0
 40
0.0124000110317334
100
AcDbArc
 50
136.5359777988337
 51
149.9999855803094
  0
LINE
  5
15B3
330
1F
100
AcDbEntity
  8
SANINDUSA
100
AcDbLine
 10
4219.259717434881
 20
2135.042362857386
 30
0.0
 11
4219.259717434881
 21
2135.038852803185
 31
0.0
  0
LINE
  5
15B4
330
1F
100
AcDbEntity
  8
SANINDUSA
100
AcDbLine
 10
4219.277717433828
 20
2135.038852803185
 30
0.0
 11
4219.277717433828
 21
2135.042362857386
 31
0.0
  0
ARC
  5
15B5
330
1F
100
AcDbEntity
  8
SANINDUSA
100
AcDbCircle
 10
4219.268717434355
 20
2135.123768202769
 30
0.0
 40
0.0290000000000002
100
AcDbArc
 50
290.6983727177534
 51
17.32090977611173
  0
ARC
  5
15B6
330
1F
100
AcDbEntity
  8
SANINDUSA
100
AcDbCircle
 10
4219.268717434355
 20
2135.123768202769
 30
0.0
 40
0.0290000000000002
100
AcDbArc
 50
17.32090977611173
 51
249.3016272822465
  0
ARC
  5
15B9
330
1F
100
AcDbEntity
  8
SANINDUSA
100
AcDbCircle
 10
4219.268717434355
 20
2135.123768202769
 30
0.0
 40
0.01025
100
AcDbArc
 50
0.0
 51
180.0
  0
LINE
  5
15BB
330
1F
100
AcDbEntity
  8
SANINDUSA
100
AcDbLine
 10
4219.118717434354
 20
2135.017272856774
 30
0.0
 11
4219.118717434354
 21
2135.018017856774
 31
0.0
  0
LINE
  5
15BD
330
1F
100
AcDbEntity
  8
SANINDUSA
100
AcDbLine
 10
4219.418717434355
 20
2135.018017856774
 30
0.0
 11
4219.418717434355
 21
2135.017272856774
 31
0.0
  0
LINE
  5
15BE
330
1F
100
AcDbEntity
  8
SANINDUSA
100
AcDbLine
 10
4219.133717434355
 20
2135.017022856775
 30
0.0
 11
4219.118967434354
 21
2135.017022856775
 31
0.0
  0
ARC
  5
15BF
330
1F
100
AcDbEntity
  8
SANINDUSA
100
AcDbCircle
 10
4219.118967434354
 20
2135.017272856774
 30
0.0
 40
0.0002499999999999
100
AcDbArc
 50
180.0
 51
270.0
  0
LINE
  5
15C1
330
1F
100
AcDbEntity
  8
SANINDUSA
100
AcDbLine
 10
4219.118717434354
 20
2135.018027856775
 30
0.0
 11
4219.118717434354
 21
2135.018772856774
 31
0.0
  0
LINE
  5
15C4
330
1F
100
AcDbEntity
  8
SANINDUSA
100
AcDbLine
 10
4219.418717434355
 20
2135.018772856774
 30
0.0
 11
4219.418717434355
 21
2135.018027856775
 31
0.0
  0
LINE
  5
15C5
330
1F
100
AcDbEntity
  8
SANINDUSA
100
AcDbLine
 10
4219.418467434355
 20
2135.017022856775
 30
0.0
 11
4219.403717434355
 21
2135.017022856775
 31
0.0
  0
ARC
  5
15C6
330
1F
100
AcDbEntity
  8
SANINDUSA
100
AcDbCircle
 10
4219.418467434355
 20
2135.017272856774
 30
0.0
 40
0.0002500000000001
100
AcDbArc
 50
270.0
 51
0.0
  0
LINE
  5
15C7
330
1F
100
AcDbEntity
  8
SANINDUSA
100
AcDbLine
 10
4219.118967434354
 20
2135.019022856774
 30
0.0
 11
4219.133717434355
 21
2135.019022856774
 31
0.0
  0
ARC
  5
15C8
330
1F
100
AcDbEntity
  8
SANINDUSA
100
AcDbCircle
 10
4219.118967434354
 20
2135.018772856774
 30
0.0
 40
0.0002500000000001
100
AcDbArc
 50
90.0
 51
180.0
  0
LINE
  5
15C9
330
1F
100
AcDbEntity
  8
SANINDUSA
100
AcDbLine
 10
4219.403717434355
 20
2135.019022856774
 30
0.0
 11
4219.418467434355
 21
2135.019022856774
 31
0.0
  0
ARC
  5
15CA
330
1F
100
AcDbEntity
  8
SANINDUSA
100
AcDbCircle
 10
4219.418467434355
 20
2135.018772856774
 30
0.0
 40
0.0002500000000001
100
AcDbArc
 50
0.0
 51
90.0
  0
LINE
  5
15CB
330
1F
100
AcDbEntity
  8
SANINDUSA
100
AcDbLine
 10
4219.133717434355
 20
2135.019022856774
 30
0.0
 11
4219.403717434355
 21
2135.019022856774
 31
0.0
  0
LINE
  5
15CD
330
1F
100
AcDbEntity
  8
SANINDUSA
100
AcDbLine
 10
4219.403717434355
 20
2135.017022856775
 30
0.0
 11
4219.133717434355
 21
2135.017022856775
 31
0.0
  0
ARC
  5
15D0
330
1F
100
AcDbEntity
  8
SANINDUSA
100
AcDbCircle
 10
4219.404080101114
 20
2135.021022856774
 30
0.0
 40
0.0019999999999999
100
AcDbArc
 50
249.4439441406438
 51
270.0
  0
ARC
  5
15D1
330
1F
100
AcDbEntity
  8
SANINDUSA
100
AcDbCircle
 10
4219.133354765148
 20
2135.021022856774
 30
0.0
 40
0.002
100
AcDbArc
 50
270.0
 51
290.5560558593561
  0
LINE
  5
15D2
330
1F
100
AcDbEntity
  8
SANINDUSA
100
AcDbLine
 10
4219.396057026059
 20
2135.021895510533
 30
0.0
 11
4219.403377853884
 21
2135.01915019855
 31
0.0
  0
LINE
  5
15D3
330
1F
100
AcDbEntity
  8
SANINDUSA
100
AcDbLine
 10
4219.134057012379
 20
2135.01915019855
 30
0.0
 11
4219.141377840204
 21
2135.021895510533
 31
0.0
  0
LINE
  5
15D4
330
1F
100
AcDbEntity
  8
SANINDUSA
100
AcDbLine
 10
4219.142080087435
 20
2135.022022852308
 30
0.0
 11
4219.395354778828
 21
2135.022022852308
 31
0.0
  0
ARC
  5
15D5
330
1F
100
AcDbEntity
  8
SANINDUSA
100
AcDbCircle
 10
4219.142080087435
 20
2135.020022852307
 30
0.0
 40
0.0019999999999999
100
AcDbArc
 50
90.0
 51
110.5560558593561
  0
ARC
  5
15D6
330
1F
100
AcDbEntity
  8
SANINDUSA
100
AcDbCircle
 10
4219.395354778828
 20
2135.020022852307
 30
0.0
 40
0.0019999999999999
100
AcDbArc
 50
69.44394414064385
 51
90.0
  0
LINE
  5
15D7
330
1F
100
AcDbEntity
  8
SANINDUSA
100
AcDbLine
 10
4219.168388874203
 20
2135.015807507206
 30
0.0
 11
4219.164088874203
 21
2135.015807507206
 31
0.0
  0
LINE
  5
15D8
330
1F
100
AcDbEntity
  8
SANINDUSA
100
AcDbLine
 10
4219.291388874203
 20
2135.015807507206
 30
0.0
 11
4219.287088874203
 21
2135.015807507206
 31
0.0
  0
LINE
  5
15D9
330
1F
100
AcDbEntity
  8
SANINDUSA
100
AcDbLine
 10
4219.250388874203
 20
2135.015807507206
 30
0.0
 11
4219.246088874203
 21
2135.015807507206
 31
0.0
  0
LINE
  5
15DA
330
1F
100
AcDbEntity
  8
SANINDUSA
100
AcDbLine
 10
4219.229888874203
 20
2135.015807507206
 30
0.0
 11
4219.225588874204
 21
2135.015807507206
 31
0.0
  0
LINE
  5
15DB
330
1F
100
AcDbEntity
  8
SANINDUSA
100
AcDbLine
 10
4219.373388874203
 20
2135.015807507206
 30
0.0
 11
4219.369088874203
 21
2135.015807507206
 31
0.0
  0
LINE
  5
15DC
330
1F
100
AcDbEntity
  8
SANINDUSA
100
AcDbLine
 10
4219.352888874203
 20
2135.015807507206
 30
0.0
 11
4219.348588874203
 21
2135.015807507206
 31
0.0
  0
LINE
  5
15DD
330
1F
100
AcDbEntity
  8
SANINDUSA
100
AcDbLine
 10
4219.188888874203
 20
2135.015807507206
 30
0.0
 11
4219.184588874203
 21
2135.015807507206
 31
0.0
  0
LINE
  5
15DE
330
1F
100
AcDbEntity
  8
SANINDUSA
100
AcDbLine
 10
4219.332388874203
 20
2135.015807507206
 30
0.0
 11
4219.328088874203
 21
2135.015807507206
 31
0.0
  0
LINE
  5
15DF
330
1F
100
AcDbEntity
  8
SANINDUSA
100
AcDbLine
 10
4219.393888874203
 20
2135.015807507206
 30
0.0
 11
4219.389588874203
 21
2135.015807507206
 31
0.0
  0
LINE
  5
15E0
330
1F
100
AcDbEntity
  8
SANINDUSA
100
AcDbLine
 10
4219.270888874204
 20
2135.015807507206
 30
0.0
 11
4219.266588874203
 21
2135.015807507206
 31
0.0
  0
LINE
  5
15E1
330
1F
100
AcDbEntity
  8
SANINDUSA
100
AcDbLine
 10
4219.311888874204
 20
2135.015807507206
 30
0.0
 11
4219.307588874204
 21
2135.015807507206
 31
0.0
  0
LINE
  5
15E2
330
1F
100
AcDbEntity
  8
SANINDUSA
100
AcDbLine
 10
4219.147888874203
 20
2135.015807507206
 30
0.0
 11
4219.143588874203
 21
2135.015807507206
 31
0.0
  0
LINE
  5
15E3
330
1F
100
AcDbEntity
  8
SANINDUSA
100
AcDbLine
 10
4219.209388874204
 20
2135.015807507206
 30
0.0
 11
4219.205088874203
 21
2135.015807507206
 31
0.0
  0
LINE
  5
15E4
330
1F
100
AcDbEntity
  8
SANINDUSA
100
AcDbLine
 10
4219.269888874204
 20
2135.014107507205
 30
0.0
 11
4219.267588874203
 21
2135.014107507205
 31
0.0
  0
LINE
  5
15E5
330
1F
100
AcDbEntity
  8
SANINDUSA
100
AcDbLine
 10
4219.331388874203
 20
2135.014107507205
 30
0.0
 11
4219.329088874203
 21
2135.014107507205
 31
0.0
  0
LINE
  5
15E6
330
1F
100
AcDbEntity
  8
SANINDUSA
100
AcDbLine
 10
4219.208388874204
 20
2135.014107507205
 30
0.0
 11
4219.206088874203
 21
2135.014107507205
 31
0.0
  0
LINE
  5
15E7
330
1F
100
AcDbEntity
  8
SANINDUSA
100
AcDbLine
 10
4219.372388874203
 20
2135.014107507205
 30
0.0
 11
4219.370088874203
 21
2135.014107507205
 31
0.0
  0
LINE
  5
15E8
330
1F
100
AcDbEntity
  8
SANINDUSA
100
AcDbLine
 10
4219.228888874203
 20
2135.014107507205
 30
0.0
 11
4219.226588874203
 21
2135.014107507205
 31
0.0
  0
LINE
  5
15E9
330
1F
100
AcDbEntity
  8
SANINDUSA
100
AcDbLine
 10
4219.310888874203
 20
2135.014107507205
 30
0.0
 11
4219.308588874203
 21
2135.014107507205
 31
0.0
  0
LINE
  5
15EA
330
1F
100
AcDbEntity
  8
SANINDUSA
100
AcDbLine
 10
4219.146888874203
 20
2135.014107507205
 30
0.0
 11
4219.144588874203
 21
2135.014107507205
 31
0.0
  0
LINE
  5
15EB
330
1F
100
AcDbEntity
  8
SANINDUSA
100
AcDbLine
 10
4219.351888874204
 20
2135.014107507205
 30
0.0
 11
4219.349588874203
 21
2135.014107507205
 31
0.0
  0
LINE
  5
15EC
330
1F
100
AcDbEntity
  8
SANINDUSA
100
AcDbLine
 10
4219.249388874203
 20
2135.014107507205
 30
0.0
 11
4219.247088874204
 21
2135.014107507205
 31
0.0
  0
LINE
  5
15ED
330
1F
100
AcDbEntity
  8
SANINDUSA
100
AcDbLine
 10
4219.392888874202
 20
2135.014107507205
 30
0.0
 11
4219.390588874204
 21
2135.014107507205
 31
0.0
  0
LINE
  5
15EE
330
1F
100
AcDbEntity
  8
SANINDUSA
100
AcDbLine
 10
4219.187888874203
 20
2135.014107507205
 30
0.0
 11
4219.185588874203
 21
2135.014107507205
 31
0.0
  0
LINE
  5
15EF
330
1F
100
AcDbEntity
  8
SANINDUSA
100
AcDbLine
 10
4219.167388874203
 20
2135.014107507205
 30
0.0
 11
4219.165088874203
 21
2135.014107507205
 31
0.0
  0
LINE
  5
15F0
330
1F
100
AcDbEntity
  8
SANINDUSA
100
AcDbLine
 10
4219.290388874203
 20
2135.014107507205
 30
0.0
 11
4219.288088874203
 21
2135.014107507205
 31
0.0
  0
LINE
  5
15F1
330
1F
100
AcDbEntity
  8
SANINDUSA
100
AcDbLine
 10
4219.252925638428
 20
2135.024022856775
 30
0.0
 11
4219.284509230282
 21
2135.024022856775
 31
0.0
  0
LINE
  5
15F2
330
1F
100
AcDbEntity
  8
SANINDUSA
100
AcDbLine
 10
4219.253717434493
 20
2135.036522856774
 30
0.0
 11
4219.283717433869
 21
2135.036522856774
 31
0.0
  0
LINE
  5
15F3
330
1F
100
AcDbEntity
  8
SANINDUSA
100
AcDbLine
 10
4219.258767434494
 20
2135.048768202218
 30
0.0
 11
4219.258767434494
 21
2135.044043350847
 31
0.0
  0
LINE
  5
15F4
330
1F
100
AcDbEntity
  8
SANINDUSA
100
AcDbLine
 10
4219.257317434228
 20
2135.048768202218
 30
0.0
 11
4219.258767434494
 21
2135.048768202218
 31
0.0
  0
LINE
  5
15F5
330
1F
100
AcDbEntity
  8
SANINDUSA
100
AcDbLine
 10
4219.278667434217
 20
2135.048768202218
 30
0.0
 11
4219.280117434482
 21
2135.048768202218
 31
0.0
  0
LINE
  5
15F6
330
1F
100
AcDbEntity
  8
SANINDUSA
100
AcDbLine
 10
4219.278667434217
 20
2135.044043350847
 30
0.0
 11
4219.278667434217
 21
2135.048768202218
 31
0.0
  0
LINE
  5
15F7
330
1F
100
AcDbEntity
  8
SANINDUSA
100
AcDbLine
 10
4219.258767434494
 20
2135.044043350847
 30
0.0
 11
4219.278667434217
 21
2135.044043350847
 31
0.0
  0
LINE
  5
15F8
330
1F
100
AcDbEntity
  8
SANINDUSA
100
AcDbLine
 10
4219.259717434881
 20
2135.042362857386
 30
0.0
 11
4219.277717433828
 21
2135.042362857386
 31
0.0
  0
SPLINE
  5
15F9
330
1F
100
AcDbEntity
  8
SANINDUSA
100
AcDbSpline
210
0.0
220
0.0
230
1.0
 70
    24
 71
     3
 72
    10
 73
     6
 74
     0
 42
0.00000001
 43
0.0000000001
 40
0.0
 40
0.0
 40
0.0
 40
0.0
 40
0.3974046172281629
 40
0.8774890248771908
 40
1.0
 40
1.0
 40
1.0
 40
1.0
 10
4219.258767434494
 20
2135.044043350847
 30
0.0
 10
4219.258767434494
 20
2135.043824668725
 30
0.0
 10
4219.258767434494
 20
2135.043341807798
 30
0.0
 10
4219.258767434494
 20
2135.042988423188
 30
0.0
 10
4219.258767434494
 20
2135.043064025745
 30
0.0
 10
4219.258767434494
 20
2135.043079396163
 30
0.0
  0
SPLINE
  5
15FA
330
1F
100
AcDbEntity
  8
SANINDUSA
100
AcDbSpline
210
0.0
220
0.0
230
1.0
 70
    24
 71
     3
 72
     9
 73
     5
 74
     0
 42
0.00000001
 43
0.0000000001
 40
0.0
 40
0.0
 40
0.0
 40
0.0
 40
0.3739263747357584
 40
1.0
 40
1.0
 40
1.0
 40
1.0
 10
4219.278667434217
 20
2135.043079396163
 30
0.0
 10
4219.278667434217
 20
2135.043088704386
 30
0.0
 10
4219.278667434217
 20
2135.043113597586
 30
0.0
 10
4219.278667434217
 20
2135.043685375669
 30
0.0
 10
4219.278667434217
 20
2135.044043350847
 30
0.0
  0
LINE
  5
15FB
330
1F
100
AcDbEntity
  8
SANINDUSA
100
AcDbLine
 10
4219.257517434356
 20
2135.063768202769
 30
0.0
 11
4219.279917433833
 21
2135.063768202769
 31
0.0
  0
LINE
  5
15FC
330
1F
100
AcDbEntity
  8
SANINDUSA
100
AcDbLine
 10
4219.259717434881
 20
2135.038852803185
 30
0.0
 11
4219.277717433828
 21
2135.038852803185
 31
0.0
  0
LINE
  5
164A
330
1F
100
AcDbEntity
  8
SANINDUSA
100
AcDbLine
 10
4218.790374501671
 20
2135.277124226646
 30
0.0
 11
4218.790374501671
 21
2135.269374226646
 31
0.0
  0
LINE
  5
164B
330
1F
100
AcDbEntity
  8
SANINDUSA
100
AcDbLine
 10
4218.84837450167
 20
2135.269374226646
 30
0.0
 11
4218.84837450167
 21
2135.277124226646
 31
0.0
  0
ARC
  5
164C
330
1F
100
AcDbEntity
  8
SANINDUSA
100
AcDbCircle
 10
4218.848124501671
 20
2135.269374226646
 30
0.0
 40
0.00025
100
AcDbArc
 50
270.0
 51
0.0
  0
ARC
  5
164D
330
1F
100
AcDbEntity
  8
SANINDUSA
100
AcDbCircle
 10
4218.790624501671
 20
2135.269374226646
 30
0.0
 40
0.0002500000000001
100
AcDbArc
 50
180.0
 51
270.0
  0
LINE
  5
164E
330
1F
100
AcDbEntity
  8
SANINDUSA
100
AcDbLine
 10
4218.809124501671
 20
2135.269124226646
 30
0.0
 11
4218.809124501671
 21
2134.987374226646
 31
0.0
  0
LINE
  5
164F
330
1F
100
AcDbEntity
  8
SANINDUSA
100
AcDbLine
 10
4218.829624501671
 20
2134.987374226646
 30
0.0
 11
4218.829624501671
 21
2135.269124226646
 31
0.0
  0
LINE
  5
1650
330
1F
100
AcDbEntity
  8
SANINDUSA
100
AcDbLine
 10
4218.809124501671
 20
2134.987374226646
 30
0.0
 11
4218.809124501671
 21
2134.937374226646
 31
0.0
  0
LINE
  5
1651
330
1F
100
AcDbEntity
  8
SANINDUSA
100
AcDbLine
 10
4218.829624501671
 20
2134.937374226646
 30
0.0
 11
4218.829624501671
 21
2134.987374226646
 31
0.0
  0
LINE
  5
1656
330
1F
100
AcDbEntity
  8
SANINDUSA
100
AcDbLine
 10
4218.790374501671
 20
2135.277124226646
 30
0.0
 11
4218.84837450167
 21
2135.277124226646
 31
0.0
  0
LINE
  5
1657
330
1F
100
AcDbEntity
  8
SANINDUSA
100
AcDbLine
 10
4218.846820752726
 20
2135.269124226646
 30
0.0
 11
4218.790624501671
 21
2135.269124226646
 31
0.0
  0
LINE
  5
1658
330
1F
100
AcDbEntity
  8
SANINDUSA
100
AcDbLine
 10
4218.848124501671
 20
2135.269124226646
 30
0.0
 11
4218.846820752726
 21
2135.269124226646
 31
0.0
  0
ARC
  5
1659
330
1F
100
AcDbEntity
  8
SANINDUSA
100
AcDbCircle
 10
4218.819374501672
 20
2134.937374226646
 30
0.0
 40
0.01025
100
AcDbArc
 50
180.0
 51
0.0
  0
ARC
  5
165C
330
1F
100
AcDbEntity
  8
SANINDUSA
100
AcDbCircle
 10
4218.819374501672
 20
2134.937374226646
 30
0.0
 40
0.0113999999999977
100
AcDbArc
 50
180.0
 51
25.95699737668417
  0
ARC
  5
165D
330
1F
100
AcDbEntity
  8
SANINDUSA
100
AcDbCircle
 10
4218.819374501672
 20
2134.937374226646
 30
0.0
 40
0.0113999999999977
100
AcDbArc
 50
154.0430026233158
 51
180.0
  0
ARC
  5
165E
330
1F
100
AcDbEntity
  8
SANINDUSA
100
AcDbCircle
 10
4218.819374501672
 20
2134.937374226646
 30
0.0
 40
0.016000000621381
100
AcDbArc
 50
180.0
 51
50.16156188337799
  0
ARC
  5
165F
330
1F
100
AcDbEntity
  8
SANINDUSA
100
AcDbCircle
 10
4218.819374501672
 20
2134.937374226646
 30
0.0
 40
0.016000000621381
100
AcDbArc
 50
129.838438116622
 51
180.0
  0
ARC
  5
1660
330
1F
100
AcDbEntity
  8
SANINDUSA
100
AcDbCircle
 10
4218.684374501671
 20
2135.072374226646
 30
0.0
 40
0.015
100
AcDbArc
 50
90.0
 51
180.0
  0
LINE
  5
1661
330
1F
100
AcDbEntity
  8
SANINDUSA
100
AcDbLine
 10
4218.684374501671
 20
2135.087374226646
 30
0.0
 11
4218.809124501671
 21
2135.087374226646
 31
0.0
  0
LINE
  5
1662
330
1F
100
AcDbEntity
  8
SANINDUSA
100
AcDbLine
 10
4218.829624501671
 20
2135.087374226646
 30
0.0
 11
4218.95437450167
 21
2135.087374226646
 31
0.0
  0
ARC
  5
1663
330
1F
100
AcDbEntity
  8
SANINDUSA
100
AcDbCircle
 10
4218.95437450167
 20
2135.072374226646
 30
0.0
 40
0.015
100
AcDbArc
 50
0.0
 51
90.0
  0
LINE
  5
1664
330
1F
100
AcDbEntity
  8
SANINDUSA
100
AcDbLine
 10
4218.96937450167
 20
2135.072374226646
 30
0.0
 11
4218.96937450167
 21
2134.802374226646
 31
0.0
  0
LINE
  5
1665
330
1F
100
AcDbEntity
  8
SANINDUSA
100
AcDbLine
 10
4218.669374501671
 20
2134.802374226646
 30
0.0
 11
4218.669374501671
 21
2135.072374226646
 31
0.0
  0
ARC
  5
1666
330
1F
100
AcDbEntity
  8
SANINDUSA
100
AcDbCircle
 10
4218.684374501671
 20
2134.802374226646
 30
0.0
 40
0.015
100
AcDbArc
 50
180.0
 51
270.0
  0
ARC
  5
1667
330
1F
100
AcDbEntity
  8
SANINDUSA
100
AcDbCircle
 10
4218.95437450167
 20
2134.802374226646
 30
0.0
 40
0.015
100
AcDbArc
 50
270.0
 51
0.0
  0
LINE
  5
1668
330
1F
100
AcDbEntity
  8
SANINDUSA
100
AcDbLine
 10
4218.95437450167
 20
2134.787374226646
 30
0.0
 11
4218.684374501671
 21
2134.787374226646
 31
0.0
  0
ARC
  5
1674
330
1F
100
AcDbEntity
  8
SANINDUSA
100
AcDbCircle
 10
4218.819374501672
 20
2134.937374226646
 30
0.0
 40
0.0212082127420686
100
AcDbArc
 50
118.9013713645773
 51
0.0
  0
ARC
  5
1675
330
1F
100
AcDbEntity
  8
SANINDUSA
100
AcDbCircle
 10
4218.819374501672
 20
2134.937374226646
 30
0.0
 40
0.0212082127420686
100
AcDbArc
 50
0.0
 51
61.09862863542262
  0
LINE
  5
1679
330
1F
100
AcDbEntity
  8
SANINDUSA
100
AcDbLine
 10
4218.692737154751
 20
2135.064713820659
 30
0.0
 11
4218.809124501671
 21
2135.064713820659
 31
0.0
  0
LINE
  5
167A
330
1F
100
AcDbEntity
  8
SANINDUSA
100
AcDbLine
 10
4218.829624501671
 20
2135.064713820659
 30
0.0
 11
4218.946011846145
 21
2135.064713820659
 31
0.0
  0
ARC
  5
167C
330
1F
100
AcDbEntity
  8
SANINDUSA
100
AcDbCircle
 10
4218.940950888575
 20
2135.05895061586
 30
0.0
 40
0.0076699296651709
100
AcDbArc
 50
41.28798138249971
 51
48.71201860030797
  0
LINE
  5
167E
330
1F
100
AcDbEntity
  8
SANINDUSA
100
AcDbLine
 10
4218.946714093375
 20
2135.064011573428
 30
0.0
 11
4218.946714093375
 21
2134.810736879864
 31
0.0
  0
ARC
  5
1684
330
1F
100
AcDbEntity
  8
SANINDUSA
100
AcDbCircle
 10
4218.697798112319
 20
2135.05895061586
 30
0.0
 40
0.0076699296651766
100
AcDbArc
 50
131.287981399692
 51
138.7120186175002
  0
LINE
  5
1686
330
1F
100
AcDbEntity
  8
SANINDUSA
100
AcDbLine
 10
4218.69203490752
 20
2134.810736879864
 30
0.0
 11
4218.69203490752
 21
2135.064011573428
 31
0.0
  0
LINE
  5
1687
330
1F
100
AcDbEntity
  8
SANINDUSA
100
AcDbLine
 10
4218.946011846145
 20
2134.810034632633
 30
0.0
 11
4218.692737154751
 21
2134.810034632633
 31
0.0
  0
ARC
  5
168A
330
1F
100
AcDbEntity
  8
SANINDUSA
100
AcDbCircle
 10
4218.940950888575
 20
2134.815797837432
 30
0.0
 40
0.007669929665176
100
AcDbArc
 50
311.287981399692
 51
318.7120186175003
  0
ARC
  5
168B
330
1F
100
AcDbEntity
  8
SANINDUSA
100
AcDbCircle
 10
4218.697798112319
 20
2134.815797837432
 30
0.0
 40
0.0076699296651934
100
AcDbArc
 50
221.2879813824997
 51
228.712018600308
  0
LINE
  5
168C
330
1F
100
AcDbEntity
  8
SANINDUSA
100
AcDbLine
 10
4218.946011846145
 20
2135.064713820659
 30
0.0
 11
4218.953332673969
 21
2135.072034648481
 31
0.0
  0
ELLIPSE
  5
168D
330
1F
100
AcDbEntity
  8
SANINDUSA
100
AcDbEllipse
 10
4218.943345169071
 20
2135.061344896355
 30
0.0
 11
0.0106728176408274
 21
0.0106728176379589
 31
0.0
210
0.0
220
0.0
230
1.0
 40
0.1325061113340242
 41
6.032279103703421
 42
6.534091510785093
  0
LINE
  5
168E
330
1F
100
AcDbEntity
  8
SANINDUSA
100
AcDbLine
 10
4218.9540349212
 20
2135.071332401251
 30
0.0
 11
4218.946714093375
 21
2135.064011573428
 31
0.0
  0
LINE
  5
168F
330
1F
100
AcDbEntity
  8
SANINDUSA
100
AcDbLine
 10
4218.69203490752
 20
2135.064011573428
 30
0.0
 11
4218.684714079695
 21
2135.071332401251
 31
0.0
  0
ELLIPSE
  5
1690
330
1F
100
AcDbEntity
  8
SANINDUSA
100
AcDbEllipse
 10
4218.695403831823
 20
2135.061344896355
 30
0.0
 11
0.010672817640825
 21
-0.0106728176379588
 31
0.0
210
0.0
220
0.0
230
1.0
 40
0.1325061113340434
 41
2.890686449984264
 42
3.392498857066149
  0
LINE
  5
1691
330
1F
100
AcDbEntity
  8
SANINDUSA
100
AcDbLine
 10
4218.685416326925
 20
2135.072034648481
 30
0.0
 11
4218.692737154751
 21
2135.064713820659
 31
0.0
  0
LINE
  5
1692
330
1F
100
AcDbEntity
  8
SANINDUSA
100
AcDbLine
 10
4218.946714093375
 20
2134.810736879864
 30
0.0
 11
4218.9540349212
 21
2134.803416052041
 31
0.0
  0
ELLIPSE
  5
1693
330
1F
100
AcDbEntity
  8
SANINDUSA
100
AcDbEllipse
 10
4218.943345169071
 20
2134.813403556936
 30
0.0
 11
0.0106728176408274
 21
-0.0106728176379587
 31
0.0
210
0.0
220
0.0
230
1.0
 40
0.1325061113340222
 41
6.032279103574122
 42
6.534091510655826
  0
LINE
  5
1694
330
1F
100
AcDbEntity
  8
SANINDUSA
100
AcDbLine
 10
4218.953332673969
 20
2134.802713804811
 30
0.0
 11
4218.946011846145
 21
2134.810034632633
 31
0.0
  0
LINE
  5
1695
330
1F
100
AcDbEntity
  8
SANINDUSA
100
AcDbLine
 10
4218.692737154751
 20
2134.810034632633
 30
0.0
 11
4218.685416326925
 21
2134.802713804811
 31
0.0
  0
ELLIPSE
  5
1696
330
1F
100
AcDbEntity
  8
SANINDUSA
100
AcDbEllipse
 10
4218.695403831823
 20
2134.813403556936
 30
0.0
 11
0.0106728176408249
 21
0.0106728176379588
 31
0.0
210
0.0
220
0.0
230
1.0
 40
0.13250611133404
 41
2.890686450113431
 42
3.392498857195329
  0
LINE
  5
1697
330
1F
100
AcDbEntity
  8
SANINDUSA
100
AcDbLine
 10
4218.684714079695
 20
2134.803416052041
 30
0.0
 11
4218.69203490752
 21
2134.810736879864
 31
0.0
  0
LINE
  5
1698
330
1F
100
AcDbEntity
  8
SANINDUSA
100
AcDbLine
 10
4218.9540349212
 20
2134.803416052041
 30
0.0
 11
4218.9540349212
 21
2135.071332401251
 31
0.0
  0
LINE
  5
1699
330
1F
100
AcDbEntity
  8
SANINDUSA
100
AcDbLine
 10
4218.684714079695
 20
2135.071332401251
 30
0.0
 11
4218.684714079695
 21
2134.803416052041
 31
0.0
  0
LINE
  5
169A
330
1F
100
AcDbEntity
  8
SANINDUSA
100
AcDbLine
 10
4218.953332673969
 20
2135.072034648481
 30
0.0
 11
4218.829624501671
 21
2135.072034648481
 31
0.0
  0
LINE
  5
169B
330
1F
100
AcDbEntity
  8
SANINDUSA
100
AcDbLine
 10
4218.809124501671
 20
2135.072034648481
 30
0.0
 11
4218.685416326925
 21
2135.072034648481
 31
0.0
  0
LINE
  5
169C
330
1F
100
AcDbEntity
  8
SANINDUSA
100
AcDbLine
 10
4218.685416326925
 20
2134.802713804811
 30
0.0
 11
4218.953332673969
 21
2134.802713804811
 31
0.0
  0
LINE
  5
16BF
330
1F
100
AcDbEntity
  8
SANINDUSA
100
AcDbLine
 10
4219.500207794343
 20
2135.094768202769
 30
0.0
 11
4219.507957794344
 21
2135.094768202769
 31
0.0
  0
LINE
  5
16C0
330
1F
100
AcDbEntity
  8
SANINDUSA
100
AcDbLine
 10
4219.507957794344
 20
2135.152768202769
 30
0.0
 11
4219.500207794343
 21
2135.152768202769
 31
0.0
  0
ARC
  5
16C1
330
1F
100
AcDbEntity
  8
SANINDUSA
100
AcDbCircle
 10
4219.507957794344
 20
2135.152518202769
 30
0.0
 40
0.0002499999999999
100
AcDbArc
 50
0.0
 51
90.0
  0
ARC
  5
16C2
330
1F
100
AcDbEntity
  8
SANINDUSA
100
AcDbCircle
 10
4219.507957794344
 20
2135.095018202769
 30
0.0
 40
0.0002500000000001
100
AcDbArc
 50
270.0
 51
0.0
  0
LINE
  5
16C3
330
1F
100
AcDbEntity
  8
SANINDUSA
100
AcDbLine
 10
4219.508207794343
 20
2135.113518202768
 30
0.0
 11
4219.789957794343
 21
2135.113518202768
 31
0.0
  0
LINE
  5
16C4
330
1F
100
AcDbEntity
  8
SANINDUSA
100
AcDbLine
 10
4219.789957794343
 20
2135.134018202768
 30
0.0
 11
4219.508207794343
 21
2135.134018202768
 31
0.0
  0
ARC
  5
16C5
330
1F
100
AcDbEntity
  8
SANINDUSA
100
AcDbCircle
 10
4219.789957794343
 20
2135.073768202769
 30
0.0
 40
0.03975
100
AcDbArc
 50
0.0
 51
90.0
  0
ARC
  5
16C6
330
1F
100
AcDbEntity
  8
SANINDUSA
100
AcDbCircle
 10
4219.789957794343
 20
2135.073768202769
 30
0.0
 40
0.0602500000000001
100
AcDbArc
 50
0.0
 51
90.0
  0
LINE
  5
16C7
330
1F
100
AcDbEntity
  8
SANINDUSA
100
AcDbLine
 10
4219.850207794343
 20
2135.063768202769
 30
0.0
 11
4219.850207794343
 21
2135.073768202769
 31
0.0
  0
LINE
  5
16C8
330
1F
100
AcDbEntity
  8
SANINDUSA
100
AcDbLine
 10
4219.829707794343
 20
2135.073768202769
 30
0.0
 11
4219.829707794343
 21
2135.063768202769
 31
0.0
  0
ARC
  5
174F
330
1F
100
AcDbEntity
  8
SANINDUSA
100
AcDbCircle
 10
4219.861166007086
 20
2135.025022852308
 30
0.0
 40
0.0030000000000001
100
AcDbArc
 50
243.4349488345742
 51
270.0
  0
ARC
  5
1750
330
1F
100
AcDbEntity
  8
SANINDUSA
100
AcDbCircle
 10
4219.818749581602
 20
2135.025022852308
 30
0.0
 40
0.0030000000000001
100
AcDbArc
 50
270.0
 51
296.5650511654258
  0
LINE
  5
1751
330
1F
100
AcDbEntity
  8
SANINDUSA
100
AcDbLine
 10
4219.859824366299
 20
2135.022339570735
 30
0.0
 11
4219.857091231302
 21
2135.023706138233
 31
0.0
  0
LINE
  5
1752
330
1F
100
AcDbEntity
  8
SANINDUSA
100
AcDbLine
 10
4219.822824357385
 20
2135.023706138233
 30
0.0
 11
4219.820091222388
 21
2135.022339570735
 31
0.0
  0
ARC
  5
1753
330
1F
100
AcDbEntity
  8
SANINDUSA
100
AcDbCircle
 10
4219.824165998399
 20
2135.021022856774
 30
0.0
 40
0.0030000000000005
100
AcDbArc
 50
89.99999968733876
 51
116.5650560476962
  0
ARC
  5
1754
330
1F
100
AcDbEntity
  8
SANINDUSA
100
AcDbCircle
 10
4219.855749590288
 20
2135.021022856774
 30
0.0
 40
0.0030000000000005
100
AcDbArc
 50
63.43494395230378
 51
90.00000031266125
  0
ARC
  5
1755
330
1F
100
AcDbEntity
  8
SANINDUSA
100
AcDbCircle
 10
4219.824957793722
 20
2135.035522856775
 30
0.0
 40
0.0010000000000025
100
AcDbArc
 50
89.9999564358662
 51
179.9999608912889
  0
ARC
  5
1756
330
1F
100
AcDbEntity
  8
SANINDUSA
100
AcDbCircle
 10
4219.854957794965
 20
2135.035522856775
 30
0.0
 40
0.0010000000000022
100
AcDbArc
 50
0.0000391087110218
 51
90.00004356413381
  0
LINE
  5
1757
330
1F
100
AcDbEntity
  8
SANINDUSA
100
AcDbLine
 10
4219.823957794102
 20
2135.035522857457
 30
0.0
 11
4219.823957794102
 21
2135.024322856774
 31
0.0
  0
LINE
  5
1758
330
1F
100
AcDbEntity
  8
SANINDUSA
100
AcDbLine
 10
4219.855957794584
 20
2135.024322856774
 30
0.0
 11
4219.855957794584
 21
2135.035522857457
 31
0.0
  0
ARC
  5
1759
330
1F
100
AcDbEntity
  8
SANINDUSA
100
AcDbCircle
 10
4219.824257794481
 20
2135.024322856774
 30
0.0
 40
0.0003000000000003
100
AcDbArc
 50
180.0
 51
270.0
  0
ARC
  5
175A
330
1F
100
AcDbEntity
  8
SANINDUSA
100
AcDbCircle
 10
4219.855657794205
 20
2135.024322856774
 30
0.0
 40
0.0003000000000003
100
AcDbArc
 50
270.0
 51
0.0
  0
LINE
  5
175B
330
1F
100
AcDbEntity
  8
SANINDUSA
100
AcDbLine
 10
4219.828557794217
 20
2135.063568202768
 30
0.0
 11
4219.828557794217
 21
2135.044043350847
 31
0.0
  0
LINE
  5
175C
330
1F
100
AcDbEntity
  8
SANINDUSA
100
AcDbLine
 10
4219.85135779447
 20
2135.044043350847
 30
0.0
 11
4219.85135779447
 21
2135.063568202768
 31
0.0
  0
ARC
  5
175D
330
1F
100
AcDbEntity
  8
SANINDUSA
100
AcDbCircle
 10
4219.828757794344
 20
2135.063568202768
 30
0.0
 40
0.000200000000001
100
AcDbArc
 50
90.0
 51
180.0
  0
ARC
  5
175E
330
1F
100
AcDbEntity
  8
SANINDUSA
100
AcDbCircle
 10
4219.851157794344
 20
2135.063568202768
 30
0.0
 40
0.0002000000000007
100
AcDbArc
 50
0.0
 51
90.0
  0
ARC
  5
175F
330
1F
100
AcDbEntity
  8
SANINDUSA
100
AcDbCircle
 10
4219.839957785618
 20
2135.030322848555
 30
0.0
 40
0.0124000110317337
100
AcDbArc
 50
30.00001441969061
 51
43.46402220116631
  0
ARC
  5
1760
330
1F
100
AcDbEntity
  8
SANINDUSA
100
AcDbCircle
 10
4219.83995780307
 20
2135.030322848555
 30
0.0
 40
0.0124000110317336
100
AcDbArc
 50
136.5359777988337
 51
149.9999855803094
  0
LINE
  5
1761
330
1F
100
AcDbEntity
  8
SANINDUSA
100
AcDbLine
 10
4219.82855779409
 20
2135.044043350847
 30
0.0
 11
4219.83095779487
 21
2135.042362857386
 31
0.0
  0
LINE
  5
1762
330
1F
100
AcDbEntity
  8
SANINDUSA
100
AcDbLine
 10
4219.848957793818
 20
2135.042362857386
 30
0.0
 11
4219.851357794598
 21
2135.044043350847
 31
0.0
  0
LINE
  5
1763
330
1F
100
AcDbEntity
  8
SANINDUSA
100
AcDbLine
 10
4219.83095779487
 20
2135.042362857386
 30
0.0
 11
4219.83095779487
 21
2135.038852803185
 31
0.0
  0
LINE
  5
1764
330
1F
100
AcDbEntity
  8
SANINDUSA
100
AcDbLine
 10
4219.848957793818
 20
2135.038852803185
 30
0.0
 11
4219.848957793818
 21
2135.042362857386
 31
0.0
  0
LINE
  5
1765
330
1F
100
AcDbEntity
  8
SANINDUSA
100
AcDbLine
 10
4219.500207794343
 20
2135.094768202769
 30
0.0
 11
4219.500207794343
 21
2135.152768202769
 31
0.0
  0
LINE
  5
1767
330
1F
100
AcDbEntity
  8
SANINDUSA
100
AcDbLine
 10
4219.508207794343
 20
2135.152518202769
 30
0.0
 11
4219.508207794343
 21
2135.095018202769
 31
0.0
  0
LINE
  5
176D
330
1F
100
AcDbEntity
  8
SANINDUSA
100
AcDbLine
 10
4219.689957794344
 20
2135.018027856775
 30
0.0
 11
4219.689957794344
 21
2135.018772856774
 31
0.0
  0
LINE
  5
176E
330
1F
100
AcDbEntity
  8
SANINDUSA
100
AcDbLine
 10
4219.704957794344
 20
2135.017022856775
 30
0.0
 11
4219.690207794344
 21
2135.017022856775
 31
0.0
  0
ARC
  5
176F
330
1F
100
AcDbEntity
  8
SANINDUSA
100
AcDbCircle
 10
4219.690207794344
 20
2135.017272856774
 30
0.0
 40
0.0002500000000001
100
AcDbArc
 50
180.0
 51
270.0
  0
LINE
  5
1770
330
1F
100
AcDbEntity
  8
SANINDUSA
100
AcDbLine
 10
4219.690207794344
 20
2135.019022856774
 30
0.0
 11
4219.704957794344
 21
2135.019022856774
 31
0.0
  0
ARC
  5
1771
330
1F
100
AcDbEntity
  8
SANINDUSA
100
AcDbCircle
 10
4219.690207794344
 20
2135.018772856774
 30
0.0
 40
0.0002500000000001
100
AcDbArc
 50
90.0
 51
180.0
  0
LINE
  5
1772
330
1F
100
AcDbEntity
  8
SANINDUSA
100
AcDbLine
 10
4219.689957794344
 20
2135.017272856774
 30
0.0
 11
4219.689957794344
 21
2135.018017856774
 31
0.0
  0
LINE
  5
1776
330
1F
100
AcDbEntity
  8
SANINDUSA
100
AcDbLine
 10
4219.974957794344
 20
2135.017022856775
 30
0.0
 11
4219.704957794344
 21
2135.017022856775
 31
0.0
  0
LINE
  5
1777
330
1F
100
AcDbEntity
  8
SANINDUSA
100
AcDbLine
 10
4219.704957794344
 20
2135.019022856774
 30
0.0
 11
4219.974957794344
 21
2135.019022856774
 31
0.0
  0
LINE
  5
1778
330
1F
100
AcDbEntity
  8
SANINDUSA
100
AcDbLine
 10
4219.974957794344
 20
2135.019022856774
 30
0.0
 11
4219.989707794344
 21
2135.019022856774
 31
0.0
  0
ARC
  5
1779
330
1F
100
AcDbEntity
  8
SANINDUSA
100
AcDbCircle
 10
4219.989707794344
 20
2135.018772856774
 30
0.0
 40
0.0002500000000001
100
AcDbArc
 50
0.0
 51
90.0
  0
LINE
  5
177A
330
1F
100
AcDbEntity
  8
SANINDUSA
100
AcDbLine
 10
4219.989957794344
 20
2135.018772856774
 30
0.0
 11
4219.989957794344
 21
2135.018027856775
 31
0.0
  0
LINE
  5
177C
330
1F
100
AcDbEntity
  8
SANINDUSA
100
AcDbLine
 10
4219.989957794344
 20
2135.018017856774
 30
0.0
 11
4219.989957794344
 21
2135.017272856774
 31
0.0
  0
LINE
  5
177E
330
1F
100
AcDbEntity
  8
SANINDUSA
100
AcDbLine
 10
4219.989707794344
 20
2135.017022856775
 30
0.0
 11
4219.974957794344
 21
2135.017022856775
 31
0.0
  0
ARC
  5
177F
330
1F
100
AcDbEntity
  8
SANINDUSA
100
AcDbCircle
 10
4219.989707794344
 20
2135.017272856774
 30
0.0
 40
0.0002500000000001
100
AcDbArc
 50
270.0
 51
0.0
  0
ARC
  5
1782
330
1F
100
AcDbEntity
  8
SANINDUSA
100
AcDbCircle
 10
4219.704595125278
 20
2135.021022856774
 30
0.0
 40
0.002
100
AcDbArc
 50
270.0
 51
290.5560558593561
  0
ARC
  5
1783
330
1F
100
AcDbEntity
  8
SANINDUSA
100
AcDbCircle
 10
4219.97532046341
 20
2135.021022856774
 30
0.0
 40
0.0019999999999999
100
AcDbArc
 50
249.4439441406438
 51
270.0
  0
LINE
  5
1784
330
1F
100
AcDbEntity
  8
SANINDUSA
100
AcDbLine
 10
4219.705297372509
 20
2135.01915019855
 30
0.0
 11
4219.712618200332
 21
2135.021895510533
 31
0.0
  0
LINE
  5
1785
330
1F
100
AcDbEntity
  8
SANINDUSA
100
AcDbLine
 10
4219.967297388357
 20
2135.021895510533
 30
0.0
 11
4219.974618216179
 21
2135.01915019855
 31
0.0
  0
LINE
  5
1786
330
1F
100
AcDbEntity
  8
SANINDUSA
100
AcDbLine
 10
4219.713320447562
 20
2135.022022852308
 30
0.0
 11
4219.966595141126
 21
2135.022022852308
 31
0.0
  0
ARC
  5
1787
330
1F
100
AcDbEntity
  8
SANINDUSA
100
AcDbCircle
 10
4219.713320447562
 20
2135.020022852307
 30
0.0
 40
0.0019999999999999
100
AcDbArc
 50
90.0
 51
110.5560558593561
  0
ARC
  5
1788
330
1F
100
AcDbEntity
  8
SANINDUSA
100
AcDbCircle
 10
4219.966595141126
 20
2135.020022852307
 30
0.0
 40
0.0019999999999999
100
AcDbArc
 50
69.44394414064385
 51
90.0
  0
LINE
  5
17A3
330
1F
100
AcDbEntity
  8
SANINDUSA
100
AcDbLine
 10
4219.839957794344
 20
2135.024022856775
 30
0.0
 11
4219.855749590271
 21
2135.024022856775
 31
0.0
  0
LINE
  5
17A4
330
1F
100
AcDbEntity
  8
SANINDUSA
100
AcDbLine
 10
4219.824165998416
 20
2135.024022856775
 30
0.0
 11
4219.839957794344
 21
2135.024022856775
 31
0.0
  0
LINE
  5
17A5
330
1F
100
AcDbEntity
  8
SANINDUSA
100
AcDbLine
 10
4219.839957794344
 20
2135.036522856774
 30
0.0
 11
4219.854957794205
 21
2135.036522856774
 31
0.0
  0
LINE
  5
17A6
330
1F
100
AcDbEntity
  8
SANINDUSA
100
AcDbLine
 10
4219.824957794482
 20
2135.036522856774
 30
0.0
 11
4219.839957794344
 21
2135.036522856774
 31
0.0
  0
LINE
  5
17A7
330
1F
100
AcDbEntity
  8
SANINDUSA
100
AcDbLine
 10
4219.845521741293
 20
2135.048768202218
 30
0.0
 11
4219.845521741293
 21
2135.044043350847
 31
0.0
  0
LINE
  5
17A8
330
1F
100
AcDbEntity
  8
SANINDUSA
100
AcDbLine
 10
4219.834393847395
 20
2135.048768202218
 30
0.0
 11
4219.845521741293
 21
2135.048768202218
 31
0.0
  0
LINE
  5
17A9
330
1F
100
AcDbEntity
  8
SANINDUSA
100
AcDbLine
 10
4219.834393847135
 20
2135.044043350847
 30
0.0
 11
4219.834393847395
 21
2135.048768202218
 31
0.0
  0
LINE
  5
17AA
330
1F
100
AcDbEntity
  8
SANINDUSA
100
AcDbLine
 10
4219.828557794217
 20
2135.044043350847
 30
0.0
 11
4219.834393847135
 21
2135.044043350847
 31
0.0
  0
LINE
  5
17AB
330
1F
100
AcDbEntity
  8
SANINDUSA
100
AcDbLine
 10
4219.845521741293
 20
2135.044043350847
 30
0.0
 11
4219.85135779447
 21
2135.044043350847
 31
0.0
  0
LINE
  5
17AC
330
1F
100
AcDbEntity
  8
SANINDUSA
100
AcDbLine
 10
4219.839957794344
 20
2135.063768202769
 30
0.0
 11
4219.851157794344
 21
2135.063768202769
 31
0.0
  0
LINE
  5
17AD
330
1F
100
AcDbEntity
  8
SANINDUSA
100
AcDbLine
 10
4219.828757794344
 20
2135.063768202769
 30
0.0
 11
4219.839957794344
 21
2135.063768202769
 31
0.0
  0
LINE
  5
17AE
330
1F
100
AcDbEntity
  8
SANINDUSA
100
AcDbLine
 10
4219.839957794344
 20
2135.038852803185
 30
0.0
 11
4219.848957793818
 21
2135.038852803185
 31
0.0
  0
LINE
  5
17AF
330
1F
100
AcDbEntity
  8
SANINDUSA
100
AcDbLine
 10
4219.83095779487
 20
2135.038852803185
 30
0.0
 11
4219.839957794344
 21
2135.038852803185
 31
0.0
  0
LINE
  5
17B0
330
1F
100
AcDbEntity
  8
SANINDUSA
100
AcDbLine
 10
4219.839957794344
 20
2135.042362857386
 30
0.0
 11
4219.848957793818
 21
2135.042362857386
 31
0.0
  0
LINE
  5
17B1
330
1F
100
AcDbEntity
  8
SANINDUSA
100
AcDbLine
 10
4219.83095779487
 20
2135.042362857386
 30
0.0
 11
4219.839957794344
 21
2135.042362857386
 31
0.0
  0
SPLINE
  5
17B2
330
1F
100
AcDbEntity
  8
SANINDUSA
100
AcDbSpline
210
0.0
220
0.0
230
1.0
 70
     8
 71
     3
 72
    18
 73
    14
 74
     0
 42
0.00000001
 43
0.0000000001
 40
0.0
 40
0.0
 40
0.0
 40
0.0
 40
0.1249999999999998
 40
0.1249999999999998
 40
0.2499999999999998
 40
0.2499999999999998
 40
0.4999999999999999
 40
0.4999999999999999
 40
0.6249999999999999
 40
0.6249999999999999
 40
0.75
 40
0.75
 40
1.0
 40
1.0
 40
1.0
 40
1.0
 10
4219.84552174133
 20
2135.044043350771
 30
0.0
 10
4219.845077906819
 20
2135.043891672056
 30
0.0
 10
4219.844628262172
 20
2135.043751757137
 30
0.0
 10
4219.84371404801
 20
2135.043502145709
 30
0.0
 10
4219.843246809017
 20
2135.043392061964
 30
0.0
 10
4219.84184483403
 20
2135.043124234401
 30
0.0
 10
4219.840906594507
 20
2135.043028480502
 30
0.0
 10
4219.839493036121
 20
2135.043027841084
 30
0.0
 10
4219.839020828923
 20
2135.043051180442
 30
0.0
 10
4219.838074406737
 20
2135.043144171736
 30
0.0
 10
4219.837598388092
 20
2135.043214323858
 30
0.0
 10
4219.836196135756
 20
2135.043482655437
 30
0.0
 10
4219.835286756242
 20
2135.04373820263
 30
0.0
 10
4219.834393847135
 20
2135.044043350847
 30
0.0
  0
LINE
  5
195F
330
1F
100
AcDbEntity
  8
SANINDUSA
100
AcDbLine
 10
4219.945229235326
 20
2135.016407507239
 30
0.0
 11
4219.945229235326
 21
2135.017022855464
 31
0.0
  0
LINE
  5
1960
330
1F
100
AcDbEntity
  8
SANINDUSA
100
AcDbLine
 10
4219.939729235505
 20
2135.017022855464
 30
0.0
 11
4219.939729235505
 21
2135.016407507239
 31
0.0
  0
ARC
  5
1961
330
1F
100
AcDbEntity
  8
SANINDUSA
100
AcDbCircle
 10
4219.739629235326
 20
2135.016407507206
 30
0.0
 40
0.0006000000000141
100
AcDbArc
 50
270.0000085981843
 51
0.0000032047777853
  0
ARC
  5
1962
330
1F
100
AcDbEntity
  8
SANINDUSA
100
AcDbCircle
 10
4219.735329235505
 20
2135.016407507206
 30
0.0
 40
0.0006000000000141
100
AcDbArc
 50
179.9999967952222
 51
269.9999914018157
  0
LINE
  5
1963
330
1F
100
AcDbEntity
  8
SANINDUSA
100
AcDbLine
 10
4219.965729235325
 20
2135.016407507239
 30
0.0
 11
4219.965729235325
 21
2135.017022855464
 31
0.0
  0
LINE
  5
1964
330
1F
100
AcDbEntity
  8
SANINDUSA
100
AcDbLine
 10
4219.960229235506
 20
2135.017022855464
 30
0.0
 11
4219.960229235506
 21
2135.016407507239
 31
0.0
  0
ARC
  5
1965
330
1F
100
AcDbEntity
  8
SANINDUSA
100
AcDbCircle
 10
4219.862629235325
 20
2135.016407507206
 30
0.0
 40
0.0006000000000141
100
AcDbArc
 50
270.0000085981843
 51
0.0000032047777853
  0
ARC
  5
1966
330
1F
100
AcDbEntity
  8
SANINDUSA
100
AcDbCircle
 10
4219.858329235505
 20
2135.016407507206
 30
0.0
 40
0.0006000000000141
100
AcDbArc
 50
179.9999967952222
 51
269.9999914018157
  0
ARC
  5
1967
330
1F
100
AcDbEntity
  8
SANINDUSA
100
AcDbCircle
 10
4219.821629235326
 20
2135.016407507206
 30
0.0
 40
0.0006000000000141
100
AcDbArc
 50
270.0000085981843
 51
0.0000032047777853
  0
ARC
  5
1968
330
1F
100
AcDbEntity
  8
SANINDUSA
100
AcDbCircle
 10
4219.817329235506
 20
2135.016407507206
 30
0.0
 40
0.0006000000000141
100
AcDbArc
 50
179.9999967952222
 51
269.9999914018157
  0
ARC
  5
1969
330
1F
100
AcDbEntity
  8
SANINDUSA
100
AcDbCircle
 10
4219.801129235325
 20
2135.016407507206
 30
0.0
 40
0.0006000000000141
100
AcDbArc
 50
270.0000085981843
 51
0.0000032047777853
  0
ARC
  5
196A
330
1F
100
AcDbEntity
  8
SANINDUSA
100
AcDbCircle
 10
4219.796829235505
 20
2135.016407507206
 30
0.0
 40
0.0006000000000141
100
AcDbArc
 50
179.9999967952222
 51
269.9999914018157
  0
ARC
  5
196B
330
1F
100
AcDbEntity
  8
SANINDUSA
100
AcDbCircle
 10
4219.944629235325
 20
2135.016407507206
 30
0.0
 40
0.0006000000000141
100
AcDbArc
 50
270.0000085981843
 51
0.0000032047777853
  0
ARC
  5
196C
330
1F
100
AcDbEntity
  8
SANINDUSA
100
AcDbCircle
 10
4219.940329235505
 20
2135.016407507206
 30
0.0
 40
0.0006000000000141
100
AcDbArc
 50
179.9999967952222
 51
269.9999914018157
  0
LINE
  5
196D
330
1F
100
AcDbEntity
  8
SANINDUSA
100
AcDbLine
 10
4219.760729235326
 20
2135.016407507239
 30
0.0
 11
4219.760729235326
 21
2135.017022855464
 31
0.0
  0
LINE
  5
196E
330
1F
100
AcDbEntity
  8
SANINDUSA
100
AcDbLine
 10
4219.755229235505
 20
2135.017022855464
 30
0.0
 11
4219.755229235505
 21
2135.016407507239
 31
0.0
  0
LINE
  5
196F
330
1F
100
AcDbEntity
  8
SANINDUSA
100
AcDbLine
 10
4219.740229235326
 20
2135.016407507239
 30
0.0
 11
4219.740229235326
 21
2135.017022855464
 31
0.0
  0
LINE
  5
1970
330
1F
100
AcDbEntity
  8
SANINDUSA
100
AcDbLine
 10
4219.734729235505
 20
2135.017022855464
 30
0.0
 11
4219.734729235505
 21
2135.016407507239
 31
0.0
  0
LINE
  5
1971
330
1F
100
AcDbEntity
  8
SANINDUSA
100
AcDbLine
 10
4219.801729235326
 20
2135.016407507239
 30
0.0
 11
4219.801729235326
 21
2135.017022855464
 31
0.0
  0
LINE
  5
1972
330
1F
100
AcDbEntity
  8
SANINDUSA
100
AcDbLine
 10
4219.796229235505
 20
2135.017022855464
 30
0.0
 11
4219.796229235505
 21
2135.016407507239
 31
0.0
  0
LINE
  5
1973
330
1F
100
AcDbEntity
  8
SANINDUSA
100
AcDbLine
 10
4219.863229235325
 20
2135.016407507239
 30
0.0
 11
4219.863229235325
 21
2135.017022855464
 31
0.0
  0
LINE
  5
1974
330
1F
100
AcDbEntity
  8
SANINDUSA
100
AcDbLine
 10
4219.857729235505
 20
2135.017022855464
 30
0.0
 11
4219.857729235505
 21
2135.016407507239
 31
0.0
  0
LINE
  5
1975
330
1F
100
AcDbEntity
  8
SANINDUSA
100
AcDbLine
 10
4219.904229235326
 20
2135.016407507239
 30
0.0
 11
4219.904229235326
 21
2135.017022855464
 31
0.0
  0
LINE
  5
1976
330
1F
100
AcDbEntity
  8
SANINDUSA
100
AcDbLine
 10
4219.898729235506
 20
2135.017022855464
 30
0.0
 11
4219.898729235506
 21
2135.016407507239
 31
0.0
  0
ARC
  5
1977
330
1F
100
AcDbEntity
  8
SANINDUSA
100
AcDbCircle
 10
4219.924129235326
 20
2135.016407507206
 30
0.0
 40
0.0006000000000141
100
AcDbArc
 50
270.0000085981843
 51
0.0000032047777853
  0
ARC
  5
1978
330
1F
100
AcDbEntity
  8
SANINDUSA
100
AcDbCircle
 10
4219.919829235506
 20
2135.016407507206
 30
0.0
 40
0.0006000000000141
100
AcDbArc
 50
179.9999967952222
 51
269.9999914018157
  0
LINE
  5
1979
330
1F
100
AcDbEntity
  8
SANINDUSA
100
AcDbLine
 10
4219.822229235325
 20
2135.016407507239
 30
0.0
 11
4219.822229235325
 21
2135.017022855464
 31
0.0
  0
LINE
  5
197A
330
1F
100
AcDbEntity
  8
SANINDUSA
100
AcDbLine
 10
4219.816729235506
 20
2135.017022855464
 30
0.0
 11
4219.816729235506
 21
2135.016407507239
 31
0.0
  0
LINE
  5
197B
330
1F
100
AcDbEntity
  8
SANINDUSA
100
AcDbLine
 10
4219.842729235327
 20
2135.016407507239
 30
0.0
 11
4219.842729235327
 21
2135.017022855464
 31
0.0
  0
LINE
  5
197C
330
1F
100
AcDbEntity
  8
SANINDUSA
100
AcDbLine
 10
4219.837229235506
 20
2135.017022855464
 30
0.0
 11
4219.837229235506
 21
2135.016407507239
 31
0.0
  0
ARC
  5
197D
330
1F
100
AcDbEntity
  8
SANINDUSA
100
AcDbCircle
 10
4219.760129235325
 20
2135.016407507206
 30
0.0
 40
0.0006000000000141
100
AcDbArc
 50
270.0000085981843
 51
0.0000032047777853
  0
ARC
  5
197E
330
1F
100
AcDbEntity
  8
SANINDUSA
100
AcDbCircle
 10
4219.755829235506
 20
2135.016407507206
 30
0.0
 40
0.0006000000000141
100
AcDbArc
 50
179.9999967952222
 51
269.9999914018157
  0
LINE
  5
197F
330
1F
100
AcDbEntity
  8
SANINDUSA
100
AcDbLine
 10
4219.883729235325
 20
2135.016407507239
 30
0.0
 11
4219.883729235325
 21
2135.017022855464
 31
0.0
  0
LINE
  5
1980
330
1F
100
AcDbEntity
  8
SANINDUSA
100
AcDbLine
 10
4219.878229235505
 20
2135.017022855464
 30
0.0
 11
4219.878229235505
 21
2135.016407507239
 31
0.0
  0
ARC
  5
1981
330
1F
100
AcDbEntity
  8
SANINDUSA
100
AcDbCircle
 10
4219.903629235325
 20
2135.016407507206
 30
0.0
 40
0.0006000000000141
100
AcDbArc
 50
270.0000085981843
 51
0.0000032047777853
  0
ARC
  5
1982
330
1F
100
AcDbEntity
  8
SANINDUSA
100
AcDbCircle
 10
4219.899329235505
 20
2135.016407507206
 30
0.0
 40
0.0006000000000141
100
AcDbArc
 50
179.9999967952222
 51
269.9999914018157
  0
ARC
  5
1983
330
1F
100
AcDbEntity
  8
SANINDUSA
100
AcDbCircle
 10
4219.965129235325
 20
2135.016407507206
 30
0.0
 40
0.0006000000000141
100
AcDbArc
 50
270.0000085981843
 51
0.0000032047777853
  0
ARC
  5
1984
330
1F
100
AcDbEntity
  8
SANINDUSA
100
AcDbCircle
 10
4219.960829235506
 20
2135.016407507206
 30
0.0
 40
0.0006000000000141
100
AcDbArc
 50
179.9999967952222
 51
269.9999914018157
  0
LINE
  5
1985
330
1F
100
AcDbEntity
  8
SANINDUSA
100
AcDbLine
 10
4219.781229235326
 20
2135.016407507239
 30
0.0
 11
4219.781229235326
 21
2135.017022855464
 31
0.0
  0
LINE
  5
1986
330
1F
100
AcDbEntity
  8
SANINDUSA
100
AcDbLine
 10
4219.775729235506
 20
2135.017022855464
 30
0.0
 11
4219.775729235506
 21
2135.016407507239
 31
0.0
  0
ARC
  5
1987
330
1F
100
AcDbEntity
  8
SANINDUSA
100
AcDbCircle
 10
4219.842129235326
 20
2135.016407507206
 30
0.0
 40
0.0006000000000141
100
AcDbArc
 50
270.0000085981843
 51
0.0000032047777853
  0
ARC
  5
1988
330
1F
100
AcDbEntity
  8
SANINDUSA
100
AcDbCircle
 10
4219.837829235506
 20
2135.016407507206
 30
0.0
 40
0.0006000000000141
100
AcDbArc
 50
179.9999967952222
 51
269.9999914018157
  0
LINE
  5
1989
330
1F
100
AcDbEntity
  8
SANINDUSA
100
AcDbLine
 10
4219.924729235326
 20
2135.016407507239
 30
0.0
 11
4219.924729235326
 21
2135.017022855464
 31
0.0
  0
LINE
  5
198A
330
1F
100
AcDbEntity
  8
SANINDUSA
100
AcDbLine
 10
4219.919229235506
 20
2135.017022855464
 30
0.0
 11
4219.919229235506
 21
2135.016407507239
 31
0.0
  0
ARC
  5
198B
330
1F
100
AcDbEntity
  8
SANINDUSA
100
AcDbCircle
 10
4219.883129235326
 20
2135.016407507206
 30
0.0
 40
0.0006000000000141
100
AcDbArc
 50
270.0000085981843
 51
0.0000032047777853
  0
ARC
  5
198C
330
1F
100
AcDbEntity
  8
SANINDUSA
100
AcDbCircle
 10
4219.878829235505
 20
2135.016407507206
 30
0.0
 40
0.0006000000000141
100
AcDbArc
 50
179.9999967952222
 51
269.9999914018157
  0
LINE
  5
198D
330
1F
100
AcDbEntity
  8
SANINDUSA
100
AcDbLine
 10
4219.719729235325
 20
2135.016407507239
 30
0.0
 11
4219.719729235325
 21
2135.017022855464
 31
0.0
  0
LINE
  5
198E
330
1F
100
AcDbEntity
  8
SANINDUSA
100
AcDbLine
 10
4219.714229235505
 20
2135.017022855464
 30
0.0
 11
4219.714229235505
 21
2135.016407507239
 31
0.0
  0
ARC
  5
198F
330
1F
100
AcDbEntity
  8
SANINDUSA
100
AcDbCircle
 10
4219.719129235326
 20
2135.016407507206
 30
0.0
 40
0.0006000000000141
100
AcDbArc
 50
270.0000085981843
 51
0.0000032047777853
  0
ARC
  5
1990
330
1F
100
AcDbEntity
  8
SANINDUSA
100
AcDbCircle
 10
4219.714829235505
 20
2135.016407507206
 30
0.0
 40
0.0006000000000141
100
AcDbArc
 50
179.9999967952222
 51
269.9999914018157
  0
ARC
  5
1991
330
1F
100
AcDbEntity
  8
SANINDUSA
100
AcDbCircle
 10
4219.780629235326
 20
2135.016407507206
 30
0.0
 40
0.0006000000000141
100
AcDbArc
 50
270.0000085981843
 51
0.0000032047777853
  0
ARC
  5
1992
330
1F
100
AcDbEntity
  8
SANINDUSA
100
AcDbCircle
 10
4219.776329235505
 20
2135.016407507206
 30
0.0
 40
0.0006000000000141
100
AcDbArc
 50
179.9999967952222
 51
269.9999914018157
  0
ARC
  5
1993
330
1F
100
AcDbEntity
  8
SANINDUSA
100
AcDbCircle
 10
4219.862529235395
 20
2135.015507507205
 30
0.0
 40
0.0003000000000002
100
AcDbArc
 50
89.99999598751399
 51
180.0000128712213
  0
ARC
  5
1994
330
1F
100
AcDbEntity
  8
SANINDUSA
100
AcDbCircle
 10
4219.858429235437
 20
2135.015507507205
 30
0.0
 40
0.0003000000000002
100
AcDbArc
 50
359.9999871287786
 51
90.000004012486
  0
ARC
  5
1995
330
1F
100
AcDbEntity
  8
SANINDUSA
100
AcDbCircle
 10
4219.924029235396
 20
2135.015507507205
 30
0.0
 40
0.0003000000000002
100
AcDbArc
 50
89.99999598751399
 51
180.0000128712213
  0
ARC
  5
1996
330
1F
100
AcDbEntity
  8
SANINDUSA
100
AcDbCircle
 10
4219.919929235437
 20
2135.015507507205
 30
0.0
 40
0.0003000000000002
100
AcDbArc
 50
359.9999871287786
 51
90.000004012486
  0
ARC
  5
1997
330
1F
100
AcDbEntity
  8
SANINDUSA
100
AcDbCircle
 10
4219.760029235394
 20
2135.015507507205
 30
0.0
 40
0.0003000000000002
100
AcDbArc
 50
89.99999598751399
 51
180.0000128712213
  0
ARC
  5
1998
330
1F
100
AcDbEntity
  8
SANINDUSA
100
AcDbCircle
 10
4219.755929235437
 20
2135.015507507205
 30
0.0
 40
0.0003000000000003
100
AcDbArc
 50
359.9999871287786
 51
90.000004012486
  0
ARC
  5
1999
330
1F
100
AcDbEntity
  8
SANINDUSA
100
AcDbCircle
 10
4219.944529235394
 20
2135.015507507205
 30
0.0
 40
0.0003000000000002
100
AcDbArc
 50
89.99999598751399
 51
180.0000128712213
  0
ARC
  5
199A
330
1F
100
AcDbEntity
  8
SANINDUSA
100
AcDbCircle
 10
4219.940429235436
 20
2135.015507507205
 30
0.0
 40
0.0003000000000002
100
AcDbArc
 50
359.9999871287786
 51
90.000004012486
  0
ARC
  5
199B
330
1F
100
AcDbEntity
  8
SANINDUSA
100
AcDbCircle
 10
4219.842029235395
 20
2135.015507507205
 30
0.0
 40
0.0003000000000002
100
AcDbArc
 50
89.99999598751399
 51
180.0000128712213
  0
ARC
  5
199C
330
1F
100
AcDbEntity
  8
SANINDUSA
100
AcDbCircle
 10
4219.837929235437
 20
2135.015507507205
 30
0.0
 40
0.0003000000000002
100
AcDbArc
 50
359.9999871287786
 51
90.000004012486
  0
ARC
  5
199D
330
1F
100
AcDbEntity
  8
SANINDUSA
100
AcDbCircle
 10
4219.903529235394
 20
2135.015507507205
 30
0.0
 40
0.0003000000000002
100
AcDbArc
 50
89.99999598751399
 51
180.0000128712213
  0
ARC
  5
199E
330
1F
100
AcDbEntity
  8
SANINDUSA
100
AcDbCircle
 10
4219.899429235436
 20
2135.015507507205
 30
0.0
 40
0.0003000000000002
100
AcDbArc
 50
359.9999871287786
 51
90.000004012486
  0
ARC
  5
199F
330
1F
100
AcDbEntity
  8
SANINDUSA
100
AcDbCircle
 10
4219.883029235395
 20
2135.015507507205
 30
0.0
 40
0.0003000000000002
100
AcDbArc
 50
89.99999598751399
 51
180.0000128712213
  0
ARC
  5
19A0
330
1F
100
AcDbEntity
  8
SANINDUSA
100
AcDbCircle
 10
4219.878929235437
 20
2135.015507507205
 30
0.0
 40
0.0003000000000002
100
AcDbArc
 50
359.9999871287786
 51
90.000004012486
  0
ARC
  5
19A1
330
1F
100
AcDbEntity
  8
SANINDUSA
100
AcDbCircle
 10
4219.739529235395
 20
2135.015507507205
 30
0.0
 40
0.0003000000000002
100
AcDbArc
 50
89.99999598751399
 51
180.0000128712213
  0
ARC
  5
19A2
330
1F
100
AcDbEntity
  8
SANINDUSA
100
AcDbCircle
 10
4219.735429235437
 20
2135.015507507205
 30
0.0
 40
0.0003000000000002
100
AcDbArc
 50
359.9999871287786
 51
90.000004012486
  0
ARC
  5
19A3
330
1F
100
AcDbEntity
  8
SANINDUSA
100
AcDbCircle
 10
4219.780529235396
 20
2135.015507507205
 30
0.0
 40
0.0003000000000002
100
AcDbArc
 50
89.99999598751399
 51
180.0000128712213
  0
ARC
  5
19A4
330
1F
100
AcDbEntity
  8
SANINDUSA
100
AcDbCircle
 10
4219.776429235436
 20
2135.015507507205
 30
0.0
 40
0.0003000000000002
100
AcDbArc
 50
359.9999871287786
 51
90.000004012486
  0
ARC
  5
19A5
330
1F
100
AcDbEntity
  8
SANINDUSA
100
AcDbCircle
 10
4219.821529235395
 20
2135.015507507205
 30
0.0
 40
0.0003000000000002
100
AcDbArc
 50
89.99999598751399
 51
180.0000128712213
  0
ARC
  5
19A6
330
1F
100
AcDbEntity
  8
SANINDUSA
100
AcDbCircle
 10
4219.817429235437
 20
2135.015507507205
 30
0.0
 40
0.0003000000000002
100
AcDbArc
 50
359.9999871287786
 51
90.000004012486
  0
ARC
  5
19A7
330
1F
100
AcDbEntity
  8
SANINDUSA
100
AcDbCircle
 10
4219.801029235394
 20
2135.015507507205
 30
0.0
 40
0.0003000000000002
100
AcDbArc
 50
89.99999598751399
 51
180.0000128712213
  0
ARC
  5
19A8
330
1F
100
AcDbEntity
  8
SANINDUSA
100
AcDbCircle
 10
4219.796929235436
 20
2135.015507507205
 30
0.0
 40
0.0003000000000002
100
AcDbArc
 50
359.9999871287786
 51
90.000004012486
  0
ARC
  5
19A9
330
1F
100
AcDbEntity
  8
SANINDUSA
100
AcDbCircle
 10
4219.965029235394
 20
2135.015507507205
 30
0.0
 40
0.0003000000000002
100
AcDbArc
 50
89.99999598751399
 51
180.0000128712213
  0
ARC
  5
19AA
330
1F
100
AcDbEntity
  8
SANINDUSA
100
AcDbCircle
 10
4219.960929235437
 20
2135.015507507205
 30
0.0
 40
0.0003000000000002
100
AcDbArc
 50
359.9999871287786
 51
90.000004012486
  0
ARC
  5
19AB
330
1F
100
AcDbEntity
  8
SANINDUSA
100
AcDbCircle
 10
4219.719029235394
 20
2135.015507507205
 30
0.0
 40
0.0003000000000002
100
AcDbArc
 50
89.99999598751399
 51
180.0000128712213
  0
ARC
  5
19AC
330
1F
100
AcDbEntity
  8
SANINDUSA
100
AcDbCircle
 10
4219.714929235436
 20
2135.015507507205
 30
0.0
 40
0.0003000000000002
100
AcDbArc
 50
359.9999871287786
 51
90.000004012486
  0
ARC
  5
19AD
330
1F
100
AcDbEntity
  8
SANINDUSA
100
AcDbCircle
 10
4219.841129235395
 20
2135.014707507206
 30
0.0
 40
0.0005999999999999
100
AcDbArc
 50
270.0000019801879
 51
359.9999899427299
  0
ARC
  5
19AE
330
1F
100
AcDbEntity
  8
SANINDUSA
100
AcDbCircle
 10
4219.838829235436
 20
2135.014707507206
 30
0.0
 40
0.0005999999999999
100
AcDbArc
 50
180.0000100572701
 51
269.9999980198121
  0
ARC
  5
19AF
330
1F
100
AcDbEntity
  8
SANINDUSA
100
AcDbCircle
 10
4219.902629235394
 20
2135.014707507206
 30
0.0
 40
0.0005999999999998
100
AcDbArc
 50
270.0000019801879
 51
359.9999899427299
  0
ARC
  5
19B0
330
1F
100
AcDbEntity
  8
SANINDUSA
100
AcDbCircle
 10
4219.900329235436
 20
2135.014707507206
 30
0.0
 40
0.0005999999999998
100
AcDbArc
 50
180.0000100572701
 51
269.9999980198121
  0
LINE
  5
19B1
330
1F
100
AcDbEntity
  8
SANINDUSA
100
AcDbLine
 10
4219.800729235394
 20
2135.0147075071
 30
0.0
 11
4219.800729235394
 21
2135.015507507138
 31
0.0
  0
LINE
  5
19B2
330
1F
100
AcDbEntity
  8
SANINDUSA
100
AcDbLine
 10
4219.797229235437
 20
2135.015507507138
 30
0.0
 11
4219.797229235437
 21
2135.0147075071
 31
0.0
  0
LINE
  5
19B3
330
1F
100
AcDbEntity
  8
SANINDUSA
100
AcDbLine
 10
4219.780229235395
 20
2135.0147075071
 30
0.0
 11
4219.780229235395
 21
2135.015507507138
 31
0.0
  0
LINE
  5
19B4
330
1F
100
AcDbEntity
  8
SANINDUSA
100
AcDbLine
 10
4219.776729235436
 20
2135.015507507138
 30
0.0
 11
4219.776729235436
 21
2135.0147075071
 31
0.0
  0
ARC
  5
19B5
330
1F
100
AcDbEntity
  8
SANINDUSA
100
AcDbCircle
 10
4219.779629235395
 20
2135.014707507206
 30
0.0
 40
0.0005999999999998
100
AcDbArc
 50
270.0000019801879
 51
359.9999899427299
  0
ARC
  5
19B6
330
1F
100
AcDbEntity
  8
SANINDUSA
100
AcDbCircle
 10
4219.777329235436
 20
2135.014707507206
 30
0.0
 40
0.0005999999999997
100
AcDbArc
 50
180.0000100572701
 51
269.9999980198121
  0
LINE
  5
19B7
330
1F
100
AcDbEntity
  8
SANINDUSA
100
AcDbLine
 10
4219.923729235395
 20
2135.0147075071
 30
0.0
 11
4219.923729235395
 21
2135.015507507138
 31
0.0
  0
LINE
  5
19B8
330
1F
100
AcDbEntity
  8
SANINDUSA
100
AcDbLine
 10
4219.920229235436
 20
2135.015507507138
 30
0.0
 11
4219.920229235436
 21
2135.0147075071
 31
0.0
  0
LINE
  5
19B9
330
1F
100
AcDbEntity
  8
SANINDUSA
100
AcDbLine
 10
4219.944229235395
 20
2135.0147075071
 30
0.0
 11
4219.944229235395
 21
2135.015507507138
 31
0.0
  0
LINE
  5
19BA
330
1F
100
AcDbEntity
  8
SANINDUSA
100
AcDbLine
 10
4219.940729235437
 20
2135.015507507138
 30
0.0
 11
4219.940729235437
 21
2135.0147075071
 31
0.0
  0
LINE
  5
19BB
330
1F
100
AcDbEntity
  8
SANINDUSA
100
AcDbLine
 10
4219.964729235395
 20
2135.0147075071
 30
0.0
 11
4219.964729235395
 21
2135.015507507138
 31
0.0
  0
LINE
  5
19BC
330
1F
100
AcDbEntity
  8
SANINDUSA
100
AcDbLine
 10
4219.961229235436
 20
2135.015507507138
 30
0.0
 11
4219.961229235436
 21
2135.0147075071
 31
0.0
  0
ARC
  5
19BD
330
1F
100
AcDbEntity
  8
SANINDUSA
100
AcDbCircle
 10
4219.943629235395
 20
2135.014707507206
 30
0.0
 40
0.0005999999999997
100
AcDbArc
 50
270.0000019801879
 51
359.9999899427299
  0
ARC
  5
19BE
330
1F
100
AcDbEntity
  8
SANINDUSA
100
AcDbCircle
 10
4219.941329235436
 20
2135.014707507206
 30
0.0
 40
0.0005999999999999
100
AcDbArc
 50
180.0000100572701
 51
269.9999980198121
  0
LINE
  5
19BF
330
1F
100
AcDbEntity
  8
SANINDUSA
100
AcDbLine
 10
4219.903229235394
 20
2135.0147075071
 30
0.0
 11
4219.903229235394
 21
2135.015507507138
 31
0.0
  0
LINE
  5
19C0
330
1F
100
AcDbEntity
  8
SANINDUSA
100
AcDbLine
 10
4219.899729235437
 20
2135.015507507138
 30
0.0
 11
4219.899729235437
 21
2135.0147075071
 31
0.0
  0
LINE
  5
19C1
330
1F
100
AcDbEntity
  8
SANINDUSA
100
AcDbLine
 10
4219.718729235395
 20
2135.0147075071
 30
0.0
 11
4219.718729235395
 21
2135.015507507138
 31
0.0
  0
LINE
  5
19C2
330
1F
100
AcDbEntity
  8
SANINDUSA
100
AcDbLine
 10
4219.715229235436
 20
2135.015507507138
 30
0.0
 11
4219.715229235436
 21
2135.0147075071
 31
0.0
  0
ARC
  5
19C3
330
1F
100
AcDbEntity
  8
SANINDUSA
100
AcDbCircle
 10
4219.800129235395
 20
2135.014707507206
 30
0.0
 40
0.0005999999999998
100
AcDbArc
 50
270.0000019801879
 51
359.9999899427299
  0
ARC
  5
19C4
330
1F
100
AcDbEntity
  8
SANINDUSA
100
AcDbCircle
 10
4219.797829235436
 20
2135.014707507206
 30
0.0
 40
0.0005999999999999
100
AcDbArc
 50
180.0000100572701
 51
269.9999980198121
  0
LINE
  5
19C5
330
1F
100
AcDbEntity
  8
SANINDUSA
100
AcDbLine
 10
4219.821229235395
 20
2135.0147075071
 30
0.0
 11
4219.821229235395
 21
2135.015507507138
 31
0.0
  0
LINE
  5
19C6
330
1F
100
AcDbEntity
  8
SANINDUSA
100
AcDbLine
 10
4219.817729235436
 20
2135.015507507138
 30
0.0
 11
4219.817729235436
 21
2135.0147075071
 31
0.0
  0
LINE
  5
19C7
330
1F
100
AcDbEntity
  8
SANINDUSA
100
AcDbLine
 10
4219.759729235394
 20
2135.0147075071
 30
0.0
 11
4219.759729235394
 21
2135.015507507138
 31
0.0
  0
LINE
  5
19C8
330
1F
100
AcDbEntity
  8
SANINDUSA
100
AcDbLine
 10
4219.756229235437
 20
2135.015507507138
 30
0.0
 11
4219.756229235437
 21
2135.0147075071
 31
0.0
  0
LINE
  5
19C9
330
1F
100
AcDbEntity
  8
SANINDUSA
100
AcDbLine
 10
4219.862229235395
 20
2135.0147075071
 30
0.0
 11
4219.862229235395
 21
2135.015507507138
 31
0.0
  0
LINE
  5
19CA
330
1F
100
AcDbEntity
  8
SANINDUSA
100
AcDbLine
 10
4219.858729235436
 20
2135.015507507138
 30
0.0
 11
4219.858729235436
 21
2135.0147075071
 31
0.0
  0
ARC
  5
19CB
330
1F
100
AcDbEntity
  8
SANINDUSA
100
AcDbCircle
 10
4219.882129235394
 20
2135.014707507206
 30
0.0
 40
0.0005999999999998
100
AcDbArc
 50
270.0000019801879
 51
359.9999899427299
  0
ARC
  5
19CC
330
1F
100
AcDbEntity
  8
SANINDUSA
100
AcDbCircle
 10
4219.879829235437
 20
2135.014707507206
 30
0.0
 40
0.0005999999999998
100
AcDbArc
 50
180.0000100572701
 51
269.9999980198121
  0
LINE
  5
19CD
330
1F
100
AcDbEntity
  8
SANINDUSA
100
AcDbLine
 10
4219.841729235395
 20
2135.0147075071
 30
0.0
 11
4219.841729235395
 21
2135.015507507138
 31
0.0
  0
LINE
  5
19CE
330
1F
100
AcDbEntity
  8
SANINDUSA
100
AcDbLine
 10
4219.838229235437
 20
2135.015507507138
 30
0.0
 11
4219.838229235437
 21
2135.0147075071
 31
0.0
  0
ARC
  5
19CF
330
1F
100
AcDbEntity
  8
SANINDUSA
100
AcDbCircle
 10
4219.718129235395
 20
2135.014707507206
 30
0.0
 40
0.0005999999999997
100
AcDbArc
 50
270.0000019801879
 51
359.9999899427299
  0
ARC
  5
19D0
330
1F
100
AcDbEntity
  8
SANINDUSA
100
AcDbCircle
 10
4219.715829235437
 20
2135.014707507206
 30
0.0
 40
0.0005999999999998
100
AcDbArc
 50
180.0000100572701
 51
269.9999980198121
  0
ARC
  5
19D1
330
1F
100
AcDbEntity
  8
SANINDUSA
100
AcDbCircle
 10
4219.923129235395
 20
2135.014707507206
 30
0.0
 40
0.0005999999999998
100
AcDbArc
 50
270.0000019801879
 51
359.9999899427299
  0
ARC
  5
19D2
330
1F
100
AcDbEntity
  8
SANINDUSA
100
AcDbCircle
 10
4219.920829235436
 20
2135.014707507206
 30
0.0
 40
0.0005999999999997
100
AcDbArc
 50
180.0000100572701
 51
269.9999980198121
  0
ARC
  5
19D3
330
1F
100
AcDbEntity
  8
SANINDUSA
100
AcDbCircle
 10
4219.820629235395
 20
2135.014707507206
 30
0.0
 40
0.0005999999999999
100
AcDbArc
 50
270.0000019801879
 51
359.9999899427299
  0
ARC
  5
19D4
330
1F
100
AcDbEntity
  8
SANINDUSA
100
AcDbCircle
 10
4219.818329235437
 20
2135.014707507206
 30
0.0
 40
0.0005999999999998
100
AcDbArc
 50
180.0000100572701
 51
269.9999980198121
  0
ARC
  5
19D5
330
1F
100
AcDbEntity
  8
SANINDUSA
100
AcDbCircle
 10
4219.964129235394
 20
2135.014707507206
 30
0.0
 40
0.0005999999999999
100
AcDbArc
 50
270.0000019801879
 51
359.9999899427299
  0
ARC
  5
19D6
330
1F
100
AcDbEntity
  8
SANINDUSA
100
AcDbCircle
 10
4219.961829235437
 20
2135.014707507206
 30
0.0
 40
0.0005999999999999
100
AcDbArc
 50
180.0000100572701
 51
269.9999980198121
  0
ARC
  5
19D7
330
1F
100
AcDbEntity
  8
SANINDUSA
100
AcDbCircle
 10
4219.759129235394
 20
2135.014707507206
 30
0.0
 40
0.0005999999999998
100
AcDbArc
 50
270.0000019801879
 51
359.9999899427299
  0
ARC
  5
19D8
330
1F
100
AcDbEntity
  8
SANINDUSA
100
AcDbCircle
 10
4219.756829235437
 20
2135.014707507206
 30
0.0
 40
0.0005999999999998
100
AcDbArc
 50
180.0000100572701
 51
269.9999980198121
  0
ARC
  5
19D9
330
1F
100
AcDbEntity
  8
SANINDUSA
100
AcDbCircle
 10
4219.738629235394
 20
2135.014707507206
 30
0.0
 40
0.0005999999999998
100
AcDbArc
 50
270.0000019801879
 51
359.9999899427299
  0
ARC
  5
19DA
330
1F
100
AcDbEntity
  8
SANINDUSA
100
AcDbCircle
 10
4219.736329235437
 20
2135.014707507206
 30
0.0
 40
0.0005999999999998
100
AcDbArc
 50
180.0000100572701
 51
269.9999980198121
  0
ARC
  5
19DB
330
1F
100
AcDbEntity
  8
SANINDUSA
100
AcDbCircle
 10
4219.861629235395
 20
2135.014707507206
 30
0.0
 40
0.0005999999999998
100
AcDbArc
 50
270.0000019801879
 51
359.9999899427299
  0
ARC
  5
19DC
330
1F
100
AcDbEntity
  8
SANINDUSA
100
AcDbCircle
 10
4219.859329235437
 20
2135.014707507206
 30
0.0
 40
0.0005999999999998
100
AcDbArc
 50
180.0000100572701
 51
269.9999980198121
  0
LINE
  5
19DD
330
1F
100
AcDbEntity
  8
SANINDUSA
100
AcDbLine
 10
4219.739229235395
 20
2135.0147075071
 30
0.0
 11
4219.739229235395
 21
2135.015507507138
 31
0.0
  0
LINE
  5
19DE
330
1F
100
AcDbEntity
  8
SANINDUSA
100
AcDbLine
 10
4219.735729235436
 20
2135.015507507138
 30
0.0
 11
4219.735729235436
 21
2135.0147075071
 31
0.0
  0
LINE
  5
19DF
330
1F
100
AcDbEntity
  8
SANINDUSA
100
AcDbLine
 10
4219.882729235394
 20
2135.0147075071
 30
0.0
 11
4219.882729235394
 21
2135.015507507138
 31
0.0
  0
LINE
  5
19E0
330
1F
100
AcDbEntity
  8
SANINDUSA
100
AcDbLine
 10
4219.879229235436
 20
2135.015507507138
 30
0.0
 11
4219.879229235436
 21
2135.0147075071
 31
0.0
  0
LINE
  5
19E1
330
1F
100
AcDbEntity
  8
SANINDUSA
100
AcDbLine
 10
4219.739629235416
 20
2135.015807507206
 30
0.0
 11
4219.735329235415
 21
2135.015807507206
 31
0.0
  0
LINE
  5
19E2
330
1F
100
AcDbEntity
  8
SANINDUSA
100
AcDbLine
 10
4219.862629235415
 20
2135.015807507206
 30
0.0
 11
4219.858329235416
 21
2135.015807507206
 31
0.0
  0
LINE
  5
19E3
330
1F
100
AcDbEntity
  8
SANINDUSA
100
AcDbLine
 10
4219.821629235415
 20
2135.015807507206
 30
0.0
 11
4219.817329235416
 21
2135.015807507206
 31
0.0
  0
LINE
  5
19E4
330
1F
100
AcDbEntity
  8
SANINDUSA
100
AcDbLine
 10
4219.801129235416
 20
2135.015807507206
 30
0.0
 11
4219.796829235415
 21
2135.015807507206
 31
0.0
  0
LINE
  5
19E5
330
1F
100
AcDbEntity
  8
SANINDUSA
100
AcDbLine
 10
4219.944629235416
 20
2135.015807507206
 30
0.0
 11
4219.940329235416
 21
2135.015807507206
 31
0.0
  0
LINE
  5
19E6
330
1F
100
AcDbEntity
  8
SANINDUSA
100
AcDbLine
 10
4219.924129235415
 20
2135.015807507206
 30
0.0
 11
4219.919829235416
 21
2135.015807507206
 31
0.0
  0
LINE
  5
19E7
330
1F
100
AcDbEntity
  8
SANINDUSA
100
AcDbLine
 10
4219.760129235416
 20
2135.015807507206
 30
0.0
 11
4219.755829235416
 21
2135.015807507206
 31
0.0
  0
LINE
  5
19E8
330
1F
100
AcDbEntity
  8
SANINDUSA
100
AcDbLine
 10
4219.903629235416
 20
2135.015807507206
 30
0.0
 11
4219.899329235416
 21
2135.015807507206
 31
0.0
  0
LINE
  5
19E9
330
1F
100
AcDbEntity
  8
SANINDUSA
100
AcDbLine
 10
4219.965129235415
 20
2135.015807507206
 30
0.0
 11
4219.960829235416
 21
2135.015807507206
 31
0.0
  0
LINE
  5
19EA
330
1F
100
AcDbEntity
  8
SANINDUSA
100
AcDbLine
 10
4219.842129235416
 20
2135.015807507206
 30
0.0
 11
4219.837829235415
 21
2135.015807507206
 31
0.0
  0
LINE
  5
19EB
330
1F
100
AcDbEntity
  8
SANINDUSA
100
AcDbLine
 10
4219.883129235416
 20
2135.015807507206
 30
0.0
 11
4219.878829235415
 21
2135.015807507206
 31
0.0
  0
LINE
  5
19EC
330
1F
100
AcDbEntity
  8
SANINDUSA
100
AcDbLine
 10
4219.719129235415
 20
2135.015807507206
 30
0.0
 11
4219.714829235416
 21
2135.015807507206
 31
0.0
  0
LINE
  5
19ED
330
1F
100
AcDbEntity
  8
SANINDUSA
100
AcDbLine
 10
4219.780629235416
 20
2135.015807507206
 30
0.0
 11
4219.776329235416
 21
2135.015807507206
 31
0.0
  0
LINE
  5
19EE
330
1F
100
AcDbEntity
  8
SANINDUSA
100
AcDbLine
 10
4219.841129235415
 20
2135.014107507205
 30
0.0
 11
4219.838829235416
 21
2135.014107507205
 31
0.0
  0
LINE
  5
19EF
330
1F
100
AcDbEntity
  8
SANINDUSA
100
AcDbLine
 10
4219.902629235416
 20
2135.014107507205
 30
0.0
 11
4219.900329235415
 21
2135.014107507205
 31
0.0
  0
LINE
  5
19F0
330
1F
100
AcDbEntity
  8
SANINDUSA
100
AcDbLine
 10
4219.779629235416
 20
2135.014107507205
 30
0.0
 11
4219.777329235415
 21
2135.014107507205
 31
0.0
  0
LINE
  5
19F1
330
1F
100
AcDbEntity
  8
SANINDUSA
100
AcDbLine
 10
4219.943629235415
 20
2135.014107507205
 30
0.0
 11
4219.941329235416
 21
2135.014107507205
 31
0.0
  0
LINE
  5
19F2
330
1F
100
AcDbEntity
  8
SANINDUSA
100
AcDbLine
 10
4219.800129235415
 20
2135.014107507205
 30
0.0
 11
4219.797829235416
 21
2135.014107507205
 31
0.0
  0
LINE
  5
19F3
330
1F
100
AcDbEntity
  8
SANINDUSA
100
AcDbLine
 10
4219.882129235416
 20
2135.014107507205
 30
0.0
 11
4219.879829235416
 21
2135.014107507205
 31
0.0
  0
LINE
  5
19F4
330
1F
100
AcDbEntity
  8
SANINDUSA
100
AcDbLine
 10
4219.718129235416
 20
2135.014107507205
 30
0.0
 11
4219.715829235416
 21
2135.014107507205
 31
0.0
  0
LINE
  5
19F5
330
1F
100
AcDbEntity
  8
SANINDUSA
100
AcDbLine
 10
4219.923129235416
 20
2135.014107507205
 30
0.0
 11
4219.920829235416
 21
2135.014107507205
 31
0.0
  0
LINE
  5
19F6
330
1F
100
AcDbEntity
  8
SANINDUSA
100
AcDbLine
 10
4219.820629235417
 20
2135.014107507205
 30
0.0
 11
4219.818329235415
 21
2135.014107507205
 31
0.0
  0
LINE
  5
19F7
330
1F
100
AcDbEntity
  8
SANINDUSA
100
AcDbLine
 10
4219.964129235415
 20
2135.014107507205
 30
0.0
 11
4219.961829235415
 21
2135.014107507205
 31
0.0
  0
LINE
  5
19F8
330
1F
100
AcDbEntity
  8
SANINDUSA
100
AcDbLine
 10
4219.759129235415
 20
2135.014107507205
 30
0.0
 11
4219.756829235415
 21
2135.014107507205
 31
0.0
  0
LINE
  5
19F9
330
1F
100
AcDbEntity
  8
SANINDUSA
100
AcDbLine
 10
4219.738629235416
 20
2135.014107507205
 30
0.0
 11
4219.736329235415
 21
2135.014107507205
 31
0.0
  0
LINE
  5
19FA
330
1F
100
AcDbEntity
  8
SANINDUSA
100
AcDbLine
 10
4219.861629235415
 20
2135.014107507205
 30
0.0
 11
4219.859329235416
 21
2135.014107507205
 31
0.0
  0
ENDSEC
  0
SECTION
  2
OBJECTS
  0
DICTIONARY
  5
C
330
0
100
AcDbDictionary
281
     1
  3
ACAD_2007HEADERVARS_RT
350
1ABF
  3
ACAD_BACKGROUND
350
1A69
  3
ACAD_CIP_PREVIOUS_PRODUCT_INFO
350
10B9
  3
ACAD_COLOR
350
EE6
  3
ACAD_DETAILVIEWSTYLE
350
10B1
  3
ACAD_GROUP
350
D
  3
ACAD_LAYOUT
350
1A
  3
ACAD_MATERIAL
350
EE5
  3
ACAD_MLEADERSTYLE
350
10AD
  3
ACAD_MLINESTYLE
350
17
  3
ACAD_PLOTSETTINGS
350
19
  3
ACAD_PLOTSTYLENAME
350
E
  3
ACAD_SCALELIST
350
109B
  3
ACAD_SECTIONVIEWSTYLE
350
10AF
  3
ACAD_TABLESTYLE
350
EE7
  3
ACAD_VISUALSTYLE
350
1082
  3
ACDB_RECOMPOSE_DATA
350
1ABD
  3
AcDbVariableDictionary
350
3D
  3
ASE_INDEX_DICTIONARY
350
1066
  3
DWGPROPS
350
1ABE
  0
DICTIONARY
  5
1051
330
2
100
AcDbDictionary
280
     1
281
     1
  3
ACAD_LAYERFILTERS
360
1065
  3
ACLYDICTIONARY
360
1064
  0
DICTIONARY
  5
19FB
330
10
100
AcDbDictionary
280
     1
281
     1
  3
ADSK_XREC_LAYER_RECONCILED
360
19FC
  0
DICTIONARY
  5
19FD
330
2F
100
AcDbDictionary
280
     1
281
     1
  3
ADSK_XREC_LAYER_RECONCILED
360
19FE
  0
DICTIONARY
  5
19FF
330
30
100
AcDbDictionary
280
     1
281
     1
  3
ADSK_XREC_LAYER_RECONCILED
360
1A00
  0
DICTIONARY
  5
1A01
330
31
100
AcDbDictionary
280
     1
281
     1
  3
ADSK_XREC_LAYER_RECONCILED
360
1A02
  0
DICTIONARY
  5
1A03
330
32
100
AcDbDictionary
280
     1
281
     1
  3
ADSK_XREC_LAYER_RECONCILED
360
1A04
  0
DICTIONARY
  5
1A05
330
33
100
AcDbDictionary
280
     1
281
     1
  3
ADSK_XREC_LAYER_RECONCILED
360
1A06
  0
DICTIONARY
  5
1A07
330
34
100
AcDbDictionary
280
     1
281
     1
  3
ADSK_XREC_LAYER_RECONCILED
360
1A08
  0
DICTIONARY
  5
1A09
330
35
100
AcDbDictionary
280
     1
281
     1
  3
ADSK_XREC_LAYER_RECONCILED
360
1A0A
  0
DICTIONARY
  5
1A0B
330
36
100
AcDbDictionary
280
     1
281
     1
  3
ADSK_XREC_LAYER_RECONCILED
360
1A0C
  0
DICTIONARY
  5
1A0D
330
37
100
AcDbDictionary
280
     1
281
     1
  3
ADSK_XREC_LAYER_RECONCILED
360
1A0E
  0
DICTIONARY
  5
1A0F
330
5D6
100
AcDbDictionary
280
     1
281
     1
  3
ADSK_XREC_LAYER_RECONCILED
360
1A10
  0
DICTIONARY
  5
1A11
330
8AF
100
AcDbDictionary
280
     1
281
     1
  3
ADSK_XREC_LAYER_RECONCILED
360
1A12
  0
DICTIONARY
  5
1A13
330
8F8
100
AcDbDictionary
280
     1
281
     1
  3
ADSK_XREC_LAYER_RECONCILED
360
1A14
  0
DICTIONARY
  5
1A15
330
91D
100
AcDbDictionary
280
     1
281
     1
  3
ADSK_XREC_LAYER_RECONCILED
360
1A16
  0
DICTIONARY
  5
1A17
330
C7B
100
AcDbDictionary
280
     1
281
     1
  3
ADSK_XREC_LAYER_RECONCILED
360
1A18
  0
DICTIONARY
  5
1A19
330
1060
100
AcDbDictionary
280
     1
281
     1
  3
ADSK_XREC_LAYER_RECONCILED
360
1A1A
  0
DICTIONARY
  5
1AFE
330
1107
100
AcDbDictionary
280
     1
281
     1
  3
ACAD_MTEXT_RT
360
1AFF
  0
DICTIONARY
  5
1B00
330
1917
100
AcDbDictionary
280
     1
281
     1
  3
ACAD_MTEXT_RT
360
1B01
  0
DICTIONARY
  5
1ABF
102
{ACAD_REACTORS
330
C
102
}
330
C
100
AcDbDictionary
281
     1
  3
DIMJOGANG
350
1AC0
  0
DICTIONARY
  5
1A69
102
{ACAD_REACTORS
330
C
102
}
330
C
100
AcDbDictionary
281
     1
  0
XRECORD
  5
10B9
102
{ACAD_REACTORS
330
C
102
}
330
C
100
AcDbXrecord
280
     1
300
ACD
300
2013
300
ACD_F_S
  0
DICTIONARY
  5
EE6
102
{ACAD_REACTORS
330
C
102
}
330
C
100
AcDbDictionary
281
     1
  0
DICTIONARY
  5
10B1
102
{ACAD_REACTORS
330
C
102
}
330
C
100
AcDbDictionary
281
     1
  3
Metric50
350
10B2
  0
DICTIONARY
  5
D
102
{ACAD_REACTORS
330
C
102
}
330
C
100
AcDbDictionary
281
     1
  0
DICTIONARY
  5
1A
102
{ACAD_REACTORS
330
C
102
}
330
C
100
AcDbDictionary
281
     1
  3
Layout1
350
1E
  3
Layout2
350
26
  3
Model
350
22
  0
DICTIONARY
  5
EE5
102
{ACAD_REACTORS
330
C
102
}
330
C
100
AcDbDictionary
281
     1
  3
ByBlock
350
1072
  3
ByLayer
350
106A
  3
Global
350
107A
  0
DICTIONARY
  5
10AD
102
{ACAD_REACTORS
330
C
102
}
330
C
100
AcDbDictionary
281
     1
  3
Standard
350
10AE
  0
DICTIONARY
  5
17
102
{ACAD_REACTORS
330
C
102
}
330
C
100
AcDbDictionary
281
     1
  3
Standard
350
18
  0
DICTIONARY
  5
19
102
{ACAD_REACTORS
330
C
102
}
330
C
100
AcDbDictionary
281
     1
  0
ACDBDICTIONARYWDFLT
  5
E
102
{ACAD_REACTORS
330
C
102
}
330
C
100
AcDbDictionary
281
     1
  3
Normal
350
F
100
AcDbDictionaryWithDefault
340
F
  0
DICTIONARY
  5
109B
102
{ACAD_REACTORS
330
C
102
}
330
C
100
AcDbDictionary
281
     1
  3
A0
350
109C
  3
A1
350
109D
  3
A2
350
109E
  3
A3
350
109F
  3
A4
350
10A0
  3
A5
350
10A1
  3
A6
350
10A2
  3
A7
350
10A3
  3
A8
350
10A4
  3
A9
350
10A5
  3
B0
350
10A6
  3
B1
350
10A7
  3
B2
350
10A8
  3
B3
350
10A9
  3
B4
350
10AA
  3
B5
350
10AB
  3
B6
350
10AC
  0
DICTIONARY
  5
10AF
102
{ACAD_REACTORS
330
C
102
}
330
C
100
AcDbDictionary
281
     1
  3
Metric50
350
10B0
  0
DICTIONARY
  5
EE7
102
{ACAD_REACTORS
330
C
102
}
330
C
100
AcDbDictionary
281
     1
  3
Standard
350
EE8
  0
DICTIONARY
  5
1082
102
{ACAD_REACTORS
330
C
102
}
330
C
100
AcDbDictionary
281
     1
  3
2dWireframe
350
1088
  3
Basic
350
1087
  3
Brighten
350
108E
  3
ColorChange
350
1092
  3
Conceptual
350
108B
  3
Dim
350
108D
  3
EdgeColorOff
350
109A
  3
Facepattern
350
1091
  3
Flat
350
1083
  3
FlatWithEdges
350
1084
  3
Gouraud
350
1085
  3
GouraudWithEdges
350
1086
  3
Hidden
350
108A
  3
JitterOff
350
1098
  3
Linepattern
350
1090
  3
OverhangOff
350
1099
  3
Realistic
350
108C
  3
Shaded
350
1097
  3
Shaded with edges
350
1096
  3
Shades of Gray
350
1093
  3
Sketchy
350
1094
  3
Thicken
350
108F
  3
Wireframe
350
1089
  3
X-Ray
350
1095
  0
XRECORD
  5
1ABD
102
{ACAD_REACTORS
330
C
102
}
330
C
100
AcDbXrecord
280
     1
 90
        1
330
EE8
  0
DICTIONARY
  5
3D
102
{ACAD_REACTORS
330
C
102
}
330
C
100
AcDbDictionary
281
     1
  3
CANNOSCALE
350
10C1
  3
CMLEADERSTYLE
350
10BD
  3
CTABLESTYLE
350
1049
  3
CVIEWDETAILSTYLE
350
10BE
  3
CVIEWSECTIONSTYLE
350
10BF
  3
DIMASSOC
350
3F
  3
HIDETEXT
350
3E
  3
INDEXCTL
350
1AB9
  3
LAYEREVAL
350
10C3
  3
LAYERNOTIFY
350
10C4
  3
LIGHTINGUNITS
350
10C2
  3
MSLTSCALE
350
10C0
  3
SORTENTS
350
1AB8
  3
XCLIPFRAME
350
1ABA
  0
DICTIONARY
  5
1066
102
{ACAD_REACTORS
330
C
102
}
330
C
100
AcDbDictionary
281
     1
  3
ASEBlockHierarchyIndexRecord
350
1067
1001
DCO15
1040
1602247867.484
  0
XRECORD
  5
1ABE
102
{ACAD_REACTORS
330
C
102
}
330
C
100
AcDbXrecord
280
     1
  1
DWGPROPS COOKIE
  2

  3

  4

  6

  7

  8
Julio
  9

300
=
301
=
302
=
303
=
304
=
305
=
306
=
307
=
308
=
309
=
 40
0.0058878356481481
 41
2458884.450552025
 42
2458884.456439676
  1

 90
        0
  0
DICTIONARY
  5
1065
102
{ACAD_REACTORS
330
1051
102
}
330
1051
100
AcDbDictionary
281
     1
  0
DICTIONARY
  5
1064
102
{ACAD_REACTORS
330
1051
102
}
330
1051
100
AcDbDictionary
281
     1
1001
ACAD
1000
<All
  0
XRECORD
  5
19FC
102
{ACAD_REACTORS
330
19FB
102
}
330
19FB
100
AcDbXrecord
280
     1
290
     1
  0
XRECORD
  5
19FE
102
{ACAD_REACTORS
330
19FD
102
}
330
19FD
100
AcDbXrecord
280
     1
290
     1
  0
XRECORD
  5
1A00
102
{ACAD_REACTORS
330
19FF
102
}
330
19FF
100
AcDbXrecord
280
     1
290
     1
  0
XRECORD
  5
1A02
102
{ACAD_REACTORS
330
1A01
102
}
330
1A01
100
AcDbXrecord
280
     1
290
     1
  0
XRECORD
  5
1A04
102
{ACAD_REACTORS
330
1A03
102
}
330
1A03
100
AcDbXrecord
280
     1
290
     1
  0
XRECORD
  5
1A06
102
{ACAD_REACTORS
330
1A05
102
}
330
1A05
100
AcDbXrecord
280
     1
290
     1
  0
XRECORD
  5
1A08
102
{ACAD_REACTORS
330
1A07
102
}
330
1A07
100
AcDbXrecord
280
     1
290
     1
  0
XRECORD
  5
1A0A
102
{ACAD_REACTORS
330
1A09
102
}
330
1A09
100
AcDbXrecord
280
     1
290
     1
  0
XRECORD
  5
1A0C
102
{ACAD_REACTORS
330
1A0B
102
}
330
1A0B
100
AcDbXrecord
280
     1
290
     1
  0
XRECORD
  5
1A0E
102
{ACAD_REACTORS
330
1A0D
102
}
330
1A0D
100
AcDbXrecord
280
     1
290
     1
  0
XRECORD
  5
1A10
102
{ACAD_REACTORS
330
1A0F
102
}
330
1A0F
100
AcDbXrecord
280
     1
290
     1
  0
XRECORD
  5
1A12
102
{ACAD_REACTORS
330
1A11
102
}
330
1A11
100
AcDbXrecord
280
     1
290
     1
  0
XRECORD
  5
1A14
102
{ACAD_REACTORS
330
1A13
102
}
330
1A13
100
AcDbXrecord
280
     1
290
     1
  0
XRECORD
  5
1A16
102
{ACAD_REACTORS
330
1A15
102
}
330
1A15
100
AcDbXrecord
280
     1
290
     1
  0
XRECORD
  5
1A18
102
{ACAD_REACTORS
330
1A17
102
}
330
1A17
100
AcDbXrecord
280
     1
290
     1
  0
XRECORD
  5
1A1A
102
{ACAD_REACTORS
330
1A19
102
}
330
1A19
100
AcDbXrecord
280
     1
290
     1
  0
XRECORD
  5
1AFF
102
{ACAD_REACTORS
330
1AFE
102
}
330
1AFE
100
AcDbXrecord
280
     1
 40
2563.0
  1
ø58
  0
XRECORD
  5
1B01
102
{ACAD_REACTORS
330
1B00
102
}
330
1B00
100
AcDbXrecord
280
     1
 40
2563.0
  1
ø58
  0
XRECORD
  5
1AC0
102
{ACAD_REACTORS
330
1ABF
102
}
330
1ABF
100
AcDbXrecord
280
     1
 40
1.570796326794896
  0
ACDBDETAILVIEWSTYLE
  5
10B2
102
{ACAD_REACTORS
330
10B1
102
}
330
10B1
100
AcDbModelDocViewStyle
 70
     0
  3
Metric50
290
     0
100
AcDbDetailViewStyle
 70
     0
 71
     0
 90
        3
 71
     1
340
11
 40
5.0
340
0
 40
5.0
300

 40
0.0
280
     1
 71
     2
340
16
 90
       25
 71
     3
340
11
 40
5.0
 90
        0
 40
15.0
 90
        1
300
%<\AcVar ViewDetailId>% (%<\AcVar ViewScale \f "%sn">%)
 71
     4
340
16
 90
       25
340
16
 90
       25
280
     0
  0
LAYOUT
  5
1E
102
{ACAD_XDICTIONARY
360
1AC1
102
}
102
{ACAD_REACTORS
330
1A
102
}
330
1A
100
AcDbPlotSettings
  1

  2
Ploter HP500
  4

  6

 40
0.0
 41
0.0
 42
0.0
 43
0.0
 44
0.0
 45
0.0
 46
0.0
 47
0.0
 48
0.0
 49
0.0
140
0.0
141
0.0
142
1.0
143
1.0
 70
   688
 72
     0
 73
     0
 74
     5
  7
sanindusa.ctb
 75
    16
147
1.0
148
0.0
149
0.0
100
AcDbLayout
  1
Layout1
 70
     1
 71
     1
 10
0.0
 20
0.0
 11
420.0
 21
297.0
 12
0.0
 22
0.0
 32
0.0
 14
1.000000000000000E+20
 24
1.000000000000000E+20
 34
1.000000000000000E+20
 15
-1.000000000000000E+20
 25
-1.000000000000000E+20
 35
-1.000000000000000E+20
146
0.0
 13
0.0
 23
0.0
 33
0.0
 16
1.0
 26
0.0
 36
0.0
 17
0.0
 27
1.0
 37
0.0
 76
     0
330
1B
  0
LAYOUT
  5
26
102
{ACAD_XDICTIONARY
360
1AC5
102
}
102
{ACAD_REACTORS
330
1A
102
}
330
1A
100
AcDbPlotSettings
  1

  2
Ploter HP500
  4

  6

 40
0.0
 41
0.0
 42
0.0
 43
0.0
 44
0.0
 45
0.0
 46
0.0
 47
0.0
 48
0.0
 49
0.0
140
0.0
141
0.0
142
1.0
143
1.0
 70
   688
 72
     0
 73
     0
 74
     5
  7
sanindusa.ctb
 75
    16
147
1.0
148
0.0
149
0.0
100
AcDbLayout
  1
Layout2
 70
     1
 71
     2
 10
0.0
 20
0.0
 11
12.0
 21
9.0
 12
0.0
 22
0.0
 32
0.0
 14
0.0
 24
0.0
 34
0.0
 15
0.0
 25
0.0
 35
0.0
146
0.0
 13
0.0
 23
0.0
 33
0.0
 16
1.0
 26
0.0
 36
0.0
 17
0.0
 27
1.0
 37
0.0
 76
     0
330
23
  0
LAYOUT
  5
22
102
{ACAD_XDICTIONARY
360
1AC3
102
}
102
{ACAD_REACTORS
330
1A
102
}
330
1A
100
AcDbPlotSettings
  1

  2
Ploter HP500
  4
User268
  6

 40
4.995333194732666
 41
16.97565841674804
 42
4.995330810546875
 43
16.97567749023437
 44
209.9733276367187
 45
296.9259948730469
 46
0.0
 47
0.0
 48
0.0
 49
0.0
140
0.0
141
0.0
142
1.0
143
1.0
 70
 11952
 72
     1
 73
     1
 74
     0
  7
sanindusa.ctb
 75
     0
147
1.0
148
-427.5957866592534
149
7.362384574453926
100
AcDbLayout
  1
Model
 70
     1
 71
     0
 10
0.0
 20
0.0
 11
12.0
 21
9.0
 12
0.0
 22
0.0
 32
0.0
 14
0.0
 24
0.0
 34
0.0
 15
0.0
 25
0.0
 35
0.0
146
0.0
 13
0.0
 23
0.0
 33
0.0
 16
1.0
 26
0.0
 36
0.0
 17
0.0
 27
1.0
 37
0.0
 76
     0
330
1F
331
1068
  0
MATERIAL
  5
1072
102
{ACAD_XDICTIONARY
360
1073
102
}
102
{ACAD_REACTORS
330
EE5
102
}
330
EE5
100
AcDbMaterial
  1
ByBlock
 72
     0
 43
0.0008202099737533
 43
0.0
 43
0.0
 43
0.0
 43
0.0
 43
0.0008202099737533
 43
0.0
 43
0.0
 43
0.0
 43
0.0
 43
1.0
 43
0.0
 43
0.0
 43
0.0
 43
0.0
 43
1.0
 77
     0
 47
0.0008202099737533
 47
0.0
 47
0.0
 47
0.0
 47
0.0
 47
0.0008202099737533
 47
0.0
 47
0.0
 47
0.0
 47
0.0
 47
1.0
 47
0.0
 47
0.0
 47
0.0
 47
0.0
 47
1.0
171
     0
 49
0.0008202099737533
 49
0.0
 49
0.0
 49
0.0
 49
0.0
 49
0.0008202099737533
 49
0.0
 49
0.0
 49
0.0
 49
0.0
 49
1.0
 49
0.0
 49
0.0
 49
0.0
 49
0.0
 49
1.0
175
     0
142
0.0008202099737533
142
0.0
142
0.0
142
0.0
142
0.0
142
0.0008202099737533
142
0.0
142
0.0
142
0.0
142
0.0
142
1.0
142
0.0
142
0.0
142
0.0
142
0.0
142
1.0
179
     0
144
0.0008202099737533
144
0.0
144
0.0
144
0.0
144
0.0
144
0.0008202099737533
144
0.0
144
0.0
144
0.0
144
0.0
144
1.0
144
0.0
144
0.0
144
0.0
144
0.0
144
1.0
147
0.0008202099737533
147
0.0
147
0.0
147
0.0
147
0.0
147
0.0008202099737533
147
0.0
147
0.0
147
0.0
147
0.0
147
1.0
147
0.0
147
0.0
147
0.0
147
0.0
147
1.0
  0
MATERIAL
  5
106A
102
{ACAD_XDICTIONARY
360
106B
102
}
102
{ACAD_REACTORS
330
EE5
102
}
330
EE5
100
AcDbMaterial
  1
ByLayer
 72
     0
 43
0.0008202099737533
 43
0.0
 43
0.0
 43
0.0
 43
0.0
 43
0.0008202099737533
 43
0.0
 43
0.0
 43
0.0
 43
0.0
 43
1.0
 43
0.0
 43
0.0
 43
0.0
 43
0.0
 43
1.0
 77
     0
 47
0.0008202099737533
 47
0.0
 47
0.0
 47
0.0
 47
0.0
 47
0.0008202099737533
 47
0.0
 47
0.0
 47
0.0
 47
0.0
 47
1.0
 47
0.0
 47
0.0
 47
0.0
 47
0.0
 47
1.0
171
     0
 49
0.0008202099737533
 49
0.0
 49
0.0
 49
0.0
 49
0.0
 49
0.0008202099737533
 49
0.0
 49
0.0
 49
0.0
 49
0.0
 49
1.0
 49
0.0
 49
0.0
 49
0.0
 49
0.0
 49
1.0
175
     0
142
0.0008202099737533
142
0.0
142
0.0
142
0.0
142
0.0
142
0.0008202099737533
142
0.0
142
0.0
142
0.0
142
0.0
142
1.0
142
0.0
142
0.0
142
0.0
142
0.0
142
1.0
179
     0
144
0.0008202099737533
144
0.0
144
0.0
144
0.0
144
0.0
144
0.0008202099737533
144
0.0
144
0.0
144
0.0
144
0.0
144
1.0
144
0.0
144
0.0
144
0.0
144
0.0
144
1.0
147
0.0008202099737533
147
0.0
147
0.0
147
0.0
147
0.0
147
0.0008202099737533
147
0.0
147
0.0
147
0.0
147
0.0
147
1.0
147
0.0
147
0.0
147
0.0
147
0.0
147
1.0
  0
MATERIAL
  5
107A
102
{ACAD_XDICTIONARY
360
107B
102
}
102
{ACAD_REACTORS
330
EE5
102
}
330
EE5
100
AcDbMaterial
  1
Global
 72
     0
 43
0.0008202099737533
 43
0.0
 43
0.0
 43
0.0
 43
0.0
 43
0.0008202099737533
 43
0.0
 43
0.0
 43
0.0
 43
0.0
 43
1.0
 43
0.0
 43
0.0
 43
0.0
 43
0.0
 43
1.0
 77
     0
 47
0.0008202099737533
 47
0.0
 47
0.0
 47
0.0
 47
0.0
 47
0.0008202099737533
 47
0.0
 47
0.0
 47
0.0
 47
0.0
 47
1.0
 47
0.0
 47
0.0
 47
0.0
 47
0.0
 47
1.0
171
     0
 49
0.0008202099737533
 49
0.0
 49
0.0
 49
0.0
 49
0.0
 49
0.0008202099737533
 49
0.0
 49
0.0
 49
0.0
 49
0.0
 49
1.0
 49
0.0
 49
0.0
 49
0.0
 49
0.0
 49
1.0
175
     0
142
0.0008202099737533
142
0.0
142
0.0
142
0.0
142
0.0
142
0.0008202099737533
142
0.0
142
0.0
142
0.0
142
0.0
142
1.0
142
0.0
142
0.0
142
0.0
142
0.0
142
1.0
179
     0
144
0.0008202099737533
144
0.0
144
0.0
144
0.0
144
0.0
144
0.0008202099737533
144
0.0
144
0.0
144
0.0
144
0.0
144
1.0
144
0.0
144
0.0
144
0.0
144
0.0
144
1.0
147
0.0008202099737533
147
0.0
147
0.0
147
0.0
147
0.0
147
0.0008202099737533
147
0.0
147
0.0
147
0.0
147
0.0
147
1.0
147
0.0
147
0.0
147
0.0
147
0.0
147
1.0
  0
MLEADERSTYLE
  5
10AE
102
{ACAD_XDICTIONARY
360
1AFC
102
}
102
{ACAD_REACTORS
330
10AD
102
}
330
10AD
100
AcDbMLeaderStyle
170
     2
171
     1
172
     0
 90
        2
 40
0.0
 41
0.0
173
     1
 91
-1056964608
340
14
 92
       -2
290
     1
 42
2.0
291
     1
 43
0.36
  3
Standard
 44
4.0
300

342
11
174
     1
178
     6
175
     1
176
     0
 93
-1056964608
 45
4.0
292
     0
297
     0
 46
4.0
 94
-1056964608
 47
1.0
 49
1.0
140
1.0
293
     1
141
0.0
294
     1
177
     0
142
1.0
295
     0
296
     0
143
0.125
1001
ACAD_MLEADERVER
1070
     2
  0
MLINESTYLE
  5
18
102
{ACAD_REACTORS
330
17
102
}
330
17
100
AcDbMlineStyle
  2
STANDARD
 70
     0
  3

 62
   256
 51
90.0
 52
90.0
 71
     2
 49
0.5
 62
   256
  6
BYLAYER
 49
-0.5
 62
   256
  6
BYLAYER
  0
ACDBPLACEHOLDER
  5
F
102
{ACAD_REACTORS
330
E
102
}
330
E
  0
SCALE
  5
109C
102
{ACAD_REACTORS
330
109B
102
}
330
109B
100
AcDbScale
 70
     0
300
1:1
140
1.0
141
1.0
290
     1
  0
SCALE
  5
109D
102
{ACAD_REACTORS
330
109B
102
}
330
109B
100
AcDbScale
 70
     0
300
1:2
140
1.0
141
2.0
290
     0
  0
SCALE
  5
109E
102
{ACAD_REACTORS
330
109B
102
}
330
109B
100
AcDbScale
 70
     0
300
1:4
140
1.0
141
4.0
290
     0
  0
SCALE
  5
109F
102
{ACAD_REACTORS
330
109B
102
}
330
109B
100
AcDbScale
 70
     0
300
1:5
140
1.0
141
5.0
290
     0
  0
SCALE
  5
10A0
102
{ACAD_REACTORS
330
109B
102
}
330
109B
100
AcDbScale
 70
     0
300
1:8
140
1.0
141
8.0
290
     0
  0
SCALE
  5
10A1
102
{ACAD_REACTORS
330
109B
102
}
330
109B
100
AcDbScale
 70
     0
300
1:10
140
1.0
141
10.0
290
     0
  0
SCALE
  5
10A2
102
{ACAD_REACTORS
330
109B
102
}
330
109B
100
AcDbScale
 70
     0
300
1:16
140
1.0
141
16.0
290
     0
  0
SCALE
  5
10A3
102
{ACAD_REACTORS
330
109B
102
}
330
109B
100
AcDbScale
 70
     0
300
1:20
140
1.0
141
20.0
290
     0
  0
SCALE
  5
10A4
102
{ACAD_REACTORS
330
109B
102
}
330
109B
100
AcDbScale
 70
     0
300
1:30
140
1.0
141
30.0
290
     0
  0
SCALE
  5
10A5
102
{ACAD_REACTORS
330
109B
102
}
330
109B
100
AcDbScale
 70
     0
300
1:40
140
1.0
141
40.0
290
     0
  0
SCALE
  5
10A6
102
{ACAD_REACTORS
330
109B
102
}
330
109B
100
AcDbScale
 70
     0
300
1:50
140
1.0
141
50.0
290
     0
  0
SCALE
  5
10A7
102
{ACAD_REACTORS
330
109B
102
}
330
109B
100
AcDbScale
 70
     0
300
1:100
140
1.0
141
100.0
290
     0
  0
SCALE
  5
10A8
102
{ACAD_REACTORS
330
109B
102
}
330
109B
100
AcDbScale
 70
     0
300
2:1
140
2.0
141
1.0
290
     0
  0
SCALE
  5
10A9
102
{ACAD_REACTORS
330
109B
102
}
330
109B
100
AcDbScale
 70
     0
300
4:1
140
4.0
141
1.0
290
     0
  0
SCALE
  5
10AA
102
{ACAD_REACTORS
330
109B
102
}
330
109B
100
AcDbScale
 70
     0
300
8:1
140
8.0
141
1.0
290
     0
  0
SCALE
  5
10AB
102
{ACAD_REACTORS
330
109B
102
}
330
109B
100
AcDbScale
 70
     0
300
10:1
140
10.0
141
1.0
290
     0
  0
SCALE
  5
10AC
102
{ACAD_REACTORS
330
109B
102
}
330
109B
100
AcDbScale
 70
     0
300
100:1
140
100.0
141
1.0
290
     0
  0
ACDBSECTIONVIEWSTYLE
  5
10B0
102
{ACAD_REACTORS
330
10AF
102
}
330
10AF
100
AcDbModelDocViewStyle
 70
     0
  3
Metric50
290
     0
100
AcDbSectionViewStyle
 70
     0
 71
     0
 90
      102
 71
     1
340
11
 40
5.0
340
0
340
0
 40
5.0
300
I, O, Q, S, X, Z
 40
10.0
 90
        0
 40
2.5
 90
        0
 71
     2
340
16
 90
       25
340
16
 90
       50
 40
5.0
 40
2.5
 40
5.0
 71
     3
340
11
 40
5.0
 90
        0
 40
15.0
 90
        1
300
%<\AcVar ViewSectionStartId>%-%<\AcVar ViewSectionEndId>% (%<\AcVar ViewScale \f "%sn">%)
 71
     4
300
ANSI31
 40
1.0
 90
        0
290
     0
290
     0
 90
        6
 40
0.0
 40
1.570796326794896
 40
0.2617993877991494
 40
1.308996938995747
 40
-0.2617993877991494
 40
1.832595714594046
  0
TABLESTYLE
  5
EE8
102
{ACAD_XDICTIONARY
360
1ABB
102
}
102
{ACAD_REACTORS
330
EE7
102
}
330
EE7
100
AcDbTableStyle
  3
Standard
 70
     0
 71
     0
 40
1.5
 41
1.5
280
     0
281
     0
  7
Standard
140
4.5
170
     2
 62
     0
 63
     7
283
     0
274
    -2
284
     1
 64
     0
275
    -2
285
     1
 65
     0
276
    -2
286
     1
 66
     0
277
    -2
287
     1
 67
     0
278
    -2
288
     1
 68
     0
279
    -2
289
     1
 69
     0
  7
Standard
140
6.0
170
     5
 62
     0
 63
     7
283
     0
274
    -2
284
     1
 64
     0
275
    -2
285
     1
 65
     0
276
    -2
286
     1
 66
     0
277
    -2
287
     1
 67
     0
278
    -2
288
     1
 68
     0
279
    -2
289
     1
 69
     0
  7
Standard
140
4.5
170
     5
 62
     0
 63
     7
283
     0
274
    -2
284
     1
 64
     0
275
    -2
285
     1
 65
     0
276
    -2
286
     1
 66
     0
277
    -2
287
     1
 67
     0
278
    -2
288
     1
 68
     0
279
    -2
289
     1
 69
     0
  0
VISUALSTYLE
  5
1088
102
{ACAD_XDICTIONARY
360
1AD5
102
}
102
{ACAD_REACTORS
330
1082
102
}
330
1082
100
AcDbVisualStyle
  2
2dWireframe
 70
     4
 71
     0
 72
     2
 73
     0
 90
        0
 40
-0.6
 41
-30.0
 62
     5
 63
     7
 74
     1
 91
        4
 64
     7
 65
   257
 75
     1
175
     1
 42
1.0
 92
        0
 66
   257
 43
1.0
 76
     1
 77
     6
 78
     2
 67
     7
 79
     5
170
     0
171
     0
290
     0
174
     0
 93
        1
 44
0.0
173
     0
291
     0
 45
0.0
1001
ACAD
1000
AcDbSavedByObjectVersion
1070
     0
  0
VISUALSTYLE
  5
1087
102
{ACAD_XDICTIONARY
360
1AD3
102
}
102
{ACAD_REACTORS
330
1082
102
}
330
1082
100
AcDbVisualStyle
  2
Basic
 70
     7
 71
     1
 72
     0
 73
     1
 90
        0
 40
-0.6
 41
-30.0
 62
     5
 63
     7
 74
     0
 91
        4
 64
     7
 65
   257
 75
     1
175
     1
 42
1.0
 92
        8
 66
     7
 43
1.0
 76
     1
 77
     6
 78
     2
 67
     7
 79
     5
170
     0
171
     0
290
     0
174
     0
 93
        1
 44
0.0
173
     0
291
     1
 45
0.0
1001
ACAD
1000
AcDbSavedByObjectVersion
1070
     0
  0
VISUALSTYLE
  5
108E
102
{ACAD_XDICTIONARY
360
1AE1
102
}
102
{ACAD_REACTORS
330
1082
102
}
330
1082
100
AcDbVisualStyle
  2
Brighten
 70
    12
 71
     2
 72
     2
 73
     0
 90
        0
 40
-0.6
 41
-30.0
 62
     5
 63
     7
 74
     1
 91
        4
 64
     7
 65
   257
 75
     1
175
     1
 42
1.0
 92
        8
 66
     7
 43
1.0
 76
     1
 77
     6
 78
     2
 67
     7
 79
     5
170
     0
171
     0
290
     0
174
     0
 93
        1
 44
50.0
173
     0
291
     1
 45
0.0
1001
ACAD
1000
AcDbSavedByObjectVersion
1070
     0
  0
VISUALSTYLE
  5
1092
102
{ACAD_XDICTIONARY
360
1AE9
102
}
102
{ACAD_REACTORS
330
1082
102
}
330
1082
100
AcDbVisualStyle
  2
ColorChange
 70
    16
 71
     2
 72
     2
 73
     3
 90
        0
 40
-0.6
 41
-30.0
 62
     5
 63
     8
 74
     1
 91
        4
 64
     7
 65
   257
 75
     1
175
     1
 42
1.0
 92
        8
 66
     8
 43
1.0
 76
     1
 77
     6
 78
     2
 67
     7
 79
     5
170
     0
171
     0
290
     0
174
     0
 93
        1
 44
0.0
173
     0
291
     1
 45
0.0
1001
ACAD
1000
AcDbSavedByObjectVersion
1070
     0
  0
VISUALSTYLE
  5
108B
102
{ACAD_XDICTIONARY
360
1ADB
102
}
102
{ACAD_REACTORS
330
1082
102
}
330
1082
100
AcDbVisualStyle
  2
Conceptual
 70
     9
 71
     3
 72
     2
 73
     0
 90
        0
 40
-0.6
 41
-30.0
 62
     5
 63
     7
 74
     2
 91
        2
 64
     7
 65
   257
 75
     1
175
     1
 42
179.0
 92
        8
 66
     7
 43
1.0
 76
     1
 77
     6
 78
     2
 67
     7
 79
     3
170
     0
171
     0
290
     0
174
     0
 93
        1
 44
0.0
173
     0
291
     0
 45
0.0
1001
ACAD
1000
AcDbSavedByObjectVersion
1070
     0
  0
VISUALSTYLE
  5
108D
102
{ACAD_XDICTIONARY
360
1ADF
102
}
102
{ACAD_REACTORS
330
1082
102
}
330
1082
100
AcDbVisualStyle
  2
Dim
 70
    11
 71
     2
 72
     2
 73
     0
 90
        0
 40
-0.6
 41
-30.0
 62
     5
 63
     7
 74
     1
 91
        4
 64
     7
 65
   257
 75
     1
175
     1
 42
1.0
 92
        8
 66
     7
 43
1.0
 76
     1
 77
     6
 78
     2
 67
     7
 79
     5
170
     0
171
     0
290
     0
174
     0
 93
        1
 44
-50.0
173
     0
291
     1
 45
0.0
1001
ACAD
1000
AcDbSavedByObjectVersion
1070
     0
  0
VISUALSTYLE
  5
109A
102
{ACAD_XDICTIONARY
360
1AF9
102
}
102
{ACAD_REACTORS
330
1082
102
}
330
1082
100
AcDbVisualStyle
  2
EdgeColorOff
 70
    22
 71
     2
 72
     2
 73
     0
 90
        0
 40
-0.6
 41
-30.0
 62
     5
 63
     7
 74
     1
 91
        4
 64
     7
 65
   257
 75
     1
175
     1
 42
1.0
 92
        8
 66
     7
 43
1.0
 76
     1
 77
     6
 78
     2
 67
     7
 79
     5
170
     0
171
     0
290
     0
174
     0
 93
        1
 44
0.0
173
     0
291
     1
 45
0.0
1001
ACAD
1000
AcDbSavedByObjectVersion
1070
     0
  0
VISUALSTYLE
  5
1091
102
{ACAD_XDICTIONARY
360
1AE7
102
}
102
{ACAD_REACTORS
330
1082
102
}
330
1082
100
AcDbVisualStyle
  2
Facepattern
 70
    15
 71
     2
 72
     2
 73
     0
 90
        0
 40
-0.6
 41
-30.0
 62
     5
 63
     7
 74
     1
 91
        4
 64
     7
 65
   257
 75
     1
175
     1
 42
1.0
 92
        8
 66
     7
 43
1.0
 76
     1
 77
     6
 78
     2
 67
     7
 79
     5
170
     0
171
     0
290
     0
174
     0
 93
        1
 44
0.0
173
     0
291
     1
 45
0.0
1001
ACAD
1000
AcDbSavedByObjectVersion
1070
     0
  0
VISUALSTYLE
  5
1083
102
{ACAD_XDICTIONARY
360
1ACB
102
}
102
{ACAD_REACTORS
330
1082
102
}
330
1082
100
AcDbVisualStyle
  2
Flat
 70
     0
 71
     2
 72
     1
 73
     1
 90
        2
 40
-0.6
 41
30.0
 62
     5
 63
     7
 74
     0
 91
        0
 64
     7
 65
   257
 75
     1
175
     1
 42
1.0
 92
        8
 66
     7
 43
1.0
 76
     1
 77
     6
 78
     2
 67
     7
 79
     5
170
     0
171
     0
290
     0
174
     0
 93
       13
 44
0.0
173
     0
291
     1
 45
0.0
1001
ACAD
1000
AcDbSavedByObjectVersion
1070
     0
  0
VISUALSTYLE
  5
1084
102
{ACAD_XDICTIONARY
360
1ACD
102
}
102
{ACAD_REACTORS
330
1082
102
}
330
1082
100
AcDbVisualStyle
  2
FlatWithEdges
 70
     1
 71
     2
 72
     1
 73
     1
 90
        2
 40
-0.6
 41
30.0
 62
     5
 63
     7
 74
     1
 91
        0
 64
     7
 65
   257
 75
     1
175
     1
 42
1.0
 92
        0
 66
   257
 43
1.0
 76
     1
 77
     6
 78
     2
 67
     7
 79
     5
170
     0
171
     0
290
     0
174
     0
 93
       13
 44
0.0
173
     0
291
     1
 45
0.0
1001
ACAD
1000
AcDbSavedByObjectVersion
1070
     0
  0
VISUALSTYLE
  5
1085
102
{ACAD_XDICTIONARY
360
1ACF
102
}
102
{ACAD_REACTORS
330
1082
102
}
330
1082
100
AcDbVisualStyle
  2
Gouraud
 70
     2
 71
     2
 72
     2
 73
     1
 90
        2
 40
-0.6
 41
30.0
 62
     5
 63
     7
 74
     0
 91
        0
 64
     7
 65
   257
 75
     1
175
     1
 42
1.0
 92
        0
 66
     7
 43
1.0
 76
     1
 77
     6
 78
     2
 67
     7
 79
     5
170
     0
171
     0
290
     0
174
     0
 93
       13
 44
0.0
173
     0
291
     1
 45
0.0
1001
ACAD
1000
AcDbSavedByObjectVersion
1070
     0
  0
VISUALSTYLE
  5
1086
102
{ACAD_XDICTIONARY
360
1AD1
102
}
102
{ACAD_REACTORS
330
1082
102
}
330
1082
100
AcDbVisualStyle
  2
GouraudWithEdges
 70
     3
 71
     2
 72
     2
 73
     1
 90
        2
 40
-0.6
 41
30.0
 62
     5
 63
     7
 74
     1
 91
        0
 64
     7
 65
   257
 75
     1
175
     1
 42
1.0
 92
        0
 66
   257
 43
1.0
 76
     1
 77
     6
 78
     2
 67
     7
 79
     5
170
     0
171
     0
290
     0
174
     0
 93
       13
 44
0.0
173
     0
291
     1
 45
0.0
1001
ACAD
1000
AcDbSavedByObjectVersion
1070
     0
  0
VISUALSTYLE
  5
108A
102
{ACAD_XDICTIONARY
360
1AD9
102
}
102
{ACAD_REACTORS
330
1082
102
}
330
1082
100
AcDbVisualStyle
  2
Hidden
 70
     6
 71
     1
 72
     2
 73
     2
 90
        0
 40
-0.6
 41
-30.0
 62
     5
 63
     7
 74
     2
 91
        2
 64
     7
 65
   257
 75
     2
175
     1
 42
40.0
 92
        0
 66
   257
 43
1.0
 76
     1
 77
     6
 78
     2
 67
     7
 79
     3
170
     0
171
     0
290
     0
174
     0
 93
        1
 44
0.0
173
     0
291
     0
 45
0.0
1001
ACAD
1000
AcDbSavedByObjectVersion
1070
     0
  0
VISUALSTYLE
  5
1098
102
{ACAD_XDICTIONARY
360
1AF5
102
}
102
{ACAD_REACTORS
330
1082
102
}
330
1082
100
AcDbVisualStyle
  2
JitterOff
 70
    20
 71
     2
 72
     2
 73
     0
 90
        0
 40
-0.6
 41
-30.0
 62
     5
 63
     7
 74
     1
 91
        4
 64
     7
 65
   257
 75
     1
175
     1
 42
1.0
 92
       10
 66
     7
 43
1.0
 76
     1
 77
     6
 78
     2
 67
     7
 79
     5
170
     0
171
     0
290
     0
174
     0
 93
        1
 44
0.0
173
     0
291
     1
 45
0.0
1001
ACAD
1000
AcDbSavedByObjectVersion
1070
     0
  0
VISUALSTYLE
  5
1090
102
{ACAD_XDICTIONARY
360
1AE5
102
}
102
{ACAD_REACTORS
330
1082
102
}
330
1082
100
AcDbVisualStyle
  2
Linepattern
 70
    14
 71
     2
 72
     2
 73
     0
 90
        0
 40
-0.6
 41
-30.0
 62
     5
 63
     7
 74
     1
 91
        4
 64
     7
 65
   257
 75
     7
175
     7
 42
1.0
 92
        8
 66
     7
 43
1.0
 76
     1
 77
     6
 78
     2
 67
     7
 79
     5
170
     0
171
     0
290
     0
174
     0
 93
        1
 44
0.0
173
     0
291
     1
 45
0.0
1001
ACAD
1000
AcDbSavedByObjectVersion
1070
     0
  0
VISUALSTYLE
  5
1099
102
{ACAD_XDICTIONARY
360
1AF7
102
}
102
{ACAD_REACTORS
330
1082
102
}
330
1082
100
AcDbVisualStyle
  2
OverhangOff
 70
    21
 71
     2
 72
     2
 73
     0
 90
        0
 40
-0.6
 41
-30.0
 62
     5
 63
     7
 74
     1
 91
        4
 64
     7
 65
   257
 75
     1
175
     1
 42
1.0
 92
        9
 66
     7
 43
1.0
 76
     1
 77
     6
 78
     2
 67
     7
 79
     5
170
     0
171
     0
290
     0
174
     0
 93
        1
 44
0.0
173
     0
291
     1
 45
0.0
1001
ACAD
1000
AcDbSavedByObjectVersion
1070
     0
  0
VISUALSTYLE
  5
108C
102
{ACAD_XDICTIONARY
360
1ADD
102
}
102
{ACAD_REACTORS
330
1082
102
}
330
1082
100
AcDbVisualStyle
  2
Realistic
 70
     8
 71
     2
 72
     3
 73
     0
 90
        2
 40
-0.6
 41
30.0
 62
     5
 63
     7
 74
     0
 91
        0
 64
     7
 65
   257
 75
     1
175
     1
 42
1.0
 92
        8
 66
   257
 43
1.0
 76
     1
 77
     6
 78
     2
 67
     7
 79
     3
170
     0
171
     0
290
     0
174
     0
 93
       13
 44
0.0
173
     0
291
     0
 45
0.0
1001
ACAD
1000
AcDbSavedByObjectVersion
1070
     0
  0
VISUALSTYLE
  5
1097
102
{ACAD_XDICTIONARY
360
1AF3
102
}
102
{ACAD_REACTORS
330
1082
102
}
330
1082
100
AcDbVisualStyle
  2
Shaded
 70
    27
 71
     2
 72
     2
 73
     1
 90
        2
 40
-0.6
 41
30.0
 62
     5
 63
     7
 74
     0
 91
        4
 64
     7
 65
   257
 75
     1
175
     1
 42
1.0
 92
        8
 66
   257
 43
1.0
 76
     1
 77
     6
 78
     2
 67
     8
 79
     3
170
     0
171
     0
290
     0
174
     0
 93
        5
 44
0.0
173
     0
291
     0
 45
0.0
1001
ACAD
1000
AcDbSavedByObjectVersion
1070
     0
  0
VISUALSTYLE
  5
1096
102
{ACAD_XDICTIONARY
360
1AF1
102
}
102
{ACAD_REACTORS
330
1082
102
}
330
1082
100
AcDbVisualStyle
  2
Shaded with edges
 70
    26
 71
     2
 72
     2
 73
     1
 90
        2
 40
-0.6
 41
30.0
 62
     5
 63
     7
 74
     1
 91
       10
 64
     7
 65
   257
 75
     2
175
     1
 42
1.0
 92
        8
 66
   257
 43
1.0
 76
     1
 77
     6
 78
     2
 67
     7
 79
     3
170
     0
171
     0
290
     0
174
     0
 93
        5
 44
0.0
173
     0
291
     0
 45
0.0
1001
ACAD
1000
AcDbSavedByObjectVersion
1070
     0
  0
VISUALSTYLE
  5
1093
102
{ACAD_XDICTIONARY
360
1AEB
102
}
102
{ACAD_REACTORS
330
1082
102
}
330
1082
100
AcDbVisualStyle
  2
Shades of Gray
 70
    23
 71
     2
 72
     2
 73
     3
 90
        0
 40
-0.6
 41
-30.0
 62
     5
 63
     7
 74
     2
 91
        2
 64
     7
 65
     7
 75
     1
175
     1
 42
40.0
 92
        8
 66
     7
 43
1.0
 76
     1
 77
     6
 78
     2
 67
     7
 79
     3
170
     0
171
     0
290
     0
174
     0
 93
        1
 44
0.0
173
     0
291
     0
 45
0.0
1001
ACAD
1000
AcDbSavedByObjectVersion
1070
     0
  0
VISUALSTYLE
  5
1094
102
{ACAD_XDICTIONARY
360
1AED
102
}
102
{ACAD_REACTORS
330
1082
102
}
330
1082
100
AcDbVisualStyle
  2
Sketchy
 70
    24
 71
     1
 72
     2
 73
     2
 90
        0
 40
-0.6
 41
-30.0
 62
     5
 63
     7
 74
     2
 91
        2
 64
     7
 65
     7
 75
     1
175
     1
 42
40.0
 92
       11
 66
     7
 43
1.0
 76
     1
 77
     6
 78
     2
 67
     7
 79
     6
170
     0
171
     0
290
     0
174
     0
 93
        1
 44
0.0
173
     0
291
     0
 45
0.0
1001
ACAD
1000
AcDbSavedByObjectVersion
1070
     0
  0
VISUALSTYLE
  5
108F
102
{ACAD_XDICTIONARY
360
1AE3
102
}
102
{ACAD_REACTORS
330
1082
102
}
330
1082
100
AcDbVisualStyle
  2
Thicken
 70
    13
 71
     2
 72
     2
 73
     0
 90
        0
 40
-0.6
 41
-30.0
 62
     5
 63
     7
 74
     1
 91
        4
 64
     7
 65
   257
 75
     1
175
     1
 42
1.0
 92
       12
 66
     7
 43
1.0
 76
     1
 77
     6
 78
     2
 67
     7
 79
     5
170
     0
171
     0
290
     0
174
     0
 93
        1
 44
0.0
173
     0
291
     1
 45
0.0
1001
ACAD
1000
AcDbSavedByObjectVersion
1070
     0
  0
VISUALSTYLE
  5
1089
102
{ACAD_XDICTIONARY
360
1AD7
102
}
102
{ACAD_REACTORS
330
1082
102
}
330
1082
100
AcDbVisualStyle
  2
Wireframe
 70
     5
 71
     0
 72
     2
 73
     0
 90
        0
 40
-0.6
 41
-30.0
 62
     5
 63
     7
 74
     1
 91
        4
 64
     7
 65
   257
 75
     1
175
     1
 42
1.0
 92
        0
 66
   257
 43
1.0
 76
     1
 77
     6
 78
     2
 67
     7
 79
     3
170
     0
171
     0
290
     0
174
     0
 93
        1
 44
0.0
173
     0
291
     0
 45
0.0
1001
ACAD
1000
AcDbSavedByObjectVersion
1070
     0
  0
VISUALSTYLE
  5
1095
102
{ACAD_XDICTIONARY
360
1AEF
102
}
102
{ACAD_REACTORS
330
1082
102
}
330
1082
100
AcDbVisualStyle
  2
X-Ray
 70
    25
 71
     2
 72
     2
 73
     1
 90
        1
 40
0.5
 41
-30.0
 62
     5
 63
     7
 74
     1
 91
        0
 64
     7
 65
   257
 75
     1
175
     1
 42
1.0
 92
        8
 66
     7
 43
1.0
 76
     1
 77
     6
 78
     2
 67
     7
 79
     3
170
     0
171
     0
290
     0
174
     0
 93
       13
 44
0.0
173
     0
291
     0
 45
0.0
1001
ACAD
1000
AcDbSavedByObjectVersion
1070
     0
  0
DICTIONARYVAR
  5
10C1
102
{ACAD_REACTORS
330
3D
102
}
330
3D
100
DictionaryVariables
280
     0
  1
1:1
  0
DICTIONARYVAR
  5
10BD
102
{ACAD_REACTORS
330
3D
102
}
330
3D
100
DictionaryVariables
280
     0
  1
STANDARD
  0
DICTIONARYVAR
  5
1049
102
{ACAD_REACTORS
330
3D
102
}
330
3D
100
DictionaryVariables
280
     0
  1
STANDARD
  0
DICTIONARYVAR
  5
10BE
102
{ACAD_REACTORS
330
3D
102
}
330
3D
100
DictionaryVariables
280
     0
  1
Metric50
  0
DICTIONARYVAR
  5
10BF
102
{ACAD_REACTORS
330
3D
102
}
330
3D
100
DictionaryVariables
280
     0
  1
Metric50
  0
DICTIONARYVAR
  5
3F
102
{ACAD_REACTORS
330
3D
102
}
330
3D
100
DictionaryVariables
280
     0
  1
2
  0
DICTIONARYVAR
  5
3E
102
{ACAD_REACTORS
330
3D
102
}
330
3D
100
DictionaryVariables
280
     0
  1
1
  0
DICTIONARYVAR
  5
1AB9
102
{ACAD_REACTORS
330
3D
102
}
330
3D
100
DictionaryVariables
280
     0
  1
0
  0
DICTIONARYVAR
  5
10C3
102
{ACAD_REACTORS
330
3D
102
}
330
3D
100
DictionaryVariables
280
     0
  1
1
  0
DICTIONARYVAR
  5
10C4
102
{ACAD_REACTORS
330
3D
102
}
330
3D
100
DictionaryVariables
280
     0
  1
15
  0
DICTIONARYVAR
  5
10C2
102
{ACAD_REACTORS
330
3D
102
}
330
3D
100
DictionaryVariables
280
     0
  1
0
  0
DICTIONARYVAR
  5
10C0
102
{ACAD_REACTORS
330
3D
102
}
330
3D
100
DictionaryVariables
280
     0
  1
0
  0
DICTIONARYVAR
  5
1AB8
102
{ACAD_REACTORS
330
3D
102
}
330
3D
100
DictionaryVariables
280
     0
  1
127
  0
DICTIONARYVAR
  5
1ABA
102
{ACAD_REACTORS
330
3D
102
}
330
3D
100
DictionaryVariables
280
     0
  1
0
  0
XRECORD
  5
1067
102
{ACAD_REACTORS
330
1066
102
}
330
1066
100
AcDbXrecord
280
     1
  0
DICTIONARY
  5
1AC1
330
1E
100
AcDbDictionary
280
     1
281
     1
  3
ACAD_XREC_ROUNDTRIP
360
1AC2
  0
DICTIONARY
  5
1AC5
330
26
100
AcDbDictionary
280
     1
281
     1
  3
ACAD_XREC_ROUNDTRIP
360
1AC6
  0
DICTIONARY
  5
1AC3
330
22
100
AcDbDictionary
280
     1
281
     1
  3
ACAD_XREC_ROUNDTRIP
360
1AC4
  0
DICTIONARY
  5
1073
330
1072
100
AcDbDictionary
280
     1
281
     1
  3
ACAD_XREC_ROUNDTRIP
360
1AC9
  3
BUMPTILE
360
1075
  3
DIFFUSETILE
360
1074
  3
OPACITYTILE
360
1078
  3
REFLECTIONTILE
360
1077
  3
REFRACTIONTILE
360
1079
  3
SPECULARTILE
360
1076
  0
DICTIONARY
  5
106B
330
106A
100
AcDbDictionary
280
     1
281
     1
  3
ACAD_XREC_ROUNDTRIP
360
1AC8
  3
BUMPTILE
360
106D
  3
DIFFUSETILE
360
106C
  3
OPACITYTILE
360
1070
  3
REFLECTIONTILE
360
106F
  3
REFRACTIONTILE
360
1071
  3
SPECULARTILE
360
106E
  0
DICTIONARY
  5
107B
330
107A
100
AcDbDictionary
280
     1
281
     1
  3
ACAD_XREC_ROUNDTRIP
360
1ACA
  3
BUMPTILE
360
107D
  3
DIFFUSETILE
360
107C
  3
OPACITYTILE
360
1080
  3
REFLECTIONTILE
360
107F
  3
REFRACTIONTILE
360
1081
  3
SPECULARTILE
360
107E
  0
DICTIONARY
  5
1AFC
330
10AE
100
AcDbDictionary
280
     1
281
     1
  3
ACAD_XREC_ROUNDTRIP
360
1AFD
  0
DICTIONARY
  5
1ABB
330
EE8
100
AcDbDictionary
280
     1
281
     1
  3
ACAD_ROUNDTRIP_2008_TABLESTYLE_CELLSTYLEMAP
360
1ABC
  3
ACAD_XREC_ROUNDTRIP
360
1AC7
  0
DICTIONARY
  5
1AD5
330
1088
100
AcDbDictionary
280
     1
281
     1
  3
ACAD_XREC_ROUNDTRIP
360
1AD6
  0
DICTIONARY
  5
1AD3
330
1087
100
AcDbDictionary
280
     1
281
     1
  3
ACAD_XREC_ROUNDTRIP
360
1AD4
  0
DICTIONARY
  5
1AE1
330
108E
100
AcDbDictionary
280
     1
281
     1
  3
ACAD_XREC_ROUNDTRIP
360
1AE2
  0
DICTIONARY
  5
1AE9
330
1092
100
AcDbDictionary
280
     1
281
     1
  3
ACAD_XREC_ROUNDTRIP
360
1AEA
  0
DICTIONARY
  5
1ADB
330
108B
100
AcDbDictionary
280
     1
281
     1
  3
ACAD_XREC_ROUNDTRIP
360
1ADC
  0
DICTIONARY
  5
1ADF
330
108D
100
AcDbDictionary
280
     1
281
     1
  3
ACAD_XREC_ROUNDTRIP
360
1AE0
  0
DICTIONARY
  5
1AF9
330
109A
100
AcDbDictionary
280
     1
281
     1
  3
ACAD_XREC_ROUNDTRIP
360
1AFA
  0
DICTIONARY
  5
1AE7
330
1091
100
AcDbDictionary
280
     1
281
     1
  3
ACAD_XREC_ROUNDTRIP
360
1AE8
  0
DICTIONARY
  5
1ACB
330
1083
100
AcDbDictionary
280
     1
281
     1
  3
ACAD_XREC_ROUNDTRIP
360
1ACC
  0
DICTIONARY
  5
1ACD
330
1084
100
AcDbDictionary
280
     1
281
     1
  3
ACAD_XREC_ROUNDTRIP
360
1ACE
  0
DICTIONARY
  5
1ACF
330
1085
100
AcDbDictionary
280
     1
281
     1
  3
ACAD_XREC_ROUNDTRIP
360
1AD0
  0
DICTIONARY
  5
1AD1
330
1086
100
AcDbDictionary
280
     1
281
     1
  3
ACAD_XREC_ROUNDTRIP
360
1AD2
  0
DICTIONARY
  5
1AD9
330
108A
100
AcDbDictionary
280
     1
281
     1
  3
ACAD_XREC_ROUNDTRIP
360
1ADA
  0
DICTIONARY
  5
1AF5
330
1098
100
AcDbDictionary
280
     1
281
     1
  3
ACAD_XREC_ROUNDTRIP
360
1AF6
  0
DICTIONARY
  5
1AE5
330
1090
100
AcDbDictionary
280
     1
281
     1
  3
ACAD_XREC_ROUNDTRIP
360
1AE6
  0
DICTIONARY
  5
1AF7
330
1099
100
AcDbDictionary
280
     1
281
     1
  3
ACAD_XREC_ROUNDTRIP
360
1AF8
  0
DICTIONARY
  5
1ADD
330
108C
100
AcDbDictionary
280
     1
281
     1
  3
ACAD_XREC_ROUNDTRIP
360
1ADE
  0
DICTIONARY
  5
1AF3
330
1097
100
AcDbDictionary
280
     1
281
     1
  3
ACAD_XREC_ROUNDTRIP
360
1AF4
  0
DICTIONARY
  5
1AF1
330
1096
100
AcDbDictionary
280
     1
281
     1
  3
ACAD_XREC_ROUNDTRIP
360
1AF2
  0
DICTIONARY
  5
1AEB
330
1093
100
AcDbDictionary
280
     1
281
     1
  3
ACAD_XREC_ROUNDTRIP
360
1AEC
  0
DICTIONARY
  5
1AED
330
1094
100
AcDbDictionary
280
     1
281
     1
  3
ACAD_XREC_ROUNDTRIP
360
1AEE
  0
DICTIONARY
  5
1AE3
330
108F
100
AcDbDictionary
280
     1
281
     1
  3
ACAD_XREC_ROUNDTRIP
360
1AE4
  0
DICTIONARY
  5
1AD7
330
1089
100
AcDbDictionary
280
     1
281
     1
  3
ACAD_XREC_ROUNDTRIP
360
1AD8
  0
DICTIONARY
  5
1AEF
330
1095
100
AcDbDictionary
280
     1
281
     1
  3
ACAD_XREC_ROUNDTRIP
360
1AF0
  0
XRECORD
  5
1AC2
102
{ACAD_REACTORS
330
1AC1
102
}
330
1AC1
100
AcDbXrecord
280
     1
102
SHADEPLOT
 70
     0
102
SHADEPLOTRESLEVEL
 70
     2
102
SHADEPLOTCUSTOMDPI
 70
   300
  0
XRECORD
  5
1AC6
102
{ACAD_REACTORS
330
1AC5
102
}
330
1AC5
100
AcDbXrecord
280
     1
102
SHADEPLOT
 70
     0
102
SHADEPLOTRESLEVEL
 70
     2
102
SHADEPLOTCUSTOMDPI
 70
   300
  0
XRECORD
  5
1AC4
102
{ACAD_REACTORS
330
1AC3
102
}
330
1AC3
100
AcDbXrecord
280
     1
102
SHADEPLOT
 70
     0
102
SHADEPLOTRESLEVEL
 70
     2
102
SHADEPLOTCUSTOMDPI
 70
   300
  0
XRECORD
  5
1AC9
102
{ACAD_REACTORS
330
1073
102
}
330
1073
100
AcDbXrecord
280
     1
102
MATERIAL
148
0.0
149
0.0
149
0.0
 93
        0
 94
      127
282
     0
 72
     0
 77
     0
171
     0
175
     0
179
     0
273
     0
  0
XRECORD
  5
1075
102
{ACAD_REACTORS
330
1073
102
}
330
1073
100
AcDbXrecord
280
     1
270
     1
271
     1
  0
XRECORD
  5
1074
102
{ACAD_REACTORS
330
1073
102
}
330
1073
100
AcDbXrecord
280
     1
270
     1
271
     1
  0
XRECORD
  5
1078
102
{ACAD_REACTORS
330
1073
102
}
330
1073
100
AcDbXrecord
280
     1
270
     1
271
     1
  0
XRECORD
  5
1077
102
{ACAD_REACTORS
330
1073
102
}
330
1073
100
AcDbXrecord
280
     1
270
     1
271
     1
  0
XRECORD
  5
1079
102
{ACAD_REACTORS
330
1073
102
}
330
1073
100
AcDbXrecord
280
     1
270
     1
271
     1
  0
XRECORD
  5
1076
102
{ACAD_REACTORS
330
1073
102
}
330
1073
100
AcDbXrecord
280
     1
270
     1
271
     1
  0
XRECORD
  5
1AC8
102
{ACAD_REACTORS
330
106B
102
}
330
106B
100
AcDbXrecord
280
     1
102
MATERIAL
148
0.0
149
0.0
149
0.0
 93
        0
 94
      127
282
     0
 72
     0
 77
     0
171
     0
175
     0
179
     0
273
     0
  0
XRECORD
  5
106D
102
{ACAD_REACTORS
330
106B
102
}
330
106B
100
AcDbXrecord
280
     1
270
     1
271
     1
  0
XRECORD
  5
106C
102
{ACAD_REACTORS
330
106B
102
}
330
106B
100
AcDbXrecord
280
     1
270
     1
271
     1
  0
XRECORD
  5
1070
102
{ACAD_REACTORS
330
106B
102
}
330
106B
100
AcDbXrecord
280
     1
270
     1
271
     1
  0
XRECORD
  5
106F
102
{ACAD_REACTORS
330
106B
102
}
330
106B
100
AcDbXrecord
280
     1
270
     1
271
     1
  0
XRECORD
  5
1071
102
{ACAD_REACTORS
330
106B
102
}
330
106B
100
AcDbXrecord
280
     1
270
     1
271
     1
  0
XRECORD
  5
106E
102
{ACAD_REACTORS
330
106B
102
}
330
106B
100
AcDbXrecord
280
     1
270
     1
271
     1
  0
XRECORD
  5
1ACA
102
{ACAD_REACTORS
330
107B
102
}
330
107B
100
AcDbXrecord
280
     1
102
MATERIAL
148
0.0
149
0.0
149
0.0
 93
        0
 94
      127
282
     0
 72
     0
 77
     0
171
     0
175
     0
179
     0
273
     0
  0
XRECORD
  5
107D
102
{ACAD_REACTORS
330
107B
102
}
330
107B
100
AcDbXrecord
280
     1
270
     1
271
     1
  0
XRECORD
  5
107C
102
{ACAD_REACTORS
330
107B
102
}
330
107B
100
AcDbXrecord
280
     1
270
     1
271
     1
  0
XRECORD
  5
1080
102
{ACAD_REACTORS
330
107B
102
}
330
107B
100
AcDbXrecord
280
     1
270
     1
271
     1
  0
XRECORD
  5
107F
102
{ACAD_REACTORS
330
107B
102
}
330
107B
100
AcDbXrecord
280
     1
270
     1
271
     1
  0
XRECORD
  5
1081
102
{ACAD_REACTORS
330
107B
102
}
330
107B
100
AcDbXrecord
280
     1
270
     1
271
     1
  0
XRECORD
  5
107E
102
{ACAD_REACTORS
330
107B
102
}
330
107B
100
AcDbXrecord
280
     1
270
     1
271
     1
  0
XRECORD
  5
1AFD
102
{ACAD_REACTORS
330
1AFC
102
}
330
1AFC
100
AcDbXrecord
280
     1
102
ACAD_ROUNDTRIP_2012_MLEADER_STYLE
298
     1
  0
CELLSTYLEMAP
  5
1ABC
102
{ACAD_REACTORS
330
1ABB
102
}
330
1ABB
100
AcDbCellStyleMap
 90
        3
300
CELLSTYLE
  1
TABLEFORMAT_BEGIN
 90
        5
170
     1
 91
        0
 92
    32768
 62
   257
 93
        1
300
CONTENTFORMAT
  1
CONTENTFORMAT_BEGIN
 90
        0
 91
        0
 92
        4
 93
        0
300

 40
0.0
140
1.0
 94
        5
 62
     0
340
11
144
6.0
309
CONTENTFORMAT_END
171
     1
301
MARGIN
  1
CELLMARGIN_BEGIN
 40
1.5
 40
1.5
 40
1.5
 40
1.5
 40
0.18
 40
0.18
309
CELLMARGIN_END
 94
        6
 95
        1
302
GRIDFORMAT
  1
GRIDFORMAT_BEGIN
 90
        0
 91
        1
 62
     0
 92
       -2
340
0
 93
        0
 40
0.045
309
GRIDFORMAT_END
 95
        2
302
GRIDFORMAT
  1
GRIDFORMAT_BEGIN
 90
        0
 91
        1
 62
     0
 92
       -2
340
0
 93
        0
 40
0.045
309
GRIDFORMAT_END
 95
        4
302
GRIDFORMAT
  1
GRIDFORMAT_BEGIN
 90
        0
 91
        1
 62
     0
 92
       -2
340
0
 93
        0
 40
0.045
309
GRIDFORMAT_END
 95
        8
302
GRIDFORMAT
  1
GRIDFORMAT_BEGIN
 90
        0
 91
        1
 62
     0
 92
       -2
340
0
 93
        0
 40
0.045
309
GRIDFORMAT_END
 95
       16
302
GRIDFORMAT
  1
GRIDFORMAT_BEGIN
 90
        0
 91
        1
 62
     0
 92
       -2
340
0
 93
        0
 40
0.045
309
GRIDFORMAT_END
 95
       32
302
GRIDFORMAT
  1
GRIDFORMAT_BEGIN
 90
        0
 91
        1
 62
     0
 92
       -2
340
0
 93
        0
 40
0.045
309
GRIDFORMAT_END
309
TABLEFORMAT_END
  1
CELLSTYLE_BEGIN
 90
        1
 91
        1
300
_TITLE
309
CELLSTYLE_END
300
CELLSTYLE
  1
TABLEFORMAT_BEGIN
 90
        5
170
     1
 91
        0
 92
        0
 62
   257
 93
        1
300
CONTENTFORMAT
  1
CONTENTFORMAT_BEGIN
 90
        0
 91
        0
 92
        4
 93
        0
300

 40
0.0
140
1.0
 94
        5
 62
     0
340
11
144
4.5
309
CONTENTFORMAT_END
171
     1
301
MARGIN
  1
CELLMARGIN_BEGIN
 40
1.5
 40
1.5
 40
1.5
 40
1.5
 40
0.18
 40
0.18
309
CELLMARGIN_END
 94
        6
 95
        1
302
GRIDFORMAT
  1
GRIDFORMAT_BEGIN
 90
        0
 91
        1
 62
     0
 92
       -2
340
0
 93
        0
 40
0.045
309
GRIDFORMAT_END
 95
        2
302
GRIDFORMAT
  1
GRIDFORMAT_BEGIN
 90
        0
 91
        1
 62
     0
 92
       -2
340
0
 93
        0
 40
0.045
309
GRIDFORMAT_END
 95
        4
302
GRIDFORMAT
  1
GRIDFORMAT_BEGIN
 90
        0
 91
        1
 62
     0
 92
       -2
340
0
 93
        0
 40
0.045
309
GRIDFORMAT_END
 95
        8
302
GRIDFORMAT
  1
GRIDFORMAT_BEGIN
 90
        0
 91
        1
 62
     0
 92
       -2
340
0
 93
        0
 40
0.045
309
GRIDFORMAT_END
 95
       16
302
GRIDFORMAT
  1
GRIDFORMAT_BEGIN
 90
        0
 91
        1
 62
     0
 92
       -2
340
0
 93
        0
 40
0.045
309
GRIDFORMAT_END
 95
       32
302
GRIDFORMAT
  1
GRIDFORMAT_BEGIN
 90
        0
 91
        1
 62
     0
 92
       -2
340
0
 93
        0
 40
0.045
309
GRIDFORMAT_END
309
TABLEFORMAT_END
  1
CELLSTYLE_BEGIN
 90
        2
 91
        1
300
_HEADER
309
CELLSTYLE_END
300
CELLSTYLE
  1
TABLEFORMAT_BEGIN
 90
        5
170
     1
 91
        0
 92
        0
 62
   257
 93
        1
300
CONTENTFORMAT
  1
CONTENTFORMAT_BEGIN
 90
        0
 91
        0
 92
        4
 93
        0
300

 40
0.0
140
1.0
 94
        2
 62
     0
340
11
144
4.5
309
CONTENTFORMAT_END
171
     1
301
MARGIN
  1
CELLMARGIN_BEGIN
 40
1.5
 40
1.5
 40
1.5
 40
1.5
 40
0.18
 40
0.18
309
CELLMARGIN_END
 94
        6
 95
        1
302
GRIDFORMAT
  1
GRIDFORMAT_BEGIN
 90
        0
 91
        1
 62
     0
 92
       -2
340
0
 93
        0
 40
0.045
309
GRIDFORMAT_END
 95
        2
302
GRIDFORMAT
  1
GRIDFORMAT_BEGIN
 90
        0
 91
        1
 62
     0
 92
       -2
340
0
 93
        0
 40
0.045
309
GRIDFORMAT_END
 95
        4
302
GRIDFORMAT
  1
GRIDFORMAT_BEGIN
 90
        0
 91
        1
 62
     0
 92
       -2
340
0
 93
        0
 40
0.045
309
GRIDFORMAT_END
 95
        8
302
GRIDFORMAT
  1
GRIDFORMAT_BEGIN
 90
        0
 91
        1
 62
     0
 92
       -2
340
0
 93
        0
 40
0.045
309
GRIDFORMAT_END
 95
       16
302
GRIDFORMAT
  1
GRIDFORMAT_BEGIN
 90
        0
 91
        1
 62
     0
 92
       -2
340
0
 93
        0
 40
0.045
309
GRIDFORMAT_END
 95
       32
302
GRIDFORMAT
  1
GRIDFORMAT_BEGIN
 90
        0
 91
        1
 62
     0
 92
       -2
340
0
 93
        0
 40
0.045
309
GRIDFORMAT_END
309
TABLEFORMAT_END
  1
CELLSTYLE_BEGIN
 90
        3
 91
        2
300
_DATA
309
CELLSTYLE_END
  0
XRECORD
  5
1AC7
102
{ACAD_REACTORS
330
1ABB
102
}
330
1ABB
100
AcDbXrecord
280
     1
102
ACAD_ROUNDTRIP_PRE2007_TABLESTYLE
 90
        4
 91
        0
  1

 92
        4
 93
        0
  2

 94
        4
 95
        0
  3

  0
XRECORD
  5
1AD6
102
{ACAD_REACTORS
330
1AD5
102
}
330
1AD5
100
AcDbXrecord
280
     1
102
RTVSPost2010Prop28
280
     1
102
RTVSPost2010PropOp28
 70
     1
102
RTVSPost2010Prop29
280
     1
102
RTVSPost2010PropOp29
 70
     1
102
RTVSPost2010Prop30
280
     0
102
RTVSPost2010PropOp30
 70
     1
102
RTVSPost2010Prop31
280
     0
102
RTVSPost2010PropOp31
 70
     1
102
RTVSPost2010Prop32
280
     0
102
RTVSPost2010PropOp32
 70
     1
102
RTVSPost2010Prop33
280
     0
102
RTVSPost2010PropOp33
 70
     1
102
RTVSPost2010Prop34
280
     0
102
RTVSPost2010PropOp34
 70
     1
102
RTVSPost2010Prop35
280
     0
102
RTVSPost2010PropOp35
 70
     1
102
RTVSPost2010Prop36
280
     0
102
RTVSPost2010PropOp36
 70
     1
102
RTVSPost2010Prop37
 90
       50
102
RTVSPost2010PropOp37
 70
     1
102
RTVSPost2010Prop38
140
0.0
102
RTVSPost2010PropOp38
 70
     1
102
RTVSPost2010Prop39
140
1.0
102
RTVSPost2010PropOp39
 70
     1
102
RTVSPost2010Prop40
 90
        0
102
RTVSPost2010PropOp40
 70
     1
102
RTVSPost2010Prop41ColorIndex
 90
       18
102
RTVSPost2010Prop41ColorRGB
 90
        0
102
RTVSPost2010PropOp41
 70
     1
102
RTVSPost2010Prop42
 90
       50
102
RTVSPost2010PropOp42
 70
     1
102
RTVSPost2010Prop43
 90
        3
102
RTVSPost2010PropOp43
 70
     1
102
RTVSPost2010Prop44ColorIndex
 90
        5
102
RTVSPost2010Prop44ColorRGB
 90
      255
102
RTVSPost2010PropOp44
 70
     1
102
RTVSPost2010Prop45
280
     0
102
RTVSPost2010PropOp45
 70
     1
102
RTVSPost2010Prop46
 90
       50
102
RTVSPost2010PropOp46
 70
     1
102
RTVSPost2010Prop47
 90
       50
102
RTVSPost2010PropOp47
 70
     1
102
RTVSPost2010Prop48
 90
       50
102
RTVSPost2010PropOp48
 70
     1
102
RTVSPost2010Prop49
280
     0
102
RTVSPost2010PropOp49
 70
     1
102
RTVSPost2010Prop50
 90
       50
102
RTVSPost2010PropOp50
 70
     1
102
RTVSPost2010Prop51ColorIndex
 90
      256
102
RTVSPost2010Prop51ColorRGB
 90
-16777216
102
RTVSPost2010PropOp51
 70
     0
102
RTVSPost2010Prop52
140
1.0
102
RTVSPost2010PropOp52
 70
     0
102
RTVSPost2010Prop53
 90
        2
102
RTVSPost2010PropOp53
 70
     1
102
RTVSPost2010Prop54
  1
strokes_ogs.tif
102
RTVSPost2010PropOp54
 70
     1
102
RTVSPost2010Prop55
280
     0
102
RTVSPost2010PropOp55
 70
     1
102
RTVSPost2010Prop56
140
1.0
102
RTVSPost2010PropOp56
 70
     1
102
RTVSPost2010Prop57
140
1.0
102
RTVSPost2010PropOp57
 70
     1
102
RTVSPropertyOp0
 70
     1
102
RTVSPropertyOp1
 70
     1
102
RTVSPropertyOp2
 70
     1
102
RTVSPropertyOp3
 70
     1
102
RTVSPropertyOp4
 70
     1
102
RTVSPropertyOp5
 70
     1
102
RTVSPropertyOp6
 70
     1
102
RTVSPropertyOp7
 70
     1
102
RTVSPropertyOp8
 70
     1
102
RTVSPropertyOp9
 70
     1
102
RTVSPropertyOp10
 70
     1
102
RTVSPropertyOp11
 70
     1
102
RTVSPropertyOp12
 70
     1
102
RTVSPropertyOp13
 70
     1
102
RTVSPropertyOp14
 70
     1
102
RTVSPropertyOp15
 70
     1
102
RTVSPropertyOp16
 70
     1
102
RTVSPropertyOp17
 70
     1
102
RTVSPropertyOp18
 70
     1
102
RTVSPropertyOp19
 70
     1
102
RTVSPropertyOp20
 70
     1
102
RTVSPropertyOp21
 70
     1
102
RTVSPropertyOp22
 70
     1
102
RTVSPropertyOp23
 70
     1
102
RTVSPropertyOp24
 70
     1
102
RTVSPropertyOp25
 70
     1
102
RTVSPropertyOp26
 70
     1
102
RTVSPropertyOp27
 70
     1
102
RTVSPropertyOp28
 70
     1
102
RTVSPropertyOp29
 70
     1
102
RTVSPropertyOp30
 70
     1
102
RTVSPropertyOp31
 70
     1
102
RTVSPropertyOp32
 70
     1
102
RTVSPropertyOp33
 70
     1
102
RTVSPropertyOp34
 70
     1
102
RTVSPropertyOp35
 70
     1
102
RTVSPropertyOp36
 70
     1
102
RTVSPropertyOp37
 70
     1
102
RTVSPropertyOp38
 70
     1
102
RTVSPropertyOp39
 70
     1
102
RTVSPropertyOp40
 70
     1
102
RTVSPropertyOp41
 70
     1
102
RTVSPropertyOp42
 70
     1
102
RTVSPropertyOp43
 70
     1
102
RTVSPropertyOp44
 70
     1
102
RTVSPropertyOp45
 70
     1
102
RTVSPropertyOp46
 70
     1
102
RTVSPropertyOp47
 70
     1
102
RTVSPropertyOp48
 70
     1
102
RTVSPropertyOp49
 70
     1
102
RTVSPropertyOp50
 70
     1
102
RTVSPropertyOp51
 70
     0
102
RTVSPropertyOp52
 70
     0
102
RTVSPropertyOp53
 70
     1
102
RTVSPropertyOp54
 70
     1
102
RTVSPropertyOp55
 70
     1
102
RTVSPropertyOp56
 70
     1
102
RTVSPropertyOp57
 70
     1
102
RTVSPropertyOp58
 70
     1
102
RTVSPropertyOp59
 70
     1
102
RTVSPropertyOp60
 70
     1
102
RTVSPropertyOp61
 70
     1
102
RTVSPropertyOp62
 70
     1
  0
XRECORD
  5
1AD4
102
{ACAD_REACTORS
330
1AD3
102
}
330
1AD3
100
AcDbXrecord
280
     1
102
RTVSPost2010Prop28
280
     0
102
RTVSPost2010PropOp28
 70
     1
102
RTVSPost2010Prop29
280
     1
102
RTVSPost2010PropOp29
 70
     1
102
RTVSPost2010Prop30
280
     1
102
RTVSPost2010PropOp30
 70
     1
102
RTVSPost2010Prop31
280
     0
102
RTVSPost2010PropOp31
 70
     1
102
RTVSPost2010Prop32
280
     0
102
RTVSPost2010PropOp32
 70
     1
102
RTVSPost2010Prop33
280
     0
102
RTVSPost2010PropOp33
 70
     1
102
RTVSPost2010Prop34
280
     0
102
RTVSPost2010PropOp34
 70
     1
102
RTVSPost2010Prop35
280
     0
102
RTVSPost2010PropOp35
 70
     1
102
RTVSPost2010Prop36
280
     0
102
RTVSPost2010PropOp36
 70
     1
102
RTVSPost2010Prop37
 90
       50
102
RTVSPost2010PropOp37
 70
     1
102
RTVSPost2010Prop38
140
0.0
102
RTVSPost2010PropOp38
 70
     1
102
RTVSPost2010Prop39
140
1.0
102
RTVSPost2010PropOp39
 70
     1
102
RTVSPost2010Prop40
 90
        0
102
RTVSPost2010PropOp40
 70
     1
102
RTVSPost2010Prop41ColorIndex
 90
       18
102
RTVSPost2010Prop41ColorRGB
 90
        0
102
RTVSPost2010PropOp41
 70
     1
102
RTVSPost2010Prop42
 90
       50
102
RTVSPost2010PropOp42
 70
     1
102
RTVSPost2010Prop43
 90
        3
102
RTVSPost2010PropOp43
 70
     1
102
RTVSPost2010Prop44ColorIndex
 90
        5
102
RTVSPost2010Prop44ColorRGB
 90
      255
102
RTVSPost2010PropOp44
 70
     1
102
RTVSPost2010Prop45
280
     0
102
RTVSPost2010PropOp45
 70
     1
102
RTVSPost2010Prop46
 90
       50
102
RTVSPost2010PropOp46
 70
     1
102
RTVSPost2010Prop47
 90
       50
102
RTVSPost2010PropOp47
 70
     1
102
RTVSPost2010Prop48
 90
       50
102
RTVSPost2010PropOp48
 70
     1
102
RTVSPost2010Prop49
280
     0
102
RTVSPost2010PropOp49
 70
     1
102
RTVSPost2010Prop50
 90
       50
102
RTVSPost2010PropOp50
 70
     1
102
RTVSPost2010Prop51ColorIndex
 90
      256
102
RTVSPost2010Prop51ColorRGB
 90
-16777216
102
RTVSPost2010PropOp51
 70
     0
102
RTVSPost2010Prop52
140
1.0
102
RTVSPost2010PropOp52
 70
     0
102
RTVSPost2010Prop53
 90
        2
102
RTVSPost2010PropOp53
 70
     1
102
RTVSPost2010Prop54
  1
strokes_ogs.tif
102
RTVSPost2010PropOp54
 70
     1
102
RTVSPost2010Prop55
280
     0
102
RTVSPost2010PropOp55
 70
     1
102
RTVSPost2010Prop56
140
1.0
102
RTVSPost2010PropOp56
 70
     1
102
RTVSPost2010Prop57
140
1.0
102
RTVSPost2010PropOp57
 70
     1
102
RTVSPropertyOp0
 70
     1
102
RTVSPropertyOp1
 70
     1
102
RTVSPropertyOp2
 70
     1
102
RTVSPropertyOp3
 70
     1
102
RTVSPropertyOp4
 70
     1
102
RTVSPropertyOp5
 70
     1
102
RTVSPropertyOp6
 70
     1
102
RTVSPropertyOp7
 70
     1
102
RTVSPropertyOp8
 70
     1
102
RTVSPropertyOp9
 70
     1
102
RTVSPropertyOp10
 70
     1
102
RTVSPropertyOp11
 70
     1
102
RTVSPropertyOp12
 70
     1
102
RTVSPropertyOp13
 70
     1
102
RTVSPropertyOp14
 70
     1
102
RTVSPropertyOp15
 70
     1
102
RTVSPropertyOp16
 70
     1
102
RTVSPropertyOp17
 70
     1
102
RTVSPropertyOp18
 70
     1
102
RTVSPropertyOp19
 70
     1
102
RTVSPropertyOp20
 70
     1
102
RTVSPropertyOp21
 70
     1
102
RTVSPropertyOp22
 70
     1
102
RTVSPropertyOp23
 70
     1
102
RTVSPropertyOp24
 70
     1
102
RTVSPropertyOp25
 70
     1
102
RTVSPropertyOp26
 70
     1
102
RTVSPropertyOp27
 70
     1
102
RTVSPropertyOp28
 70
     1
102
RTVSPropertyOp29
 70
     1
102
RTVSPropertyOp30
 70
     1
102
RTVSPropertyOp31
 70
     1
102
RTVSPropertyOp32
 70
     1
102
RTVSPropertyOp33
 70
     1
102
RTVSPropertyOp34
 70
     1
102
RTVSPropertyOp35
 70
     1
102
RTVSPropertyOp36
 70
     1
102
RTVSPropertyOp37
 70
     1
102
RTVSPropertyOp38
 70
     1
102
RTVSPropertyOp39
 70
     1
102
RTVSPropertyOp40
 70
     1
102
RTVSPropertyOp41
 70
     1
102
RTVSPropertyOp42
 70
     1
102
RTVSPropertyOp43
 70
     1
102
RTVSPropertyOp44
 70
     1
102
RTVSPropertyOp45
 70
     1
102
RTVSPropertyOp46
 70
     1
102
RTVSPropertyOp47
 70
     1
102
RTVSPropertyOp48
 70
     1
102
RTVSPropertyOp49
 70
     1
102
RTVSPropertyOp50
 70
     1
102
RTVSPropertyOp51
 70
     0
102
RTVSPropertyOp52
 70
     0
102
RTVSPropertyOp53
 70
     1
102
RTVSPropertyOp54
 70
     1
102
RTVSPropertyOp55
 70
     1
102
RTVSPropertyOp56
 70
     1
102
RTVSPropertyOp57
 70
     1
102
RTVSPropertyOp58
 70
     1
102
RTVSPropertyOp59
 70
     1
102
RTVSPropertyOp60
 70
     1
102
RTVSPropertyOp61
 70
     1
102
RTVSPropertyOp62
 70
     1
  0
XRECORD
  5
1AE2
102
{ACAD_REACTORS
330
1AE1
102
}
330
1AE1
100
AcDbXrecord
280
     1
102
RTVSPost2010Prop28
280
     0
102
RTVSPost2010PropOp28
 70
     1
102
RTVSPost2010Prop29
280
     1
102
RTVSPost2010PropOp29
 70
     1
102
RTVSPost2010Prop30
280
     1
102
RTVSPost2010PropOp30
 70
     1
102
RTVSPost2010Prop31
280
     0
102
RTVSPost2010PropOp31
 70
     1
102
RTVSPost2010Prop32
280
     0
102
RTVSPost2010PropOp32
 70
     1
102
RTVSPost2010Prop33
280
     0
102
RTVSPost2010PropOp33
 70
     1
102
RTVSPost2010Prop34
280
     0
102
RTVSPost2010PropOp34
 70
     1
102
RTVSPost2010Prop35
280
     0
102
RTVSPost2010PropOp35
 70
     1
102
RTVSPost2010Prop36
280
     0
102
RTVSPost2010PropOp36
 70
     1
102
RTVSPost2010Prop37
 90
       50
102
RTVSPost2010PropOp37
 70
     1
102
RTVSPost2010Prop38
140
0.0
102
RTVSPost2010PropOp38
 70
     1
102
RTVSPost2010Prop39
140
1.0
102
RTVSPost2010PropOp39
 70
     1
102
RTVSPost2010Prop40
 90
        0
102
RTVSPost2010PropOp40
 70
     1
102
RTVSPost2010Prop41ColorIndex
 90
       18
102
RTVSPost2010Prop41ColorRGB
 90
        0
102
RTVSPost2010PropOp41
 70
     1
102
RTVSPost2010Prop42
 90
       50
102
RTVSPost2010PropOp42
 70
     1
102
RTVSPost2010Prop43
 90
        3
102
RTVSPost2010PropOp43
 70
     1
102
RTVSPost2010Prop44ColorIndex
 90
        5
102
RTVSPost2010Prop44ColorRGB
 90
      255
102
RTVSPost2010PropOp44
 70
     1
102
RTVSPost2010Prop45
280
     0
102
RTVSPost2010PropOp45
 70
     1
102
RTVSPost2010Prop46
 90
       50
102
RTVSPost2010PropOp46
 70
     1
102
RTVSPost2010Prop47
 90
       50
102
RTVSPost2010PropOp47
 70
     1
102
RTVSPost2010Prop48
 90
       50
102
RTVSPost2010PropOp48
 70
     1
102
RTVSPost2010Prop49
280
     0
102
RTVSPost2010PropOp49
 70
     1
102
RTVSPost2010Prop50
 90
       50
102
RTVSPost2010PropOp50
 70
     1
102
RTVSPost2010Prop51ColorIndex
 90
      256
102
RTVSPost2010Prop51ColorRGB
 90
-16777216
102
RTVSPost2010PropOp51
 70
     0
102
RTVSPost2010Prop52
140
1.0
102
RTVSPost2010PropOp52
 70
     0
102
RTVSPost2010Prop53
 90
        2
102
RTVSPost2010PropOp53
 70
     1
102
RTVSPost2010Prop54
  1
strokes_ogs.tif
102
RTVSPost2010PropOp54
 70
     1
102
RTVSPost2010Prop55
280
     0
102
RTVSPost2010PropOp55
 70
     1
102
RTVSPost2010Prop56
140
1.0
102
RTVSPost2010PropOp56
 70
     1
102
RTVSPost2010Prop57
140
1.0
102
RTVSPost2010PropOp57
 70
     1
102
RTVSPropertyOp0
 70
     1
102
RTVSPropertyOp1
 70
     1
102
RTVSPropertyOp2
 70
     1
102
RTVSPropertyOp3
 70
     1
102
RTVSPropertyOp4
 70
     1
102
RTVSPropertyOp5
 70
     1
102
RTVSPropertyOp6
 70
     1
102
RTVSPropertyOp7
 70
     1
102
RTVSPropertyOp8
 70
     1
102
RTVSPropertyOp9
 70
     1
102
RTVSPropertyOp10
 70
     1
102
RTVSPropertyOp11
 70
     1
102
RTVSPropertyOp12
 70
     1
102
RTVSPropertyOp13
 70
     1
102
RTVSPropertyOp14
 70
     1
102
RTVSPropertyOp15
 70
     1
102
RTVSPropertyOp16
 70
     1
102
RTVSPropertyOp17
 70
     1
102
RTVSPropertyOp18
 70
     1
102
RTVSPropertyOp19
 70
     1
102
RTVSPropertyOp20
 70
     1
102
RTVSPropertyOp21
 70
     1
102
RTVSPropertyOp22
 70
     1
102
RTVSPropertyOp23
 70
     1
102
RTVSPropertyOp24
 70
     1
102
RTVSPropertyOp25
 70
     1
102
RTVSPropertyOp26
 70
     1
102
RTVSPropertyOp27
 70
     1
102
RTVSPropertyOp28
 70
     1
102
RTVSPropertyOp29
 70
     1
102
RTVSPropertyOp30
 70
     1
102
RTVSPropertyOp31
 70
     1
102
RTVSPropertyOp32
 70
     1
102
RTVSPropertyOp33
 70
     1
102
RTVSPropertyOp34
 70
     1
102
RTVSPropertyOp35
 70
     1
102
RTVSPropertyOp36
 70
     1
102
RTVSPropertyOp37
 70
     1
102
RTVSPropertyOp38
 70
     1
102
RTVSPropertyOp39
 70
     1
102
RTVSPropertyOp40
 70
     1
102
RTVSPropertyOp41
 70
     1
102
RTVSPropertyOp42
 70
     1
102
RTVSPropertyOp43
 70
     1
102
RTVSPropertyOp44
 70
     1
102
RTVSPropertyOp45
 70
     1
102
RTVSPropertyOp46
 70
     1
102
RTVSPropertyOp47
 70
     1
102
RTVSPropertyOp48
 70
     1
102
RTVSPropertyOp49
 70
     1
102
RTVSPropertyOp50
 70
     1
102
RTVSPropertyOp51
 70
     0
102
RTVSPropertyOp52
 70
     0
102
RTVSPropertyOp53
 70
     1
102
RTVSPropertyOp54
 70
     1
102
RTVSPropertyOp55
 70
     1
102
RTVSPropertyOp56
 70
     1
102
RTVSPropertyOp57
 70
     1
102
RTVSPropertyOp58
 70
     1
102
RTVSPropertyOp59
 70
     1
102
RTVSPropertyOp60
 70
     1
102
RTVSPropertyOp61
 70
     1
102
RTVSPropertyOp62
 70
     1
  0
XRECORD
  5
1AEA
102
{ACAD_REACTORS
330
1AE9
102
}
330
1AE9
100
AcDbXrecord
280
     1
102
RTVSPost2010Prop28
280
     0
102
RTVSPost2010PropOp28
 70
     1
102
RTVSPost2010Prop29
280
     1
102
RTVSPost2010PropOp29
 70
     1
102
RTVSPost2010Prop30
280
     1
102
RTVSPost2010PropOp30
 70
     1
102
RTVSPost2010Prop31
280
     0
102
RTVSPost2010PropOp31
 70
     1
102
RTVSPost2010Prop32
280
     0
102
RTVSPost2010PropOp32
 70
     1
102
RTVSPost2010Prop33
280
     0
102
RTVSPost2010PropOp33
 70
     1
102
RTVSPost2010Prop34
280
     0
102
RTVSPost2010PropOp34
 70
     1
102
RTVSPost2010Prop35
280
     0
102
RTVSPost2010PropOp35
 70
     1
102
RTVSPost2010Prop36
280
     0
102
RTVSPost2010PropOp36
 70
     1
102
RTVSPost2010Prop37
 90
       50
102
RTVSPost2010PropOp37
 70
     1
102
RTVSPost2010Prop38
140
0.0
102
RTVSPost2010PropOp38
 70
     1
102
RTVSPost2010Prop39
140
1.0
102
RTVSPost2010PropOp39
 70
     1
102
RTVSPost2010Prop40
 90
        0
102
RTVSPost2010PropOp40
 70
     1
102
RTVSPost2010Prop41ColorIndex
 90
       18
102
RTVSPost2010Prop41ColorRGB
 90
        0
102
RTVSPost2010PropOp41
 70
     1
102
RTVSPost2010Prop42
 90
       50
102
RTVSPost2010PropOp42
 70
     1
102
RTVSPost2010Prop43
 90
        3
102
RTVSPost2010PropOp43
 70
     1
102
RTVSPost2010Prop44ColorIndex
 90
        5
102
RTVSPost2010Prop44ColorRGB
 90
      255
102
RTVSPost2010PropOp44
 70
     1
102
RTVSPost2010Prop45
280
     0
102
RTVSPost2010PropOp45
 70
     1
102
RTVSPost2010Prop46
 90
       50
102
RTVSPost2010PropOp46
 70
     1
102
RTVSPost2010Prop47
 90
       50
102
RTVSPost2010PropOp47
 70
     1
102
RTVSPost2010Prop48
 90
       50
102
RTVSPost2010PropOp48
 70
     1
102
RTVSPost2010Prop49
280
     0
102
RTVSPost2010PropOp49
 70
     1
102
RTVSPost2010Prop50
 90
       50
102
RTVSPost2010PropOp50
 70
     1
102
RTVSPost2010Prop51ColorIndex
 90
      256
102
RTVSPost2010Prop51ColorRGB
 90
-16777216
102
RTVSPost2010PropOp51
 70
     0
102
RTVSPost2010Prop52
140
1.0
102
RTVSPost2010PropOp52
 70
     0
102
RTVSPost2010Prop53
 90
        2
102
RTVSPost2010PropOp53
 70
     1
102
RTVSPost2010Prop54
  1
strokes_ogs.tif
102
RTVSPost2010PropOp54
 70
     1
102
RTVSPost2010Prop55
280
     0
102
RTVSPost2010PropOp55
 70
     1
102
RTVSPost2010Prop56
140
1.0
102
RTVSPost2010PropOp56
 70
     1
102
RTVSPost2010Prop57
140
1.0
102
RTVSPost2010PropOp57
 70
     1
102
RTVSPropertyOp0
 70
     1
102
RTVSPropertyOp1
 70
     1
102
RTVSPropertyOp2
 70
     1
102
RTVSPropertyOp3
 70
     1
102
RTVSPropertyOp4
 70
     1
102
RTVSPropertyOp5
 70
     1
102
RTVSPropertyOp6
 70
     1
102
RTVSPropertyOp7
 70
     1
102
RTVSPropertyOp8
 70
     1
102
RTVSPropertyOp9
 70
     1
102
RTVSPropertyOp10
 70
     1
102
RTVSPropertyOp11
 70
     1
102
RTVSPropertyOp12
 70
     1
102
RTVSPropertyOp13
 70
     1
102
RTVSPropertyOp14
 70
     1
102
RTVSPropertyOp15
 70
     1
102
RTVSPropertyOp16
 70
     1
102
RTVSPropertyOp17
 70
     1
102
RTVSPropertyOp18
 70
     1
102
RTVSPropertyOp19
 70
     1
102
RTVSPropertyOp20
 70
     1
102
RTVSPropertyOp21
 70
     1
102
RTVSPropertyOp22
 70
     1
102
RTVSPropertyOp23
 70
     1
102
RTVSPropertyOp24
 70
     1
102
RTVSPropertyOp25
 70
     1
102
RTVSPropertyOp26
 70
     1
102
RTVSPropertyOp27
 70
     1
102
RTVSPropertyOp28
 70
     1
102
RTVSPropertyOp29
 70
     1
102
RTVSPropertyOp30
 70
     1
102
RTVSPropertyOp31
 70
     1
102
RTVSPropertyOp32
 70
     1
102
RTVSPropertyOp33
 70
     1
102
RTVSPropertyOp34
 70
     1
102
RTVSPropertyOp35
 70
     1
102
RTVSPropertyOp36
 70
     1
102
RTVSPropertyOp37
 70
     1
102
RTVSPropertyOp38
 70
     1
102
RTVSPropertyOp39
 70
     1
102
RTVSPropertyOp40
 70
     1
102
RTVSPropertyOp41
 70
     1
102
RTVSPropertyOp42
 70
     1
102
RTVSPropertyOp43
 70
     1
102
RTVSPropertyOp44
 70
     1
102
RTVSPropertyOp45
 70
     1
102
RTVSPropertyOp46
 70
     1
102
RTVSPropertyOp47
 70
     1
102
RTVSPropertyOp48
 70
     1
102
RTVSPropertyOp49
 70
     1
102
RTVSPropertyOp50
 70
     1
102
RTVSPropertyOp51
 70
     0
102
RTVSPropertyOp52
 70
     0
102
RTVSPropertyOp53
 70
     1
102
RTVSPropertyOp54
 70
     1
102
RTVSPropertyOp55
 70
     1
102
RTVSPropertyOp56
 70
     1
102
RTVSPropertyOp57
 70
     1
102
RTVSPropertyOp58
 70
     1
102
RTVSPropertyOp59
 70
     1
102
RTVSPropertyOp60
 70
     1
102
RTVSPropertyOp61
 70
     1
102
RTVSPropertyOp62
 70
     1
  0
XRECORD
  5
1ADC
102
{ACAD_REACTORS
330
1ADB
102
}
330
1ADB
100
AcDbXrecord
280
     1
102
RTVSPost2010Prop28
280
     0
102
RTVSPost2010PropOp28
 70
     1
102
RTVSPost2010Prop29
280
     1
102
RTVSPost2010PropOp29
 70
     1
102
RTVSPost2010Prop30
280
     1
102
RTVSPost2010PropOp30
 70
     1
102
RTVSPost2010Prop31
280
     0
102
RTVSPost2010PropOp31
 70
     1
102
RTVSPost2010Prop32
280
     0
102
RTVSPost2010PropOp32
 70
     1
102
RTVSPost2010Prop33
280
     0
102
RTVSPost2010PropOp33
 70
     1
102
RTVSPost2010Prop34
280
     0
102
RTVSPost2010PropOp34
 70
     1
102
RTVSPost2010Prop35
280
     0
102
RTVSPost2010PropOp35
 70
     1
102
RTVSPost2010Prop36
280
     0
102
RTVSPost2010PropOp36
 70
     1
102
RTVSPost2010Prop37
 90
       50
102
RTVSPost2010PropOp37
 70
     1
102
RTVSPost2010Prop38
140
0.0
102
RTVSPost2010PropOp38
 70
     1
102
RTVSPost2010Prop39
140
1.0
102
RTVSPost2010PropOp39
 70
     1
102
RTVSPost2010Prop40
 90
        0
102
RTVSPost2010PropOp40
 70
     1
102
RTVSPost2010Prop41ColorIndex
 90
       18
102
RTVSPost2010Prop41ColorRGB
 90
        0
102
RTVSPost2010PropOp41
 70
     1
102
RTVSPost2010Prop42
 90
       50
102
RTVSPost2010PropOp42
 70
     1
102
RTVSPost2010Prop43
 90
        3
102
RTVSPost2010PropOp43
 70
     1
102
RTVSPost2010Prop44ColorIndex
 90
        5
102
RTVSPost2010Prop44ColorRGB
 90
      255
102
RTVSPost2010PropOp44
 70
     1
102
RTVSPost2010Prop45
280
     0
102
RTVSPost2010PropOp45
 70
     1
102
RTVSPost2010Prop46
 90
       50
102
RTVSPost2010PropOp46
 70
     1
102
RTVSPost2010Prop47
 90
       50
102
RTVSPost2010PropOp47
 70
     1
102
RTVSPost2010Prop48
 90
       50
102
RTVSPost2010PropOp48
 70
     1
102
RTVSPost2010Prop49
280
     0
102
RTVSPost2010PropOp49
 70
     1
102
RTVSPost2010Prop50
 90
       50
102
RTVSPost2010PropOp50
 70
     1
102
RTVSPost2010Prop51ColorIndex
 90
      256
102
RTVSPost2010Prop51ColorRGB
 90
-16777216
102
RTVSPost2010PropOp51
 70
     0
102
RTVSPost2010Prop52
140
1.0
102
RTVSPost2010PropOp52
 70
     0
102
RTVSPost2010Prop53
 90
        2
102
RTVSPost2010PropOp53
 70
     1
102
RTVSPost2010Prop54
  1
strokes_ogs.tif
102
RTVSPost2010PropOp54
 70
     1
102
RTVSPost2010Prop55
280
     0
102
RTVSPost2010PropOp55
 70
     1
102
RTVSPost2010Prop56
140
1.0
102
RTVSPost2010PropOp56
 70
     1
102
RTVSPost2010Prop57
140
1.0
102
RTVSPost2010PropOp57
 70
     1
102
RTVSPropertyOp0
 70
     1
102
RTVSPropertyOp1
 70
     1
102
RTVSPropertyOp2
 70
     1
102
RTVSPropertyOp3
 70
     1
102
RTVSPropertyOp4
 70
     1
102
RTVSPropertyOp5
 70
     1
102
RTVSPropertyOp6
 70
     1
102
RTVSPropertyOp7
 70
     1
102
RTVSPropertyOp8
 70
     1
102
RTVSPropertyOp9
 70
     1
102
RTVSPropertyOp10
 70
     1
102
RTVSPropertyOp11
 70
     1
102
RTVSPropertyOp12
 70
     1
102
RTVSPropertyOp13
 70
     1
102
RTVSPropertyOp14
 70
     1
102
RTVSPropertyOp15
 70
     1
102
RTVSPropertyOp16
 70
     1
102
RTVSPropertyOp17
 70
     1
102
RTVSPropertyOp18
 70
     1
102
RTVSPropertyOp19
 70
     1
102
RTVSPropertyOp20
 70
     1
102
RTVSPropertyOp21
 70
     1
102
RTVSPropertyOp22
 70
     1
102
RTVSPropertyOp23
 70
     1
102
RTVSPropertyOp24
 70
     1
102
RTVSPropertyOp25
 70
     1
102
RTVSPropertyOp26
 70
     1
102
RTVSPropertyOp27
 70
     1
102
RTVSPropertyOp28
 70
     1
102
RTVSPropertyOp29
 70
     1
102
RTVSPropertyOp30
 70
     1
102
RTVSPropertyOp31
 70
     1
102
RTVSPropertyOp32
 70
     1
102
RTVSPropertyOp33
 70
     1
102
RTVSPropertyOp34
 70
     1
102
RTVSPropertyOp35
 70
     1
102
RTVSPropertyOp36
 70
     1
102
RTVSPropertyOp37
 70
     1
102
RTVSPropertyOp38
 70
     1
102
RTVSPropertyOp39
 70
     1
102
RTVSPropertyOp40
 70
     1
102
RTVSPropertyOp41
 70
     1
102
RTVSPropertyOp42
 70
     1
102
RTVSPropertyOp43
 70
     1
102
RTVSPropertyOp44
 70
     1
102
RTVSPropertyOp45
 70
     1
102
RTVSPropertyOp46
 70
     1
102
RTVSPropertyOp47
 70
     1
102
RTVSPropertyOp48
 70
     1
102
RTVSPropertyOp49
 70
     1
102
RTVSPropertyOp50
 70
     1
102
RTVSPropertyOp51
 70
     0
102
RTVSPropertyOp52
 70
     0
102
RTVSPropertyOp53
 70
     1
102
RTVSPropertyOp54
 70
     1
102
RTVSPropertyOp55
 70
     1
102
RTVSPropertyOp56
 70
     1
102
RTVSPropertyOp57
 70
     1
102
RTVSPropertyOp58
 70
     1
102
RTVSPropertyOp59
 70
     1
102
RTVSPropertyOp60
 70
     1
102
RTVSPropertyOp61
 70
     1
102
RTVSPropertyOp62
 70
     1
  0
XRECORD
  5
1AE0
102
{ACAD_REACTORS
330
1ADF
102
}
330
1ADF
100
AcDbXrecord
280
     1
102
RTVSPost2010Prop28
280
     0
102
RTVSPost2010PropOp28
 70
     1
102
RTVSPost2010Prop29
280
     1
102
RTVSPost2010PropOp29
 70
     1
102
RTVSPost2010Prop30
280
     1
102
RTVSPost2010PropOp30
 70
     1
102
RTVSPost2010Prop31
280
     0
102
RTVSPost2010PropOp31
 70
     1
102
RTVSPost2010Prop32
280
     0
102
RTVSPost2010PropOp32
 70
     1
102
RTVSPost2010Prop33
280
     0
102
RTVSPost2010PropOp33
 70
     1
102
RTVSPost2010Prop34
280
     0
102
RTVSPost2010PropOp34
 70
     1
102
RTVSPost2010Prop35
280
     0
102
RTVSPost2010PropOp35
 70
     1
102
RTVSPost2010Prop36
280
     0
102
RTVSPost2010PropOp36
 70
     1
102
RTVSPost2010Prop37
 90
       50
102
RTVSPost2010PropOp37
 70
     1
102
RTVSPost2010Prop38
140
0.0
102
RTVSPost2010PropOp38
 70
     1
102
RTVSPost2010Prop39
140
1.0
102
RTVSPost2010PropOp39
 70
     1
102
RTVSPost2010Prop40
 90
        0
102
RTVSPost2010PropOp40
 70
     1
102
RTVSPost2010Prop41ColorIndex
 90
       18
102
RTVSPost2010Prop41ColorRGB
 90
        0
102
RTVSPost2010PropOp41
 70
     1
102
RTVSPost2010Prop42
 90
       50
102
RTVSPost2010PropOp42
 70
     1
102
RTVSPost2010Prop43
 90
        3
102
RTVSPost2010PropOp43
 70
     1
102
RTVSPost2010Prop44ColorIndex
 90
        5
102
RTVSPost2010Prop44ColorRGB
 90
      255
102
RTVSPost2010PropOp44
 70
     1
102
RTVSPost2010Prop45
280
     0
102
RTVSPost2010PropOp45
 70
     1
102
RTVSPost2010Prop46
 90
       50
102
RTVSPost2010PropOp46
 70
     1
102
RTVSPost2010Prop47
 90
       50
102
RTVSPost2010PropOp47
 70
     1
102
RTVSPost2010Prop48
 90
       50
102
RTVSPost2010PropOp48
 70
     1
102
RTVSPost2010Prop49
280
     0
102
RTVSPost2010PropOp49
 70
     1
102
RTVSPost2010Prop50
 90
       50
102
RTVSPost2010PropOp50
 70
     1
102
RTVSPost2010Prop51ColorIndex
 90
      256
102
RTVSPost2010Prop51ColorRGB
 90
-16777216
102
RTVSPost2010PropOp51
 70
     0
102
RTVSPost2010Prop52
140
1.0
102
RTVSPost2010PropOp52
 70
     0
102
RTVSPost2010Prop53
 90
        2
102
RTVSPost2010PropOp53
 70
     1
102
RTVSPost2010Prop54
  1
strokes_ogs.tif
102
RTVSPost2010PropOp54
 70
     1
102
RTVSPost2010Prop55
280
     0
102
RTVSPost2010PropOp55
 70
     1
102
RTVSPost2010Prop56
140
1.0
102
RTVSPost2010PropOp56
 70
     1
102
RTVSPost2010Prop57
140
1.0
102
RTVSPost2010PropOp57
 70
     1
102
RTVSPropertyOp0
 70
     1
102
RTVSPropertyOp1
 70
     1
102
RTVSPropertyOp2
 70
     1
102
RTVSPropertyOp3
 70
     1
102
RTVSPropertyOp4
 70
     1
102
RTVSPropertyOp5
 70
     1
102
RTVSPropertyOp6
 70
     1
102
RTVSPropertyOp7
 70
     1
102
RTVSPropertyOp8
 70
     1
102
RTVSPropertyOp9
 70
     1
102
RTVSPropertyOp10
 70
     1
102
RTVSPropertyOp11
 70
     1
102
RTVSPropertyOp12
 70
     1
102
RTVSPropertyOp13
 70
     1
102
RTVSPropertyOp14
 70
     1
102
RTVSPropertyOp15
 70
     1
102
RTVSPropertyOp16
 70
     1
102
RTVSPropertyOp17
 70
     1
102
RTVSPropertyOp18
 70
     1
102
RTVSPropertyOp19
 70
     1
102
RTVSPropertyOp20
 70
     1
102
RTVSPropertyOp21
 70
     1
102
RTVSPropertyOp22
 70
     1
102
RTVSPropertyOp23
 70
     1
102
RTVSPropertyOp24
 70
     1
102
RTVSPropertyOp25
 70
     1
102
RTVSPropertyOp26
 70
     1
102
RTVSPropertyOp27
 70
     1
102
RTVSPropertyOp28
 70
     1
102
RTVSPropertyOp29
 70
     1
102
RTVSPropertyOp30
 70
     1
102
RTVSPropertyOp31
 70
     1
102
RTVSPropertyOp32
 70
     1
102
RTVSPropertyOp33
 70
     1
102
RTVSPropertyOp34
 70
     1
102
RTVSPropertyOp35
 70
     1
102
RTVSPropertyOp36
 70
     1
102
RTVSPropertyOp37
 70
     1
102
RTVSPropertyOp38
 70
     1
102
RTVSPropertyOp39
 70
     1
102
RTVSPropertyOp40
 70
     1
102
RTVSPropertyOp41
 70
     1
102
RTVSPropertyOp42
 70
     1
102
RTVSPropertyOp43
 70
     1
102
RTVSPropertyOp44
 70
     1
102
RTVSPropertyOp45
 70
     1
102
RTVSPropertyOp46
 70
     1
102
RTVSPropertyOp47
 70
     1
102
RTVSPropertyOp48
 70
     1
102
RTVSPropertyOp49
 70
     1
102
RTVSPropertyOp50
 70
     1
102
RTVSPropertyOp51
 70
     0
102
RTVSPropertyOp52
 70
     0
102
RTVSPropertyOp53
 70
     1
102
RTVSPropertyOp54
 70
     1
102
RTVSPropertyOp55
 70
     1
102
RTVSPropertyOp56
 70
     1
102
RTVSPropertyOp57
 70
     1
102
RTVSPropertyOp58
 70
     1
102
RTVSPropertyOp59
 70
     1
102
RTVSPropertyOp60
 70
     1
102
RTVSPropertyOp61
 70
     1
102
RTVSPropertyOp62
 70
     1
  0
XRECORD
  5
1AFA
102
{ACAD_REACTORS
330
1AF9
102
}
330
1AF9
100
AcDbXrecord
280
     1
102
RTVSPost2010Prop28
280
     0
102
RTVSPost2010PropOp28
 70
     0
102
RTVSPost2010Prop29
280
     1
102
RTVSPost2010PropOp29
 70
     0
102
RTVSPost2010Prop30
280
     1
102
RTVSPost2010PropOp30
 70
     0
102
RTVSPost2010Prop31
280
     0
102
RTVSPost2010PropOp31
 70
     0
102
RTVSPost2010Prop32
280
     0
102
RTVSPost2010PropOp32
 70
     0
102
RTVSPost2010Prop33
280
     0
102
RTVSPost2010PropOp33
 70
     0
102
RTVSPost2010Prop34
280
     0
102
RTVSPost2010PropOp34
 70
     0
102
RTVSPost2010Prop35
280
     0
102
RTVSPost2010PropOp35
 70
     0
102
RTVSPost2010Prop36
280
     0
102
RTVSPost2010PropOp36
 70
     0
102
RTVSPost2010Prop37
 90
       50
102
RTVSPost2010PropOp37
 70
     0
102
RTVSPost2010Prop38
140
0.0
102
RTVSPost2010PropOp38
 70
     0
102
RTVSPost2010Prop39
140
1.0
102
RTVSPost2010PropOp39
 70
     0
102
RTVSPost2010Prop40
 90
        0
102
RTVSPost2010PropOp40
 70
     0
102
RTVSPost2010Prop41ColorIndex
 90
       18
102
RTVSPost2010Prop41ColorRGB
 90
        0
102
RTVSPost2010PropOp41
 70
     0
102
RTVSPost2010Prop42
 90
       50
102
RTVSPost2010PropOp42
 70
     0
102
RTVSPost2010Prop43
 90
        3
102
RTVSPost2010PropOp43
 70
     0
102
RTVSPost2010Prop44ColorIndex
 90
        5
102
RTVSPost2010Prop44ColorRGB
 90
      255
102
RTVSPost2010PropOp44
 70
     0
102
RTVSPost2010Prop45
280
     0
102
RTVSPost2010PropOp45
 70
     0
102
RTVSPost2010Prop46
 90
       50
102
RTVSPost2010PropOp46
 70
     0
102
RTVSPost2010Prop47
 90
       50
102
RTVSPost2010PropOp47
 70
     0
102
RTVSPost2010Prop48
 90
       50
102
RTVSPost2010PropOp48
 70
     0
102
RTVSPost2010Prop49
280
     0
102
RTVSPost2010PropOp49
 70
     0
102
RTVSPost2010Prop50
 90
       50
102
RTVSPost2010PropOp50
 70
     0
102
RTVSPost2010Prop51ColorIndex
 90
      256
102
RTVSPost2010Prop51ColorRGB
 90
-16777216
102
RTVSPost2010PropOp51
 70
     0
102
RTVSPost2010Prop52
140
1.0
102
RTVSPost2010PropOp52
 70
     0
102
RTVSPost2010Prop53
 90
        2
102
RTVSPost2010PropOp53
 70
     0
102
RTVSPost2010Prop54
  1
strokes_ogs.tif
102
RTVSPost2010PropOp54
 70
     0
102
RTVSPost2010Prop55
280
     0
102
RTVSPost2010PropOp55
 70
     0
102
RTVSPost2010Prop56
140
1.0
102
RTVSPost2010PropOp56
 70
     0
102
RTVSPost2010Prop57
140
1.0
102
RTVSPost2010PropOp57
 70
     0
102
RTVSPropertyOp0
 70
     0
102
RTVSPropertyOp1
 70
     0
102
RTVSPropertyOp2
 70
     0
102
RTVSPropertyOp3
 70
     0
102
RTVSPropertyOp4
 70
     0
102
RTVSPropertyOp5
 70
     0
102
RTVSPropertyOp6
 70
     0
102
RTVSPropertyOp7
 70
     0
102
RTVSPropertyOp8
 70
     0
102
RTVSPropertyOp9
 70
     0
102
RTVSPropertyOp10
 70
     0
102
RTVSPropertyOp11
 70
     0
102
RTVSPropertyOp12
 70
     0
102
RTVSPropertyOp13
 70
     0
102
RTVSPropertyOp14
 70
     2
102
RTVSPropertyOp15
 70
     0
102
RTVSPropertyOp16
 70
     0
102
RTVSPropertyOp17
 70
     0
102
RTVSPropertyOp18
 70
     0
102
RTVSPropertyOp19
 70
     0
102
RTVSPropertyOp20
 70
     0
102
RTVSPropertyOp21
 70
     0
102
RTVSPropertyOp22
 70
     0
102
RTVSPropertyOp23
 70
     0
102
RTVSPropertyOp24
 70
     0
102
RTVSPropertyOp25
 70
     0
102
RTVSPropertyOp26
 70
     0
102
RTVSPropertyOp27
 70
     0
102
RTVSPropertyOp28
 70
     0
102
RTVSPropertyOp29
 70
     0
102
RTVSPropertyOp30
 70
     0
102
RTVSPropertyOp31
 70
     0
102
RTVSPropertyOp32
 70
     0
102
RTVSPropertyOp33
 70
     0
102
RTVSPropertyOp34
 70
     0
102
RTVSPropertyOp35
 70
     0
102
RTVSPropertyOp36
 70
     0
102
RTVSPropertyOp37
 70
     0
102
RTVSPropertyOp38
 70
     0
102
RTVSPropertyOp39
 70
     0
102
RTVSPropertyOp40
 70
     0
102
RTVSPropertyOp41
 70
     0
102
RTVSPropertyOp42
 70
     0
102
RTVSPropertyOp43
 70
     0
102
RTVSPropertyOp44
 70
     0
102
RTVSPropertyOp45
 70
     0
102
RTVSPropertyOp46
 70
     0
102
RTVSPropertyOp47
 70
     0
102
RTVSPropertyOp48
 70
     0
102
RTVSPropertyOp49
 70
     0
102
RTVSPropertyOp50
 70
     0
102
RTVSPropertyOp51
 70
     0
102
RTVSPropertyOp52
 70
     0
102
RTVSPropertyOp53
 70
     0
102
RTVSPropertyOp54
 70
     0
102
RTVSPropertyOp55
 70
     0
102
RTVSPropertyOp56
 70
     0
102
RTVSPropertyOp57
 70
     0
102
RTVSPropertyOp58
 70
     1
102
RTVSPropertyOp59
 70
     1
102
RTVSPropertyOp60
 70
     1
102
RTVSPropertyOp61
 70
     1
102
RTVSPropertyOp62
 70
     1
  0
XRECORD
  5
1AE8
102
{ACAD_REACTORS
330
1AE7
102
}
330
1AE7
100
AcDbXrecord
280
     1
102
RTVSPost2010Prop28
280
     0
102
RTVSPost2010PropOp28
 70
     1
102
RTVSPost2010Prop29
280
     1
102
RTVSPost2010PropOp29
 70
     1
102
RTVSPost2010Prop30
280
     1
102
RTVSPost2010PropOp30
 70
     1
102
RTVSPost2010Prop31
280
     0
102
RTVSPost2010PropOp31
 70
     1
102
RTVSPost2010Prop32
280
     0
102
RTVSPost2010PropOp32
 70
     1
102
RTVSPost2010Prop33
280
     0
102
RTVSPost2010PropOp33
 70
     1
102
RTVSPost2010Prop34
280
     0
102
RTVSPost2010PropOp34
 70
     1
102
RTVSPost2010Prop35
280
     0
102
RTVSPost2010PropOp35
 70
     1
102
RTVSPost2010Prop36
280
     0
102
RTVSPost2010PropOp36
 70
     1
102
RTVSPost2010Prop37
 90
       50
102
RTVSPost2010PropOp37
 70
     1
102
RTVSPost2010Prop38
140
0.0
102
RTVSPost2010PropOp38
 70
     1
102
RTVSPost2010Prop39
140
1.0
102
RTVSPost2010PropOp39
 70
     1
102
RTVSPost2010Prop40
 90
        0
102
RTVSPost2010PropOp40
 70
     1
102
RTVSPost2010Prop41ColorIndex
 90
       18
102
RTVSPost2010Prop41ColorRGB
 90
        0
102
RTVSPost2010PropOp41
 70
     1
102
RTVSPost2010Prop42
 90
       50
102
RTVSPost2010PropOp42
 70
     1
102
RTVSPost2010Prop43
 90
        3
102
RTVSPost2010PropOp43
 70
     1
102
RTVSPost2010Prop44ColorIndex
 90
        5
102
RTVSPost2010Prop44ColorRGB
 90
      255
102
RTVSPost2010PropOp44
 70
     1
102
RTVSPost2010Prop45
280
     0
102
RTVSPost2010PropOp45
 70
     1
102
RTVSPost2010Prop46
 90
       50
102
RTVSPost2010PropOp46
 70
     1
102
RTVSPost2010Prop47
 90
       50
102
RTVSPost2010PropOp47
 70
     1
102
RTVSPost2010Prop48
 90
       50
102
RTVSPost2010PropOp48
 70
     1
102
RTVSPost2010Prop49
280
     0
102
RTVSPost2010PropOp49
 70
     1
102
RTVSPost2010Prop50
 90
       50
102
RTVSPost2010PropOp50
 70
     1
102
RTVSPost2010Prop51ColorIndex
 90
      256
102
RTVSPost2010Prop51ColorRGB
 90
-16777216
102
RTVSPost2010PropOp51
 70
     0
102
RTVSPost2010Prop52
140
1.0
102
RTVSPost2010PropOp52
 70
     0
102
RTVSPost2010Prop53
 90
        2
102
RTVSPost2010PropOp53
 70
     1
102
RTVSPost2010Prop54
  1
strokes_ogs.tif
102
RTVSPost2010PropOp54
 70
     1
102
RTVSPost2010Prop55
280
     0
102
RTVSPost2010PropOp55
 70
     1
102
RTVSPost2010Prop56
140
1.0
102
RTVSPost2010PropOp56
 70
     1
102
RTVSPost2010Prop57
140
1.0
102
RTVSPost2010PropOp57
 70
     1
102
RTVSPropertyOp0
 70
     1
102
RTVSPropertyOp1
 70
     1
102
RTVSPropertyOp2
 70
     1
102
RTVSPropertyOp3
 70
     1
102
RTVSPropertyOp4
 70
     1
102
RTVSPropertyOp5
 70
     1
102
RTVSPropertyOp6
 70
     1
102
RTVSPropertyOp7
 70
     1
102
RTVSPropertyOp8
 70
     1
102
RTVSPropertyOp9
 70
     1
102
RTVSPropertyOp10
 70
     1
102
RTVSPropertyOp11
 70
     1
102
RTVSPropertyOp12
 70
     1
102
RTVSPropertyOp13
 70
     1
102
RTVSPropertyOp14
 70
     1
102
RTVSPropertyOp15
 70
     1
102
RTVSPropertyOp16
 70
     1
102
RTVSPropertyOp17
 70
     1
102
RTVSPropertyOp18
 70
     1
102
RTVSPropertyOp19
 70
     1
102
RTVSPropertyOp20
 70
     1
102
RTVSPropertyOp21
 70
     1
102
RTVSPropertyOp22
 70
     1
102
RTVSPropertyOp23
 70
     1
102
RTVSPropertyOp24
 70
     1
102
RTVSPropertyOp25
 70
     1
102
RTVSPropertyOp26
 70
     1
102
RTVSPropertyOp27
 70
     1
102
RTVSPropertyOp28
 70
     1
102
RTVSPropertyOp29
 70
     1
102
RTVSPropertyOp30
 70
     1
102
RTVSPropertyOp31
 70
     1
102
RTVSPropertyOp32
 70
     1
102
RTVSPropertyOp33
 70
     1
102
RTVSPropertyOp34
 70
     1
102
RTVSPropertyOp35
 70
     1
102
RTVSPropertyOp36
 70
     1
102
RTVSPropertyOp37
 70
     1
102
RTVSPropertyOp38
 70
     1
102
RTVSPropertyOp39
 70
     1
102
RTVSPropertyOp40
 70
     1
102
RTVSPropertyOp41
 70
     1
102
RTVSPropertyOp42
 70
     1
102
RTVSPropertyOp43
 70
     1
102
RTVSPropertyOp44
 70
     1
102
RTVSPropertyOp45
 70
     1
102
RTVSPropertyOp46
 70
     1
102
RTVSPropertyOp47
 70
     1
102
RTVSPropertyOp48
 70
     1
102
RTVSPropertyOp49
 70
     1
102
RTVSPropertyOp50
 70
     1
102
RTVSPropertyOp51
 70
     0
102
RTVSPropertyOp52
 70
     0
102
RTVSPropertyOp53
 70
     1
102
RTVSPropertyOp54
 70
     1
102
RTVSPropertyOp55
 70
     1
102
RTVSPropertyOp56
 70
     1
102
RTVSPropertyOp57
 70
     1
102
RTVSPropertyOp58
 70
     1
102
RTVSPropertyOp59
 70
     1
102
RTVSPropertyOp60
 70
     1
102
RTVSPropertyOp61
 70
     1
102
RTVSPropertyOp62
 70
     1
  0
XRECORD
  5
1ACC
102
{ACAD_REACTORS
330
1ACB
102
}
330
1ACB
100
AcDbXrecord
280
     1
102
RTVSPost2010Prop28
280
     0
102
RTVSPost2010PropOp28
 70
     1
102
RTVSPost2010Prop29
280
     1
102
RTVSPost2010PropOp29
 70
     1
102
RTVSPost2010Prop30
280
     1
102
RTVSPost2010PropOp30
 70
     1
102
RTVSPost2010Prop31
280
     0
102
RTVSPost2010PropOp31
 70
     1
102
RTVSPost2010Prop32
280
     0
102
RTVSPost2010PropOp32
 70
     1
102
RTVSPost2010Prop33
280
     0
102
RTVSPost2010PropOp33
 70
     1
102
RTVSPost2010Prop34
280
     0
102
RTVSPost2010PropOp34
 70
     1
102
RTVSPost2010Prop35
280
     0
102
RTVSPost2010PropOp35
 70
     1
102
RTVSPost2010Prop36
280
     0
102
RTVSPost2010PropOp36
 70
     1
102
RTVSPost2010Prop37
 90
       50
102
RTVSPost2010PropOp37
 70
     1
102
RTVSPost2010Prop38
140
0.0
102
RTVSPost2010PropOp38
 70
     1
102
RTVSPost2010Prop39
140
1.0
102
RTVSPost2010PropOp39
 70
     1
102
RTVSPost2010Prop40
 90
        0
102
RTVSPost2010PropOp40
 70
     1
102
RTVSPost2010Prop41ColorIndex
 90
       18
102
RTVSPost2010Prop41ColorRGB
 90
        0
102
RTVSPost2010PropOp41
 70
     1
102
RTVSPost2010Prop42
 90
       50
102
RTVSPost2010PropOp42
 70
     1
102
RTVSPost2010Prop43
 90
        3
102
RTVSPost2010PropOp43
 70
     1
102
RTVSPost2010Prop44ColorIndex
 90
        5
102
RTVSPost2010Prop44ColorRGB
 90
      255
102
RTVSPost2010PropOp44
 70
     1
102
RTVSPost2010Prop45
280
     0
102
RTVSPost2010PropOp45
 70
     1
102
RTVSPost2010Prop46
 90
       50
102
RTVSPost2010PropOp46
 70
     1
102
RTVSPost2010Prop47
 90
       50
102
RTVSPost2010PropOp47
 70
     1
102
RTVSPost2010Prop48
 90
       50
102
RTVSPost2010PropOp48
 70
     1
102
RTVSPost2010Prop49
280
     0
102
RTVSPost2010PropOp49
 70
     1
102
RTVSPost2010Prop50
 90
       50
102
RTVSPost2010PropOp50
 70
     1
102
RTVSPost2010Prop51ColorIndex
 90
      256
102
RTVSPost2010Prop51ColorRGB
 90
-16777216
102
RTVSPost2010PropOp51
 70
     0
102
RTVSPost2010Prop52
140
1.0
102
RTVSPost2010PropOp52
 70
     0
102
RTVSPost2010Prop53
 90
        2
102
RTVSPost2010PropOp53
 70
     1
102
RTVSPost2010Prop54
  1
strokes_ogs.tif
102
RTVSPost2010PropOp54
 70
     1
102
RTVSPost2010Prop55
280
     0
102
RTVSPost2010PropOp55
 70
     1
102
RTVSPost2010Prop56
140
1.0
102
RTVSPost2010PropOp56
 70
     1
102
RTVSPost2010Prop57
140
1.0
102
RTVSPost2010PropOp57
 70
     1
102
RTVSPropertyOp0
 70
     1
102
RTVSPropertyOp1
 70
     1
102
RTVSPropertyOp2
 70
     1
102
RTVSPropertyOp3
 70
     1
102
RTVSPropertyOp4
 70
     1
102
RTVSPropertyOp5
 70
     1
102
RTVSPropertyOp6
 70
     1
102
RTVSPropertyOp7
 70
     1
102
RTVSPropertyOp8
 70
     1
102
RTVSPropertyOp9
 70
     1
102
RTVSPropertyOp10
 70
     1
102
RTVSPropertyOp11
 70
     1
102
RTVSPropertyOp12
 70
     1
102
RTVSPropertyOp13
 70
     1
102
RTVSPropertyOp14
 70
     1
102
RTVSPropertyOp15
 70
     1
102
RTVSPropertyOp16
 70
     1
102
RTVSPropertyOp17
 70
     1
102
RTVSPropertyOp18
 70
     1
102
RTVSPropertyOp19
 70
     1
102
RTVSPropertyOp20
 70
     1
102
RTVSPropertyOp21
 70
     1
102
RTVSPropertyOp22
 70
     1
102
RTVSPropertyOp23
 70
     1
102
RTVSPropertyOp24
 70
     1
102
RTVSPropertyOp25
 70
     1
102
RTVSPropertyOp26
 70
     1
102
RTVSPropertyOp27
 70
     1
102
RTVSPropertyOp28
 70
     1
102
RTVSPropertyOp29
 70
     1
102
RTVSPropertyOp30
 70
     1
102
RTVSPropertyOp31
 70
     1
102
RTVSPropertyOp32
 70
     1
102
RTVSPropertyOp33
 70
     1
102
RTVSPropertyOp34
 70
     1
102
RTVSPropertyOp35
 70
     1
102
RTVSPropertyOp36
 70
     1
102
RTVSPropertyOp37
 70
     1
102
RTVSPropertyOp38
 70
     1
102
RTVSPropertyOp39
 70
     1
102
RTVSPropertyOp40
 70
     1
102
RTVSPropertyOp41
 70
     1
102
RTVSPropertyOp42
 70
     1
102
RTVSPropertyOp43
 70
     1
102
RTVSPropertyOp44
 70
     1
102
RTVSPropertyOp45
 70
     1
102
RTVSPropertyOp46
 70
     1
102
RTVSPropertyOp47
 70
     1
102
RTVSPropertyOp48
 70
     1
102
RTVSPropertyOp49
 70
     1
102
RTVSPropertyOp50
 70
     1
102
RTVSPropertyOp51
 70
     0
102
RTVSPropertyOp52
 70
     0
102
RTVSPropertyOp53
 70
     1
102
RTVSPropertyOp54
 70
     1
102
RTVSPropertyOp55
 70
     1
102
RTVSPropertyOp56
 70
     1
102
RTVSPropertyOp57
 70
     1
102
RTVSPropertyOp58
 70
     1
102
RTVSPropertyOp59
 70
     1
102
RTVSPropertyOp60
 70
     1
102
RTVSPropertyOp61
 70
     1
102
RTVSPropertyOp62
 70
     1
  0
XRECORD
  5
1ACE
102
{ACAD_REACTORS
330
1ACD
102
}
330
1ACD
100
AcDbXrecord
280
     1
102
RTVSPost2010Prop28
280
     0
102
RTVSPost2010PropOp28
 70
     1
102
RTVSPost2010Prop29
280
     1
102
RTVSPost2010PropOp29
 70
     1
102
RTVSPost2010Prop30
280
     1
102
RTVSPost2010PropOp30
 70
     1
102
RTVSPost2010Prop31
280
     0
102
RTVSPost2010PropOp31
 70
     1
102
RTVSPost2010Prop32
280
     0
102
RTVSPost2010PropOp32
 70
     1
102
RTVSPost2010Prop33
280
     0
102
RTVSPost2010PropOp33
 70
     1
102
RTVSPost2010Prop34
280
     0
102
RTVSPost2010PropOp34
 70
     1
102
RTVSPost2010Prop35
280
     0
102
RTVSPost2010PropOp35
 70
     1
102
RTVSPost2010Prop36
280
     0
102
RTVSPost2010PropOp36
 70
     1
102
RTVSPost2010Prop37
 90
       50
102
RTVSPost2010PropOp37
 70
     1
102
RTVSPost2010Prop38
140
0.0
102
RTVSPost2010PropOp38
 70
     1
102
RTVSPost2010Prop39
140
1.0
102
RTVSPost2010PropOp39
 70
     1
102
RTVSPost2010Prop40
 90
        0
102
RTVSPost2010PropOp40
 70
     1
102
RTVSPost2010Prop41ColorIndex
 90
       18
102
RTVSPost2010Prop41ColorRGB
 90
        0
102
RTVSPost2010PropOp41
 70
     1
102
RTVSPost2010Prop42
 90
       50
102
RTVSPost2010PropOp42
 70
     1
102
RTVSPost2010Prop43
 90
        3
102
RTVSPost2010PropOp43
 70
     1
102
RTVSPost2010Prop44ColorIndex
 90
        5
102
RTVSPost2010Prop44ColorRGB
 90
      255
102
RTVSPost2010PropOp44
 70
     1
102
RTVSPost2010Prop45
280
     0
102
RTVSPost2010PropOp45
 70
     1
102
RTVSPost2010Prop46
 90
       50
102
RTVSPost2010PropOp46
 70
     1
102
RTVSPost2010Prop47
 90
       50
102
RTVSPost2010PropOp47
 70
     1
102
RTVSPost2010Prop48
 90
       50
102
RTVSPost2010PropOp48
 70
     1
102
RTVSPost2010Prop49
280
     0
102
RTVSPost2010PropOp49
 70
     1
102
RTVSPost2010Prop50
 90
       50
102
RTVSPost2010PropOp50
 70
     1
102
RTVSPost2010Prop51ColorIndex
 90
      256
102
RTVSPost2010Prop51ColorRGB
 90
-16777216
102
RTVSPost2010PropOp51
 70
     0
102
RTVSPost2010Prop52
140
1.0
102
RTVSPost2010PropOp52
 70
     0
102
RTVSPost2010Prop53
 90
        2
102
RTVSPost2010PropOp53
 70
     1
102
RTVSPost2010Prop54
  1
strokes_ogs.tif
102
RTVSPost2010PropOp54
 70
     1
102
RTVSPost2010Prop55
280
     0
102
RTVSPost2010PropOp55
 70
     1
102
RTVSPost2010Prop56
140
1.0
102
RTVSPost2010PropOp56
 70
     1
102
RTVSPost2010Prop57
140
1.0
102
RTVSPost2010PropOp57
 70
     1
102
RTVSPropertyOp0
 70
     1
102
RTVSPropertyOp1
 70
     1
102
RTVSPropertyOp2
 70
     1
102
RTVSPropertyOp3
 70
     1
102
RTVSPropertyOp4
 70
     1
102
RTVSPropertyOp5
 70
     1
102
RTVSPropertyOp6
 70
     1
102
RTVSPropertyOp7
 70
     1
102
RTVSPropertyOp8
 70
     1
102
RTVSPropertyOp9
 70
     1
102
RTVSPropertyOp10
 70
     1
102
RTVSPropertyOp11
 70
     1
102
RTVSPropertyOp12
 70
     1
102
RTVSPropertyOp13
 70
     1
102
RTVSPropertyOp14
 70
     1
102
RTVSPropertyOp15
 70
     1
102
RTVSPropertyOp16
 70
     1
102
RTVSPropertyOp17
 70
     1
102
RTVSPropertyOp18
 70
     1
102
RTVSPropertyOp19
 70
     1
102
RTVSPropertyOp20
 70
     1
102
RTVSPropertyOp21
 70
     1
102
RTVSPropertyOp22
 70
     1
102
RTVSPropertyOp23
 70
     1
102
RTVSPropertyOp24
 70
     1
102
RTVSPropertyOp25
 70
     1
102
RTVSPropertyOp26
 70
     1
102
RTVSPropertyOp27
 70
     1
102
RTVSPropertyOp28
 70
     1
102
RTVSPropertyOp29
 70
     1
102
RTVSPropertyOp30
 70
     1
102
RTVSPropertyOp31
 70
     1
102
RTVSPropertyOp32
 70
     1
102
RTVSPropertyOp33
 70
     1
102
RTVSPropertyOp34
 70
     1
102
RTVSPropertyOp35
 70
     1
102
RTVSPropertyOp36
 70
     1
102
RTVSPropertyOp37
 70
     1
102
RTVSPropertyOp38
 70
     1
102
RTVSPropertyOp39
 70
     1
102
RTVSPropertyOp40
 70
     1
102
RTVSPropertyOp41
 70
     1
102
RTVSPropertyOp42
 70
     1
102
RTVSPropertyOp43
 70
     1
102
RTVSPropertyOp44
 70
     1
102
RTVSPropertyOp45
 70
     1
102
RTVSPropertyOp46
 70
     1
102
RTVSPropertyOp47
 70
     1
102
RTVSPropertyOp48
 70
     1
102
RTVSPropertyOp49
 70
     1
102
RTVSPropertyOp50
 70
     1
102
RTVSPropertyOp51
 70
     0
102
RTVSPropertyOp52
 70
     0
102
RTVSPropertyOp53
 70
     1
102
RTVSPropertyOp54
 70
     1
102
RTVSPropertyOp55
 70
     1
102
RTVSPropertyOp56
 70
     1
102
RTVSPropertyOp57
 70
     1
102
RTVSPropertyOp58
 70
     1
102
RTVSPropertyOp59
 70
     1
102
RTVSPropertyOp60
 70
     1
102
RTVSPropertyOp61
 70
     1
102
RTVSPropertyOp62
 70
     1
  0
XRECORD
  5
1AD0
102
{ACAD_REACTORS
330
1ACF
102
}
330
1ACF
100
AcDbXrecord
280
     1
102
RTVSPost2010Prop28
280
     0
102
RTVSPost2010PropOp28
 70
     1
102
RTVSPost2010Prop29
280
     1
102
RTVSPost2010PropOp29
 70
     1
102
RTVSPost2010Prop30
280
     1
102
RTVSPost2010PropOp30
 70
     1
102
RTVSPost2010Prop31
280
     0
102
RTVSPost2010PropOp31
 70
     1
102
RTVSPost2010Prop32
280
     0
102
RTVSPost2010PropOp32
 70
     1
102
RTVSPost2010Prop33
280
     0
102
RTVSPost2010PropOp33
 70
     1
102
RTVSPost2010Prop34
280
     0
102
RTVSPost2010PropOp34
 70
     1
102
RTVSPost2010Prop35
280
     0
102
RTVSPost2010PropOp35
 70
     1
102
RTVSPost2010Prop36
280
     0
102
RTVSPost2010PropOp36
 70
     1
102
RTVSPost2010Prop37
 90
       50
102
RTVSPost2010PropOp37
 70
     1
102
RTVSPost2010Prop38
140
0.0
102
RTVSPost2010PropOp38
 70
     1
102
RTVSPost2010Prop39
140
1.0
102
RTVSPost2010PropOp39
 70
     1
102
RTVSPost2010Prop40
 90
        0
102
RTVSPost2010PropOp40
 70
     1
102
RTVSPost2010Prop41ColorIndex
 90
       18
102
RTVSPost2010Prop41ColorRGB
 90
        0
102
RTVSPost2010PropOp41
 70
     1
102
RTVSPost2010Prop42
 90
       50
102
RTVSPost2010PropOp42
 70
     1
102
RTVSPost2010Prop43
 90
        3
102
RTVSPost2010PropOp43
 70
     1
102
RTVSPost2010Prop44ColorIndex
 90
        5
102
RTVSPost2010Prop44ColorRGB
 90
      255
102
RTVSPost2010PropOp44
 70
     1
102
RTVSPost2010Prop45
280
     0
102
RTVSPost2010PropOp45
 70
     1
102
RTVSPost2010Prop46
 90
       50
102
RTVSPost2010PropOp46
 70
     1
102
RTVSPost2010Prop47
 90
       50
102
RTVSPost2010PropOp47
 70
     1
102
RTVSPost2010Prop48
 90
       50
102
RTVSPost2010PropOp48
 70
     1
102
RTVSPost2010Prop49
280
     0
102
RTVSPost2010PropOp49
 70
     1
102
RTVSPost2010Prop50
 90
       50
102
RTVSPost2010PropOp50
 70
     1
102
RTVSPost2010Prop51ColorIndex
 90
      256
102
RTVSPost2010Prop51ColorRGB
 90
-16777216
102
RTVSPost2010PropOp51
 70
     0
102
RTVSPost2010Prop52
140
1.0
102
RTVSPost2010PropOp52
 70
     0
102
RTVSPost2010Prop53
 90
        2
102
RTVSPost2010PropOp53
 70
     1
102
RTVSPost2010Prop54
  1
strokes_ogs.tif
102
RTVSPost2010PropOp54
 70
     1
102
RTVSPost2010Prop55
280
     0
102
RTVSPost2010PropOp55
 70
     1
102
RTVSPost2010Prop56
140
1.0
102
RTVSPost2010PropOp56
 70
     1
102
RTVSPost2010Prop57
140
1.0
102
RTVSPost2010PropOp57
 70
     1
102
RTVSPropertyOp0
 70
     1
102
RTVSPropertyOp1
 70
     1
102
RTVSPropertyOp2
 70
     1
102
RTVSPropertyOp3
 70
     1
102
RTVSPropertyOp4
 70
     1
102
RTVSPropertyOp5
 70
     1
102
RTVSPropertyOp6
 70
     1
102
RTVSPropertyOp7
 70
     1
102
RTVSPropertyOp8
 70
     1
102
RTVSPropertyOp9
 70
     1
102
RTVSPropertyOp10
 70
     1
102
RTVSPropertyOp11
 70
     1
102
RTVSPropertyOp12
 70
     1
102
RTVSPropertyOp13
 70
     1
102
RTVSPropertyOp14
 70
     1
102
RTVSPropertyOp15
 70
     1
102
RTVSPropertyOp16
 70
     1
102
RTVSPropertyOp17
 70
     1
102
RTVSPropertyOp18
 70
     1
102
RTVSPropertyOp19
 70
     1
102
RTVSPropertyOp20
 70
     1
102
RTVSPropertyOp21
 70
     1
102
RTVSPropertyOp22
 70
     1
102
RTVSPropertyOp23
 70
     1
102
RTVSPropertyOp24
 70
     1
102
RTVSPropertyOp25
 70
     1
102
RTVSPropertyOp26
 70
     1
102
RTVSPropertyOp27
 70
     1
102
RTVSPropertyOp28
 70
     1
102
RTVSPropertyOp29
 70
     1
102
RTVSPropertyOp30
 70
     1
102
RTVSPropertyOp31
 70
     1
102
RTVSPropertyOp32
 70
     1
102
RTVSPropertyOp33
 70
     1
102
RTVSPropertyOp34
 70
     1
102
RTVSPropertyOp35
 70
     1
102
RTVSPropertyOp36
 70
     1
102
RTVSPropertyOp37
 70
     1
102
RTVSPropertyOp38
 70
     1
102
RTVSPropertyOp39
 70
     1
102
RTVSPropertyOp40
 70
     1
102
RTVSPropertyOp41
 70
     1
102
RTVSPropertyOp42
 70
     1
102
RTVSPropertyOp43
 70
     1
102
RTVSPropertyOp44
 70
     1
102
RTVSPropertyOp45
 70
     1
102
RTVSPropertyOp46
 70
     1
102
RTVSPropertyOp47
 70
     1
102
RTVSPropertyOp48
 70
     1
102
RTVSPropertyOp49
 70
     1
102
RTVSPropertyOp50
 70
     1
102
RTVSPropertyOp51
 70
     0
102
RTVSPropertyOp52
 70
     0
102
RTVSPropertyOp53
 70
     1
102
RTVSPropertyOp54
 70
     1
102
RTVSPropertyOp55
 70
     1
102
RTVSPropertyOp56
 70
     1
102
RTVSPropertyOp57
 70
     1
102
RTVSPropertyOp58
 70
     1
102
RTVSPropertyOp59
 70
     1
102
RTVSPropertyOp60
 70
     1
102
RTVSPropertyOp61
 70
     1
102
RTVSPropertyOp62
 70
     1
  0
XRECORD
  5
1AD2
102
{ACAD_REACTORS
330
1AD1
102
}
330
1AD1
100
AcDbXrecord
280
     1
102
RTVSPost2010Prop28
280
     0
102
RTVSPost2010PropOp28
 70
     1
102
RTVSPost2010Prop29
280
     1
102
RTVSPost2010PropOp29
 70
     1
102
RTVSPost2010Prop30
280
     1
102
RTVSPost2010PropOp30
 70
     1
102
RTVSPost2010Prop31
280
     0
102
RTVSPost2010PropOp31
 70
     1
102
RTVSPost2010Prop32
280
     0
102
RTVSPost2010PropOp32
 70
     1
102
RTVSPost2010Prop33
280
     0
102
RTVSPost2010PropOp33
 70
     1
102
RTVSPost2010Prop34
280
     0
102
RTVSPost2010PropOp34
 70
     1
102
RTVSPost2010Prop35
280
     0
102
RTVSPost2010PropOp35
 70
     1
102
RTVSPost2010Prop36
280
     0
102
RTVSPost2010PropOp36
 70
     1
102
RTVSPost2010Prop37
 90
       50
102
RTVSPost2010PropOp37
 70
     1
102
RTVSPost2010Prop38
140
0.0
102
RTVSPost2010PropOp38
 70
     1
102
RTVSPost2010Prop39
140
1.0
102
RTVSPost2010PropOp39
 70
     1
102
RTVSPost2010Prop40
 90
        0
102
RTVSPost2010PropOp40
 70
     1
102
RTVSPost2010Prop41ColorIndex
 90
       18
102
RTVSPost2010Prop41ColorRGB
 90
        0
102
RTVSPost2010PropOp41
 70
     1
102
RTVSPost2010Prop42
 90
       50
102
RTVSPost2010PropOp42
 70
     1
102
RTVSPost2010Prop43
 90
        3
102
RTVSPost2010PropOp43
 70
     1
102
RTVSPost2010Prop44ColorIndex
 90
        5
102
RTVSPost2010Prop44ColorRGB
 90
      255
102
RTVSPost2010PropOp44
 70
     1
102
RTVSPost2010Prop45
280
     0
102
RTVSPost2010PropOp45
 70
     1
102
RTVSPost2010Prop46
 90
       50
102
RTVSPost2010PropOp46
 70
     1
102
RTVSPost2010Prop47
 90
       50
102
RTVSPost2010PropOp47
 70
     1
102
RTVSPost2010Prop48
 90
       50
102
RTVSPost2010PropOp48
 70
     1
102
RTVSPost2010Prop49
280
     0
102
RTVSPost2010PropOp49
 70
     1
102
RTVSPost2010Prop50
 90
       50
102
RTVSPost2010PropOp50
 70
     1
102
RTVSPost2010Prop51ColorIndex
 90
      256
102
RTVSPost2010Prop51ColorRGB
 90
-16777216
102
RTVSPost2010PropOp51
 70
     0
102
RTVSPost2010Prop52
140
1.0
102
RTVSPost2010PropOp52
 70
     0
102
RTVSPost2010Prop53
 90
        2
102
RTVSPost2010PropOp53
 70
     1
102
RTVSPost2010Prop54
  1
strokes_ogs.tif
102
RTVSPost2010PropOp54
 70
     1
102
RTVSPost2010Prop55
280
     0
102
RTVSPost2010PropOp55
 70
     1
102
RTVSPost2010Prop56
140
1.0
102
RTVSPost2010PropOp56
 70
     1
102
RTVSPost2010Prop57
140
1.0
102
RTVSPost2010PropOp57
 70
     1
102
RTVSPropertyOp0
 70
     1
102
RTVSPropertyOp1
 70
     1
102
RTVSPropertyOp2
 70
     1
102
RTVSPropertyOp3
 70
     1
102
RTVSPropertyOp4
 70
     1
102
RTVSPropertyOp5
 70
     1
102
RTVSPropertyOp6
 70
     1
102
RTVSPropertyOp7
 70
     1
102
RTVSPropertyOp8
 70
     1
102
RTVSPropertyOp9
 70
     1
102
RTVSPropertyOp10
 70
     1
102
RTVSPropertyOp11
 70
     1
102
RTVSPropertyOp12
 70
     1
102
RTVSPropertyOp13
 70
     1
102
RTVSPropertyOp14
 70
     1
102
RTVSPropertyOp15
 70
     1
102
RTVSPropertyOp16
 70
     1
102
RTVSPropertyOp17
 70
     1
102
RTVSPropertyOp18
 70
     1
102
RTVSPropertyOp19
 70
     1
102
RTVSPropertyOp20
 70
     1
102
RTVSPropertyOp21
 70
     1
102
RTVSPropertyOp22
 70
     1
102
RTVSPropertyOp23
 70
     1
102
RTVSPropertyOp24
 70
     1
102
RTVSPropertyOp25
 70
     1
102
RTVSPropertyOp26
 70
     1
102
RTVSPropertyOp27
 70
     1
102
RTVSPropertyOp28
 70
     1
102
RTVSPropertyOp29
 70
     1
102
RTVSPropertyOp30
 70
     1
102
RTVSPropertyOp31
 70
     1
102
RTVSPropertyOp32
 70
     1
102
RTVSPropertyOp33
 70
     1
102
RTVSPropertyOp34
 70
     1
102
RTVSPropertyOp35
 70
     1
102
RTVSPropertyOp36
 70
     1
102
RTVSPropertyOp37
 70
     1
102
RTVSPropertyOp38
 70
     1
102
RTVSPropertyOp39
 70
     1
102
RTVSPropertyOp40
 70
     1
102
RTVSPropertyOp41
 70
     1
102
RTVSPropertyOp42
 70
     1
102
RTVSPropertyOp43
 70
     1
102
RTVSPropertyOp44
 70
     1
102
RTVSPropertyOp45
 70
     1
102
RTVSPropertyOp46
 70
     1
102
RTVSPropertyOp47
 70
     1
102
RTVSPropertyOp48
 70
     1
102
RTVSPropertyOp49
 70
     1
102
RTVSPropertyOp50
 70
     1
102
RTVSPropertyOp51
 70
     0
102
RTVSPropertyOp52
 70
     0
102
RTVSPropertyOp53
 70
     1
102
RTVSPropertyOp54
 70
     1
102
RTVSPropertyOp55
 70
     1
102
RTVSPropertyOp56
 70
     1
102
RTVSPropertyOp57
 70
     1
102
RTVSPropertyOp58
 70
     1
102
RTVSPropertyOp59
 70
     1
102
RTVSPropertyOp60
 70
     1
102
RTVSPropertyOp61
 70
     1
102
RTVSPropertyOp62
 70
     1
  0
XRECORD
  5
1ADA
102
{ACAD_REACTORS
330
1AD9
102
}
330
1AD9
100
AcDbXrecord
280
     1
102
RTVSPost2010Prop28
280
     0
102
RTVSPost2010PropOp28
 70
     1
102
RTVSPost2010Prop29
280
     1
102
RTVSPost2010PropOp29
 70
     1
102
RTVSPost2010Prop30
280
     1
102
RTVSPost2010PropOp30
 70
     1
102
RTVSPost2010Prop31
280
     0
102
RTVSPost2010PropOp31
 70
     1
102
RTVSPost2010Prop32
280
     0
102
RTVSPost2010PropOp32
 70
     1
102
RTVSPost2010Prop33
280
     0
102
RTVSPost2010PropOp33
 70
     1
102
RTVSPost2010Prop34
280
     0
102
RTVSPost2010PropOp34
 70
     1
102
RTVSPost2010Prop35
280
     0
102
RTVSPost2010PropOp35
 70
     1
102
RTVSPost2010Prop36
280
     0
102
RTVSPost2010PropOp36
 70
     1
102
RTVSPost2010Prop37
 90
       50
102
RTVSPost2010PropOp37
 70
     1
102
RTVSPost2010Prop38
140
0.0
102
RTVSPost2010PropOp38
 70
     1
102
RTVSPost2010Prop39
140
1.0
102
RTVSPost2010PropOp39
 70
     1
102
RTVSPost2010Prop40
 90
        0
102
RTVSPost2010PropOp40
 70
     1
102
RTVSPost2010Prop41ColorIndex
 90
       18
102
RTVSPost2010Prop41ColorRGB
 90
        0
102
RTVSPost2010PropOp41
 70
     1
102
RTVSPost2010Prop42
 90
       50
102
RTVSPost2010PropOp42
 70
     1
102
RTVSPost2010Prop43
 90
        3
102
RTVSPost2010PropOp43
 70
     1
102
RTVSPost2010Prop44ColorIndex
 90
        5
102
RTVSPost2010Prop44ColorRGB
 90
      255
102
RTVSPost2010PropOp44
 70
     1
102
RTVSPost2010Prop45
280
     0
102
RTVSPost2010PropOp45
 70
     1
102
RTVSPost2010Prop46
 90
       50
102
RTVSPost2010PropOp46
 70
     1
102
RTVSPost2010Prop47
 90
       50
102
RTVSPost2010PropOp47
 70
     1
102
RTVSPost2010Prop48
 90
       50
102
RTVSPost2010PropOp48
 70
     1
102
RTVSPost2010Prop49
280
     0
102
RTVSPost2010PropOp49
 70
     1
102
RTVSPost2010Prop50
 90
       50
102
RTVSPost2010PropOp50
 70
     1
102
RTVSPost2010Prop51ColorIndex
 90
      256
102
RTVSPost2010Prop51ColorRGB
 90
-16777216
102
RTVSPost2010PropOp51
 70
     0
102
RTVSPost2010Prop52
140
1.0
102
RTVSPost2010PropOp52
 70
     0
102
RTVSPost2010Prop53
 90
        2
102
RTVSPost2010PropOp53
 70
     1
102
RTVSPost2010Prop54
  1
strokes_ogs.tif
102
RTVSPost2010PropOp54
 70
     1
102
RTVSPost2010Prop55
280
     0
102
RTVSPost2010PropOp55
 70
     1
102
RTVSPost2010Prop56
140
1.0
102
RTVSPost2010PropOp56
 70
     1
102
RTVSPost2010Prop57
140
1.0
102
RTVSPost2010PropOp57
 70
     1
102
RTVSPropertyOp0
 70
     1
102
RTVSPropertyOp1
 70
     1
102
RTVSPropertyOp2
 70
     1
102
RTVSPropertyOp3
 70
     1
102
RTVSPropertyOp4
 70
     1
102
RTVSPropertyOp5
 70
     1
102
RTVSPropertyOp6
 70
     1
102
RTVSPropertyOp7
 70
     1
102
RTVSPropertyOp8
 70
     1
102
RTVSPropertyOp9
 70
     1
102
RTVSPropertyOp10
 70
     1
102
RTVSPropertyOp11
 70
     1
102
RTVSPropertyOp12
 70
     1
102
RTVSPropertyOp13
 70
     1
102
RTVSPropertyOp14
 70
     1
102
RTVSPropertyOp15
 70
     1
102
RTVSPropertyOp16
 70
     1
102
RTVSPropertyOp17
 70
     1
102
RTVSPropertyOp18
 70
     1
102
RTVSPropertyOp19
 70
     1
102
RTVSPropertyOp20
 70
     1
102
RTVSPropertyOp21
 70
     1
102
RTVSPropertyOp22
 70
     1
102
RTVSPropertyOp23
 70
     1
102
RTVSPropertyOp24
 70
     1
102
RTVSPropertyOp25
 70
     1
102
RTVSPropertyOp26
 70
     1
102
RTVSPropertyOp27
 70
     1
102
RTVSPropertyOp28
 70
     1
102
RTVSPropertyOp29
 70
     1
102
RTVSPropertyOp30
 70
     1
102
RTVSPropertyOp31
 70
     1
102
RTVSPropertyOp32
 70
     1
102
RTVSPropertyOp33
 70
     1
102
RTVSPropertyOp34
 70
     1
102
RTVSPropertyOp35
 70
     1
102
RTVSPropertyOp36
 70
     1
102
RTVSPropertyOp37
 70
     1
102
RTVSPropertyOp38
 70
     1
102
RTVSPropertyOp39
 70
     1
102
RTVSPropertyOp40
 70
     1
102
RTVSPropertyOp41
 70
     1
102
RTVSPropertyOp42
 70
     1
102
RTVSPropertyOp43
 70
     1
102
RTVSPropertyOp44
 70
     1
102
RTVSPropertyOp45
 70
     1
102
RTVSPropertyOp46
 70
     1
102
RTVSPropertyOp47
 70
     1
102
RTVSPropertyOp48
 70
     1
102
RTVSPropertyOp49
 70
     1
102
RTVSPropertyOp50
 70
     1
102
RTVSPropertyOp51
 70
     0
102
RTVSPropertyOp52
 70
     0
102
RTVSPropertyOp53
 70
     1
102
RTVSPropertyOp54
 70
     1
102
RTVSPropertyOp55
 70
     1
102
RTVSPropertyOp56
 70
     1
102
RTVSPropertyOp57
 70
     1
102
RTVSPropertyOp58
 70
     1
102
RTVSPropertyOp59
 70
     1
102
RTVSPropertyOp60
 70
     1
102
RTVSPropertyOp61
 70
     1
102
RTVSPropertyOp62
 70
     1
  0
XRECORD
  5
1AF6
102
{ACAD_REACTORS
330
1AF5
102
}
330
1AF5
100
AcDbXrecord
280
     1
102
RTVSPost2010Prop28
280
     0
102
RTVSPost2010PropOp28
 70
     0
102
RTVSPost2010Prop29
280
     1
102
RTVSPost2010PropOp29
 70
     0
102
RTVSPost2010Prop30
280
     1
102
RTVSPost2010PropOp30
 70
     0
102
RTVSPost2010Prop31
280
     0
102
RTVSPost2010PropOp31
 70
     0
102
RTVSPost2010Prop32
280
     0
102
RTVSPost2010PropOp32
 70
     0
102
RTVSPost2010Prop33
280
     0
102
RTVSPost2010PropOp33
 70
     0
102
RTVSPost2010Prop34
280
     0
102
RTVSPost2010PropOp34
 70
     0
102
RTVSPost2010Prop35
280
     0
102
RTVSPost2010PropOp35
 70
     0
102
RTVSPost2010Prop36
280
     0
102
RTVSPost2010PropOp36
 70
     0
102
RTVSPost2010Prop37
 90
       50
102
RTVSPost2010PropOp37
 70
     0
102
RTVSPost2010Prop38
140
0.0
102
RTVSPost2010PropOp38
 70
     0
102
RTVSPost2010Prop39
140
1.0
102
RTVSPost2010PropOp39
 70
     0
102
RTVSPost2010Prop40
 90
        0
102
RTVSPost2010PropOp40
 70
     0
102
RTVSPost2010Prop41ColorIndex
 90
       18
102
RTVSPost2010Prop41ColorRGB
 90
        0
102
RTVSPost2010PropOp41
 70
     0
102
RTVSPost2010Prop42
 90
       50
102
RTVSPost2010PropOp42
 70
     0
102
RTVSPost2010Prop43
 90
        3
102
RTVSPost2010PropOp43
 70
     0
102
RTVSPost2010Prop44ColorIndex
 90
        5
102
RTVSPost2010Prop44ColorRGB
 90
      255
102
RTVSPost2010PropOp44
 70
     0
102
RTVSPost2010Prop45
280
     0
102
RTVSPost2010PropOp45
 70
     0
102
RTVSPost2010Prop46
 90
       50
102
RTVSPost2010PropOp46
 70
     0
102
RTVSPost2010Prop47
 90
       50
102
RTVSPost2010PropOp47
 70
     0
102
RTVSPost2010Prop48
 90
       50
102
RTVSPost2010PropOp48
 70
     0
102
RTVSPost2010Prop49
280
     0
102
RTVSPost2010PropOp49
 70
     0
102
RTVSPost2010Prop50
 90
       50
102
RTVSPost2010PropOp50
 70
     0
102
RTVSPost2010Prop51ColorIndex
 90
      256
102
RTVSPost2010Prop51ColorRGB
 90
-16777216
102
RTVSPost2010PropOp51
 70
     0
102
RTVSPost2010Prop52
140
1.0
102
RTVSPost2010PropOp52
 70
     0
102
RTVSPost2010Prop53
 90
        2
102
RTVSPost2010PropOp53
 70
     0
102
RTVSPost2010Prop54
  1
strokes_ogs.tif
102
RTVSPost2010PropOp54
 70
     0
102
RTVSPost2010Prop55
280
     0
102
RTVSPost2010PropOp55
 70
     0
102
RTVSPost2010Prop56
140
1.0
102
RTVSPost2010PropOp56
 70
     0
102
RTVSPost2010Prop57
140
1.0
102
RTVSPost2010PropOp57
 70
     0
102
RTVSPropertyOp0
 70
     0
102
RTVSPropertyOp1
 70
     0
102
RTVSPropertyOp2
 70
     0
102
RTVSPropertyOp3
 70
     0
102
RTVSPropertyOp4
 70
     0
102
RTVSPropertyOp5
 70
     0
102
RTVSPropertyOp6
 70
     0
102
RTVSPropertyOp7
 70
     0
102
RTVSPropertyOp8
 70
     0
102
RTVSPropertyOp9
 70
     0
102
RTVSPropertyOp10
 70
     0
102
RTVSPropertyOp11
 70
     0
102
RTVSPropertyOp12
 70
     0
102
RTVSPropertyOp13
 70
     0
102
RTVSPropertyOp14
 70
     2
102
RTVSPropertyOp15
 70
     0
102
RTVSPropertyOp16
 70
     0
102
RTVSPropertyOp17
 70
     0
102
RTVSPropertyOp18
 70
     0
102
RTVSPropertyOp19
 70
     0
102
RTVSPropertyOp20
 70
     0
102
RTVSPropertyOp21
 70
     0
102
RTVSPropertyOp22
 70
     0
102
RTVSPropertyOp23
 70
     0
102
RTVSPropertyOp24
 70
     0
102
RTVSPropertyOp25
 70
     0
102
RTVSPropertyOp26
 70
     0
102
RTVSPropertyOp27
 70
     0
102
RTVSPropertyOp28
 70
     0
102
RTVSPropertyOp29
 70
     0
102
RTVSPropertyOp30
 70
     0
102
RTVSPropertyOp31
 70
     0
102
RTVSPropertyOp32
 70
     0
102
RTVSPropertyOp33
 70
     0
102
RTVSPropertyOp34
 70
     0
102
RTVSPropertyOp35
 70
     0
102
RTVSPropertyOp36
 70
     0
102
RTVSPropertyOp37
 70
     0
102
RTVSPropertyOp38
 70
     0
102
RTVSPropertyOp39
 70
     0
102
RTVSPropertyOp40
 70
     0
102
RTVSPropertyOp41
 70
     0
102
RTVSPropertyOp42
 70
     0
102
RTVSPropertyOp43
 70
     0
102
RTVSPropertyOp44
 70
     0
102
RTVSPropertyOp45
 70
     0
102
RTVSPropertyOp46
 70
     0
102
RTVSPropertyOp47
 70
     0
102
RTVSPropertyOp48
 70
     0
102
RTVSPropertyOp49
 70
     0
102
RTVSPropertyOp50
 70
     0
102
RTVSPropertyOp51
 70
     0
102
RTVSPropertyOp52
 70
     0
102
RTVSPropertyOp53
 70
     0
102
RTVSPropertyOp54
 70
     0
102
RTVSPropertyOp55
 70
     0
102
RTVSPropertyOp56
 70
     0
102
RTVSPropertyOp57
 70
     0
102
RTVSPropertyOp58
 70
     1
102
RTVSPropertyOp59
 70
     1
102
RTVSPropertyOp60
 70
     1
102
RTVSPropertyOp61
 70
     1
102
RTVSPropertyOp62
 70
     1
  0
XRECORD
  5
1AE6
102
{ACAD_REACTORS
330
1AE5
102
}
330
1AE5
100
AcDbXrecord
280
     1
102
RTVSPost2010Prop28
280
     0
102
RTVSPost2010PropOp28
 70
     1
102
RTVSPost2010Prop29
280
     1
102
RTVSPost2010PropOp29
 70
     1
102
RTVSPost2010Prop30
280
     1
102
RTVSPost2010PropOp30
 70
     1
102
RTVSPost2010Prop31
280
     0
102
RTVSPost2010PropOp31
 70
     1
102
RTVSPost2010Prop32
280
     0
102
RTVSPost2010PropOp32
 70
     1
102
RTVSPost2010Prop33
280
     0
102
RTVSPost2010PropOp33
 70
     1
102
RTVSPost2010Prop34
280
     0
102
RTVSPost2010PropOp34
 70
     1
102
RTVSPost2010Prop35
280
     0
102
RTVSPost2010PropOp35
 70
     1
102
RTVSPost2010Prop36
280
     0
102
RTVSPost2010PropOp36
 70
     1
102
RTVSPost2010Prop37
 90
       50
102
RTVSPost2010PropOp37
 70
     1
102
RTVSPost2010Prop38
140
0.0
102
RTVSPost2010PropOp38
 70
     1
102
RTVSPost2010Prop39
140
1.0
102
RTVSPost2010PropOp39
 70
     1
102
RTVSPost2010Prop40
 90
        0
102
RTVSPost2010PropOp40
 70
     1
102
RTVSPost2010Prop41ColorIndex
 90
       18
102
RTVSPost2010Prop41ColorRGB
 90
        0
102
RTVSPost2010PropOp41
 70
     1
102
RTVSPost2010Prop42
 90
       50
102
RTVSPost2010PropOp42
 70
     1
102
RTVSPost2010Prop43
 90
        3
102
RTVSPost2010PropOp43
 70
     1
102
RTVSPost2010Prop44ColorIndex
 90
        5
102
RTVSPost2010Prop44ColorRGB
 90
      255
102
RTVSPost2010PropOp44
 70
     1
102
RTVSPost2010Prop45
280
     0
102
RTVSPost2010PropOp45
 70
     1
102
RTVSPost2010Prop46
 90
       50
102
RTVSPost2010PropOp46
 70
     1
102
RTVSPost2010Prop47
 90
       50
102
RTVSPost2010PropOp47
 70
     1
102
RTVSPost2010Prop48
 90
       50
102
RTVSPost2010PropOp48
 70
     1
102
RTVSPost2010Prop49
280
     0
102
RTVSPost2010PropOp49
 70
     1
102
RTVSPost2010Prop50
 90
       50
102
RTVSPost2010PropOp50
 70
     1
102
RTVSPost2010Prop51ColorIndex
 90
      256
102
RTVSPost2010Prop51ColorRGB
 90
-16777216
102
RTVSPost2010PropOp51
 70
     0
102
RTVSPost2010Prop52
140
1.0
102
RTVSPost2010PropOp52
 70
     0
102
RTVSPost2010Prop53
 90
        2
102
RTVSPost2010PropOp53
 70
     1
102
RTVSPost2010Prop54
  1
strokes_ogs.tif
102
RTVSPost2010PropOp54
 70
     1
102
RTVSPost2010Prop55
280
     0
102
RTVSPost2010PropOp55
 70
     1
102
RTVSPost2010Prop56
140
1.0
102
RTVSPost2010PropOp56
 70
     1
102
RTVSPost2010Prop57
140
1.0
102
RTVSPost2010PropOp57
 70
     1
102
RTVSPropertyOp0
 70
     1
102
RTVSPropertyOp1
 70
     1
102
RTVSPropertyOp2
 70
     1
102
RTVSPropertyOp3
 70
     1
102
RTVSPropertyOp4
 70
     1
102
RTVSPropertyOp5
 70
     1
102
RTVSPropertyOp6
 70
     1
102
RTVSPropertyOp7
 70
     1
102
RTVSPropertyOp8
 70
     1
102
RTVSPropertyOp9
 70
     1
102
RTVSPropertyOp10
 70
     1
102
RTVSPropertyOp11
 70
     1
102
RTVSPropertyOp12
 70
     1
102
RTVSPropertyOp13
 70
     1
102
RTVSPropertyOp14
 70
     1
102
RTVSPropertyOp15
 70
     1
102
RTVSPropertyOp16
 70
     1
102
RTVSPropertyOp17
 70
     1
102
RTVSPropertyOp18
 70
     1
102
RTVSPropertyOp19
 70
     1
102
RTVSPropertyOp20
 70
     1
102
RTVSPropertyOp21
 70
     1
102
RTVSPropertyOp22
 70
     1
102
RTVSPropertyOp23
 70
     1
102
RTVSPropertyOp24
 70
     1
102
RTVSPropertyOp25
 70
     1
102
RTVSPropertyOp26
 70
     1
102
RTVSPropertyOp27
 70
     1
102
RTVSPropertyOp28
 70
     1
102
RTVSPropertyOp29
 70
     1
102
RTVSPropertyOp30
 70
     1
102
RTVSPropertyOp31
 70
     1
102
RTVSPropertyOp32
 70
     1
102
RTVSPropertyOp33
 70
     1
102
RTVSPropertyOp34
 70
     1
102
RTVSPropertyOp35
 70
     1
102
RTVSPropertyOp36
 70
     1
102
RTVSPropertyOp37
 70
     1
102
RTVSPropertyOp38
 70
     1
102
RTVSPropertyOp39
 70
     1
102
RTVSPropertyOp40
 70
     1
102
RTVSPropertyOp41
 70
     1
102
RTVSPropertyOp42
 70
     1
102
RTVSPropertyOp43
 70
     1
102
RTVSPropertyOp44
 70
     1
102
RTVSPropertyOp45
 70
     1
102
RTVSPropertyOp46
 70
     1
102
RTVSPropertyOp47
 70
     1
102
RTVSPropertyOp48
 70
     1
102
RTVSPropertyOp49
 70
     1
102
RTVSPropertyOp50
 70
     1
102
RTVSPropertyOp51
 70
     0
102
RTVSPropertyOp52
 70
     0
102
RTVSPropertyOp53
 70
     1
102
RTVSPropertyOp54
 70
     1
102
RTVSPropertyOp55
 70
     1
102
RTVSPropertyOp56
 70
     1
102
RTVSPropertyOp57
 70
     1
102
RTVSPropertyOp58
 70
     1
102
RTVSPropertyOp59
 70
     1
102
RTVSPropertyOp60
 70
     1
102
RTVSPropertyOp61
 70
     1
102
RTVSPropertyOp62
 70
     1
  0
XRECORD
  5
1AF8
102
{ACAD_REACTORS
330
1AF7
102
}
330
1AF7
100
AcDbXrecord
280
     1
102
RTVSPost2010Prop28
280
     0
102
RTVSPost2010PropOp28
 70
     0
102
RTVSPost2010Prop29
280
     1
102
RTVSPost2010PropOp29
 70
     0
102
RTVSPost2010Prop30
280
     1
102
RTVSPost2010PropOp30
 70
     0
102
RTVSPost2010Prop31
280
     0
102
RTVSPost2010PropOp31
 70
     0
102
RTVSPost2010Prop32
280
     0
102
RTVSPost2010PropOp32
 70
     0
102
RTVSPost2010Prop33
280
     0
102
RTVSPost2010PropOp33
 70
     0
102
RTVSPost2010Prop34
280
     0
102
RTVSPost2010PropOp34
 70
     0
102
RTVSPost2010Prop35
280
     0
102
RTVSPost2010PropOp35
 70
     0
102
RTVSPost2010Prop36
280
     0
102
RTVSPost2010PropOp36
 70
     0
102
RTVSPost2010Prop37
 90
       50
102
RTVSPost2010PropOp37
 70
     0
102
RTVSPost2010Prop38
140
0.0
102
RTVSPost2010PropOp38
 70
     0
102
RTVSPost2010Prop39
140
1.0
102
RTVSPost2010PropOp39
 70
     0
102
RTVSPost2010Prop40
 90
        0
102
RTVSPost2010PropOp40
 70
     0
102
RTVSPost2010Prop41ColorIndex
 90
       18
102
RTVSPost2010Prop41ColorRGB
 90
        0
102
RTVSPost2010PropOp41
 70
     0
102
RTVSPost2010Prop42
 90
       50
102
RTVSPost2010PropOp42
 70
     0
102
RTVSPost2010Prop43
 90
        3
102
RTVSPost2010PropOp43
 70
     0
102
RTVSPost2010Prop44ColorIndex
 90
        5
102
RTVSPost2010Prop44ColorRGB
 90
      255
102
RTVSPost2010PropOp44
 70
     0
102
RTVSPost2010Prop45
280
     0
102
RTVSPost2010PropOp45
 70
     0
102
RTVSPost2010Prop46
 90
       50
102
RTVSPost2010PropOp46
 70
     0
102
RTVSPost2010Prop47
 90
       50
102
RTVSPost2010PropOp47
 70
     0
102
RTVSPost2010Prop48
 90
       50
102
RTVSPost2010PropOp48
 70
     0
102
RTVSPost2010Prop49
280
     0
102
RTVSPost2010PropOp49
 70
     0
102
RTVSPost2010Prop50
 90
       50
102
RTVSPost2010PropOp50
 70
     0
102
RTVSPost2010Prop51ColorIndex
 90
      256
102
RTVSPost2010Prop51ColorRGB
 90
-16777216
102
RTVSPost2010PropOp51
 70
     0
102
RTVSPost2010Prop52
140
1.0
102
RTVSPost2010PropOp52
 70
     0
102
RTVSPost2010Prop53
 90
        2
102
RTVSPost2010PropOp53
 70
     0
102
RTVSPost2010Prop54
  1
strokes_ogs.tif
102
RTVSPost2010PropOp54
 70
     0
102
RTVSPost2010Prop55
280
     0
102
RTVSPost2010PropOp55
 70
     0
102
RTVSPost2010Prop56
140
1.0
102
RTVSPost2010PropOp56
 70
     0
102
RTVSPost2010Prop57
140
1.0
102
RTVSPost2010PropOp57
 70
     0
102
RTVSPropertyOp0
 70
     0
102
RTVSPropertyOp1
 70
     0
102
RTVSPropertyOp2
 70
     0
102
RTVSPropertyOp3
 70
     0
102
RTVSPropertyOp4
 70
     0
102
RTVSPropertyOp5
 70
     0
102
RTVSPropertyOp6
 70
     0
102
RTVSPropertyOp7
 70
     0
102
RTVSPropertyOp8
 70
     0
102
RTVSPropertyOp9
 70
     0
102
RTVSPropertyOp10
 70
     0
102
RTVSPropertyOp11
 70
     0
102
RTVSPropertyOp12
 70
     0
102
RTVSPropertyOp13
 70
     0
102
RTVSPropertyOp14
 70
     2
102
RTVSPropertyOp15
 70
     0
102
RTVSPropertyOp16
 70
     0
102
RTVSPropertyOp17
 70
     0
102
RTVSPropertyOp18
 70
     0
102
RTVSPropertyOp19
 70
     0
102
RTVSPropertyOp20
 70
     0
102
RTVSPropertyOp21
 70
     0
102
RTVSPropertyOp22
 70
     0
102
RTVSPropertyOp23
 70
     0
102
RTVSPropertyOp24
 70
     0
102
RTVSPropertyOp25
 70
     0
102
RTVSPropertyOp26
 70
     0
102
RTVSPropertyOp27
 70
     0
102
RTVSPropertyOp28
 70
     0
102
RTVSPropertyOp29
 70
     0
102
RTVSPropertyOp30
 70
     0
102
RTVSPropertyOp31
 70
     0
102
RTVSPropertyOp32
 70
     0
102
RTVSPropertyOp33
 70
     0
102
RTVSPropertyOp34
 70
     0
102
RTVSPropertyOp35
 70
     0
102
RTVSPropertyOp36
 70
     0
102
RTVSPropertyOp37
 70
     0
102
RTVSPropertyOp38
 70
     0
102
RTVSPropertyOp39
 70
     0
102
RTVSPropertyOp40
 70
     0
102
RTVSPropertyOp41
 70
     0
102
RTVSPropertyOp42
 70
     0
102
RTVSPropertyOp43
 70
     0
102
RTVSPropertyOp44
 70
     0
102
RTVSPropertyOp45
 70
     0
102
RTVSPropertyOp46
 70
     0
102
RTVSPropertyOp47
 70
     0
102
RTVSPropertyOp48
 70
     0
102
RTVSPropertyOp49
 70
     0
102
RTVSPropertyOp50
 70
     0
102
RTVSPropertyOp51
 70
     0
102
RTVSPropertyOp52
 70
     0
102
RTVSPropertyOp53
 70
     0
102
RTVSPropertyOp54
 70
     0
102
RTVSPropertyOp55
 70
     0
102
RTVSPropertyOp56
 70
     0
102
RTVSPropertyOp57
 70
     0
102
RTVSPropertyOp58
 70
     1
102
RTVSPropertyOp59
 70
     1
102
RTVSPropertyOp60
 70
     1
102
RTVSPropertyOp61
 70
     1
102
RTVSPropertyOp62
 70
     1
  0
XRECORD
  5
1ADE
102
{ACAD_REACTORS
330
1ADD
102
}
330
1ADD
100
AcDbXrecord
280
     1
102
RTVSPost2010Prop28
280
     0
102
RTVSPost2010PropOp28
 70
     1
102
RTVSPost2010Prop29
280
     1
102
RTVSPost2010PropOp29
 70
     1
102
RTVSPost2010Prop30
280
     1
102
RTVSPost2010PropOp30
 70
     1
102
RTVSPost2010Prop31
280
     0
102
RTVSPost2010PropOp31
 70
     1
102
RTVSPost2010Prop32
280
     0
102
RTVSPost2010PropOp32
 70
     1
102
RTVSPost2010Prop33
280
     0
102
RTVSPost2010PropOp33
 70
     1
102
RTVSPost2010Prop34
280
     0
102
RTVSPost2010PropOp34
 70
     1
102
RTVSPost2010Prop35
280
     0
102
RTVSPost2010PropOp35
 70
     1
102
RTVSPost2010Prop36
280
     0
102
RTVSPost2010PropOp36
 70
     1
102
RTVSPost2010Prop37
 90
       50
102
RTVSPost2010PropOp37
 70
     1
102
RTVSPost2010Prop38
140
0.0
102
RTVSPost2010PropOp38
 70
     1
102
RTVSPost2010Prop39
140
1.0
102
RTVSPost2010PropOp39
 70
     1
102
RTVSPost2010Prop40
 90
        0
102
RTVSPost2010PropOp40
 70
     1
102
RTVSPost2010Prop41ColorIndex
 90
       18
102
RTVSPost2010Prop41ColorRGB
 90
        0
102
RTVSPost2010PropOp41
 70
     1
102
RTVSPost2010Prop42
 90
       50
102
RTVSPost2010PropOp42
 70
     1
102
RTVSPost2010Prop43
 90
        3
102
RTVSPost2010PropOp43
 70
     1
102
RTVSPost2010Prop44ColorIndex
 90
        5
102
RTVSPost2010Prop44ColorRGB
 90
      255
102
RTVSPost2010PropOp44
 70
     1
102
RTVSPost2010Prop45
280
     0
102
RTVSPost2010PropOp45
 70
     1
102
RTVSPost2010Prop46
 90
       50
102
RTVSPost2010PropOp46
 70
     1
102
RTVSPost2010Prop47
 90
       50
102
RTVSPost2010PropOp47
 70
     1
102
RTVSPost2010Prop48
 90
       50
102
RTVSPost2010PropOp48
 70
     1
102
RTVSPost2010Prop49
280
     0
102
RTVSPost2010PropOp49
 70
     1
102
RTVSPost2010Prop50
 90
       50
102
RTVSPost2010PropOp50
 70
     1
102
RTVSPost2010Prop51ColorIndex
 90
      256
102
RTVSPost2010Prop51ColorRGB
 90
-16777216
102
RTVSPost2010PropOp51
 70
     0
102
RTVSPost2010Prop52
140
1.0
102
RTVSPost2010PropOp52
 70
     0
102
RTVSPost2010Prop53
 90
        2
102
RTVSPost2010PropOp53
 70
     1
102
RTVSPost2010Prop54
  1
strokes_ogs.tif
102
RTVSPost2010PropOp54
 70
     1
102
RTVSPost2010Prop55
280
     0
102
RTVSPost2010PropOp55
 70
     1
102
RTVSPost2010Prop56
140
1.0
102
RTVSPost2010PropOp56
 70
     1
102
RTVSPost2010Prop57
140
1.0
102
RTVSPost2010PropOp57
 70
     1
102
RTVSPropertyOp0
 70
     1
102
RTVSPropertyOp1
 70
     1
102
RTVSPropertyOp2
 70
     1
102
RTVSPropertyOp3
 70
     1
102
RTVSPropertyOp4
 70
     1
102
RTVSPropertyOp5
 70
     1
102
RTVSPropertyOp6
 70
     1
102
RTVSPropertyOp7
 70
     1
102
RTVSPropertyOp8
 70
     1
102
RTVSPropertyOp9
 70
     1
102
RTVSPropertyOp10
 70
     1
102
RTVSPropertyOp11
 70
     1
102
RTVSPropertyOp12
 70
     1
102
RTVSPropertyOp13
 70
     1
102
RTVSPropertyOp14
 70
     1
102
RTVSPropertyOp15
 70
     1
102
RTVSPropertyOp16
 70
     1
102
RTVSPropertyOp17
 70
     1
102
RTVSPropertyOp18
 70
     1
102
RTVSPropertyOp19
 70
     1
102
RTVSPropertyOp20
 70
     1
102
RTVSPropertyOp21
 70
     1
102
RTVSPropertyOp22
 70
     1
102
RTVSPropertyOp23
 70
     1
102
RTVSPropertyOp24
 70
     1
102
RTVSPropertyOp25
 70
     1
102
RTVSPropertyOp26
 70
     1
102
RTVSPropertyOp27
 70
     1
102
RTVSPropertyOp28
 70
     1
102
RTVSPropertyOp29
 70
     1
102
RTVSPropertyOp30
 70
     1
102
RTVSPropertyOp31
 70
     1
102
RTVSPropertyOp32
 70
     1
102
RTVSPropertyOp33
 70
     1
102
RTVSPropertyOp34
 70
     1
102
RTVSPropertyOp35
 70
     1
102
RTVSPropertyOp36
 70
     1
102
RTVSPropertyOp37
 70
     1
102
RTVSPropertyOp38
 70
     1
102
RTVSPropertyOp39
 70
     1
102
RTVSPropertyOp40
 70
     1
102
RTVSPropertyOp41
 70
     1
102
RTVSPropertyOp42
 70
     1
102
RTVSPropertyOp43
 70
     1
102
RTVSPropertyOp44
 70
     1
102
RTVSPropertyOp45
 70
     1
102
RTVSPropertyOp46
 70
     1
102
RTVSPropertyOp47
 70
     1
102
RTVSPropertyOp48
 70
     1
102
RTVSPropertyOp49
 70
     1
102
RTVSPropertyOp50
 70
     1
102
RTVSPropertyOp51
 70
     0
102
RTVSPropertyOp52
 70
     0
102
RTVSPropertyOp53
 70
     1
102
RTVSPropertyOp54
 70
     1
102
RTVSPropertyOp55
 70
     1
102
RTVSPropertyOp56
 70
     1
102
RTVSPropertyOp57
 70
     1
102
RTVSPropertyOp58
 70
     1
102
RTVSPropertyOp59
 70
     1
102
RTVSPropertyOp60
 70
     1
102
RTVSPropertyOp61
 70
     1
102
RTVSPropertyOp62
 70
     1
  0
XRECORD
  5
1AF4
102
{ACAD_REACTORS
330
1AF3
102
}
330
1AF3
100
AcDbXrecord
280
     1
102
RTVSPost2010Prop28
280
     0
102
RTVSPost2010PropOp28
 70
     1
102
RTVSPost2010Prop29
280
     1
102
RTVSPost2010PropOp29
 70
     1
102
RTVSPost2010Prop30
280
     1
102
RTVSPost2010PropOp30
 70
     1
102
RTVSPost2010Prop31
280
     0
102
RTVSPost2010PropOp31
 70
     1
102
RTVSPost2010Prop32
280
     0
102
RTVSPost2010PropOp32
 70
     1
102
RTVSPost2010Prop33
280
     0
102
RTVSPost2010PropOp33
 70
     1
102
RTVSPost2010Prop34
280
     0
102
RTVSPost2010PropOp34
 70
     1
102
RTVSPost2010Prop35
280
     0
102
RTVSPost2010PropOp35
 70
     1
102
RTVSPost2010Prop36
280
     0
102
RTVSPost2010PropOp36
 70
     1
102
RTVSPost2010Prop37
 90
       50
102
RTVSPost2010PropOp37
 70
     1
102
RTVSPost2010Prop38
140
0.0
102
RTVSPost2010PropOp38
 70
     1
102
RTVSPost2010Prop39
140
1.0
102
RTVSPost2010PropOp39
 70
     1
102
RTVSPost2010Prop40
 90
        0
102
RTVSPost2010PropOp40
 70
     1
102
RTVSPost2010Prop41ColorIndex
 90
       18
102
RTVSPost2010Prop41ColorRGB
 90
        0
102
RTVSPost2010PropOp41
 70
     1
102
RTVSPost2010Prop42
 90
       50
102
RTVSPost2010PropOp42
 70
     1
102
RTVSPost2010Prop43
 90
        3
102
RTVSPost2010PropOp43
 70
     1
102
RTVSPost2010Prop44ColorIndex
 90
        5
102
RTVSPost2010Prop44ColorRGB
 90
      255
102
RTVSPost2010PropOp44
 70
     1
102
RTVSPost2010Prop45
280
     0
102
RTVSPost2010PropOp45
 70
     1
102
RTVSPost2010Prop46
 90
       50
102
RTVSPost2010PropOp46
 70
     1
102
RTVSPost2010Prop47
 90
       50
102
RTVSPost2010PropOp47
 70
     1
102
RTVSPost2010Prop48
 90
       50
102
RTVSPost2010PropOp48
 70
     1
102
RTVSPost2010Prop49
280
     0
102
RTVSPost2010PropOp49
 70
     1
102
RTVSPost2010Prop50
 90
       50
102
RTVSPost2010PropOp50
 70
     1
102
RTVSPost2010Prop51ColorIndex
 90
      256
102
RTVSPost2010Prop51ColorRGB
 90
-16777216
102
RTVSPost2010PropOp51
 70
     0
102
RTVSPost2010Prop52
140
1.0
102
RTVSPost2010PropOp52
 70
     0
102
RTVSPost2010Prop53
 90
        2
102
RTVSPost2010PropOp53
 70
     1
102
RTVSPost2010Prop54
  1
strokes_ogs.tif
102
RTVSPost2010PropOp54
 70
     1
102
RTVSPost2010Prop55
280
     0
102
RTVSPost2010PropOp55
 70
     1
102
RTVSPost2010Prop56
140
1.0
102
RTVSPost2010PropOp56
 70
     1
102
RTVSPost2010Prop57
140
1.0
102
RTVSPost2010PropOp57
 70
     1
102
RTVSPropertyOp0
 70
     1
102
RTVSPropertyOp1
 70
     1
102
RTVSPropertyOp2
 70
     1
102
RTVSPropertyOp3
 70
     1
102
RTVSPropertyOp4
 70
     1
102
RTVSPropertyOp5
 70
     1
102
RTVSPropertyOp6
 70
     1
102
RTVSPropertyOp7
 70
     1
102
RTVSPropertyOp8
 70
     1
102
RTVSPropertyOp9
 70
     1
102
RTVSPropertyOp10
 70
     1
102
RTVSPropertyOp11
 70
     1
102
RTVSPropertyOp12
 70
     1
102
RTVSPropertyOp13
 70
     1
102
RTVSPropertyOp14
 70
     1
102
RTVSPropertyOp15
 70
     1
102
RTVSPropertyOp16
 70
     1
102
RTVSPropertyOp17
 70
     1
102
RTVSPropertyOp18
 70
     1
102
RTVSPropertyOp19
 70
     1
102
RTVSPropertyOp20
 70
     1
102
RTVSPropertyOp21
 70
     1
102
RTVSPropertyOp22
 70
     1
102
RTVSPropertyOp23
 70
     1
102
RTVSPropertyOp24
 70
     1
102
RTVSPropertyOp25
 70
     1
102
RTVSPropertyOp26
 70
     1
102
RTVSPropertyOp27
 70
     1
102
RTVSPropertyOp28
 70
     1
102
RTVSPropertyOp29
 70
     1
102
RTVSPropertyOp30
 70
     1
102
RTVSPropertyOp31
 70
     1
102
RTVSPropertyOp32
 70
     1
102
RTVSPropertyOp33
 70
     1
102
RTVSPropertyOp34
 70
     1
102
RTVSPropertyOp35
 70
     1
102
RTVSPropertyOp36
 70
     1
102
RTVSPropertyOp37
 70
     1
102
RTVSPropertyOp38
 70
     1
102
RTVSPropertyOp39
 70
     1
102
RTVSPropertyOp40
 70
     1
102
RTVSPropertyOp41
 70
     1
102
RTVSPropertyOp42
 70
     1
102
RTVSPropertyOp43
 70
     1
102
RTVSPropertyOp44
 70
     1
102
RTVSPropertyOp45
 70
     1
102
RTVSPropertyOp46
 70
     1
102
RTVSPropertyOp47
 70
     1
102
RTVSPropertyOp48
 70
     1
102
RTVSPropertyOp49
 70
     1
102
RTVSPropertyOp50
 70
     1
102
RTVSPropertyOp51
 70
     0
102
RTVSPropertyOp52
 70
     0
102
RTVSPropertyOp53
 70
     1
102
RTVSPropertyOp54
 70
     1
102
RTVSPropertyOp55
 70
     1
102
RTVSPropertyOp56
 70
     1
102
RTVSPropertyOp57
 70
     1
102
RTVSPropertyOp58
 70
     1
102
RTVSPropertyOp59
 70
     1
102
RTVSPropertyOp60
 70
     1
102
RTVSPropertyOp61
 70
     1
102
RTVSPropertyOp62
 70
     1
  0
XRECORD
  5
1AF2
102
{ACAD_REACTORS
330
1AF1
102
}
330
1AF1
100
AcDbXrecord
280
     1
102
RTVSPost2010Prop28
280
     0
102
RTVSPost2010PropOp28
 70
     1
102
RTVSPost2010Prop29
280
     1
102
RTVSPost2010PropOp29
 70
     1
102
RTVSPost2010Prop30
280
     1
102
RTVSPost2010PropOp30
 70
     1
102
RTVSPost2010Prop31
280
     0
102
RTVSPost2010PropOp31
 70
     1
102
RTVSPost2010Prop32
280
     0
102
RTVSPost2010PropOp32
 70
     1
102
RTVSPost2010Prop33
280
     0
102
RTVSPost2010PropOp33
 70
     1
102
RTVSPost2010Prop34
280
     0
102
RTVSPost2010PropOp34
 70
     1
102
RTVSPost2010Prop35
280
     0
102
RTVSPost2010PropOp35
 70
     1
102
RTVSPost2010Prop36
280
     0
102
RTVSPost2010PropOp36
 70
     1
102
RTVSPost2010Prop37
 90
       50
102
RTVSPost2010PropOp37
 70
     1
102
RTVSPost2010Prop38
140
0.0
102
RTVSPost2010PropOp38
 70
     1
102
RTVSPost2010Prop39
140
1.0
102
RTVSPost2010PropOp39
 70
     1
102
RTVSPost2010Prop40
 90
        0
102
RTVSPost2010PropOp40
 70
     1
102
RTVSPost2010Prop41ColorIndex
 90
       18
102
RTVSPost2010Prop41ColorRGB
 90
        0
102
RTVSPost2010PropOp41
 70
     1
102
RTVSPost2010Prop42
 90
       50
102
RTVSPost2010PropOp42
 70
     1
102
RTVSPost2010Prop43
 90
        3
102
RTVSPost2010PropOp43
 70
     1
102
RTVSPost2010Prop44ColorIndex
 90
        5
102
RTVSPost2010Prop44ColorRGB
 90
      255
102
RTVSPost2010PropOp44
 70
     1
102
RTVSPost2010Prop45
280
     0
102
RTVSPost2010PropOp45
 70
     1
102
RTVSPost2010Prop46
 90
       50
102
RTVSPost2010PropOp46
 70
     1
102
RTVSPost2010Prop47
 90
       50
102
RTVSPost2010PropOp47
 70
     1
102
RTVSPost2010Prop48
 90
       50
102
RTVSPost2010PropOp48
 70
     1
102
RTVSPost2010Prop49
280
     0
102
RTVSPost2010PropOp49
 70
     1
102
RTVSPost2010Prop50
 90
       50
102
RTVSPost2010PropOp50
 70
     1
102
RTVSPost2010Prop51ColorIndex
 90
      256
102
RTVSPost2010Prop51ColorRGB
 90
-16777216
102
RTVSPost2010PropOp51
 70
     0
102
RTVSPost2010Prop52
140
1.0
102
RTVSPost2010PropOp52
 70
     0
102
RTVSPost2010Prop53
 90
        2
102
RTVSPost2010PropOp53
 70
     1
102
RTVSPost2010Prop54
  1
strokes_ogs.tif
102
RTVSPost2010PropOp54
 70
     1
102
RTVSPost2010Prop55
280
     0
102
RTVSPost2010PropOp55
 70
     1
102
RTVSPost2010Prop56
140
1.0
102
RTVSPost2010PropOp56
 70
     1
102
RTVSPost2010Prop57
140
1.0
102
RTVSPost2010PropOp57
 70
     1
102
RTVSPropertyOp0
 70
     1
102
RTVSPropertyOp1
 70
     1
102
RTVSPropertyOp2
 70
     1
102
RTVSPropertyOp3
 70
     1
102
RTVSPropertyOp4
 70
     1
102
RTVSPropertyOp5
 70
     1
102
RTVSPropertyOp6
 70
     1
102
RTVSPropertyOp7
 70
     1
102
RTVSPropertyOp8
 70
     1
102
RTVSPropertyOp9
 70
     1
102
RTVSPropertyOp10
 70
     1
102
RTVSPropertyOp11
 70
     1
102
RTVSPropertyOp12
 70
     1
102
RTVSPropertyOp13
 70
     1
102
RTVSPropertyOp14
 70
     1
102
RTVSPropertyOp15
 70
     1
102
RTVSPropertyOp16
 70
     1
102
RTVSPropertyOp17
 70
     1
102
RTVSPropertyOp18
 70
     1
102
RTVSPropertyOp19
 70
     1
102
RTVSPropertyOp20
 70
     1
102
RTVSPropertyOp21
 70
     1
102
RTVSPropertyOp22
 70
     1
102
RTVSPropertyOp23
 70
     1
102
RTVSPropertyOp24
 70
     1
102
RTVSPropertyOp25
 70
     1
102
RTVSPropertyOp26
 70
     1
102
RTVSPropertyOp27
 70
     1
102
RTVSPropertyOp28
 70
     1
102
RTVSPropertyOp29
 70
     1
102
RTVSPropertyOp30
 70
     1
102
RTVSPropertyOp31
 70
     1
102
RTVSPropertyOp32
 70
     1
102
RTVSPropertyOp33
 70
     1
102
RTVSPropertyOp34
 70
     1
102
RTVSPropertyOp35
 70
     1
102
RTVSPropertyOp36
 70
     1
102
RTVSPropertyOp37
 70
     1
102
RTVSPropertyOp38
 70
     1
102
RTVSPropertyOp39
 70
     1
102
RTVSPropertyOp40
 70
     1
102
RTVSPropertyOp41
 70
     1
102
RTVSPropertyOp42
 70
     1
102
RTVSPropertyOp43
 70
     1
102
RTVSPropertyOp44
 70
     1
102
RTVSPropertyOp45
 70
     1
102
RTVSPropertyOp46
 70
     1
102
RTVSPropertyOp47
 70
     1
102
RTVSPropertyOp48
 70
     1
102
RTVSPropertyOp49
 70
     1
102
RTVSPropertyOp50
 70
     1
102
RTVSPropertyOp51
 70
     0
102
RTVSPropertyOp52
 70
     0
102
RTVSPropertyOp53
 70
     1
102
RTVSPropertyOp54
 70
     1
102
RTVSPropertyOp55
 70
     1
102
RTVSPropertyOp56
 70
     1
102
RTVSPropertyOp57
 70
     1
102
RTVSPropertyOp58
 70
     1
102
RTVSPropertyOp59
 70
     1
102
RTVSPropertyOp60
 70
     1
102
RTVSPropertyOp61
 70
     1
102
RTVSPropertyOp62
 70
     1
  0
XRECORD
  5
1AEC
102
{ACAD_REACTORS
330
1AEB
102
}
330
1AEB
100
AcDbXrecord
280
     1
102
RTVSPost2010Prop28
280
     0
102
RTVSPost2010PropOp28
 70
     1
102
RTVSPost2010Prop29
280
     1
102
RTVSPost2010PropOp29
 70
     1
102
RTVSPost2010Prop30
280
     1
102
RTVSPost2010PropOp30
 70
     1
102
RTVSPost2010Prop31
280
     0
102
RTVSPost2010PropOp31
 70
     1
102
RTVSPost2010Prop32
280
     0
102
RTVSPost2010PropOp32
 70
     1
102
RTVSPost2010Prop33
280
     0
102
RTVSPost2010PropOp33
 70
     1
102
RTVSPost2010Prop34
280
     0
102
RTVSPost2010PropOp34
 70
     1
102
RTVSPost2010Prop35
280
     0
102
RTVSPost2010PropOp35
 70
     1
102
RTVSPost2010Prop36
280
     0
102
RTVSPost2010PropOp36
 70
     1
102
RTVSPost2010Prop37
 90
       50
102
RTVSPost2010PropOp37
 70
     1
102
RTVSPost2010Prop38
140
0.0
102
RTVSPost2010PropOp38
 70
     1
102
RTVSPost2010Prop39
140
1.0
102
RTVSPost2010PropOp39
 70
     1
102
RTVSPost2010Prop40
 90
        0
102
RTVSPost2010PropOp40
 70
     1
102
RTVSPost2010Prop41ColorIndex
 90
       18
102
RTVSPost2010Prop41ColorRGB
 90
        0
102
RTVSPost2010PropOp41
 70
     1
102
RTVSPost2010Prop42
 90
       50
102
RTVSPost2010PropOp42
 70
     1
102
RTVSPost2010Prop43
 90
        3
102
RTVSPost2010PropOp43
 70
     1
102
RTVSPost2010Prop44ColorIndex
 90
        5
102
RTVSPost2010Prop44ColorRGB
 90
      255
102
RTVSPost2010PropOp44
 70
     1
102
RTVSPost2010Prop45
280
     0
102
RTVSPost2010PropOp45
 70
     1
102
RTVSPost2010Prop46
 90
       50
102
RTVSPost2010PropOp46
 70
     1
102
RTVSPost2010Prop47
 90
       50
102
RTVSPost2010PropOp47
 70
     1
102
RTVSPost2010Prop48
 90
       50
102
RTVSPost2010PropOp48
 70
     1
102
RTVSPost2010Prop49
280
     0
102
RTVSPost2010PropOp49
 70
     1
102
RTVSPost2010Prop50
 90
       50
102
RTVSPost2010PropOp50
 70
     1
102
RTVSPost2010Prop51ColorIndex
 90
      256
102
RTVSPost2010Prop51ColorRGB
 90
-16777216
102
RTVSPost2010PropOp51
 70
     0
102
RTVSPost2010Prop52
140
1.0
102
RTVSPost2010PropOp52
 70
     0
102
RTVSPost2010Prop53
 90
        2
102
RTVSPost2010PropOp53
 70
     1
102
RTVSPost2010Prop54
  1
strokes_ogs.tif
102
RTVSPost2010PropOp54
 70
     1
102
RTVSPost2010Prop55
280
     0
102
RTVSPost2010PropOp55
 70
     1
102
RTVSPost2010Prop56
140
1.0
102
RTVSPost2010PropOp56
 70
     1
102
RTVSPost2010Prop57
140
1.0
102
RTVSPost2010PropOp57
 70
     1
102
RTVSPropertyOp0
 70
     1
102
RTVSPropertyOp1
 70
     1
102
RTVSPropertyOp2
 70
     1
102
RTVSPropertyOp3
 70
     1
102
RTVSPropertyOp4
 70
     1
102
RTVSPropertyOp5
 70
     1
102
RTVSPropertyOp6
 70
     1
102
RTVSPropertyOp7
 70
     1
102
RTVSPropertyOp8
 70
     1
102
RTVSPropertyOp9
 70
     1
102
RTVSPropertyOp10
 70
     1
102
RTVSPropertyOp11
 70
     1
102
RTVSPropertyOp12
 70
     1
102
RTVSPropertyOp13
 70
     1
102
RTVSPropertyOp14
 70
     1
102
RTVSPropertyOp15
 70
     1
102
RTVSPropertyOp16
 70
     1
102
RTVSPropertyOp17
 70
     1
102
RTVSPropertyOp18
 70
     1
102
RTVSPropertyOp19
 70
     1
102
RTVSPropertyOp20
 70
     1
102
RTVSPropertyOp21
 70
     1
102
RTVSPropertyOp22
 70
     1
102
RTVSPropertyOp23
 70
     1
102
RTVSPropertyOp24
 70
     1
102
RTVSPropertyOp25
 70
     1
102
RTVSPropertyOp26
 70
     1
102
RTVSPropertyOp27
 70
     1
102
RTVSPropertyOp28
 70
     1
102
RTVSPropertyOp29
 70
     1
102
RTVSPropertyOp30
 70
     1
102
RTVSPropertyOp31
 70
     1
102
RTVSPropertyOp32
 70
     1
102
RTVSPropertyOp33
 70
     1
102
RTVSPropertyOp34
 70
     1
102
RTVSPropertyOp35
 70
     1
102
RTVSPropertyOp36
 70
     1
102
RTVSPropertyOp37
 70
     1
102
RTVSPropertyOp38
 70
     1
102
RTVSPropertyOp39
 70
     1
102
RTVSPropertyOp40
 70
     1
102
RTVSPropertyOp41
 70
     1
102
RTVSPropertyOp42
 70
     1
102
RTVSPropertyOp43
 70
     1
102
RTVSPropertyOp44
 70
     1
102
RTVSPropertyOp45
 70
     1
102
RTVSPropertyOp46
 70
     1
102
RTVSPropertyOp47
 70
     1
102
RTVSPropertyOp48
 70
     1
102
RTVSPropertyOp49
 70
     1
102
RTVSPropertyOp50
 70
     1
102
RTVSPropertyOp51
 70
     0
102
RTVSPropertyOp52
 70
     0
102
RTVSPropertyOp53
 70
     1
102
RTVSPropertyOp54
 70
     1
102
RTVSPropertyOp55
 70
     1
102
RTVSPropertyOp56
 70
     1
102
RTVSPropertyOp57
 70
     1
102
RTVSPropertyOp58
 70
     1
102
RTVSPropertyOp59
 70
     1
102
RTVSPropertyOp60
 70
     1
102
RTVSPropertyOp61
 70
     1
102
RTVSPropertyOp62
 70
     1
  0
XRECORD
  5
1AEE
102
{ACAD_REACTORS
330
1AED
102
}
330
1AED
100
AcDbXrecord
280
     1
102
RTVSPost2010Prop28
280
     0
102
RTVSPost2010PropOp28
 70
     1
102
RTVSPost2010Prop29
280
     1
102
RTVSPost2010PropOp29
 70
     1
102
RTVSPost2010Prop30
280
     1
102
RTVSPost2010PropOp30
 70
     1
102
RTVSPost2010Prop31
280
     0
102
RTVSPost2010PropOp31
 70
     1
102
RTVSPost2010Prop32
280
     0
102
RTVSPost2010PropOp32
 70
     1
102
RTVSPost2010Prop33
280
     0
102
RTVSPost2010PropOp33
 70
     1
102
RTVSPost2010Prop34
280
     0
102
RTVSPost2010PropOp34
 70
     1
102
RTVSPost2010Prop35
280
     0
102
RTVSPost2010PropOp35
 70
     1
102
RTVSPost2010Prop36
280
     0
102
RTVSPost2010PropOp36
 70
     1
102
RTVSPost2010Prop37
 90
       50
102
RTVSPost2010PropOp37
 70
     1
102
RTVSPost2010Prop38
140
0.0
102
RTVSPost2010PropOp38
 70
     1
102
RTVSPost2010Prop39
140
1.0
102
RTVSPost2010PropOp39
 70
     1
102
RTVSPost2010Prop40
 90
        0
102
RTVSPost2010PropOp40
 70
     1
102
RTVSPost2010Prop41ColorIndex
 90
       18
102
RTVSPost2010Prop41ColorRGB
 90
        0
102
RTVSPost2010PropOp41
 70
     1
102
RTVSPost2010Prop42
 90
       50
102
RTVSPost2010PropOp42
 70
     1
102
RTVSPost2010Prop43
 90
        3
102
RTVSPost2010PropOp43
 70
     1
102
RTVSPost2010Prop44ColorIndex
 90
        5
102
RTVSPost2010Prop44ColorRGB
 90
      255
102
RTVSPost2010PropOp44
 70
     1
102
RTVSPost2010Prop45
280
     0
102
RTVSPost2010PropOp45
 70
     1
102
RTVSPost2010Prop46
 90
       50
102
RTVSPost2010PropOp46
 70
     1
102
RTVSPost2010Prop47
 90
       50
102
RTVSPost2010PropOp47
 70
     1
102
RTVSPost2010Prop48
 90
       50
102
RTVSPost2010PropOp48
 70
     1
102
RTVSPost2010Prop49
280
     0
102
RTVSPost2010PropOp49
 70
     1
102
RTVSPost2010Prop50
 90
       50
102
RTVSPost2010PropOp50
 70
     1
102
RTVSPost2010Prop51ColorIndex
 90
      256
102
RTVSPost2010Prop51ColorRGB
 90
-16777216
102
RTVSPost2010PropOp51
 70
     0
102
RTVSPost2010Prop52
140
1.0
102
RTVSPost2010PropOp52
 70
     0
102
RTVSPost2010Prop53
 90
        2
102
RTVSPost2010PropOp53
 70
     1
102
RTVSPost2010Prop54
  1
strokes_ogs.tif
102
RTVSPost2010PropOp54
 70
     1
102
RTVSPost2010Prop55
280
     0
102
RTVSPost2010PropOp55
 70
     1
102
RTVSPost2010Prop56
140
1.0
102
RTVSPost2010PropOp56
 70
     1
102
RTVSPost2010Prop57
140
1.0
102
RTVSPost2010PropOp57
 70
     1
102
RTVSPropertyOp0
 70
     1
102
RTVSPropertyOp1
 70
     1
102
RTVSPropertyOp2
 70
     1
102
RTVSPropertyOp3
 70
     1
102
RTVSPropertyOp4
 70
     1
102
RTVSPropertyOp5
 70
     1
102
RTVSPropertyOp6
 70
     1
102
RTVSPropertyOp7
 70
     1
102
RTVSPropertyOp8
 70
     1
102
RTVSPropertyOp9
 70
     1
102
RTVSPropertyOp10
 70
     1
102
RTVSPropertyOp11
 70
     1
102
RTVSPropertyOp12
 70
     1
102
RTVSPropertyOp13
 70
     1
102
RTVSPropertyOp14
 70
     1
102
RTVSPropertyOp15
 70
     1
102
RTVSPropertyOp16
 70
     1
102
RTVSPropertyOp17
 70
     1
102
RTVSPropertyOp18
 70
     1
102
RTVSPropertyOp19
 70
     1
102
RTVSPropertyOp20
 70
     1
102
RTVSPropertyOp21
 70
     1
102
RTVSPropertyOp22
 70
     1
102
RTVSPropertyOp23
 70
     1
102
RTVSPropertyOp24
 70
     1
102
RTVSPropertyOp25
 70
     1
102
RTVSPropertyOp26
 70
     1
102
RTVSPropertyOp27
 70
     1
102
RTVSPropertyOp28
 70
     1
102
RTVSPropertyOp29
 70
     1
102
RTVSPropertyOp30
 70
     1
102
RTVSPropertyOp31
 70
     1
102
RTVSPropertyOp32
 70
     1
102
RTVSPropertyOp33
 70
     1
102
RTVSPropertyOp34
 70
     1
102
RTVSPropertyOp35
 70
     1
102
RTVSPropertyOp36
 70
     1
102
RTVSPropertyOp37
 70
     1
102
RTVSPropertyOp38
 70
     1
102
RTVSPropertyOp39
 70
     1
102
RTVSPropertyOp40
 70
     1
102
RTVSPropertyOp41
 70
     1
102
RTVSPropertyOp42
 70
     1
102
RTVSPropertyOp43
 70
     1
102
RTVSPropertyOp44
 70
     1
102
RTVSPropertyOp45
 70
     1
102
RTVSPropertyOp46
 70
     1
102
RTVSPropertyOp47
 70
     1
102
RTVSPropertyOp48
 70
     1
102
RTVSPropertyOp49
 70
     1
102
RTVSPropertyOp50
 70
     1
102
RTVSPropertyOp51
 70
     0
102
RTVSPropertyOp52
 70
     0
102
RTVSPropertyOp53
 70
     1
102
RTVSPropertyOp54
 70
     1
102
RTVSPropertyOp55
 70
     1
102
RTVSPropertyOp56
 70
     1
102
RTVSPropertyOp57
 70
     1
102
RTVSPropertyOp58
 70
     1
102
RTVSPropertyOp59
 70
     1
102
RTVSPropertyOp60
 70
     1
102
RTVSPropertyOp61
 70
     1
102
RTVSPropertyOp62
 70
     1
  0
XRECORD
  5
1AE4
102
{ACAD_REACTORS
330
1AE3
102
}
330
1AE3
100
AcDbXrecord
280
     1
102
RTVSPost2010Prop28
280
     0
102
RTVSPost2010PropOp28
 70
     1
102
RTVSPost2010Prop29
280
     1
102
RTVSPost2010PropOp29
 70
     1
102
RTVSPost2010Prop30
280
     1
102
RTVSPost2010PropOp30
 70
     1
102
RTVSPost2010Prop31
280
     0
102
RTVSPost2010PropOp31
 70
     1
102
RTVSPost2010Prop32
280
     0
102
RTVSPost2010PropOp32
 70
     1
102
RTVSPost2010Prop33
280
     0
102
RTVSPost2010PropOp33
 70
     1
102
RTVSPost2010Prop34
280
     0
102
RTVSPost2010PropOp34
 70
     1
102
RTVSPost2010Prop35
280
     0
102
RTVSPost2010PropOp35
 70
     1
102
RTVSPost2010Prop36
280
     0
102
RTVSPost2010PropOp36
 70
     1
102
RTVSPost2010Prop37
 90
       50
102
RTVSPost2010PropOp37
 70
     1
102
RTVSPost2010Prop38
140
0.0
102
RTVSPost2010PropOp38
 70
     1
102
RTVSPost2010Prop39
140
1.0
102
RTVSPost2010PropOp39
 70
     1
102
RTVSPost2010Prop40
 90
        0
102
RTVSPost2010PropOp40
 70
     1
102
RTVSPost2010Prop41ColorIndex
 90
       18
102
RTVSPost2010Prop41ColorRGB
 90
        0
102
RTVSPost2010PropOp41
 70
     1
102
RTVSPost2010Prop42
 90
       50
102
RTVSPost2010PropOp42
 70
     1
102
RTVSPost2010Prop43
 90
        3
102
RTVSPost2010PropOp43
 70
     1
102
RTVSPost2010Prop44ColorIndex
 90
        5
102
RTVSPost2010Prop44ColorRGB
 90
      255
102
RTVSPost2010PropOp44
 70
     1
102
RTVSPost2010Prop45
280
     0
102
RTVSPost2010PropOp45
 70
     1
102
RTVSPost2010Prop46
 90
       50
102
RTVSPost2010PropOp46
 70
     1
102
RTVSPost2010Prop47
 90
       50
102
RTVSPost2010PropOp47
 70
     1
102
RTVSPost2010Prop48
 90
       50
102
RTVSPost2010PropOp48
 70
     1
102
RTVSPost2010Prop49
280
     0
102
RTVSPost2010PropOp49
 70
     1
102
RTVSPost2010Prop50
 90
       50
102
RTVSPost2010PropOp50
 70
     1
102
RTVSPost2010Prop51ColorIndex
 90
      256
102
RTVSPost2010Prop51ColorRGB
 90
-16777216
102
RTVSPost2010PropOp51
 70
     0
102
RTVSPost2010Prop52
140
1.0
102
RTVSPost2010PropOp52
 70
     0
102
RTVSPost2010Prop53
 90
        2
102
RTVSPost2010PropOp53
 70
     1
102
RTVSPost2010Prop54
  1
strokes_ogs.tif
102
RTVSPost2010PropOp54
 70
     1
102
RTVSPost2010Prop55
280
     0
102
RTVSPost2010PropOp55
 70
     1
102
RTVSPost2010Prop56
140
1.0
102
RTVSPost2010PropOp56
 70
     1
102
RTVSPost2010Prop57
140
1.0
102
RTVSPost2010PropOp57
 70
     1
102
RTVSPropertyOp0
 70
     1
102
RTVSPropertyOp1
 70
     1
102
RTVSPropertyOp2
 70
     1
102
RTVSPropertyOp3
 70
     1
102
RTVSPropertyOp4
 70
     1
102
RTVSPropertyOp5
 70
     1
102
RTVSPropertyOp6
 70
     1
102
RTVSPropertyOp7
 70
     1
102
RTVSPropertyOp8
 70
     1
102
RTVSPropertyOp9
 70
     1
102
RTVSPropertyOp10
 70
     1
102
RTVSPropertyOp11
 70
     1
102
RTVSPropertyOp12
 70
     1
102
RTVSPropertyOp13
 70
     1
102
RTVSPropertyOp14
 70
     1
102
RTVSPropertyOp15
 70
     1
102
RTVSPropertyOp16
 70
     1
102
RTVSPropertyOp17
 70
     1
102
RTVSPropertyOp18
 70
     1
102
RTVSPropertyOp19
 70
     1
102
RTVSPropertyOp20
 70
     1
102
RTVSPropertyOp21
 70
     1
102
RTVSPropertyOp22
 70
     1
102
RTVSPropertyOp23
 70
     1
102
RTVSPropertyOp24
 70
     1
102
RTVSPropertyOp25
 70
     1
102
RTVSPropertyOp26
 70
     1
102
RTVSPropertyOp27
 70
     1
102
RTVSPropertyOp28
 70
     1
102
RTVSPropertyOp29
 70
     1
102
RTVSPropertyOp30
 70
     1
102
RTVSPropertyOp31
 70
     1
102
RTVSPropertyOp32
 70
     1
102
RTVSPropertyOp33
 70
     1
102
RTVSPropertyOp34
 70
     1
102
RTVSPropertyOp35
 70
     1
102
RTVSPropertyOp36
 70
     1
102
RTVSPropertyOp37
 70
     1
102
RTVSPropertyOp38
 70
     1
102
RTVSPropertyOp39
 70
     1
102
RTVSPropertyOp40
 70
     1
102
RTVSPropertyOp41
 70
     1
102
RTVSPropertyOp42
 70
     1
102
RTVSPropertyOp43
 70
     1
102
RTVSPropertyOp44
 70
     1
102
RTVSPropertyOp45
 70
     1
102
RTVSPropertyOp46
 70
     1
102
RTVSPropertyOp47
 70
     1
102
RTVSPropertyOp48
 70
     1
102
RTVSPropertyOp49
 70
     1
102
RTVSPropertyOp50
 70
     1
102
RTVSPropertyOp51
 70
     0
102
RTVSPropertyOp52
 70
     0
102
RTVSPropertyOp53
 70
     1
102
RTVSPropertyOp54
 70
     1
102
RTVSPropertyOp55
 70
     1
102
RTVSPropertyOp56
 70
     1
102
RTVSPropertyOp57
 70
     1
102
RTVSPropertyOp58
 70
     1
102
RTVSPropertyOp59
 70
     1
102
RTVSPropertyOp60
 70
     1
102
RTVSPropertyOp61
 70
     1
102
RTVSPropertyOp62
 70
     1
  0
XRECORD
  5
1AD8
102
{ACAD_REACTORS
330
1AD7
102
}
330
1AD7
100
AcDbXrecord
280
     1
102
RTVSPost2010Prop28
280
     0
102
RTVSPost2010PropOp28
 70
     1
102
RTVSPost2010Prop29
280
     1
102
RTVSPost2010PropOp29
 70
     1
102
RTVSPost2010Prop30
280
     1
102
RTVSPost2010PropOp30
 70
     1
102
RTVSPost2010Prop31
280
     0
102
RTVSPost2010PropOp31
 70
     1
102
RTVSPost2010Prop32
280
     0
102
RTVSPost2010PropOp32
 70
     1
102
RTVSPost2010Prop33
280
     0
102
RTVSPost2010PropOp33
 70
     1
102
RTVSPost2010Prop34
280
     0
102
RTVSPost2010PropOp34
 70
     1
102
RTVSPost2010Prop35
280
     0
102
RTVSPost2010PropOp35
 70
     1
102
RTVSPost2010Prop36
280
     0
102
RTVSPost2010PropOp36
 70
     1
102
RTVSPost2010Prop37
 90
       50
102
RTVSPost2010PropOp37
 70
     1
102
RTVSPost2010Prop38
140
0.0
102
RTVSPost2010PropOp38
 70
     1
102
RTVSPost2010Prop39
140
1.0
102
RTVSPost2010PropOp39
 70
     1
102
RTVSPost2010Prop40
 90
        0
102
RTVSPost2010PropOp40
 70
     1
102
RTVSPost2010Prop41ColorIndex
 90
       18
102
RTVSPost2010Prop41ColorRGB
 90
        0
102
RTVSPost2010PropOp41
 70
     1
102
RTVSPost2010Prop42
 90
       50
102
RTVSPost2010PropOp42
 70
     1
102
RTVSPost2010Prop43
 90
        3
102
RTVSPost2010PropOp43
 70
     1
102
RTVSPost2010Prop44ColorIndex
 90
        5
102
RTVSPost2010Prop44ColorRGB
 90
      255
102
RTVSPost2010PropOp44
 70
     1
102
RTVSPost2010Prop45
280
     0
102
RTVSPost2010PropOp45
 70
     1
102
RTVSPost2010Prop46
 90
       50
102
RTVSPost2010PropOp46
 70
     1
102
RTVSPost2010Prop47
 90
       50
102
RTVSPost2010PropOp47
 70
     1
102
RTVSPost2010Prop48
 90
       50
102
RTVSPost2010PropOp48
 70
     1
102
RTVSPost2010Prop49
280
     0
102
RTVSPost2010PropOp49
 70
     1
102
RTVSPost2010Prop50
 90
       50
102
RTVSPost2010PropOp50
 70
     1
102
RTVSPost2010Prop51ColorIndex
 90
      256
102
RTVSPost2010Prop51ColorRGB
 90
-16777216
102
RTVSPost2010PropOp51
 70
     0
102
RTVSPost2010Prop52
140
1.0
102
RTVSPost2010PropOp52
 70
     0
102
RTVSPost2010Prop53
 90
        2
102
RTVSPost2010PropOp53
 70
     1
102
RTVSPost2010Prop54
  1
strokes_ogs.tif
102
RTVSPost2010PropOp54
 70
     1
102
RTVSPost2010Prop55
280
     0
102
RTVSPost2010PropOp55
 70
     1
102
RTVSPost2010Prop56
140
1.0
102
RTVSPost2010PropOp56
 70
     1
102
RTVSPost2010Prop57
140
1.0
102
RTVSPost2010PropOp57
 70
     1
102
RTVSPropertyOp0
 70
     1
102
RTVSPropertyOp1
 70
     1
102
RTVSPropertyOp2
 70
     1
102
RTVSPropertyOp3
 70
     1
102
RTVSPropertyOp4
 70
     1
102
RTVSPropertyOp5
 70
     1
102
RTVSPropertyOp6
 70
     1
102
RTVSPropertyOp7
 70
     1
102
RTVSPropertyOp8
 70
     1
102
RTVSPropertyOp9
 70
     1
102
RTVSPropertyOp10
 70
     1
102
RTVSPropertyOp11
 70
     1
102
RTVSPropertyOp12
 70
     1
102
RTVSPropertyOp13
 70
     1
102
RTVSPropertyOp14
 70
     1
102
RTVSPropertyOp15
 70
     1
102
RTVSPropertyOp16
 70
     1
102
RTVSPropertyOp17
 70
     1
102
RTVSPropertyOp18
 70
     1
102
RTVSPropertyOp19
 70
     1
102
RTVSPropertyOp20
 70
     1
102
RTVSPropertyOp21
 70
     1
102
RTVSPropertyOp22
 70
     1
102
RTVSPropertyOp23
 70
     1
102
RTVSPropertyOp24
 70
     1
102
RTVSPropertyOp25
 70
     1
102
RTVSPropertyOp26
 70
     1
102
RTVSPropertyOp27
 70
     1
102
RTVSPropertyOp28
 70
     1
102
RTVSPropertyOp29
 70
     1
102
RTVSPropertyOp30
 70
     1
102
RTVSPropertyOp31
 70
     1
102
RTVSPropertyOp32
 70
     1
102
RTVSPropertyOp33
 70
     1
102
RTVSPropertyOp34
 70
     1
102
RTVSPropertyOp35
 70
     1
102
RTVSPropertyOp36
 70
     1
102
RTVSPropertyOp37
 70
     1
102
RTVSPropertyOp38
 70
     1
102
RTVSPropertyOp39
 70
     1
102
RTVSPropertyOp40
 70
     1
102
RTVSPropertyOp41
 70
     1
102
RTVSPropertyOp42
 70
     1
102
RTVSPropertyOp43
 70
     1
102
RTVSPropertyOp44
 70
     1
102
RTVSPropertyOp45
 70
     1
102
RTVSPropertyOp46
 70
     1
102
RTVSPropertyOp47
 70
     1
102
RTVSPropertyOp48
 70
     1
102
RTVSPropertyOp49
 70
     1
102
RTVSPropertyOp50
 70
     1
102
RTVSPropertyOp51
 70
     0
102
RTVSPropertyOp52
 70
     0
102
RTVSPropertyOp53
 70
     1
102
RTVSPropertyOp54
 70
     1
102
RTVSPropertyOp55
 70
     1
102
RTVSPropertyOp56
 70
     1
102
RTVSPropertyOp57
 70
     1
102
RTVSPropertyOp58
 70
     1
102
RTVSPropertyOp59
 70
     1
102
RTVSPropertyOp60
 70
     1
102
RTVSPropertyOp61
 70
     1
102
RTVSPropertyOp62
 70
     1
  0
XRECORD
  5
1AF0
102
{ACAD_REACTORS
330
1AEF
102
}
330
1AEF
100
AcDbXrecord
280
     1
102
RTVSPost2010Prop28
280
     0
102
RTVSPost2010PropOp28
 70
     1
102
RTVSPost2010Prop29
280
     1
102
RTVSPost2010PropOp29
 70
     1
102
RTVSPost2010Prop30
280
     1
102
RTVSPost2010PropOp30
 70
     1
102
RTVSPost2010Prop31
280
     0
102
RTVSPost2010PropOp31
 70
     1
102
RTVSPost2010Prop32
280
     0
102
RTVSPost2010PropOp32
 70
     1
102
RTVSPost2010Prop33
280
     0
102
RTVSPost2010PropOp33
 70
     1
102
RTVSPost2010Prop34
280
     0
102
RTVSPost2010PropOp34
 70
     1
102
RTVSPost2010Prop35
280
     0
102
RTVSPost2010PropOp35
 70
     1
102
RTVSPost2010Prop36
280
     0
102
RTVSPost2010PropOp36
 70
     1
102
RTVSPost2010Prop37
 90
       50
102
RTVSPost2010PropOp37
 70
     1
102
RTVSPost2010Prop38
140
0.0
102
RTVSPost2010PropOp38
 70
     1
102
RTVSPost2010Prop39
140
1.0
102
RTVSPost2010PropOp39
 70
     1
102
RTVSPost2010Prop40
 90
        0
102
RTVSPost2010PropOp40
 70
     1
102
RTVSPost2010Prop41ColorIndex
 90
       18
102
RTVSPost2010Prop41ColorRGB
 90
        0
102
RTVSPost2010PropOp41
 70
     1
102
RTVSPost2010Prop42
 90
       50
102
RTVSPost2010PropOp42
 70
     1
102
RTVSPost2010Prop43
 90
        3
102
RTVSPost2010PropOp43
 70
     1
102
RTVSPost2010Prop44ColorIndex
 90
        5
102
RTVSPost2010Prop44ColorRGB
 90
      255
102
RTVSPost2010PropOp44
 70
     1
102
RTVSPost2010Prop45
280
     0
102
RTVSPost2010PropOp45
 70
     1
102
RTVSPost2010Prop46
 90
       50
102
RTVSPost2010PropOp46
 70
     1
102
RTVSPost2010Prop47
 90
       50
102
RTVSPost2010PropOp47
 70
     1
102
RTVSPost2010Prop48
 90
       50
102
RTVSPost2010PropOp48
 70
     1
102
RTVSPost2010Prop49
280
     0
102
RTVSPost2010PropOp49
 70
     1
102
RTVSPost2010Prop50
 90
       50
102
RTVSPost2010PropOp50
 70
     1
102
RTVSPost2010Prop51ColorIndex
 90
      256
102
RTVSPost2010Prop51ColorRGB
 90
-16777216
102
RTVSPost2010PropOp51
 70
     0
102
RTVSPost2010Prop52
140
1.0
102
RTVSPost2010PropOp52
 70
     0
102
RTVSPost2010Prop53
 90
        2
102
RTVSPost2010PropOp53
 70
     1
102
RTVSPost2010Prop54
  1
strokes_ogs.tif
102
RTVSPost2010PropOp54
 70
     1
102
RTVSPost2010Prop55
280
     0
102
RTVSPost2010PropOp55
 70
     1
102
RTVSPost2010Prop56
140
1.0
102
RTVSPost2010PropOp56
 70
     1
102
RTVSPost2010Prop57
140
1.0
102
RTVSPost2010PropOp57
 70
     1
102
RTVSPropertyOp0
 70
     1
102
RTVSPropertyOp1
 70
     1
102
RTVSPropertyOp2
 70
     1
102
RTVSPropertyOp3
 70
     1
102
RTVSPropertyOp4
 70
     1
102
RTVSPropertyOp5
 70
     1
102
RTVSPropertyOp6
 70
     1
102
RTVSPropertyOp7
 70
     1
102
RTVSPropertyOp8
 70
     1
102
RTVSPropertyOp9
 70
     1
102
RTVSPropertyOp10
 70
     1
102
RTVSPropertyOp11
 70
     1
102
RTVSPropertyOp12
 70
     1
102
RTVSPropertyOp13
 70
     1
102
RTVSPropertyOp14
 70
     1
102
RTVSPropertyOp15
 70
     1
102
RTVSPropertyOp16
 70
     1
102
RTVSPropertyOp17
 70
     1
102
RTVSPropertyOp18
 70
     1
102
RTVSPropertyOp19
 70
     1
102
RTVSPropertyOp20
 70
     1
102
RTVSPropertyOp21
 70
     1
102
RTVSPropertyOp22
 70
     1
102
RTVSPropertyOp23
 70
     1
102
RTVSPropertyOp24
 70
     1
102
RTVSPropertyOp25
 70
     1
102
RTVSPropertyOp26
 70
     1
102
RTVSPropertyOp27
 70
     1
102
RTVSPropertyOp28
 70
     1
102
RTVSPropertyOp29
 70
     1
102
RTVSPropertyOp30
 70
     1
102
RTVSPropertyOp31
 70
     1
102
RTVSPropertyOp32
 70
     1
102
RTVSPropertyOp33
 70
     1
102
RTVSPropertyOp34
 70
     1
102
RTVSPropertyOp35
 70
     1
102
RTVSPropertyOp36
 70
     1
102
RTVSPropertyOp37
 70
     1
102
RTVSPropertyOp38
 70
     1
102
RTVSPropertyOp39
 70
     1
102
RTVSPropertyOp40
 70
     1
102
RTVSPropertyOp41
 70
     1
102
RTVSPropertyOp42
 70
     1
102
RTVSPropertyOp43
 70
     1
102
RTVSPropertyOp44
 70
     1
102
RTVSPropertyOp45
 70
     1
102
RTVSPropertyOp46
 70
     1
102
RTVSPropertyOp47
 70
     1
102
RTVSPropertyOp48
 70
     1
102
RTVSPropertyOp49
 70
     1
102
RTVSPropertyOp50
 70
     1
102
RTVSPropertyOp51
 70
     0
102
RTVSPropertyOp52
 70
     0
102
RTVSPropertyOp53
 70
     1
102
RTVSPropertyOp54
 70
     1
102
RTVSPropertyOp55
 70
     1
102
RTVSPropertyOp56
 70
     1
102
RTVSPropertyOp57
 70
     1
102
RTVSPropertyOp58
 70
     1
102
RTVSPropertyOp59
 70
     1
102
RTVSPropertyOp60
 70
     1
102
RTVSPropertyOp61
 70
     1
102
RTVSPropertyOp62
 70
     1
  0
ENDSEC
  0
EOF
