  0
SECTION
  2
HEADER
  9
$ACADVER
  1
AC1015
  9
$ACADMAINTVER
 70
    20
  9
$DWGCODEPAGE
  3
ANSI_1252
  9
$INSBASE
 10
0.0
 20
0.0
 30
0.0
  9
$EXTMIN
 10
4053.213355739218
 20
1640.227251016593
 30
0.0
  9
$EXTMAX
 10
4055.999962993237
 20
1641.066477262473
 30
0.0
  9
$LIMMIN
 10
0.0
 20
0.0
  9
$LIMMAX
 10
420.0
 20
297.0
  9
$ORTHOMODE
 70
     1
  9
$REGENMODE
 70
     1
  9
$FILLMODE
 70
     1
  9
$QTEXTMODE
 70
     0
  9
$MIRRTEXT
 70
     1
  9
$LTSCALE
 40
1.0
  9
$ATTMODE
 70
     1
  9
$TEXTSIZE
 40
2.5
  9
$TRACEWID
 40
1.0
  9
$TEXTSTYLE
  7
SANINDUSA
  9
$CLAYER
  8
0
  9
$CELTYPE
  6
ByLayer
  9
$CECOLOR
 62
   256
  9
$CELTSCALE
 40
1.0
  9
$DISPSILH
 70
     0
  9
$DIMSCALE
 40
1.0
  9
$DIMASZ
 40
2.0
  9
$DIMEXO
 40
1.0
  9
$DIMDLI
 40
1.0
  9
$DIMRND
 40
0.0
  9
$DIMDLE
 40
0.0
  9
$DIMEXE
 40
1.0
  9
$DIMTP
 40
0.0
  9
$DIMTM
 40
0.0
  9
$DIMTXT
 40
2.0
  9
$DIMCEN
 40
0.0
  9
$DIMTSZ
 40
0.0
  9
$DIMTOL
 70
     0
  9
$DIMLIM
 70
     0
  9
$DIMTIH
 70
     0
  9
$DIMTOH
 70
     0
  9
$DIMSE1
 70
     0
  9
$DIMSE2
 70
     0
  9
$DIMTAD
 70
     1
  9
$DIMZIN
 70
     8
  9
$DIMBLK
  1

  9
$DIMASO
 70
     1
  9
$DIMSHO
 70
     1
  9
$DIMPOST
  1

  9
$DIMAPOST
  1

  9
$DIMALT
 70
     0
  9
$DIMALTD
 70
     3
  9
$DIMALTF
 40
0.03937007874016
  9
$DIMLFAC
 40
1.0
  9
$DIMTOFL
 70
     1
  9
$DIMTVP
 40
0.0
  9
$DIMTIX
 70
     0
  9
$DIMSOXD
 70
     0
  9
$DIMSAH
 70
     0
  9
$DIMBLK1
  1

  9
$DIMBLK2
  1

  9
$DIMSTYLE
  2
SANINDUSA
  9
$DIMCLRD
 70
   256
  9
$DIMCLRE
 70
   256
  9
$DIMCLRT
 70
   256
  9
$DIMTFAC
 40
1.0
  9
$DIMGAP
 40
1.0
  9
$DIMJUST
 70
     0
  9
$DIMSD1
 70
     0
  9
$DIMSD2
 70
     0
  9
$DIMTOLJ
 70
     0
  9
$DIMTZIN
 70
     8
  9
$DIMALTZ
 70
     0
  9
$DIMALTTZ
 70
     0
  9
$DIMUPT
 70
     0
  9
$DIMDEC
 70
     1
  9
$DIMTDEC
 70
     1
  9
$DIMALTU
 70
     2
  9
$DIMALTTD
 70
     3
  9
$DIMTXSTY
  7
SANINDUSA
  9
$DIMAUNIT
 70
     0
  9
$DIMADEC
 70
     1
  9
$DIMALTRND
 40
0.0
  9
$DIMAZIN
 70
     0
  9
$DIMDSEP
 70
    44
  9
$DIMATFIT
 70
     3
  9
$DIMFRAC
 70
     0
  9
$DIMLDRBLK
  1

  9
$DIMLUNIT
 70
     2
  9
$DIMLWD
 70
    -1
  9
$DIMLWE
 70
    -1
  9
$DIMTMOVE
 70
     0
  9
$LUNITS
 70
     2
  9
$LUPREC
 70
     4
  9
$SKETCHINC
 40
1.0
  9
$FILLETRAD
 40
0.0
  9
$AUNITS
 70
     0
  9
$AUPREC
 70
     0
  9
$MENU
  1
.
  9
$ELEVATION
 40
0.0
  9
$PELEVATION
 40
0.0
  9
$THICKNESS
 40
0.0
  9
$LIMCHECK
 70
     0
  9
$CHAMFERA
 40
10.0
  9
$CHAMFERB
 40
10.0
  9
$CHAMFERC
 40
20.0
  9
$CHAMFERD
 40
0.0
  9
$SKPOLY
 70
     0
  9
$TDCREATE
 40
2455779.457668901
  9
$TDUCREATE
 40
2455779.416002234
  9
$TDUPDATE
 40
2456111.440877269
  9
$TDUUPDATE
 40
2456111.399210602
  9
$TDINDWG
 40
0.0095690509
  9
$TDUSRTIMER
 40
0.0095690509
  9
$USRTIMER
 70
     1
  9
$ANGBASE
 50
0.0
  9
$ANGDIR
 70
     0
  9
$PDMODE
 70
     0
  9
$PDSIZE
 40
0.0
  9
$PLINEWID
 40
0.0
  9
$SPLFRAME
 70
     0
  9
$SPLINETYPE
 70
     6
  9
$SPLINESEGS
 70
     8
  9
$HANDSEED
  5
1758
  9
$SURFTAB1
 70
     6
  9
$SURFTAB2
 70
     6
  9
$SURFTYPE
 70
     6
  9
$SURFU
 70
     6
  9
$SURFV
 70
     6
  9
$UCSBASE
  2

  9
$UCSNAME
  2

  9
$UCSORG
 10
0.0
 20
0.0
 30
0.0
  9
$UCSXDIR
 10
1.0
 20
0.0
 30
0.0
  9
$UCSYDIR
 10
0.0
 20
1.0
 30
0.0
  9
$UCSORTHOREF
  2

  9
$UCSORTHOVIEW
 70
     0
  9
$UCSORGTOP
 10
0.0
 20
0.0
 30
0.0
  9
$UCSORGBOTTOM
 10
0.0
 20
0.0
 30
0.0
  9
$UCSORGLEFT
 10
0.0
 20
0.0
 30
0.0
  9
$UCSORGRIGHT
 10
0.0
 20
0.0
 30
0.0
  9
$UCSORGFRONT
 10
0.0
 20
0.0
 30
0.0
  9
$UCSORGBACK
 10
0.0
 20
0.0
 30
0.0
  9
$PUCSBASE
  2

  9
$PUCSNAME
  2

  9
$PUCSORG
 10
0.0
 20
0.0
 30
0.0
  9
$PUCSXDIR
 10
1.0
 20
0.0
 30
0.0
  9
$PUCSYDIR
 10
0.0
 20
1.0
 30
0.0
  9
$PUCSORTHOREF
  2

  9
$PUCSORTHOVIEW
 70
     0
  9
$PUCSORGTOP
 10
0.0
 20
0.0
 30
0.0
  9
$PUCSORGBOTTOM
 10
0.0
 20
0.0
 30
0.0
  9
$PUCSORGLEFT
 10
0.0
 20
0.0
 30
0.0
  9
$PUCSORGRIGHT
 10
0.0
 20
0.0
 30
0.0
  9
$PUCSORGFRONT
 10
0.0
 20
0.0
 30
0.0
  9
$PUCSORGBACK
 10
0.0
 20
0.0
 30
0.0
  9
$USERI1
 70
     0
  9
$USERI2
 70
     0
  9
$USERI3
 70
     0
  9
$USERI4
 70
     0
  9
$USERI5
 70
     0
  9
$USERR1
 40
0.0
  9
$USERR2
 40
0.0
  9
$USERR3
 40
0.0
  9
$USERR4
 40
0.0
  9
$USERR5
 40
0.0
  9
$WORLDVIEW
 70
     1
  9
$SHADEDGE
 70
     3
  9
$SHADEDIF
 70
    70
  9
$TILEMODE
 70
     1
  9
$MAXACTVP
 70
    64
  9
$PINSBASE
 10
0.0
 20
0.0
 30
0.0
  9
$PLIMCHECK
 70
     0
  9
$PEXTMIN
 10
1.000000000000000E+20
 20
1.000000000000000E+20
 30
1.000000000000000E+20
  9
$PEXTMAX
 10
-1.000000000000000E+20
 20
-1.000000000000000E+20
 30
-1.000000000000000E+20
  9
$PLIMMIN
 10
0.0
 20
0.0
  9
$PLIMMAX
 10
420.0
 20
297.0
  9
$UNITMODE
 70
     0
  9
$VISRETAIN
 70
     1
  9
$PLINEGEN
 70
     0
  9
$PSLTSCALE
 70
     1
  9
$TREEDEPTH
 70
  3020
  9
$CMLSTYLE
  2
Standard
  9
$CMLJUST
 70
     0
  9
$CMLSCALE
 40
20.0
  9
$PROXYGRAPHICS
 70
     1
  9
$MEASUREMENT
 70
     1
  9
$CELWEIGHT
370
    -1
  9
$ENDCAPS
280
     0
  9
$JOINSTYLE
280
     0
  9
$LWDISPLAY
290
     0
  9
$INSUNITS
 70
     4
  9
$HYPERLINKBASE
  1

  9
$STYLESHEET
  1
sanindusa.ctb
  9
$XEDIT
290
     1
  9
$CEPSNTYPE
380
     0
  9
$PSTYLEMODE
290
     1
  9
$FINGERPRINTGUID
  2
{381C7DC3-923E-43FA-AF80-B22F077AD1AB}
  9
$VERSIONGUID
  2
{F1798EC9-C9DD-49B5-8F61-4965A04DCC25}
  9
$EXTNAMES
290
     1
  9
$PSVPSCALE
 40
0.0
  9
$OLESTARTUP
290
     0
  0
ENDSEC
  0
SECTION
  2
CLASSES
  0
CLASS
  1
ACDBDICTIONARYWDFLT
  2
AcDbDictionaryWithDefault
  3
ObjectDBX Classes
 90
        0
280
     0
281
     0
  0
CLASS
  1
ACDBPLACEHOLDER
  2
AcDbPlaceHolder
  3
ObjectDBX Classes
 90
        0
280
     0
281
     0
  0
CLASS
  1
LAYOUT
  2
AcDbLayout
  3
ObjectDBX Classes
 90
        0
280
     0
281
     0
  0
CLASS
  1
DICTIONARYVAR
  2
AcDbDictionaryVar
  3
ObjectDBX Classes
 90
        0
280
     0
281
     0
  0
CLASS
  1
DIMASSOC
  2
AcDbDimAssoc
  3
"AcDbDimAssoc|Product Desc:     AcDim ARX App For Dimension|Company:          Autodesk, Inc.|WEB Address:      www.autodesk.com"
 90
    32768
280
     0
281
     0
  0
CLASS
  1
TABLESTYLE
  2
AcDbTableStyle
  3
ObjectDBX Classes
 90
     4095
280
     0
281
     0
  0
CLASS
  1
MATERIAL
  2
AcDbMaterial
  3
ObjectDBX Classes
 90
     1153
280
     0
281
     0
  0
CLASS
  1
VISUALSTYLE
  2
AcDbVisualStyle
  3
ObjectDBX Classes
 90
     4095
280
     0
281
     0
  0
CLASS
  1
SCALE
  2
AcDbScale
  3
ObjectDBX Classes
 90
     1153
280
     0
281
     0
  0
CLASS
  1
MLEADERSTYLE
  2
AcDbMLeaderStyle
  3
ACDB_MLEADERSTYLE_CLASS
 90
     4095
280
     0
281
     0
  0
CLASS
  1
AEC_REFEDIT_STATUS_TRACKER
  2
AecDbRefEditStatusTracker
  3
AecArchBase60|Product Desc: Autodesk Architectural Desktop 2007 |Company: Autodesk,Inc. |WEB Address: www.autodesk.com
 90
    32897
280
     0
281
     0
  0
CLASS
  1
NPOCOLLECTION
  2
AcDbImpNonPersistentObjectsCollection
  3
ObjectDBX Classes
 90
    33921
280
     0
281
     0
  0
CLASS
  1
CELLSTYLEMAP
  2
AcDbCellStyleMap
  3
ObjectDBX Classes
 90
     1152
280
     0
281
     0
  0
CLASS
  1
SOLID_BACKGROUND
  2
AcDbSolidBackground
  3
SCENEOE
 90
    36863
280
     0
281
     0
  0
ENDSEC
  0
SECTION
  2
TABLES
  0
TABLE
  2
VPORT
  5
8
102
{ACAD_XDICTIONARY
360
16E2
102
}
330
0
100
AcDbSymbolTable
 70
     1
  0
VPORT
  5
1068
330
8
100
AcDbSymbolTableRecord
100
AcDbViewportTableRecord
  2
*Active
 70
     0
 10
0.0
 20
0.0
 11
1.0
 21
1.0
 12
4054.606528514694
 22
1640.646864139533
 13
0.0
 23
0.0
 14
10.0
 24
10.0
 15
10.0
 25
10.0
 16
0.0
 26
0.0
 36
1.0
 17
0.0
 27
0.0
 37
0.0
 40
1.699781303196356
 41
1.645464025026068
 42
50.0
 43
0.0
 44
0.0
 50
0.0
 51
0.0
 71
     0
 72
   100
 73
     1
 74
     2
 75
     0
 76
     0
 77
     0
 78
     0
281
     0
 65
     1
110
0.0
120
0.0
130
0.0
111
1.0
121
0.0
131
0.0
112
0.0
122
1.0
132
0.0
 79
     0
146
0.0
  0
ENDTAB
  0
TABLE
  2
LTYPE
  5
5
330
0
100
AcDbSymbolTable
 70
     5
  0
LTYPE
  5
14
330
5
100
AcDbSymbolTableRecord
100
AcDbLinetypeTableRecord
  2
ByBlock
 70
     0
  3

 72
    65
 73
     0
 40
0.0
  0
LTYPE
  5
15
330
5
100
AcDbSymbolTableRecord
100
AcDbLinetypeTableRecord
  2
ByLayer
 70
     0
  3

 72
    65
 73
     0
 40
0.0
  0
LTYPE
  5
16
330
5
100
AcDbSymbolTableRecord
100
AcDbLinetypeTableRecord
  2
Continuous
 70
     0
  3
Solid line
 72
    65
 73
     0
 40
0.0
  0
LTYPE
  5
2D
330
5
100
AcDbSymbolTableRecord
100
AcDbLinetypeTableRecord
  2
DASHDOT
 70
     0
  3
Dash dot __ . __ . __ . __ . __ . __ . __ . __
 72
    65
 73
     4
 40
25.4
 49
12.7
 74
     0
 49
-6.349999999999999
 74
     0
 49
0.0
 74
     0
 49
-6.349999999999999
 74
     0
  0
LTYPE
  5
2E
330
5
100
AcDbSymbolTableRecord
100
AcDbLinetypeTableRecord
  2
HIDDEN
 70
     0
  3
Hidden __ __ __ __ __ __ __ __ __ __ __ __ __ _
 72
    65
 73
     2
 40
9.524999999999998
 49
6.349999999999999
 74
     0
 49
-3.174999999999999
 74
     0
  0
LTYPE
  5
C75
330
5
100
AcDbSymbolTableRecord
100
AcDbLinetypeTableRecord
  2
AM_ISO02W050
 70
     0
  3
__ __ __ __ __ __ __ __ __ __ __ __ __ __ __
 72
    65
 73
     2
 40
7.5
 49
6.0
 74
     0
 49
-1.5
 74
     0
  0
LTYPE
  5
C76
330
5
100
AcDbSymbolTableRecord
100
AcDbLinetypeTableRecord
  2
AM_ISO08W050
 70
     0
  3
____ . ____ . ____ . ____ . ____ . ____ . ____
 72
    65
 73
     4
 40
18.0
 49
12.0
 74
     0
 49
-1.5
 74
     0
 49
3.0
 74
     0
 49
-1.5
 74
     0
  0
ENDTAB
  0
TABLE
  2
LAYER
  5
2
102
{ACAD_XDICTIONARY
360
1051
102
}
330
0
100
AcDbSymbolTable
 70
    17
  0
LAYER
  5
10
102
{ACAD_XDICTIONARY
360
167C
102
}
330
2
100
AcDbSymbolTableRecord
100
AcDbLayerTableRecord
  2
0
 70
     0
 62
     7
  6
Continuous
370
    -3
390
F
  0
LAYER
  5
2F
102
{ACAD_XDICTIONARY
360
167E
102
}
330
2
100
AcDbSymbolTableRecord
100
AcDbLayerTableRecord
  2
1
 70
     0
 62
     1
  6
Continuous
370
    -3
390
F
  0
LAYER
  5
30
102
{ACAD_XDICTIONARY
360
1680
102
}
330
2
100
AcDbSymbolTableRecord
100
AcDbLayerTableRecord
  2
2
 70
     0
 62
     2
  6
Continuous
370
    -3
390
F
  0
LAYER
  5
31
102
{ACAD_XDICTIONARY
360
1682
102
}
330
2
100
AcDbSymbolTableRecord
100
AcDbLayerTableRecord
  2
3
 70
     0
 62
     3
  6
Continuous
370
    -3
390
F
  0
LAYER
  5
32
102
{ACAD_XDICTIONARY
360
1684
102
}
330
2
100
AcDbSymbolTableRecord
100
AcDbLayerTableRecord
  2
4
 70
     0
 62
     4
  6
Continuous
370
    -3
390
F
  0
LAYER
  5
33
102
{ACAD_XDICTIONARY
360
1686
102
}
330
2
100
AcDbSymbolTableRecord
100
AcDbLayerTableRecord
  2
5
 70
     0
 62
     5
  6
Continuous
370
    -3
390
F
  0
LAYER
  5
34
102
{ACAD_XDICTIONARY
360
1688
102
}
330
2
100
AcDbSymbolTableRecord
100
AcDbLayerTableRecord
  2
6
 70
     0
 62
     6
  6
Continuous
370
    -3
390
F
  0
LAYER
  5
35
102
{ACAD_XDICTIONARY
360
168A
102
}
330
2
100
AcDbSymbolTableRecord
100
AcDbLayerTableRecord
  2
7
 70
     0
 62
     7
  6
Continuous
370
    -3
390
F
  0
LAYER
  5
36
102
{ACAD_XDICTIONARY
360
168C
102
}
330
2
100
AcDbSymbolTableRecord
100
AcDbLayerTableRecord
  2
cen
 70
     0
 62
     7
  6
DASHDOT
370
    -3
390
F
  0
LAYER
  5
37
102
{ACAD_XDICTIONARY
360
168E
102
}
330
2
100
AcDbSymbolTableRecord
100
AcDbLayerTableRecord
  2
hid
 70
     0
 62
     7
  6
HIDDEN
370
    -3
390
F
  0
LAYER
  5
5D6
102
{ACAD_XDICTIONARY
360
1690
102
}
330
2
100
AcDbSymbolTableRecord
100
AcDbLayerTableRecord
  2
hatch
 70
     0
 62
     9
  6
Continuous
370
    -3
390
F
  0
LAYER
  5
8AF
102
{ACAD_XDICTIONARY
360
1692
102
}
330
2
100
AcDbSymbolTableRecord
100
AcDbLayerTableRecord
  2
9
 70
     0
 62
     9
  6
Continuous
370
    -3
390
F
  0
LAYER
  5
8F8
102
{ACAD_XDICTIONARY
360
1694
102
}
330
2
100
AcDbSymbolTableRecord
100
AcDbLayerTableRecord
  2
leg fin
 70
     0
 62
     9
  6
Continuous
370
    -3
390
F
  0
LAYER
  5
91D
102
{ACAD_XDICTIONARY
360
1696
102
}
330
2
100
AcDbSymbolTableRecord
100
AcDbLayerTableRecord
  2
cotas
 70
     0
 62
     1
  6
Continuous
370
    -3
390
F
  0
LAYER
  5
92F
330
2
100
AcDbSymbolTableRecord
100
AcDbLayerTableRecord
  2
Defpoints
 70
     0
 62
     7
  6
Continuous
290
     0
370
    -3
390
F
  0
LAYER
  5
C7B
102
{ACAD_XDICTIONARY
360
1698
102
}
330
2
100
AcDbSymbolTableRecord
100
AcDbLayerTableRecord
  2
SANINDUSA
 70
     0
 62
     3
  6
Continuous
370
    -3
390
F
  0
LAYER
  5
1060
102
{ACAD_XDICTIONARY
360
169A
102
}
330
2
100
AcDbSymbolTableRecord
100
AcDbLayerTableRecord
  2
hid1
 70
     0
 62
     9
  6
HIDDEN
370
    -3
390
F
1001
AcAecLayerStandard
1000

1000

  0
ENDTAB
  0
TABLE
  2
STYLE
  5
3
330
0
100
AcDbSymbolTable
 70
     4
  0
STYLE
  5
11
330
3
100
AcDbSymbolTableRecord
100
AcDbTextStyleTableRecord
  2
Standard
 70
     0
 40
0.0
 41
1.0
 50
0.0
 71
     0
 42
2.5
  3
Avgardn.ttf
  4

1001
ACAD
1000
AvantGarde Bk BT
1071
       34
  0
STYLE
  5
2C
330
3
100
AcDbSymbolTableRecord
100
AcDbTextStyleTableRecord
  2

 70
     1
 40
0.0
 41
1.0
 50
0.0
 71
     0
 42
2.5
  3
ltypeshp.shx
  4

  0
STYLE
  5
91F
330
3
100
AcDbSymbolTableRecord
100
AcDbTextStyleTableRecord
  2
SANINDUSA
 70
     0
 40
0.0
 41
1.0
 50
0.0
 71
     0
 42
2.5
  3
verdana.TTF
  4

1001
ACAD
1000
Verdana
1071
       34
  0
STYLE
  5
C7C
330
3
100
AcDbSymbolTableRecord
100
AcDbTextStyleTableRecord
  2
futura
 70
     0
 40
0.0
 41
1.0
 50
0.0
 71
     0
 42
2.5
  3
ZURCHN.TTF
  4

1001
ACAD
1000
Zurich BT
1071
       34
  0
ENDTAB
  0
TABLE
  2
VIEW
  5
6
330
0
100
AcDbSymbolTable
 70
     0
  0
ENDTAB
  0
TABLE
  2
UCS
  5
7
330
0
100
AcDbSymbolTable
 70
     0
  0
ENDTAB
  0
TABLE
  2
APPID
  5
9
330
0
100
AcDbSymbolTable
 70
    13
  0
APPID
  5
12
330
9
100
AcDbSymbolTableRecord
100
AcDbRegAppTableRecord
  2
ACAD
 70
     0
  0
APPID
  5
3A
330
9
100
AcDbSymbolTableRecord
100
AcDbRegAppTableRecord
  2
DCO15
 70
     0
  0
APPID
  5
EEE
330
9
100
AcDbSymbolTableRecord
100
AcDbRegAppTableRecord
  2
ACAD_DSTYLE_DIMTEXT_FILL
 70
     0
  0
APPID
  5
EEF
330
9
100
AcDbSymbolTableRecord
100
AcDbRegAppTableRecord
  2
ACAD_DSTYLE_DIMEXT_LENGTH
 70
     0
  0
APPID
  5
EF0
330
9
100
AcDbSymbolTableRecord
100
AcDbRegAppTableRecord
  2
ACAD_DSTYLE_DIMEXT_ENABLED
 70
     0
  0
APPID
  5
EF1
330
9
100
AcDbSymbolTableRecord
100
AcDbRegAppTableRecord
  2
ACAD_DSTYLE_DIM_LINETYPE
 70
     0
  0
APPID
  5
EF2
330
9
100
AcDbSymbolTableRecord
100
AcDbRegAppTableRecord
  2
ACAD_DSTYLE_DIM_EXT1_LINETYPE
 70
     0
  0
APPID
  5
EF3
330
9
100
AcDbSymbolTableRecord
100
AcDbRegAppTableRecord
  2
ACAD_DSTYLE_DIM_EXT2_LINETYPE
 70
     0
  0
APPID
  5
FAF
330
9
100
AcDbSymbolTableRecord
100
AcDbRegAppTableRecord
  2
ACAD_DSTYLE_DIMJOGGED_JOGANGLE_SYMBOL
 70
     0
  0
APPID
  5
1013
330
9
100
AcDbSymbolTableRecord
100
AcDbRegAppTableRecord
  2
ACAD_DSTYLE_DIMARC_LENGTH_SYMBOL
 70
     0
  0
APPID
  5
1061
330
9
100
AcDbSymbolTableRecord
100
AcDbRegAppTableRecord
  2
AcAecLayerStandard
 70
     0
  0
APPID
  5
166F
330
9
100
AcDbSymbolTableRecord
100
AcDbRegAppTableRecord
  2
ACAD_EXEMPT_FROM_CAD_STANDARDS
 70
     0
  0
APPID
  5
1714
330
9
100
AcDbSymbolTableRecord
100
AcDbRegAppTableRecord
  2
ACAD_MLEADERVER
 70
     0
  0
ENDTAB
  0
TABLE
  2
DIMSTYLE
  5
A
330
0
100
AcDbSymbolTable
 70
     4
100
AcDbDimStyleTable
 71
     1
340
921
  0
DIMSTYLE
105
45
330
A
100
AcDbSymbolTableRecord
100
AcDbDimStyleTableRecord
  2
STANDARD
 70
     0
289
     0
340
11
  0
DIMSTYLE
105
921
330
A
100
AcDbSymbolTableRecord
100
AcDbDimStyleTableRecord
  2
SANINDUSA
 70
     0
 41
2.0
 42
1.0
 43
1.0
 44
1.0
 73
     0
 74
     0
 77
     1
 78
     8
140
2.0
141
0.0
143
0.03937007874016
147
1.0
171
     3
172
     1
176
   256
177
   256
178
   256
179
     1
271
     1
272
     1
274
     3
278
    44
283
     0
284
     8
340
91F
371
    -1
372
    -1
1001
ACAD_DSTYLE_DIMJOGGED_JOGANGLE_SYMBOL
1070
   384
1040
1.570796326794896
  0
DIMSTYLE
105
C7D
330
A
100
AcDbSymbolTableRecord
100
AcDbDimStyleTableRecord
  2
AM_ISO
 70
     0
  4
"
 41
2.5
 42
1.0
 43
10.0
 44
1.0
 47
0.1
 48
0.1
 73
     0
 74
     0
 77
     1
 78
     8
 79
     2
140
3.5
141
0.0
143
0.0393701
146
0.71
147
1.5
172
     1
176
   256
177
   256
178
     2
271
     2
272
     3
274
     4
283
     0
284
     8
340
11
371
    -1
372
    -1
  0
DIMSTYLE
105
10B3
330
A
100
AcDbSymbolTableRecord
100
AcDbDimStyleTableRecord
  2
ISO-25
 70
     0
 41
2.5
 42
0.625
 43
3.75
 44
1.25
 73
     0
 74
     0
 77
     1
 78
     8
140
2.5
141
2.5
143
0.03937007874016
147
0.625
171
     3
172
     1
271
     2
272
     2
274
     3
278
    44
283
     0
284
     8
340
11
  0
ENDTAB
  0
TABLE
  2
BLOCK_RECORD
  5
1
330
0
100
AcDbSymbolTable
 70
     7
  0
BLOCK_RECORD
  5
1F
330
1
100
AcDbSymbolTableRecord
100
AcDbBlockTableRecord
  2
*Model_Space
340
22
  0
BLOCK_RECORD
  5
1B
330
1
100
AcDbSymbolTableRecord
100
AcDbBlockTableRecord
  2
*Paper_Space
340
1E
  0
BLOCK_RECORD
  5
23
330
1
100
AcDbSymbolTableRecord
100
AcDbBlockTableRecord
  2
*Paper_Space0
340
26
  0
BLOCK_RECORD
  5
919
330
1
100
AcDbSymbolTableRecord
100
AcDbBlockTableRecord
  2
_DotSmall
340
0
  0
BLOCK_RECORD
  5
922
330
1
100
AcDbSymbolTableRecord
100
AcDbBlockTableRecord
  2
base para cotas
340
0
310
2800000020000000200000000100080000000000000400000000000000000000000000000000000000000000000080000080000000808000800000008000800080800000C0C0C000C0DCC000F0CAA6000020400000206000002080000020A0000020C0000020E00000400000004020000040400000406000004080000040A0
310
000040C0000040E00000600000006020000060400000606000006080000060A0000060C0000060E00000800000008020000080400000806000008080000080A0000080C0000080E00000A0000000A0200000A0400000A0600000A0800000A0A00000A0C00000A0E00000C0000000C0200000C0400000C0600000C0800000C0
310
A00000C0C00000C0E00000E0000000E0200000E0400000E0600000E0800000E0A00000E0C00000E0E00040000000400020004000400040006000400080004000A0004000C0004000E00040200000402020004020400040206000402080004020A0004020C0004020E000404000004040200040404000404060004040800040
310
40A0004040C0004040E00040600000406020004060400040606000406080004060A0004060C0004060E00040800000408020004080400040806000408080004080A0004080C0004080E00040A0000040A0200040A0400040A0600040A0800040A0A00040A0C00040A0E00040C0000040C0200040C0400040C0600040C08000
310
40C0A00040C0C00040C0E00040E0000040E0200040E0400040E0600040E0800040E0A00040E0C00040E0E00080000000800020008000400080006000800080008000A0008000C0008000E00080200000802020008020400080206000802080008020A0008020C0008020E00080400000804020008040400080406000804080
310
008040A0008040C0008040E00080600000806020008060400080606000806080008060A0008060C0008060E00080800000808020008080400080806000808080008080A0008080C0008080E00080A0000080A0200080A0400080A0600080A0800080A0A00080A0C00080A0E00080C0000080C0200080C0400080C0600080C0
310
800080C0A00080C0C00080C0E00080E0000080E0200080E0400080E0600080E0800080E0A00080E0C00080E0E000C0000000C0002000C0004000C0006000C0008000C000A000C000C000C000E000C0200000C0202000C0204000C0206000C0208000C020A000C020C000C020E000C0400000C0402000C0404000C0406000C0
310
408000C040A000C040C000C040E000C0600000C0602000C0604000C0606000C0608000C060A000C060C000C060E000C0800000C0802000C0804000C0806000C0808000C080A000C080C000C080E000C0A00000C0A02000C0A04000C0A06000C0A08000C0A0A000C0A0C000C0A0E000C0C00000C0C02000C0C04000C0C06000
310
C0C08000C0C0A000F0FBFF00A4A0A000808080000000FF0000FF000000FFFF00FF000000FF00FF00FFFF0000FFFFFF00A4A4A4A4A4A4A4A4A4A4A4A4A4A4A4A4A4A4A4A4A4A4A4A4A4A4A4A4A4A4A4A4A4A4A4A4A4A4A4A4A4A4A4A4A4A4A4A4A4A4A4A4A4A4A4A4A4A4A4A4A4A4A4A4A4A4A4A4A4A4A4A4A4A4A4A4A4A4A4
310
A4A4A4A4A4A4A4A4A4A4A4A4A4A4A4A4A4A4A4A4A4A4A4A4A4A4A4A4A4A4A4A4A4A4A4A4A4A4A4A4A4A4A4A4A4A4A4A4A4A4A4A4A4A4A4A4A4A4A4A4A4A4A4A4A4A4A4A4A4A4A4A4A4A4A4A4A4A4A4A4A4A4A4A4A4A4A4A4A4A4A4A4A4A4A4A4A4A4A4A4A4A4A4A4A4A4A4A4A4A4A4A4A4A4A4A4A4A4A4A4A4A4A4A4A4A4A4
310
A4A4A4A4A4A4A4A4A4A4A4A4A4A4A4A4A4A4A4A4A4A4A4A4A4A4A4A4A4A4A4A4A4A4A4A4A4A4A4A4A4A4A4A4A4A4A4A4A4A4A4A4A4A4A4A4A4A4A4A4A4A4A4A4A4A4A4A4A4A4A4A4A4A4A4A4A4A4A4A4A4A4A4A4A4A4A4A4A4A4A4A4A4A4A4A4A4A4A4A4A4A4A4A4A4A4A4A4A4A4A4A4A4A4A4A4A4A4A4A4A4A4A4A4A4A4A4
310
A4A4A4A4A4A4A4A4A4A4A4A4A4A4A4A4A4A4A4A4A4A4A4A4A4A4A4A4A4A4A4A4A4A4A4A4A4A4A4A4A4A4A4A4A4A4A4A4A4A4A4A4A4A4A4A4A4A4A4A4A4A4A4A4A4A4A4A4A4A4A4A4A4A4A4A4A4A4A4A4A4A4A4A4A4A4A4A4A4A4A4A4A4A4A4A4A4A4A4A4A4A4A4A4A4A4A4A4A4A4A4A4A4A4A4A4F9F9F9F9F9F9F9F9F9F9F9
310
F9F9F9F9F9F9F9F9F9F9F9F9F9F9F9F9F9F9F9A4A4F9F9F9F9F9F9F9F9F9F9F9F9F9F9F9F9F9F9F9F9F9F9F9F9F9F9F9F9F9F9A4A4F9F9F9F9F9F9F9F9F9F9F9F9F9F9F9F9F9F9F9F9F9F9F9F9F9F9F9F9F9F9A4A4F9A4A4A4A4A4A4A4A4A4A4A4A4A4A4A4A4A4A4A4A4A4A4A4A4A4A4A4A4F9A4A4A4A4A4A4A4A4A4A4A4A4
310
A4A4A4A4A4A4A4A4A4A4A4A4A4A4A4A4A4A4A4A4A4A4A4A4A4A4A4A4A4A4A4A4A4A4A4A4A4A4A4A4A4A4A4A4A4A4A4A4A4A4A4A4A4A4A4A4A4A4A4A4A4A4A4A4A4A4A4A4A4A4A4A4A4A4A4A4A4A4A4A4A4A4A4A4A4A4A4A4A4A4A4A4A4A4A4A4A4A4A4A4A4A4A4A4A4A4A4A4A4A4A4A4A4A4A4A4A4A4A4A4A4A4A4A4A4A4A4
310
A4A4A4A4A4A4A4A4A4A4A4A4A4A4A4A4A4A4A4A4A4A4A4A4A4A4A4A4A4A4A4A4A4A4A4A4A4A4A4A4A4A4A4A4A4A4A4A4A4A4A4A4A4A4A4A4A4A4A4A4A4A4A4A4A4A4A4A4A4A4A4A4A4A4A4A4A4A4A4A4A4A4A4A4A4A4A4A4A4A4A4A4A4A4A4A4A4A4A4A4A4A4A4A4A4A4A4A4A4A4A4A4A4A4A4A4A4A4A4A4A4A4A4A4A4A4A4
310
A4A4A4A4A4A4A4A4A4A4A4A4A4A4A4A4A4A4A4A4A4A4A4A4A4A4A4A4A4A4A4A4A4A4A4A4A4A4A4A4A4A4A4A4A4A4A4A4A4A4A4A4A4A4A4A4A4A4A4A4A4A4A4A4A4A4A4A4A4A4A4A4A4A4A4A4A4A4A4A4A4A4A4A4A4A4A4A4A4A4A4A4A4A4A4A4A4A4A4A4A4A4A4A4A4A4A4A4A4A4A4A4A4A4A4A4A4A4A4A4A4A4A4A4A4A4A4
310
A4A4A4A4A4A4A4A4A4A4A4A4A4A4A4A4A4A4A4A4A4A4A4A4A4A4A4A4A4A4A4A4A4A4A4A4A4A4A4A4A4A4A4A4A4A4A4A4A4A4A4A4A4A4A4A4
1001
ACAD
1000
DesignCenter Data
1002
{
1070
     1
1070
     4
1002
}
  0
BLOCK_RECORD
  5
AA8
330
1
100
AcDbSymbolTableRecord
100
AcDbBlockTableRecord
  2
_CLOSED
340
0
  0
BLOCK_RECORD
  5
B79
330
1
100
AcDbSymbolTableRecord
100
AcDbBlockTableRecord
  2
nota revisoes
340
0
1001
ACAD
1000
DesignCenter Data
1002
{
1070
     1
1070
     4
1002
}
  0
BLOCK_RECORD
  5
B8E
330
1
100
AcDbSymbolTableRecord
100
AcDbBlockTableRecord
  2
a3l
340
0
1001
ACAD
1000
DesignCenter Data
1002
{
1070
     1
1070
     4
1002
}
  0
BLOCK_RECORD
  5
B9E
330
1
100
AcDbSymbolTableRecord
100
AcDbBlockTableRecord
  2
legenda desenvolvimento
340
0
1001
ACAD
1000
DesignCenter Data
1002
{
1070
     1
1070
     4
1002
}
  0
ENDTAB
  0
ENDSEC
  0
SECTION
  2
BLOCKS
  0
BLOCK
  5
20
330
1F
100
AcDbEntity
  8
0
100
AcDbBlockBegin
  2
*Model_Space
 70
     0
 10
0.0
 20
0.0
 30
0.0
  3
*Model_Space
  1

  0
ENDBLK
  5
21
330
1F
100
AcDbEntity
  8
0
100
AcDbBlockEnd
  0
BLOCK
  5
1C
330
1B
100
AcDbEntity
 67
     1
  8
0
100
AcDbBlockBegin
  2
*Paper_Space
 70
     0
 10
0.0
 20
0.0
 30
0.0
  3
*Paper_Space
  1

  0
ENDBLK
  5
1D
330
1B
100
AcDbEntity
 67
     1
  8
0
100
AcDbBlockEnd
  0
BLOCK
  5
24
330
23
100
AcDbEntity
 67
     1
  8
0
100
AcDbBlockBegin
  2
*Paper_Space0
 70
     0
 10
0.0
 20
0.0
 30
0.0
  3
*Paper_Space0
  1

  0
ENDBLK
  5
25
330
23
100
AcDbEntity
 67
     1
  8
0
100
AcDbBlockEnd
  0
BLOCK
  5
91B
330
919
100
AcDbEntity
  8
0
100
AcDbBlockBegin
  2
_DotSmall
 70
     0
 10
0.0
 20
0.0
 30
0.0
  3
_DotSmall
  1

  0
LWPOLYLINE
  5
91A
330
919
100
AcDbEntity
  8
0
  6
ByBlock
 62
     0
100
AcDbPolyline
 90
        2
 70
     1
 43
0.5
 10
-0.0625
 20
0.0
 42
1.0
 10
0.0625
 20
0.0
 42
1.0
  0
ENDBLK
  5
91C
330
919
100
AcDbEntity
  8
0
100
AcDbBlockEnd
  0
BLOCK
  5
92A
330
922
100
AcDbEntity
  8
0
100
AcDbBlockBegin
  2
base para cotas
 70
     0
 10
0.0
 20
0.0
 30
0.0
  3
base para cotas
  1

  0
LINE
  5
B36
330
922
100
AcDbEntity
  8
cotas
100
AcDbLine
 10
0.0
 20
-30.0
 30
0.0
 11
327.1260136525398
 21
-30.0
 31
0.0
  0
LINE
  5
B37
330
922
100
AcDbEntity
  8
cotas
100
AcDbLine
 10
0.0
 20
-25.0
 30
0.0
 11
327.1260136525398
 21
-25.0
 31
0.0
  0
LINE
  5
B38
330
922
100
AcDbEntity
  8
cotas
100
AcDbLine
 10
0.0
 20
-20.0
 30
0.0
 11
327.1260136525398
 21
-20.0
 31
0.0
  0
LINE
  5
B39
330
922
100
AcDbEntity
  8
cotas
100
AcDbLine
 10
0.0
 20
-15.0
 30
0.0
 11
327.1260136525398
 21
-15.0
 31
0.0
  0
LINE
  5
B3A
330
922
100
AcDbEntity
  8
cotas
100
AcDbLine
 10
0.0
 20
-10.0
 30
0.0
 11
327.1260136525398
 21
-10.0
 31
0.0
  0
LINE
  5
B3B
330
922
100
AcDbEntity
  8
cotas
100
AcDbLine
 10
0.0
 20
0.0
 30
0.0
 11
0.0
 21
-30.0
 31
0.0
  0
LINE
  5
B3C
330
922
100
AcDbEntity
  8
cotas
100
AcDbLine
 10
327.1260136525398
 20
-30.0
 30
0.0
 11
327.1260136525398
 21
0.0
 31
0.0
  0
ENDBLK
  5
92B
330
922
100
AcDbEntity
  8
0
100
AcDbBlockEnd
  0
BLOCK
  5
AAD
330
AA8
100
AcDbEntity
  8
0
100
AcDbBlockBegin
  2
_CLOSED
 70
     0
 10
0.0
 20
0.0
 30
0.0
  3
_CLOSED
  1

  0
LINE
  5
AA9
330
AA8
100
AcDbEntity
  8
0
100
AcDbLine
 10
-1.0
 20
0.166667
 30
0.0
 11
0.0
 21
0.0
 31
0.0
  0
LINE
  5
AAA
330
AA8
100
AcDbEntity
  8
0
100
AcDbLine
 10
0.0
 20
0.0
 30
0.0
 11
-1.0
 21
-0.166667
 31
0.0
  0
LINE
  5
AAB
330
AA8
100
AcDbEntity
  8
0
100
AcDbLine
 10
-1.0
 20
0.166667
 30
0.0
 11
-1.0
 21
-0.166667
 31
0.0
  0
LINE
  5
AAC
330
AA8
100
AcDbEntity
  8
0
100
AcDbLine
 10
0.0
 20
0.0
 30
0.0
 11
-1.0
 21
0.0
 31
0.0
  0
ENDBLK
  5
AAE
330
AA8
100
AcDbEntity
  8
0
100
AcDbBlockEnd
  0
BLOCK
  5
B7C
330
B79
100
AcDbEntity
  8
0
100
AcDbBlockBegin
  2
nota revisoes
 70
     0
 10
0.0
 20
0.0
 30
0.0
  3
nota revisoes
  1

  0
CIRCLE
  5
B7A
330
B79
100
AcDbEntity
  8
4
100
AcDbCircle
 10
0.0
 20
0.0
 30
0.0
 40
13.69426055101189
  0
TEXT
  5
B7B
330
B79
100
AcDbEntity
  8
4
100
AcDbText
 10
-5.496248358154345
 20
-5.354545554066362
 30
0.0
 40
12.0
  1
1
  7
SANINDUSA
 72
     1
 11
-0.249774214433728
 21
-5.354545554066362
 31
0.0
100
AcDbText
  0
ENDBLK
  5
B7D
330
B79
100
AcDbEntity
  8
0
100
AcDbBlockEnd
  0
BLOCK
  5
B9C
330
B8E
100
AcDbEntity
  8
0
100
AcDbBlockBegin
  2
a3l
 70
     0
 10
0.0
 20
0.0
 30
0.0
  3
a3l
  1

  0
LINE
  5
B8F
330
B8E
100
AcDbEntity
  8
1
100
AcDbLine
 10
-364.2925296599447
 20
-362.1188951399395
 30
0.0
 11
-364.2925296599447
 21
-65.11889513993946
 31
0.0
  0
LINE
  5
B90
330
B8E
100
AcDbEntity
  8
4
100
AcDbLine
 10
-369.2925296599447
 20
-357.1188951399395
 30
0.0
 11
-369.2925296599447
 21
-70.11889513993946
 31
0.0
  0
LINE
  5
B91
330
B8E
100
AcDbEntity
  8
1
100
AcDbLine
 10
-784.2925296599446
 20
-65.11889513993946
 30
0.0
 11
-784.2925296599446
 21
-362.1188951399395
 31
0.0
  0
LINE
  5
B92
330
B8E
100
AcDbEntity
  8
4
100
AcDbLine
 10
-759.2925296599446
 20
-357.1188951399395
 30
0.0
 11
-759.2925296599446
 21
-70.11889513993946
 31
0.0
  0
LINE
  5
B93
330
B8E
100
AcDbEntity
  8
1
100
AcDbLine
 10
-784.2925296599446
 20
-362.1188951399395
 30
0.0
 11
-364.2925296599447
 21
-362.1188951399395
 31
0.0
  0
LINE
  5
B94
330
B8E
100
AcDbEntity
  8
4
100
AcDbLine
 10
-759.2925296599446
 20
-357.1188951399395
 30
0.0
 11
-369.2925296599447
 21
-357.1188951399395
 31
0.0
  0
LINE
  5
B95
330
B8E
100
AcDbEntity
  8
1
100
AcDbLine
 10
-654.2925296599446
 20
-357.1188951399395
 30
0.0
 11
-654.2925296599446
 21
-362.1188951399395
 31
0.0
  0
LINE
  5
B96
330
B8E
100
AcDbEntity
  8
1
100
AcDbLine
 10
-364.2925296599447
 20
-65.11889513993946
 30
0.0
 11
-784.2925296599446
 21
-65.11889513993946
 31
0.0
  0
LINE
  5
B97
330
B8E
100
AcDbEntity
  8
4
100
AcDbLine
 10
-369.2925296599447
 20
-70.11889513993946
 30
0.0
 11
-759.2925296599446
 21
-70.11889513993946
 31
0.0
  0
LINE
  5
B98
330
B8E
100
AcDbEntity
  8
1
100
AcDbLine
 10
-654.2925296599446
 20
-65.11889513993946
 30
0.0
 11
-654.2925296599446
 21
-70.11889513993946
 31
0.0
  0
LINE
  5
B99
330
B8E
100
AcDbEntity
  8
1
100
AcDbLine
 10
-549.2925296599446
 20
-70.11889513993946
 30
0.0
 11
-549.2925296599446
 21
-65.11889513993946
 31
0.0
  0
LINE
  5
B9A
330
B8E
100
AcDbEntity
  8
1
100
AcDbLine
 10
-369.2925296599447
 20
-65.11889513993946
 30
0.0
 11
-364.2925296599447
 21
-65.11889513993946
 31
0.0
  0
LINE
  5
B9B
330
B8E
100
AcDbEntity
  8
1
100
AcDbLine
 10
-549.2925296599446
 20
-357.1188951399395
 30
0.0
 11
-549.2925296599446
 21
-362.1188951399395
 31
0.0
  0
ENDBLK
  5
B9D
330
B8E
100
AcDbEntity
  8
0
100
AcDbBlockEnd
  0
BLOCK
  5
C13
330
B9E
100
AcDbEntity
  8
0
100
AcDbBlockBegin
  2
legenda desenvolvimento
 70
     2
 10
0.0
 20
0.0
 30
0.0
  3
legenda desenvolvimento
  1

  0
ATTDEF
  5
B9F
330
B9E
100
AcDbEntity
  8
1
100
AcDbText
 10
-108.606245802552
 20
55.5
 30
0.0
 40
4.0
  1
XXXXXXXXXXXXXX
 41
0.8
  7
SANINDUSA
 72
     4
 11
-87.5
 21
57.5
 31
0.0
100
AcDbAttributeDefinition
  3
Nome do Produto:
  2
PRODUTO
 70
     0
  0
ATTDEF
  5
BA0
330
B9E
100
AcDbEntity
  8
1
100
AcDbText
 10
-97.9997966101695
 20
41.25
 30
0.0
 40
3.0
  1
XXXXXXXXX
 41
0.8
  7
futura
 72
     4
 11
-87.5
 21
42.75
 31
0.0
100
AcDbAttributeDefinition
  3
Nome da Peça:
  2
PECA
 70
     0
  0
ATTDEF
  5
BA1
330
B9E
100
AcDbEntity
  8
1
100
AcDbText
 10
-133.4422431161853
 20
21.11745296763252
 30
0.0
 40
2.5
  1
X
 41
0.8
  7
SANINDUSA
 72
     4
 11
-132.5
 21
22.36745296763252
 31
0.0
100
AcDbAttributeDefinition
  3
Cod. TESTE:
  2
TESTE
 70
     0
  0
ATTDEF
  5
BA2
330
B9E
100
AcDbEntity
  8
1
100
AcDbText
 10
-124.3844862323707
 20
21.11745296763252
 30
0.0
 40
2.5
  1
XX
 41
0.8
  7
SANINDUSA
 72
     4
 11
-122.5
 21
22.36745296763252
 31
0.0
100
AcDbAttributeDefinition
  3
Cod. Ano:
  2
ANO
 70
     0
  0
ATTDEF
  5
BA3
330
B9E
100
AcDbEntity
  8
1
100
AcDbText
 10
-112.526889953052
 20
21.11745296763252
 30
0.0
 40
2.5
  1
XXX
 41
0.8
  7
SANINDUSA
 72
     4
 11
-109.700160604496
 21
22.36745296763252
 31
0.0
100
AcDbAttributeDefinition
  3
Cod. Sequência:
  2
SEQUENCIA
 70
     0
  0
ATTDEF
  5
BA4
330
B9E
100
AcDbEntity
  8
1
100
AcDbText
 10
-99.35382430979316
 20
21.11745296763252
 30
0.0
 40
2.5
  1
XX
 41
0.8
  7
SANINDUSA
 72
     4
 11
-97.46933807742244
 21
22.36745296763252
 31
0.0
100
AcDbAttributeDefinition
  3
Cod. Tipo:
  2
TIPO
 70
     0
  0
ATTDEF
  5
BA5
330
B9E
100
AcDbEntity
  8
1
100
AcDbText
 10
-87.42035911468438
 20
21.11745296763252
 30
0.0
 40
2.5
  1
XXX
 41
0.8
  7
SANINDUSA
 72
     4
 11
-84.59362976612828
 21
22.36745296763252
 31
0.0
100
AcDbAttributeDefinition
  3
Cod. Produto:
  2
PRODUTO
 70
     0
  0
ATTDEF
  5
BA6
330
B9E
100
AcDbEntity
  8
1
100
AcDbText
 10
-74.62051971917853
 20
21.11745296763252
 30
0.0
 40
2.5
  1
XXX
 41
0.8
  7
SANINDUSA
 72
     4
 11
-71.79379037062244
 21
22.36745296763252
 31
0.0
100
AcDbAttributeDefinition
  3
Cod. Peça:
  2
PECA
 70
     0
  0
ATTDEF
  5
BA7
330
B9E
100
AcDbEntity
  8
1
100
AcDbText
 10
-61.10603446650329
 20
21.11745296763252
 30
0.0
 40
2.5
  1
XX
 41
0.8
  7
SANINDUSA
 72
     4
 11
-59.22154823413257
 21
22.36745296763252
 31
0.0
100
AcDbAttributeDefinition
  3
Cod. Revisão:
  2
REV
 70
     0
  0
ATTDEF
  5
BA8
330
B9E
100
AcDbEntity
  8
1
100
AcDbText
 10
-48.43615325006194
 20
21.11745296763252
 30
0.0
 40
2.5
  1
XX
 41
0.8
  7
SANINDUSA
 72
     4
 11
-46.55166701769121
 21
22.36745296763252
 31
0.0
100
AcDbAttributeDefinition
  3
Cod. Alteração:
  2
ALT
 70
     0
  0
ATTDEF
  5
BA9
330
B9E
100
AcDbEntity
  8
1
100
AcDbText
 10
-35.19086635325722
 20
23.98875083948959
 30
0.0
 40
3.0
  1
1/XXX
 41
0.8
  7
SANINDUSA
 72
     4
 11
-30.0
 21
25.25
 31
0.0
100
AcDbAttributeDefinition
  3
Escala geral:
  2
ESCALA
 70
     0
  0
ATTDEF
  5
BAA
330
B9E
100
AcDbEntity
  8
1
100
AcDbText
 10
-15.65345869711215
 20
23.75
 30
0.0
 40
3.0
  1
XXXXX
 41
0.8
  7
SANINDUSA
 72
     4
 11
-10.0
 21
25.25
 31
0.0
100
AcDbAttributeDefinition
  3
Folha:
  2
FOLHA
 70
     0
  0
ATTDEF
  5
BAB
330
B9E
100
AcDbEntity
  8
1
100
AcDbText
 10
-178.5146998822042
 20
56.9531347542807
 30
0.0
 40
2.0
  1
xx
 41
0.8
  7
SANINDUSA
 72
     4
 11
-177.2123493113513
 21
57.70330265219877
 31
0.0
100
AcDbAttributeDefinition
  3
revisão
  2
REV.
 70
     0
  0
ATTDEF
  5
BAC
330
B9E
100
AcDbEntity
  8
1
100
AcDbText
 10
-172.7849640077129
 20
56.9531347542807
 30
0.0
 40
2.0
  1
xx
 41
0.8
  7
SANINDUSA
 72
     4
 11
-171.48261343686
 21
57.70330265219877
 31
0.0
100
AcDbAttributeDefinition
  3
alteração
  2
ALT.
 70
     0
  0
ATTDEF
  5
BAD
330
B9E
100
AcDbEntity
  8
1
100
AcDbText
 10
-168.007199951307
 20
56.70330265219877
 30
0.0
 40
2.0
  1
xx/xx/xxxx
 41
0.8
  7
SANINDUSA
 11
-168.007199951307
 21
57.70330265219877
 31
0.0
100
AcDbAttributeDefinition
  3
data
  2
DATA
 70
     0
 74
     2
  0
ATTDEF
  5
BAE
330
B9E
100
AcDbEntity
  8
1
100
AcDbText
 10
-168.5396372253371
 20
13.15916722632639
 30
0.0
 40
2.0
  1
XX/XX/XXXX
 41
0.8
  7
SANINDUSA
 72
     4
 11
-161.5099528734231
 21
14.0
 31
0.0
100
AcDbAttributeDefinition
  3
Data projecto
  2
DATA_PROJ
 70
     0
  0
ATTDEF
  5
BAF
330
B9E
100
AcDbEntity
  8
1
100
AcDbText
 10
-150.8658110728766
 20
13.24983210208193
 30
0.0
 40
2.0
  1
xxxxxxxx
 41
0.8
  7
SANINDUSA
 72
     4
 11
-145.6564087894649
 21
14.0
 31
0.0
100
AcDbAttributeDefinition
  3
nome de quem projectou
  2
NOME
 70
     0
  0
ATTDEF
  5
BB0
330
B9E
100
AcDbEntity
  8
1
100
AcDbText
 10
-168.5396372253371
 20
9.159167226326394
 30
0.0
 40
2.0
  1
XX/XX/XXXX
 41
0.8
  7
SANINDUSA
 72
     4
 11
-161.5099528734231
 21
10.0
 31
0.0
100
AcDbAttributeDefinition
  3
Data desenhou
  2
DATA_DES
 70
     0
  0
ATTDEF
  5
BB1
330
B9E
100
AcDbEntity
  8
1
100
AcDbText
 10
-151.516986358303
 20
9.249832102081933
 30
0.0
 40
2.0
  1
xxxxxxxxx
 41
0.8
  7
SANINDUSA
 72
     4
 11
-145.6564087894649
 21
10.0
 31
0.0
100
AcDbAttributeDefinition
  3
nome
  2
NOME
 70
     0
  0
ATTDEF
  5
BB2
330
B9E
100
AcDbEntity
  8
1
100
AcDbText
 10
-127.2924214135946
 20
14.1979876583216
 30
0.0
 40
2.0
  1
Vitreous China
 41
0.8
  7
SANINDUSA
 72
     4
 11
-119.231709526422
 21
15.22216495852308
 31
0.0
100
AcDbAttributeDefinition
  3
Nome do Material:
  2
MATERIAL
 70
     0
  0
ATTDEF
  5
BB3
330
B9E
100
AcDbEntity
  8
1
100
AcDbText
 10
-103.1563452122093
 20
14.38019043949261
 30
0.0
 40
2.0
  1
Branco
 41
0.8
  7
SANINDUSA
 72
     4
 11
-99.33418268702462
 21
15.35937109765245
 31
0.0
100
AcDbAttributeDefinition
  3
cor da peça
  2
COR
 70
     0
  0
ATTDEF
  5
BB4
330
B9E
100
AcDbEntity
  8
1
100
AcDbText
 10
-116.7235057085292
 20
5.975822699798522
 30
0.0
 40
2.0
  1
Vidrado
 41
0.8
  7
SANINDUSA
 72
     4
 11
-112.5
 21
7.0
 31
0.0
100
AcDbAttributeDefinition
  3
Tipo de acabamento:
  2
ACABAMENTO
 70
     0
  0
ATTDEF
  5
BB5
330
B9E
100
AcDbEntity
  8
1
100
AcDbText
 10
-79.18527869967246
 20
16.65066409850533
 30
0.0
 40
2.0
  1
XXXXXXX
 41
0.8
  7
SANINDUSA
 72
     4
 11
-73.90871724903445
 21
17.65066409850533
 31
0.0
100
AcDbAttributeDefinition
  3
Normas
  2
NORMAS
 70
     0
  0
ATTDEF
  5
BB6
330
B9E
100
AcDbEntity
  8
1
100
AcDbText
 10
-30.55312290127603
 20
14.0
 30
0.0
 40
2.0
  1
XXXXXXXXXXXXXX
 41
0.8
  7
SANINDUSA
 72
     4
 11
-20.0
 21
15.0
 31
0.0
100
AcDbAttributeDefinition
  3
Substitui o desenho:
  2
SUBSTITUI
 70
     0
  0
ATTDEF
  5
BB7
330
B9E
100
AcDbEntity
  8
1
100
AcDbText
 10
-31.30691739422431
 20
6.0
 30
0.0
 40
2.0
  1
XXXXXXXXXXXXXXX
 41
0.8
  7
SANINDUSA
 72
     4
 11
-20.0
 21
7.0
 31
0.0
100
AcDbAttributeDefinition
  3
Substituido por:
  2
SUBSTITUIDO
 70
     0
  0
ATTDEF
  5
BB8
330
B9E
100
AcDbEntity
  8
1
100
AcDbText
 10
-110.0220608548302
 20
1.478208457928303
 30
0.0
 40
2.0
  1
XXXXXXXXXXXXXXXXXXXXXXXXXXXXXXXXXX
 41
0.8
  7
SANINDUSA
 11
-110.0220608548302
 21
2.478208457928303
 31
0.0
100
AcDbAttributeDefinition
  3
Localização do desenho:
  2
LOC-DWG
 70
     0
 74
     2
  0
LINE
  5
BB9
330
B9E
100
AcDbEntity
  8
3
100
AcDbLine
 10
-135.0
 20
4.0
 30
0.0
 11
0.0000000000004547
 21
4.0
 31
0.0
  0
LINE
  5
BBA
330
B9E
100
AcDbEntity
  8
3
100
AcDbLine
 10
-90.00000000000046
 20
12.0
 30
0.0
 11
-135.0
 21
12.0
 31
0.0
  0
LINE
  5
BBB
330
B9E
100
AcDbEntity
  8
3
100
AcDbLine
 10
-135.0
 20
32.5
 30
0.0
 11
-40.0
 21
32.5
 31
0.0
  0
TEXT
  5
BBC
330
B9E
100
AcDbEntity
  8
1
100
AcDbText
 10
-134.0
 20
1.25
 30
0.0
 40
2.0
  1
Localização do des.:
 41
0.8
  7
SANINDUSA
 11
-134.0
 21
2.25
 31
0.0
100
AcDbText
 73
     2
  0
LINE
  5
BBD
330
B9E
100
AcDbEntity
  8
3
100
AcDbLine
 10
-180.0
 20
65.0
 30
0.0
 11
0.0
 21
65.0
 31
0.0
  0
LINE
  5
BBE
330
B9E
100
AcDbEntity
  8
leg fin
100
AcDbLine
 10
-40.0
 20
25.05956924886846
 30
0.0
 11
-135.0
 21
25.05956924886846
 31
0.0
  0
LINE
  5
BBF
330
B9E
100
AcDbEntity
  8
leg fin
100
AcDbLine
 10
-40.0
 20
28.5
 30
0.0
 11
-135.0
 21
28.5
 31
0.0
  0
LINE
  5
BC0
330
B9E
100
AcDbEntity
  8
3
100
AcDbLine
 10
-135.0
 20
50.0
 30
0.0
 11
-40.0
 21
50.0
 31
0.0
  0
TEXT
  5
BC1
330
B9E
100
AcDbEntity
  8
1
100
AcDbText
 10
-134.0
 20
29.75
 30
0.0
 40
2.0
  1
Desenho nº:
 41
0.8
  7
SANINDUSA
 11
-134.0
 21
30.75
 31
0.0
100
AcDbText
 73
     2
  0
TEXT
  5
BC2
330
B9E
100
AcDbEntity
  8
1
100
AcDbText
 10
-134.0
 20
9.25
 30
0.0
 40
2.0
  1
Acabamento:
 41
0.8
  7
SANINDUSA
 11
-134.0
 21
10.25
 31
0.0
100
AcDbText
 73
     2
  0
LINE
  5
BC3
330
B9E
100
AcDbEntity
  8
3
100
AcDbLine
 10
-180.0
 20
20.0
 30
0.0
 11
0.0
 21
20.0
 31
0.0
  0
LINE
  5
BC4
330
B9E
100
AcDbEntity
  8
1
100
AcDbLine
 10
-174.5810776056337
 20
55.5
 30
0.0
 11
-174.5810776056337
 21
65.0
 31
0.0
  0
LINE
  5
BC5
330
B9E
100
AcDbEntity
  8
1
100
AcDbLine
 10
-168.9210461879161
 20
55.5
 30
0.0
 11
-168.9210461879161
 21
65.0
 31
0.0
  0
LINE
  5
BC6
330
B9E
100
AcDbEntity
  8
1
100
AcDbLine
 10
-154.0988595589306
 20
55.5
 30
0.0
 11
-154.0988595589306
 21
65.0
 31
0.0
  0
LINE
  5
BC7
330
B9E
100
AcDbEntity
  8
3
100
AcDbLine
 10
-180.0
 20
65.0
 30
0.0
 11
-180.0
 21
0.0
 31
0.0
  0
LINE
  5
BC8
330
B9E
100
AcDbEntity
  8
3
100
AcDbLine
 10
-135.0
 20
0.0
 30
0.0
 11
-135.0
 21
65.0
 31
0.0
  0
TEXT
  5
BC9
330
B9E
100
AcDbEntity
  8
1
100
AcDbText
 10
-179.0
 20
9.75
 30
0.0
 40
1.5
  1
Des.
 41
0.8
  7
SANINDUSA
 11
-179.0
 21
10.5
 31
0.0
100
AcDbText
 73
     2
  0
LINE
  5
BCA
330
B9E
100
AcDbEntity
  8
1
100
AcDbLine
 10
-168.9210461879161
 20
20.0
 30
0.0
 11
-168.9210461879161
 21
0.0
 31
0.0
  0
LINE
  5
BCB
330
B9E
100
AcDbEntity
  8
1
100
AcDbLine
 10
-154.0988595589306
 20
20.0
 30
0.0
 11
-154.0988595589306
 21
0.0
 31
0.0
  0
LINE
  5
BCC
330
B9E
100
AcDbEntity
  8
1
100
AcDbLine
 10
-180.0
 20
4.0
 30
0.0
 11
-135.0
 21
4.0
 31
0.0
  0
LINE
  5
BCD
330
B9E
100
AcDbEntity
  8
1
100
AcDbLine
 10
-180.0
 20
8.0
 30
0.0
 11
-135.0
 21
8.0
 31
0.0
  0
TEXT
  5
BCE
330
B9E
100
AcDbEntity
  8
1
100
AcDbText
 10
-179.0
 20
1.73257823687436
 30
0.0
 40
1.5
  1
Aprov.
 41
0.8
  7
SANINDUSA
 11
-179.0
 21
2.48257823687436
 31
0.0
100
AcDbText
 73
     2
  0
TEXT
  5
BCF
330
B9E
100
AcDbEntity
  8
1
100
AcDbText
 10
-179.0
 20
5.75
 30
0.0
 40
1.5
  1
Ver.
 41
0.8
  7
SANINDUSA
 11
-179.0
 21
6.5
 31
0.0
100
AcDbText
 73
     2
  0
LINE
  5
BD0
330
B9E
100
AcDbEntity
  8
1
100
AcDbLine
 10
-180.0
 20
16.0
 30
0.0
 11
-135.0
 21
16.0
 31
0.0
  0
LINE
  5
BD1
330
B9E
100
AcDbEntity
  8
1
100
AcDbLine
 10
-180.0
 20
12.0
 30
0.0
 11
-135.0
 21
12.0
 31
0.0
  0
TEXT
  5
BD2
330
B9E
100
AcDbEntity
  8
1
100
AcDbText
 10
-179.0
 20
13.75
 30
0.0
 40
1.5
  1
Proj.
 41
0.8
  7
SANINDUSA
 11
-179.0
 21
14.5
 31
0.0
100
AcDbText
 73
     2
  0
TEXT
  5
BD3
330
B9E
100
AcDbEntity
  8
1
100
AcDbText
 10
-167.9210461879161
 20
17.75
 30
0.0
 40
1.5
  1
Data
 41
0.8
  7
SANINDUSA
 11
-167.9210461879161
 21
18.5
 31
0.0
100
AcDbText
 73
     2
  0
TEXT
  5
BD4
330
B9E
100
AcDbEntity
  8
1
100
AcDbText
 10
-153.0988595589306
 20
17.75
 30
0.0
 40
1.5
  1
Nome
 41
0.8
  7
SANINDUSA
 11
-153.0988595589306
 21
18.5
 31
0.0
100
AcDbText
 73
     2
  0
LINE
  5
BD5
330
B9E
100
AcDbEntity
  8
leg fin
100
AcDbLine
 10
-130.0
 20
20.0
 30
0.0
 11
-130.0
 21
28.5
 31
0.0
  0
TEXT
  5
BD6
330
B9E
100
AcDbEntity
  8
1
100
AcDbText
 10
-134.0
 20
17.25
 30
0.0
 40
2.0
  1
Material:
 41
0.8
  7
SANINDUSA
 11
-134.0
 21
18.25
 31
0.0
100
AcDbText
 73
     2
  0
TEXT
  5
BD7
330
B9E
100
AcDbEntity
  8
1
100
AcDbText
 10
-129.0
 20
26.43288406845113
 30
0.0
 40
1.5
  1
Ano:
 41
0.8
  7
SANINDUSA
 11
-129.0
 21
27.18288406845113
 31
0.0
100
AcDbText
 73
     2
  0
LINE
  5
BD8
330
B9E
100
AcDbEntity
  8
1
100
AcDbLine
 10
-180.0
 20
55.5
 30
0.0
 11
-135.0
 21
55.5
 31
0.0
  0
TEXT
  5
BD9
330
B9E
100
AcDbEntity
  8
1
100
AcDbText
 10
-179.0
 20
52.67772246885193
 30
0.0
 40
1.5
  1
descrição
 41
0.8
  7
SANINDUSA
 11
-179.0
 21
53.42772246885193
 31
0.0
100
AcDbText
 73
     2
  0
TEXT
  5
BDA
330
B9E
100
AcDbEntity
  8
1
100
AcDbText
 10
-134.0
 20
47.25
 30
0.0
 40
2.0
  1
Peça:
 41
0.8
  7
SANINDUSA
 11
-134.0
 21
48.25
 31
0.0
100
AcDbText
 73
     2
  0
LINE
  5
BDB
330
B9E
100
AcDbEntity
  8
1
100
AcDbLine
 10
-180.0
 20
59.5
 30
0.0
 11
-135.0
 21
59.5
 31
0.0
  0
TEXT
  5
BDC
330
B9E
100
AcDbEntity
  8
1
100
AcDbText
 10
-173.5810776056337
 20
62.75
 30
0.0
 40
1.5
  1
Alt.
 41
0.8
  7
SANINDUSA
 11
-173.5810776056337
 21
63.5
 31
0.0
100
AcDbText
 73
     2
  0
TEXT
  5
BDD
330
B9E
100
AcDbEntity
  8
1
100
AcDbText
 10
-179.0
 20
62.75
 30
0.0
 40
1.5
  1
Rev.
 41
0.8
  7
SANINDUSA
 11
-179.0
 21
63.5
 31
0.0
100
AcDbText
 73
     2
  0
TEXT
  5
BDE
330
B9E
100
AcDbEntity
  8
1
100
AcDbText
 10
-167.9210461879161
 20
62.75
 30
0.0
 40
1.5
  1
Data
 41
0.8
  7
SANINDUSA
 11
-167.9210461879161
 21
63.5
 31
0.0
100
AcDbText
 73
     2
  0
TEXT
  5
BDF
330
B9E
100
AcDbEntity
  8
1
100
AcDbText
 10
-153.0988595589306
 20
62.75
 30
0.0
 40
1.5
  1
Nome
 41
0.8
  7
SANINDUSA
 11
-153.0988595589306
 21
63.5
 31
0.0
100
AcDbText
 73
     2
  0
TEXT
  5
BE0
330
B9E
100
AcDbEntity
  8
1
100
AcDbText
 10
-134.0
 20
62.25
 30
0.0
 40
2.0
  1
Produto:
 41
0.8
  7
SANINDUSA
 11
-134.0
 21
63.25
 31
0.0
100
AcDbText
 73
     2
  0
LINE
  5
BE1
330
B9E
100
AcDbEntity
  8
3
100
AcDbLine
 10
-40.0
 20
4.0
 30
0.0
 11
-40.0
 21
65.0
 31
0.0
  0
LWPOLYLINE
  5
BE2
102
{ACAD_REACTORS
330
BEC
102
}
330
B9E
100
AcDbEntity
  8
9
100
AcDbPolyline
 90
       12
 70
     1
 43
0.0
 10
-3.038714600644652
 20
58.90010174665076
 10
-5.726962862472191
 20
58.90010174665076
 10
-5.726962862472191
 20
58.5001017466509
 10
-3.038748516195028
 20
58.5001017466509
 42
-0.4142135623731731
 10
-2.638748516194482
 20
58.1001017466508
 10
-2.638748516194482
 20
57.42799728675596
 10
-5.21497371544865
 20
57.42799728675596
 42
0.4142135623731289
 10
-6.014973715448377
 20
56.627997286756
 10
-6.014973715448377
 20
55.92380871629643
 42
0.4142135623731132
 10
-5.21497371544865
 20
55.12380871629648
 10
-2.23871460064447
 20
55.12380871629648
 10
-2.23871460064447
 20
58.10010174665103
 42
0.4142135623730717
  0
LWPOLYLINE
  5
BE3
102
{ACAD_REACTORS
330
BEC
102
}
330
B9E
100
AcDbEntity
  8
9
100
AcDbPolyline
 90
       20
 70
     1
 43
0.0
 10
-10.01531287095122
 20
57.82799728675581
 10
-10.01531287095122
 20
58.10010174665103
 42
-0.4142135623730744
 10
-9.615312870951584
 20
58.5001017466509
 10
-6.92703069357276
 20
58.5001017466509
 10
-6.92703069357276
 20
58.90010174665076
 10
-9.615346786501959
 20
58.90010174665076
 42
0.4142135623730883
 10
-10.41534678650168
 20
58.1001017466508
 10
-10.41534678650168
 20
57.82796337120567
 42
0.4142135623730717
 10
-9.615346786501959
 20
57.02796337120571
 10
-7.423079531965413
 20
57.02796337120571
 42
-0.4142135623730847
 10
-7.023079531965322
 20
56.62796337120562
 10
-7.023079531965322
 20
55.90786840766487
 42
-0.4142135623730744
 10
-7.423079531965413
 20
55.507868407665
 10
-10.41534678650168
 20
55.507868407665
 10
-10.41534678650168
 20
55.12380871629648
 10
-7.445787917283723
 20
55.12380871629648
 42
0.4114777732064574
 10
-6.645822882998345
 20
55.9163291493976
 10
-6.639238813324936
 20
56.62051771985716
 42
0.4169546541682913
 10
-7.439203847610315
 20
57.42799728675596
 10
-9.615312870951584
 20
57.42799728675596
 42
-0.4142135623731576
  0
LWPOLYLINE
  5
BE4
102
{ACAD_REACTORS
330
BEC
102
}
330
B9E
100
AcDbEntity
  8
9
100
AcDbPolyline
 90
       12
 70
     1
 43
0.0
 10
-14.41561811090378
 20
58.90010174665076
 10
-14.79964388672215
 20
58.90010174665076
 10
-14.79964388672215
 20
55.92380871629643
 42
0.4142135623731133
 10
-13.99964388672242
 20
55.12380871629648
 10
-11.8233508563676
 20
55.12380871629648
 42
0.4142135623730872
 10
-11.02335085636741
 20
55.92380871629643
 10
-11.02335085636741
 20
58.90010174665076
 10
-11.42338477191788
 20
58.90010174665076
 10
-11.42338477191788
 20
55.91567577726095
 42
-0.4131711701795318
 10
-11.82196067063523
 20
55.51567831234956
 10
-14.0141940096214
 20
55.50787335710947
 42
-0.4152567234624407
 10
-14.41561811090378
 20
55.90787082202087
  0
LWPOLYLINE
  5
BE5
102
{ACAD_REACTORS
330
BEC
102
}
330
B9E
100
AcDbEntity
  8
9
100
AcDbPolyline
 90
        6
 70
     1
 43
0.0
 10
-15.80771578768872
 20
55.507868407665
 10
-18.39994912667453
 20
55.507868407665
 42
-0.4142135623731731
 10
-18.79994912667462
 20
55.90786840766487
 10
-18.79994912667462
 20
58.10010174665103
 42
-0.4142135623730744
 10
-18.39994912667453
 20
58.5001017466509
 10
-15.80771578768872
 20
58.5001017466509
  0
LWPOLYLINE
  5
BE6
102
{ACAD_REACTORS
330
BEC
102
}
330
B9E
100
AcDbEntity
  8
9
100
AcDbPolyline
 90
        8
 70
     1
 43
0.0
 10
-15.4236900118708
 20
59.87619128370352
 10
-15.80771578768872
 20
59.87619128370352
 10
-15.80771578768872
 20
58.90010174665076
 10
-18.39176256411201
 20
58.90010174665076
 42
0.4131164467977967
 10
-19.19175694739761
 20
58.1030995310698
 10
-19.1999120763262
 20
55.92680650071542
 42
0.4153115297271718
 10
-18.39991769304061
 20
55.12380871629648
 10
-15.4236900118708
 20
55.12380871629648
  0
LWPOLYLINE
  5
BE7
102
{ACAD_REACTORS
330
BEC
102
}
330
B9E
100
AcDbEntity
  8
9
100
AcDbPolyline
 90
       10
 70
     1
 43
0.0
 10
-20.59201288790928
 20
58.90010174665076
 10
-23.56830591826338
 20
58.90010174665076
 10
-23.56830591826338
 20
55.12380871629648
 10
-23.18424622689509
 20
55.12380871629648
 10
-23.18424622689509
 20
58.5001017466509
 10
-20.59204680345965
 20
58.5001017466509
 42
-0.4142135623730898
 10
-20.19204680345956
 20
58.1001017466508
 10
-20.19204680345956
 20
55.12380871629648
 10
-19.79201288790909
 20
55.12380871629648
 10
-19.79201288790909
 20
58.10010174665103
 42
0.4142135623731132
  0
LWPOLYLINE
  5
BE8
102
{ACAD_REACTORS
330
BEC
102
}
330
B9E
100
AcDbEntity
  8
9
100
AcDbPolyline
 90
        4
 70
     1
 43
0.0
 10
-24.19231812786165
 20
58.90010174665076
 10
-24.57637781922995
 20
58.90010174665076
 10
-24.57637781922995
 20
55.12380871629648
 10
-24.19231812786165
 20
55.12380871629648
  0
LWPOLYLINE
  5
BE9
102
{ACAD_REACTORS
330
BEC
102
}
330
B9E
100
AcDbEntity
  8
9
100
AcDbPolyline
 90
       10
 70
     1
 43
0.0
 10
-28.57661522808212
 20
58.5001017466509
 10
-25.98444972019706
 20
58.5001017466509
 42
-0.4142135623731731
 10
-25.58444972019652
 20
58.1001017466508
 10
-25.58444972019652
 20
55.12380871629648
 10
-25.2004239443786
 20
55.12380871629648
 10
-25.2004239443786
 20
58.10010174665103
 42
0.4142135623730717
 10
-26.00042394437833
 20
58.90010174665076
 10
-28.97664914363259
 20
58.90010174665076
 10
-28.97664914363259
 20
55.12380871629648
 10
-28.57661522808212
 20
55.12380871629648
  0
LWPOLYLINE
  5
BEA
102
{ACAD_REACTORS
330
BEC
102
}
330
B9E
100
AcDbEntity
  8
9
100
AcDbPolyline
 90
       12
 70
     1
 43
0.0
 10
-29.58465321349832
 20
58.10010174665103
 42
0.4142135623730716
 10
-30.3846532134985
 20
58.90010174665076
 10
-33.07296930642724
 20
58.90010174665076
 10
-33.07296930642724
 20
58.5001017466509
 10
-30.38468712904842
 20
58.5001017466509
 42
-0.4142135623730067
 10
-29.98468712904878
 20
58.1001017466508
 10
-29.98468712904878
 20
57.42799728675618
 10
-32.56098015940324
 20
57.42799728675596
 42
0.4142135623731289
 10
-33.36098015940343
 20
56.627997286756
 10
-33.36098015940343
 20
55.92380871629643
 42
0.4142135623731132
 10
-32.56098015940324
 20
55.12380871629648
 10
-29.58465321349832
 20
55.12380871629648
  0
LWPOLYLINE
  5
BEB
102
{ACAD_REACTORS
330
BEC
102
}
330
B9E
100
AcDbEntity
  8
9
100
AcDbPolyline
 90
       20
 70
     1
 43
0.0
 10
-34.7850262845518
 20
57.42799728675596
 10
-36.96125148380543
 20
57.42799728675596
 42
-0.4142135623730898
 10
-37.36125148380552
 20
57.82799728675604
 10
-37.36125148380552
 20
58.10010174665103
 42
-0.4142135623730744
 10
-36.96125148380543
 20
58.5001017466509
 10
-34.27303713752781
 20
58.50010174665067
 10
-34.27303713752781
 20
58.90010174665076
 10
-36.96128539935535
 20
58.90010174665076
 42
0.4142135623731289
 10
-37.76128539935553
 20
58.1001017466508
 10
-37.76128539935553
 20
57.82796337120567
 42
0.4142135623730716
 10
-36.9612853993558
 20
57.02796337120571
 10
-34.76901814481926
 20
57.02796337120571
 42
-0.414213562373168
 10
-34.36901814481962
 20
56.62796337120562
 10
-34.36901814481962
 20
55.90786840766487
 42
-0.4142135623730744
 10
-34.76901814481926
 20
55.507868407665
 10
-37.76128539935553
 20
55.507868407665
 10
-37.76128539935553
 20
55.12380871629648
 10
-34.7850262845518
 20
55.12380871629648
 42
0.4142135623731289
 10
-33.98502628455162
 20
55.92380871629643
 10
-33.98502628455162
 20
56.627997286756
 42
0.4142135623731132
  0
HATCH
  5
BEC
330
B9E
100
AcDbEntity
  8
9
100
AcDbHatch
 10
0.0
 20
0.0
 30
0.0
210
0.0
220
0.0
230
1.0
  2
SOLID
 70
     1
 71
     1
 91
       13
 92
        7
 72
     1
 73
     1
 93
       20
 10
-34.36901814481962
 20
55.90786840766487
 42
-0.414213562372991
 10
-34.76901814481926
 20
55.507868407665
 42
0.0
 10
-37.76128539935553
 20
55.507868407665
 42
0.0
 10
-37.76128539935553
 20
55.12380871629648
 42
0.0
 10
-34.7850262845518
 20
55.12380871629648
 42
0.4142135623731705
 10
-33.98502628455162
 20
55.92380871629666
 42
0.0
 10
-33.98502628455162
 20
56.627997286756
 42
0.4142135623731547
 10
-34.7850262845518
 20
57.42799728675596
 42
0.0
 10
-36.96125148380543
 20
57.42799728675596
 42
-0.4142135623730898
 10
-37.36125148380552
 20
57.82799728675604
 42
0.0
 10
-37.36125148380552
 20
58.1001017466508
 42
-0.4142135623731575
 10
-36.96125148380543
 20
58.5001017466509
 42
0.0
 10
-34.27303713752781
 20
58.50010174665067
 42
0.0
 10
-34.27303713752781
 20
58.90010174665076
 42
0.0
 10
-36.96128539935535
 20
58.90010174665076
 42
0.4142135623731705
 10
-37.76128539935553
 20
58.10010174665058
 42
0.0
 10
-37.76128539935553
 20
57.82796337120544
 42
0.4142135623730299
 10
-36.9612853993558
 20
57.02796337120571
 42
0.0
 10
-34.76901814481926
 20
57.02796337120571
 42
-0.4142135623730015
 10
-34.36901814481962
 20
56.62796337120608
 42
0.0
 97
        1
330
BEB
 92
        7
 72
     1
 73
     1
 93
       12
 10
-33.36098015940343
 20
55.92380871629666
 42
0.4142135623731547
 10
-32.56098015940324
 20
55.12380871629648
 42
0.0
 10
-29.58465321349877
 20
55.12380871629648
 42
0.0
 10
-29.58465321349832
 20
58.10010174665058
 42
0.4142135623731964
 10
-30.3846532134985
 20
58.90010174665076
 42
0.0
 10
-33.07296930642724
 20
58.90010174665076
 42
0.0
 10
-33.07296930642724
 20
58.50010174665067
 42
0.0
 10
-30.38468712904887
 20
58.5001017466509
 42
-0.4142135623732564
 10
-29.98468712904878
 20
58.10010174665103
 42
0.0
 10
-29.98468712904923
 20
57.42799728675596
 42
0.0
 10
-32.56098015940324
 20
57.42799728675596
 42
0.4142135623731705
 10
-33.36098015940343
 20
56.627997286756
 42
0.0
 97
        1
330
BEA
 92
       22
 72
     1
 73
     1
 93
        6
 10
-32.97692046803468
 20
56.62796337120562
 42
-0.4142135623731576
 10
-32.57692046803459
 20
57.02796337120571
 42
0.0
 10
-29.98468712904878
 20
57.02796337120571
 42
0.0
 10
-29.98468712904878
 20
55.507868407665
 42
0.0
 10
-32.57692046803459
 20
55.507868407665
 42
-0.4142135623731731
 10
-32.97692046803468
 20
55.90786840766487
 42
0.0
 97
        1
330
C11
 92
        7
 72
     1
 73
     1
 93
       10
 10
-28.57661522808212
 20
58.5001017466509
 42
0.0
 10
-25.98444972019661
 20
58.5001017466509
 42
-0.4142135623730067
 10
-25.58444972019652
 20
58.10010174665058
 42
0.0
 10
-25.58444972019606
 20
55.12380871629648
 42
0.0
 10
-25.20042394437906
 20
55.12380871629648
 42
0.0
 10
-25.2004239443786
 20
58.1001017466508
 42
0.4142135623731134
 10
-26.00042394437833
 20
58.90010174665076
 42
0.0
 10
-28.97664914363259
 20
58.90010174665076
 42
0.0
 10
-28.97664914363259
 20
55.12380871629648
 42
0.0
 10
-28.57661522808212
 20
55.12380871629648
 42
0.0
 97
        1
330
BE9
 92
        7
 72
     0
 73
     1
 93
        4
 10
-24.57637781922995
 20
55.12380871629648
 10
-24.19231812786165
 20
55.12380871629648
 10
-24.19231812786165
 20
58.90010174665076
 10
-24.57637781922995
 20
58.90010174665076
 97
        1
330
BE8
 92
        7
 72
     0
 73
     1
 93
        4
 10
-24.19231812786165
 20
59.87619128370352
 10
-24.5763778192304
 20
59.87619128370352
 10
-24.5763778192304
 20
59.28412752246913
 10
-24.1923181278612
 20
59.28412752246913
 97
        1
330
C12
 92
        7
 72
     1
 73
     1
 93
       10
 10
-23.18424622689509
 20
58.5001017466509
 42
0.0
 10
-20.59204680345965
 20
58.5001017466509
 42
-0.4142135623730898
 10
-20.19204680345956
 20
58.1001017466508
 42
0.0
 10
-20.19204680345956
 20
55.12380871629648
 42
0.0
 10
-19.79201288790909
 20
55.12380871629648
 42
0.0
 10
-19.79201288790909
 20
58.1001017466508
 42
0.4142135623731547
 10
-20.59201288790928
 20
58.90010174665076
 42
0.0
 10
-23.56830591826338
 20
58.90010174665076
 42
0.0
 10
-23.56830591826338
 20
55.12380871629648
 42
0.0
 10
-23.18424622689463
 20
55.12380871629648
 42
0.0
 97
        1
330
BE7
 92
        7
 72
     1
 73
     1
 93
        8
 10
-19.1999120763262
 20
55.92680650071542
 42
0.4153115297271299
 10
-18.39991769304061
 20
55.12380871629648
 42
0.0
 10
-15.4236900118708
 20
55.12380871629648
 42
0.0
 10
-15.4236900118708
 20
59.87619128370352
 42
0.0
 10
-15.80771578768872
 20
59.87619128370352
 42
0.0
 10
-15.80771578768872
 20
58.90010174665076
 42
0.0
 10
-18.39176256411201
 20
58.90010174665076
 42
0.4131164467977965
 10
-19.19175694739761
 20
58.1030995310698
 42
0.0
 97
        1
330
BE6
 92
       22
 72
     1
 73
     1
 93
        6
 10
-18.79994912667462
 20
58.1001017466508
 42
-0.4142135623731575
 10
-18.39994912667453
 20
58.5001017466509
 42
0.0
 10
-15.80771578768872
 20
58.50010174665067
 42
0.0
 10
-15.80771578768827
 20
55.507868407665
 42
0.0
 10
-18.39994912667453
 20
55.507868407665
 42
-0.4142135623731731
 10
-18.79994912667462
 20
55.90786840766487
 42
0.0
 97
        1
330
BE5
 92
        7
 72
     1
 73
     1
 93
       12
 10
-14.79964388672215
 20
55.92380871629621
 42
0.4142135623729885
 10
-13.99964388672242
 20
55.12380871629648
 42
0.0
 10
-11.8233508563676
 20
55.12380871629648
 42
0.4142135623731289
 10
-11.02335085636741
 20
55.92380871629666
 42
0.0
 10
-11.02335085636741
 20
58.90010174665076
 42
0.0
 10
-11.42338477191788
 20
58.90010174665076
 42
0.0
 10
-11.42338477191788
 20
55.91567577726095
 42
-0.4131711701795319
 10
-11.82196067063523
 20
55.51567831234956
 42
0.0
 10
-14.01419400962095
 20
55.50787335710947
 42
-0.4152567234626918
 10
-14.41561811090378
 20
55.90787082202087
 42
0.0
 10
-14.41561811090378
 20
58.90010174665076
 42
0.0
 10
-14.7996438867226
 20
58.90010174665076
 42
0.0
 97
        1
330
BE4
 92
        7
 72
     1
 73
     1
 93
       20
 10
-7.423079531965413
 20
57.02796337120571
 42
-0.414213562373168
 10
-7.023079531965322
 20
56.62796337120562
 42
0.0
 10
-7.023079531965322
 20
55.90786840766487
 42
-0.4142135623731575
 10
-7.423079531965413
 20
55.507868407665
 42
0.0
 10
-10.41534678650168
 20
55.507868407665
 42
0.0
 10
-10.41534678650168
 20
55.12380871629648
 42
0.0
 10
-7.445787917283723
 20
55.12380871629648
 42
0.4114777732065809
 10
-6.645822882998345
 20
55.91632914939783
 42
0.0
 10
-6.639238813324936
 20
56.62051771985716
 42
0.4169546541682913
 10
-7.439203847610315
 20
57.42799728675596
 42
0.0
 10
-9.615312870951584
 20
57.42799728675596
 42
-0.4142135623729911
 10
-10.01531287095122
 20
57.82799728675581
 42
0.0
 10
-10.01531287095122
 20
58.10010174665103
 42
-0.414213562372991
 10
-9.615312870951584
 20
58.5001017466509
 42
0.0
 10
-6.92703069357276
 20
58.50010174665067
 42
0.0
 10
-6.927030693572305
 20
58.90010174665076
 42
0.0
 10
-9.615346786501959
 20
58.90010174665076
 42
0.4142135623730467
 10
-10.41534678650168
 20
58.10010174665103
 42
0.0
 10
-10.41534678650168
 20
57.82796337120544
 42
0.4142135623730301
 10
-9.615346786501959
 20
57.02796337120571
 42
0.0
 97
        1
330
BE3
 92
        7
 72
     1
 73
     1
 93
       12
 10
-5.21497371544865
 20
57.42799728675596
 42
0.4142135623730871
 10
-6.014973715448377
 20
56.627997286756
 42
0.0
 10
-6.014973715448377
 20
55.92380871629621
 42
0.4142135623730715
 10
-5.21497371544865
 20
55.12380871629648
 42
0.0
 10
-2.23871460064447
 20
55.12380871629648
 42
0.0
 10
-2.23871460064447
 20
58.10010174665058
 42
0.414213562373155
 10
-3.038714600644652
 20
58.90010174665076
 42
0.0
 10
-5.726962862471737
 20
58.90010174665076
 42
0.0
 10
-5.726962862472191
 20
58.5001017466509
 42
0.0
 10
-3.038748516194573
 20
58.5001017466509
 42
-0.4142135623730067
 10
-2.638748516194482
 20
58.10010174665058
 42
0.0
 10
-2.638748516194482
 20
57.42799728675596
 42
0.0
 97
        1
330
BE2
 92
       22
 72
     1
 73
     1
 93
        6
 10
-2.638748516194937
 20
57.02796337120571
 42
0.0
 10
-2.638748516194482
 20
55.50786840766477
 42
0.0
 10
-5.21497371544865
 20
55.507868407665
 42
-0.4142135623731731
 10
-5.614973715448741
 20
55.90786840766509
 42
0.0
 10
-5.614973715448741
 20
56.62796337120562
 42
-0.4142135623731576
 10
-5.21497371544865
 20
57.02796337120571
 42
0.0
 97
        1
330
C0D
 75
     0
 76
     1
 47
0.0407044778999864
 98
       13
 10
-34.18710075113677
 20
56.16907953933765
 10
-33.12851374392494
 20
56.49471602641233
 10
-33.12851374392494
 20
56.49471602641233
 10
-28.77202873835904
 20
57.51232930166111
 10
-24.41554807250941
 20
57.91937341678636
 10
-24.41554807250941
 20
59.384734621186
 10
-23.31624584658039
 20
58.3264175319116
 10
-19.04119127844888
 20
57.75655517324913
 10
-19.04119127844888
 20
57.75655517324913
 10
-14.64399105416578
 20
57.43091868617466
 10
-8.048195057457178
 20
57.22739662861204
 10
-4.017427461911665
 20
57.18669281458665
 10
-4.017427461911665
 20
57.18669281458665
  0
TEXT
  5
BED
330
B9E
100
AcDbEntity
  8
leg fin
100
AcDbText
 10
3.391127401597259
 20
2.107634911895729
 30
0.0
 40
1.5
  1
Este desenho é propriedade da Sanindusa, S.A., e não pode ser copiado nem divulgado sem nossa autorização.
 50
90.0
 41
0.8
  7
SANINDUSA
100
AcDbText
  0
LINE
  5
BEE
330
B9E
100
AcDbEntity
  8
3
100
AcDbLine
 10
-90.0
 20
4.0
 30
0.0
 11
-90.0
 21
12.0
 31
0.0
  0
TEXT
  5
BEF
330
B9E
100
AcDbEntity
  8
1
100
AcDbText
 10
-39.0
 20
9.25
 30
0.0
 40
2.0
  1
Substituido por:
 41
0.8
  7
SANINDUSA
 11
-39.0
 21
10.25
 31
0.0
100
AcDbText
 73
     2
  0
POINT
  5
BF0
330
B9E
100
AcDbEntity
  8
SANINDUSA
100
AcDbPoint
 10
0.0
 20
0.0
 30
0.0
  0
TEXT
  5
BF1
330
B9E
100
AcDbEntity
  8
1
100
AcDbText
 10
-89.0
 20
16.74927010445663
 30
0.0
 40
2.0
  1
Normas:
 41
0.8
  7
SANINDUSA
 11
-89.0
 21
17.74927010445663
 31
0.0
100
AcDbText
 73
     2
  0
LINE
  5
BF2
330
B9E
100
AcDbEntity
  8
3
100
AcDbLine
 10
-90.0
 20
12.0
 30
0.0
 11
-90.0
 21
20.0
 31
0.0
  0
LINE
  5
BF3
330
B9E
100
AcDbEntity
  8
3
100
AcDbLine
 10
-110.546019464768
 20
12.0
 30
0.0
 11
-110.546019464768
 21
20.0
 31
0.0
  0
TEXT
  5
BF4
330
B9E
100
AcDbEntity
  8
1
100
AcDbText
 10
-109.6177520618648
 20
17.25
 30
0.0
 40
2.0
  1
Cor:
 41
0.8
  7
SANINDUSA
 11
-109.6177520618648
 21
18.25
 31
0.0
100
AcDbText
 73
     2
  0
LINE
  5
BF5
330
B9E
100
AcDbEntity
  8
leg fin
100
AcDbLine
 10
-91.42857142857156
 20
20.0
 30
0.0
 11
-91.42857142857156
 21
28.5
 31
0.0
  0
LINE
  5
BF6
330
B9E
100
AcDbEntity
  8
leg fin
100
AcDbLine
 10
-104.2857142857142
 20
20.0
 30
0.0
 11
-104.2857142857142
 21
28.5
 31
0.0
  0
LINE
  5
BF7
330
B9E
100
AcDbEntity
  8
leg fin
100
AcDbLine
 10
-117.1428571428573
 20
20.0
 30
0.0
 11
-117.1428571428573
 21
28.5
 31
0.0
  0
POINT
  5
BF8
330
B9E
100
AcDbEntity
  8
SANINDUSA
100
AcDbPoint
 10
-117.1428571428573
 20
28.5
 30
0.0
  0
POINT
  5
BF9
330
B9E
100
AcDbEntity
  8
SANINDUSA
100
AcDbPoint
 10
-104.2857142857142
 20
28.5
 30
0.0
  0
POINT
  5
BFA
330
B9E
100
AcDbEntity
  8
SANINDUSA
100
AcDbPoint
 10
-91.42857142857156
 20
28.5
 30
0.0
  0
TEXT
  5
BFB
330
B9E
100
AcDbEntity
  8
1
100
AcDbText
 10
-116.200160604496
 20
26.43288406845113
 30
0.0
 40
1.5
  1
Nº Seq.:
 41
0.8
  7
SANINDUSA
 11
-116.200160604496
 21
27.18288406845113
 31
0.0
100
AcDbText
 73
     2
  0
TEXT
  5
BFC
330
B9E
100
AcDbEntity
  8
1
100
AcDbText
 10
-103.2106584078738
 20
26.43288406845113
 30
0.0
 40
1.5
  1
Tipo:
 41
0.8
  7
SANINDUSA
 11
-103.2106584078738
 21
27.18288406845113
 31
0.0
100
AcDbText
 73
     2
  0
TEXT
  5
BFD
330
B9E
100
AcDbEntity
  8
1
100
AcDbText
 10
-90.22114672289353
 20
26.43288406845113
 30
0.0
 40
1.5
  1
Prod.:
 41
0.8
  7
SANINDUSA
 11
-90.22114672289353
 21
27.18288406845113
 31
0.0
100
AcDbText
 73
     2
  0
TEXT
  5
BFE
330
B9E
100
AcDbEntity
  8
1
100
AcDbText
 10
-64.77320576346574
 20
26.43288406845113
 30
0.0
 40
1.5
  1
Rev.:
 41
0.8
  7
SANINDUSA
 11
-64.77320576346574
 21
27.18288406845113
 31
0.0
100
AcDbText
 73
     2
  0
LINE
  5
BFF
330
B9E
100
AcDbEntity
  8
leg fin
100
AcDbLine
 10
-52.85714285714266
 20
20.0
 30
0.0
 11
-52.85714285714266
 21
28.5
 31
0.0
  0
LINE
  5
C00
330
B9E
100
AcDbEntity
  8
leg fin
100
AcDbLine
 10
-65.71428571428578
 20
20.0
 30
0.0
 11
-65.71428571428578
 21
28.5
 31
0.0
  0
LINE
  5
C01
330
B9E
100
AcDbEntity
  8
leg fin
100
AcDbLine
 10
-78.57142857142844
 20
20.0
 30
0.0
 11
-78.57142857142844
 21
28.5
 31
0.0
  0
POINT
  5
C02
330
B9E
100
AcDbEntity
  8
SANINDUSA
100
AcDbPoint
 10
-78.57142857142844
 20
28.5
 30
0.0
  0
POINT
  5
C03
330
B9E
100
AcDbEntity
  8
SANINDUSA
100
AcDbPoint
 10
-65.71428571428578
 20
28.5
 30
0.0
  0
POINT
  5
C04
330
B9E
100
AcDbEntity
  8
SANINDUSA
100
AcDbPoint
 10
-52.85714285714266
 20
28.5
 30
0.0
  0
TEXT
  5
C05
330
B9E
100
AcDbEntity
  8
1
100
AcDbText
 10
-77.61097961686573
 20
26.43288406845113
 30
0.0
 40
1.5
  1
Peça:
 41
0.8
  7
SANINDUSA
 11
-77.61097961686573
 21
27.18288406845113
 31
0.0
100
AcDbText
 73
     2
  0
TEXT
  5
C06
330
B9E
100
AcDbEntity
  8
1
100
AcDbText
 10
-52.06538060077036
 20
26.43288406845113
 30
0.0
 40
1.5
  1
Alt.:
 41
0.8
  7
SANINDUSA
 11
-52.06538060077036
 21
27.18288406845113
 31
0.0
100
AcDbText
 73
     2
  0
LINE
  5
C07
330
B9E
100
AcDbEntity
  8
3
100
AcDbLine
 10
0.0
 20
12.0
 30
0.0
 11
-40.0
 21
12.0
 31
0.0
  0
LINE
  5
C08
330
B9E
100
AcDbEntity
  8
3
100
AcDbLine
 10
-40.0
 20
32.5
 30
0.0
 11
0.0
 21
32.5
 31
0.0
  0
TEXT
  5
C09
330
B9E
100
AcDbEntity
  8
1
100
AcDbText
 10
-19.0
 20
29.75
 30
0.0
 40
2.0
  1
Folha:
 41
0.8
  7
SANINDUSA
 11
-19.0
 21
30.75
 31
0.0
100
AcDbText
 73
     2
  0
LINE
  5
C0A
330
B9E
100
AcDbEntity
  8
3
100
AcDbLine
 10
-20.0
 20
32.5
 30
0.0
 11
-20.0
 21
20.0
 31
0.0
  0
TEXT
  5
C0B
330
B9E
100
AcDbEntity
  8
1
100
AcDbText
 10
-39.0
 20
29.75
 30
0.0
 40
2.0
  1
Escala:
 41
0.8
  7
SANINDUSA
 11
-39.0
 21
30.75
 31
0.0
100
AcDbText
 73
     2
  0
TEXT
  5
C0C
330
B9E
100
AcDbEntity
  8
1
100
AcDbText
 10
-39.0
 20
17.25
 30
0.0
 40
2.0
  1
Substitui:
 41
0.8
  7
SANINDUSA
 11
-39.0
 21
18.25
 31
0.0
100
AcDbText
 73
     2
  0
LWPOLYLINE
  5
C0D
102
{ACAD_REACTORS
330
BEC
102
}
330
B9E
100
AcDbEntity
  8
9
100
AcDbPolyline
 90
        6
 70
     1
 43
0.0
 10
-2.638748516194482
 20
57.02796337120571
 10
-2.638748516194482
 20
55.50786840766477
 10
-5.21497371544865
 20
55.507868407665
 42
-0.4142135623730898
 10
-5.614973715448741
 20
55.90786840766487
 10
-5.614973715448741
 20
56.62796337120562
 42
-0.4142135623731576
 10
-5.21497371544865
 20
57.02796337120571
  0
LINE
  5
C0E
330
B9E
100
AcDbEntity
  8
3
100
AcDbLine
 10
-40.0
 20
50.0
 30
0.0
 11
0.0
 21
50.0
 31
0.0
  0
ATTDEF
  5
C0F
330
B9E
100
AcDbEntity
  8
1
100
AcDbText
 10
-31.30691739422431
 20
40.25
 30
0.0
 40
2.0
  1
XXXXXXXXXXXXXXX
 41
0.8
  7
SANINDUSA
 72
     4
 11
-20.0
 21
41.25
 31
0.0
100
AcDbAttributeDefinition
  3
Observações:
  2
OBS
 70
     0
  0
TEXT
  5
C10
330
B9E
100
AcDbEntity
  8
1
100
AcDbText
 10
-39.0
 20
47.25
 30
0.0
 40
2.0
  1
Observações:
 41
0.8
  7
SANINDUSA
 11
-39.0
 21
48.25
 31
0.0
100
AcDbText
 73
     2
  0
LWPOLYLINE
  5
C11
102
{ACAD_REACTORS
330
BEC
102
}
330
B9E
100
AcDbEntity
  8
9
100
AcDbPolyline
 90
        6
 70
     1
 43
0.0
 10
-29.98468712904878
 20
57.02796337120571
 10
-29.98468712904878
 20
55.507868407665
 10
-32.57692046803459
 20
55.507868407665
 42
-0.4142135623731731
 10
-32.97692046803468
 20
55.90786840766487
 10
-32.97692046803468
 20
56.62796337120562
 42
-0.4142135623731576
 10
-32.57692046803459
 20
57.02796337120571
  0
LWPOLYLINE
  5
C12
102
{ACAD_REACTORS
330
BEC
102
}
330
B9E
100
AcDbEntity
  8
9
100
AcDbPolyline
 90
        4
 70
     1
 43
0.0
 10
-24.19231812786165
 20
59.87619128370352
 10
-24.57637781922995
 20
59.87619128370352
 10
-24.57637781922995
 20
59.28412752246913
 10
-24.19231812786165
 20
59.28412752246913
  0
ENDBLK
  5
C14
330
B9E
100
AcDbEntity
  8
0
100
AcDbBlockEnd
  0
ENDSEC
  0
SECTION
  2
ENTITIES
  0
ARC
  5
1395
330
1F
100
AcDbEntity
  8
SANINDUSA
100
AcDbCircle
 10
4054.582831672104
 20
1641.061477272933
 30
0.0
 40
0.0049999895400275
100
AcDbArc
 50
342.7790803966496
 51
90.00045955992348
  0
ARC
  5
1396
330
1F
100
AcDbEntity
  8
SANINDUSA
100
AcDbCircle
 10
4053.994634236378
 20
1641.061477278164
 30
0.0
 40
0.0049999843093814
100
AcDbArc
 50
89.99948296251721
 51
197.2093812760621
  0
SPLINE
  5
1397
330
1F
100
AcDbEntity
  8
SANINDUSA
100
AcDbSpline
210
0.0
220
0.0
230
1.0
 70
     8
 71
     3
 72
    11
 73
     7
 74
     0
 42
0.0000000001
 43
0.0000000001
 40
0.0
 40
0.0
 40
0.0
 40
0.0
 40
0.2476171736680758
 40
0.5014295139387439
 40
0.755525547548962
 40
1.0
 40
1.0
 40
1.0
 40
1.0
 10
4054.561888496976
 20
1640.996447862184
 30
0.0
 10
4054.564393900285
 20
1641.001528998191
 30
0.0
 10
4054.569467389917
 20
1641.011818395815
 30
0.0
 10
4054.576236591382
 20
1641.027726841683
 30
0.0
 10
4054.582392848834
 20
1641.043804380695
 30
0.0
 10
4054.585870923391
 20
1641.054665070271
 30
0.0
 10
4054.587576400143
 20
1641.059990618436
 30
0.0
  0
SPLINE
  5
1398
330
1F
100
AcDbEntity
  8
SANINDUSA
100
AcDbSpline
210
0.0
220
0.0
230
1.0
 70
     8
 71
     3
 72
    11
 73
     7
 74
     0
 42
0.0000000001
 43
0.0000000001
 40
0.0
 40
0.0
 40
0.0
 40
0.0
 40
0.244474452451038
 40
0.498570486061256
 40
0.7523828263319241
 40
1.0
 40
1.0
 40
1.0
 40
1.0
 10
4053.989889513355
 20
1641.059990618436
 30
0.0
 10
4053.991594990107
 20
1641.054665070271
 30
0.0
 10
4053.995073064665
 20
1641.043804380695
 30
0.0
 10
4054.001229322115
 20
1641.027726841683
 30
0.0
 10
4054.00799852358
 20
1641.011818395815
 30
0.0
 10
4054.013072013212
 20
1641.001528998191
 30
0.0
 10
4054.01557741652
 20
1640.996447862184
 30
0.0
  0
ARC
  5
1399
330
1F
100
AcDbEntity
  8
SANINDUSA
100
AcDbCircle
 10
4054.556311701685
 20
1640.99647722555
 30
0.0
 40
0.004999960036598
100
AcDbArc
 50
270.1079856767466
 51
332.4967935321708
  0
ARC
  5
139A
330
1F
100
AcDbEntity
  8
SANINDUSA
100
AcDbCircle
 10
4054.021154244804
 20
1640.996477312967
 30
0.0
 40
0.0050000475153136
100
AcDbArc
 50
207.4739787980367
 51
269.8916381650353
  0
SPLINE
  5
139B
330
1F
100
AcDbEntity
  8
SANINDUSA
100
AcDbSpline
210
0.0
220
0.0
230
1.0
 70
    24
 71
     3
 72
     9
 73
     5
 74
     0
 42
0.0000000001
 43
0.0000000001
 40
0.0
 40
0.0
 40
0.0
 40
0.0
 40
0.4825625839755667
 40
0.9999999999999998
 40
0.9999999999999998
 40
0.9999999999999998
 40
0.9999999999999998
 10
4054.560713242393
 20
1640.99413100729
 30
0.0
 10
4054.560909271202
 20
1640.994511853151
 30
0.0
 10
4054.561315495837
 20
1640.99530106863
 30
0.0
 10
4054.561717637127
 20
1640.996092370232
 30
0.0
 10
4054.561925720078
 20
1640.996501819289
 30
0.0
  0
SPLINE
  5
139C
330
1F
100
AcDbEntity
  8
SANINDUSA
100
AcDbSpline
210
0.0
220
0.0
230
1.0
 70
    24
 71
     3
 72
     9
 73
     5
 74
     0
 42
0.0000000001
 43
0.0000000001
 40
0.0
 40
0.0
 40
0.0
 40
0.0
 40
0.5174348827805825
 40
0.9999999999999998
 40
0.9999999999999998
 40
0.9999999999999998
 40
0.9999999999999998
 10
4054.015540193421
 20
1640.996501819289
 30
0.0
 10
4054.015748276923
 20
1640.996092370539
 30
0.0
 10
4054.01615042125
 20
1640.995301065655
 30
0.0
 10
4054.016556642769
 20
1640.99451184348
 30
0.0
 10
4054.016752671104
 20
1640.994130992388
 30
0.0
  0
SPLINE
  5
139D
330
1F
100
AcDbEntity
  8
SANINDUSA
100
AcDbSpline
210
0.0
220
0.0
230
1.0
 70
     8
 71
     3
 72
    30
 73
    26
 74
     0
 42
0.0000000001
 43
0.0000000001
 40
0.0
 40
0.0
 40
0.0
 40
0.0
 40
0.0696425380514754
 40
0.1408048369746891
 40
0.2059411200869649
 40
0.2648282180604102
 40
0.3173527007038766
 40
0.3562270619025026
 40
0.3906397377023287
 40
0.4205925237518667
 40
0.4460968128750442
 40
0.4671780886102157
 40
0.4855380531717914
 40
0.5122515573746725
 40
0.5448352072669774
 40
0.5832852843316143
 40
0.6276292065704152
 40
0.6779603685272939
 40
0.7246283650560308
 40
0.775822467650793
 40
0.8319015449275324
 40
0.8774931585463432
 40
0.9264537295440955
 40
0.9790774159148638
 40
1.0
 40
1.0
 40
1.0
 40
1.0
 10
4054.384829599064
 20
1640.928395533061
 30
0.0
 10
4054.388421995305
 20
1640.928900410768
 30
0.0
 10
4054.395685182163
 20
1640.92992118378
 30
0.0
 10
4054.406381247676
 20
1640.931761057228
 30
0.0
 10
4054.416533448501
 20
1640.933764940425
 30
0.0
 10
4054.425711100697
 20
1640.935842224315
 30
0.0
 10
4054.433498506193
 20
1640.937828803596
 30
0.0
 10
4054.43998650636
 20
1640.939655525309
 30
0.0
 10
4054.445282325845
 20
1640.94126831201
 30
0.0
 10
4054.449865000673
 20
1640.942763426387
 30
0.0
 10
4054.453742258394
 20
1640.944105663197
 30
0.0
 10
4054.45700922718
 20
1640.945294480289
 30
0.0
 10
4054.460298011158
 20
1640.946542783513
 30
0.0
 10
4054.464157274444
 20
1640.948077493565
 30
0.0
 10
4054.468983421123
 20
1640.950120012475
 30
0.0
 10
4054.474624260006
 20
1640.952692823193
 30
0.0
 10
4054.481032609263
 20
1640.955884113853
 30
0.0
 10
4054.487682249964
 20
1640.959548480976
 30
0.0
 10
4054.4944436683
 20
1640.96368713077
 30
0.0
 10
4054.501204835609
 20
1640.968291372587
 30
0.0
 10
4054.507579614081
 20
1640.973180464846
 30
0.0
 10
4054.513504550681
 20
1640.978262537644
 30
0.0
 10
4054.51891015188
 20
1640.983454417534
 30
0.0
 10
4054.523154856164
 20
1640.987913352641
 30
0.0
 10
4054.52541936146
 20
1640.990687939657
 30
0.0
 10
4054.526063572269
 20
1640.991477259493
 30
0.0
  0
SPLINE
  5
139E
330
1F
100
AcDbEntity
  8
SANINDUSA
100
AcDbSpline
210
0.0
220
0.0
230
1.0
 70
     8
 71
     3
 72
    31
 73
    27
 74
     0
 42
0.0000000001
 43
0.0000000001
 40
0.0
 40
0.0
 40
0.0
 40
0.0
 40
0.0246422277552461
 40
0.0798387022920018
 40
0.1292535197308904
 40
0.1733806133447176
 40
0.2126671188079736
 40
0.247443946112327
 40
0.27795212975635
 40
0.3043654119047907
 40
0.326810669817281
 40
0.3453870993032178
 40
0.3601875697409265
 40
0.372145302493253
 40
0.3887300361079127
 40
0.4118516453261526
 40
0.4415568200095074
 40
0.4778646416604762
 40
0.5207987400274016
 40
0.5703974146812603
 40
0.6267090153637755
 40
0.6897708921462855
 40
0.7595699326506092
 40
0.8359849429994907
 40
0.9187096497039531
 40
1.0
 40
1.0
 40
1.0
 40
1.0
 10
4054.051384549242
 20
1640.991477259493
 30
0.0
 10
4054.052112832836
 20
1640.990577563418
 30
0.0
 10
4054.054472409156
 20
1640.987662625377
 30
0.0
 10
4054.058853601179
 20
1640.983080342051
 30
0.0
 10
4054.064239215183
 20
1640.977949857019
 30
0.0
 10
4054.06942348685
 20
1640.973535554248
 30
0.0
 10
4054.074293305711
 20
1640.969753259092
 30
0.0
 10
4054.078795174227
 20
1640.966534054782
 30
0.0
 10
4054.082879270861
 20
1640.963816133085
 30
0.0
 10
4054.086507778652
 20
1640.961547212959
 30
0.0
 10
4054.089652622109
 20
1640.959682312157
 30
0.0
 10
4054.092289025873
 20
1640.95818613516
 30
0.0
 10
4054.094450196355
 20
1640.957002564579
 30
0.0
 10
4054.096484539567
 20
1640.955917752704
 30
0.0
 10
4054.098979688951
 20
1640.954628810492
 30
0.0
 10
4054.102354908988
 20
1640.952959221389
 30
0.0
 10
4054.106741015133
 20
1640.950909926645
 30
0.0
 10
4054.112165224891
 20
1640.948549697304
 30
0.0
 10
4054.118659689954
 20
1640.945954147962
 30
0.0
 10
4054.126248144134
 20
1640.943207428498
 30
0.0
 10
4054.134944456946
 20
1640.940396456432
 30
0.0
 10
4054.144745638922
 20
1640.937608183812
 30
0.0
 10
4054.155626860934
 20
1640.934922156898
 30
0.0
 10
4054.167531159303
 20
1640.932418903902
 30
0.0
 10
4054.180004535766
 20
1640.930186836687
 30
0.0
 10
4054.188450575971
 20
1640.928990637356
 30
0.0
 10
4054.192636664611
 20
1640.928397768235
 30
0.0
  0
ARC
  5
139F
330
1F
100
AcDbEntity
  8
SANINDUSA
100
AcDbCircle
 10
4054.38523294446
 20
1640.925418851052
 30
0.0
 40
0.0029999869476817
100
AcDbArc
 50
97.53610418439478
 51
179.6542897549663
  0
ARC
  5
13A0
330
1F
100
AcDbEntity
  8
SANINDUSA
100
AcDbCircle
 10
4054.192232957695
 20
1640.925418836476
 30
0.0
 40
0.0029999983783045
100
AcDbArc
 50
0.3459873069996417
 51
82.40815436604021
  0
SPLINE
  5
13A1
330
1F
100
AcDbEntity
  8
SANINDUSA
100
AcDbSpline
210
0.0
220
0.0
230
1.0
 70
     8
 71
     3
 72
    39
 73
    35
 74
     0
 42
0.0000000001
 43
0.0000000001
 40
0.0
 40
0.0
 40
0.0
 40
0.0
 40
0.0367723632739915
 40
0.0766186966647413
 40
0.1085620775621625
 40
0.1309512024353064
 40
0.1465260974218031
 40
0.1562574450446055
 40
0.1663200273964461
 40
0.1849694617596908
 40
0.2070986807741195
 40
0.237333912363651
 40
0.2658179042307034
 40
0.2910828373921641
 40
0.3109070663754176
 40
0.3281430965170941
 40
0.34284629637208
 40
0.3606568728444369
 40
0.3852657502911002
 40
0.416688306155093
 40
0.4540014783783467
 40
0.4938738056488545
 40
0.5304770024912655
 40
0.5637590219637252
 40
0.5937239755749345
 40
0.6199342674752236
 40
0.6434413199555744
 40
0.6690574811577413
 40
0.6980374234210503
 40
0.7452716540436431
 40
0.7993609624421892
 40
0.8602859958159083
 40
0.9280176334798046
 40
1.0
 40
1.0
 40
1.0
 40
1.0
 10
4054.488542478185
 20
1640.939349868393
 30
0.0
 10
4054.488827179966
 20
1640.940124149891
 30
0.0
 10
4054.489420383053
 20
1640.94173743862
 30
0.0
 10
4054.490295636953
 20
1640.943897114808
 30
0.0
 10
4054.491067406646
 20
1640.94571125261
 30
0.0
 10
4054.491642034927
 20
1640.947003940875
 30
0.0
 10
4054.492034480372
 20
1640.947862366319
 30
0.0
 10
4054.492302353288
 20
1640.948438590479
 30
0.0
 10
4054.492602540866
 20
1640.949076080136
 30
0.0
 10
4054.493014258301
 20
1640.949933389802
 30
0.0
 10
4054.493608693239
 20
1640.951136779004
 30
0.0
 10
4054.494307941918
 20
1640.952501940647
 30
0.0
 10
4054.495055599168
 20
1640.953904410002
 30
0.0
 10
4054.495731614141
 20
1640.955127631809
 30
0.0
 10
4054.496324183587
 20
1640.956167963785
 30
0.0
 10
4054.496831405513
 20
1640.957036943484
 30
0.0
 10
4054.497346547424
 20
1640.957900812742
 30
0.0
 10
4054.497937801694
 20
1640.958870970454
 30
0.0
 10
4054.498694715036
 20
1640.960079686409
 30
0.0
 10
4054.499658361639
 20
1640.961566109543
 30
0.0
 10
4054.500793406333
 20
1640.963246328409
 30
0.0
 10
4054.501990956835
 20
1640.964941565581
 30
0.0
 10
4054.503121218335
 20
1640.966474415208
 30
0.0
 10
4054.504120439806
 20
1640.967780175459
 30
0.0
 10
4054.50497303752
 20
1640.968858869231
 30
0.0
 10
4054.505687704192
 20
1640.969738512955
 30
0.0
 10
4054.506277031702
 20
1640.970447143689
 30
0.0
 10
4054.506916013783
 20
1640.971205477423
 30
0.0
 10
4054.507781778872
 20
1640.972214457957
 30
0.0
 10
4054.508932368871
 20
1640.97352042077
 30
0.0
 10
4054.510417164336
 20
1640.975145920961
 30
0.0
 10
4054.512143251264
 20
1640.976958199952
 30
0.0
 10
4054.51408884894
 20
1640.978918750013
 30
0.0
 10
4054.515488182537
 20
1640.980247052156
 30
0.0
 10
4054.516209136348
 20
1640.980931409693
 30
0.0
  0
SPLINE
  5
13A2
330
1F
100
AcDbEntity
  8
SANINDUSA
100
AcDbSpline
210
0.0
220
0.0
230
1.0
 70
     8
 71
     3
 72
    35
 73
    31
 74
     0
 42
0.0000000001
 43
0.0000000001
 40
0.0
 40
0.0
 40
0.0
 40
0.0
 40
0.0383179915406717
 40
0.110502781344673
 40
0.1755398364469404
 40
0.2339425123454873
 40
0.280462734813512
 40
0.3256819014003285
 40
0.3695906960929064
 40
0.4106854620030579
 40
0.4450649652811438
 40
0.4726156103745717
 40
0.4971522875259489
 40
0.5275002401858867
 40
0.5641381037235869
 40
0.6070811984222923
 40
0.6503976394122155
 40
0.6893336787479547
 40
0.7064750233081167
 40
0.7226163616493269
 40
0.7377608700245244
 40
0.7519116983965982
 40
0.7651247894127755
 40
0.7812234975843558
 40
0.8025608010635412
 40
0.8320610685337481
 40
0.8678430852303895
 40
0.9098580712681592
 40
0.9580425695820411
 40
0.9999999999999998
 40
0.9999999999999998
 40
0.9999999999999998
 40
0.9999999999999998
 10
4054.064031015736
 20
1640.978248671687
 30
0.0
 10
4054.064328067633
 20
1640.977955836766
 30
0.0
 10
4054.065184716418
 20
1640.977111349051
 30
0.0
 10
4054.066687794755
 20
1640.975544416768
 30
0.0
 10
4054.068460674567
 20
1640.973618661488
 30
0.0
 10
4054.070176551352
 20
1640.971653394327
 30
0.0
 10
4054.071622809185
 20
1640.969922941626
 30
0.0
 10
4054.072877298465
 20
1640.968363444435
 30
0.0
 10
4054.074027037038
 20
1640.966878066471
 30
0.0
 10
4054.075046172578
 20
1640.96551366089
 30
0.0
 10
4054.07602859608
 20
1640.964152268331
 30
0.0
 10
4054.07698456729
 20
1640.962785466799
 30
0.0
 10
4054.078004761614
 20
1640.961285719951
 30
0.0
 10
4054.078824629088
 20
1640.960026623001
 30
0.0
 10
4054.079681392023
 20
1640.958656489911
 30
0.0
 10
4054.080479181306
 20
1640.957320707553
 30
0.0
 10
4054.081269282661
 20
1640.955955109632
 30
0.0
 10
4054.081917346969
 20
1640.954798433184
 30
0.0
 10
4054.082395235869
 20
1640.953923899183
 30
0.0
 10
4054.082719938472
 20
1640.953320590635
 30
0.0
 10
4054.083028499499
 20
1640.952738570319
 30
0.0
 10
4054.083322481331
 20
1640.952175662845
 30
0.0
 10
4054.083625225355
 20
1640.951587715778
 30
0.0
 10
4054.084002831497
 20
1640.950841581361
 30
0.0
 10
4054.084517871086
 20
1640.949799650631
 30
0.0
 10
4054.085190777038
 20
1640.94839235483
 30
0.0
 10
4054.086021482872
 20
1640.946577925274
 30
0.0
 10
4054.086981462324
 20
1640.944357192287
 30
0.0
 10
4054.087968625344
 20
1640.94194115618
 30
0.0
 10
4054.088612420132
 20
1640.940192691095
 30
0.0
 10
4054.088912080628
 20
1640.939378851151
 30
0.0
  0
SPLINE
  5
13A3
330
1F
100
AcDbEntity
  8
SANINDUSA
100
AcDbSpline
210
0.0
220
0.0
230
1.0
 70
     8
 71
     3
 72
    19
 73
    15
 74
     0
 42
0.0000000001
 43
0.0000000001
 40
0.0
 40
0.0
 40
0.0
 40
0.0
 40
0.0735436623279998
 40
0.1977837494413901
 40
0.3118065567469251
 40
0.407733916398925
 40
0.5085864389445804
 40
0.6091745864624541
 40
0.6954681393689972
 40
0.7758279419615982
 40
0.8490689860658827
 40
0.9139855130037329
 40
0.9697784593770675
 40
1.0
 40
1.0
 40
1.0
 40
1.0
 10
4054.429799046022
 20
1640.935713254904
 30
0.0
 10
4054.430572408808
 20
1640.935842025007
 30
0.0
 10
4054.432652242566
 20
1640.936188331308
 30
0.0
 10
4054.435792379262
 20
1640.93669744089
 30
0.0
 10
4054.439036176503
 20
1640.937206497375
 30
0.0
 10
4054.441876499755
 20
1640.937630448907
 30
0.0
 10
4054.444386183281
 20
1640.937956776554
 30
0.0
 10
4054.446594889846
 20
1640.938196731907
 30
0.0
 10
4054.448418296964
 20
1640.938347639442
 30
0.0
 10
4054.449836327122
 20
1640.938422830141
 30
0.0
 10
4054.450909194178
 20
1640.938438170245
 30
0.0
 10
4054.451617528811
 20
1640.938415745048
 30
0.0
 10
4054.452006749809
 20
1640.93837515053
 30
0.0
 10
4054.452040461351
 20
1640.938368724183
 30
0.0
 10
4054.452052306038
 20
1640.93836646626
 30
0.0
  0
SPLINE
  5
13A4
330
1F
100
AcDbEntity
  8
SANINDUSA
100
AcDbSpline
210
0.0
220
0.0
230
1.0
 70
     8
 71
     3
 72
    20
 73
    16
 74
     0
 42
0.0000000001
 43
0.0000000001
 40
0.0
 40
0.0
 40
0.0
 40
0.0
 40
0.0030797838248308
 40
0.0501068949143584
 40
0.1055007720518219
 40
0.1698774086171006
 40
0.2429609781499376
 40
0.3238795245910191
 40
0.411524159702086
 40
0.5047320445897042
 40
0.6022817349830731
 40
0.7033611201287985
 40
0.8050235613137409
 40
0.9278673003593343
 40
1.0
 40
1.0
 40
1.0
 40
1.0
 10
4054.125392119985
 20
1640.938363739347
 30
0.0
 10
4054.125391056395
 20
1640.938363475036
 30
0.0
 10
4054.12537375219
 20
1640.938359174787
 30
0.0
 10
4054.125579230679
 20
1640.938393413561
 30
0.0
 10
4054.12602665866
 20
1640.938423006689
 30
0.0
 10
4054.12681934489
 20
1640.938439117263
 30
0.0
 10
4054.127942226486
 20
1640.938409900799
 30
0.0
 10
4054.129424042464
 20
1640.938320657548
 30
0.0
 10
4054.131257331285
 20
1640.938157753951
 30
0.0
 10
4054.13342900452
 20
1640.937913504271
 30
0.0
 10
4054.135911118941
 20
1640.937585102863
 30
0.0
 10
4054.138677402615
 20
1640.937167689622
 30
0.0
 10
4054.141840957791
 20
1640.936670460768
 30
0.0
 10
4054.144826735369
 20
1640.936186058275
 30
0.0
 10
4054.146873405349
 20
1640.935845405729
 30
0.0
 10
4054.147630583148
 20
1640.935719379282
 30
0.0
  0
SPLINE
  5
13A5
330
1F
100
AcDbEntity
  8
SANINDUSA
100
AcDbSpline
210
0.0
220
0.0
230
1.0
 70
     8
 71
     3
 72
    12
 73
     8
 74
     0
 42
0.0000000001
 43
0.0000000001
 40
0.0
 40
0.0
 40
0.0
 40
0.0
 40
0.0860334561959491
 40
0.3299196835533036
 40
0.5635033234180432
 40
0.8059484396112072
 40
1.0
 40
1.0
 40
1.0
 40
1.0
 10
4054.452042963009
 20
1640.938371175027
 30
0.0
 10
4054.45257321581
 20
1640.938274160208
 30
0.0
 10
4054.45460662053
 20
1640.937902129378
 30
0.0
 10
4054.458101016605
 20
1640.936927855623
 30
0.0
 10
4054.462636347066
 20
1640.935444265945
 30
0.0
 10
4054.466889824018
 20
1640.933800549886
 30
0.0
 10
4054.469693373724
 20
1640.932506858684
 30
0.0
 10
4054.470939736467
 20
1640.931931727624
 30
0.0
  0
SPLINE
  5
13A6
330
1F
100
AcDbEntity
  8
SANINDUSA
100
AcDbSpline
210
0.0
220
0.0
230
1.0
 70
     8
 71
     3
 72
    12
 73
     8
 74
     0
 42
0.0000000001
 43
0.0000000001
 40
0.0
 40
0.0
 40
0.0
 40
0.0
 40
0.180169819439455
 40
0.4306354592160556
 40
0.6766975951624918
 40
0.918940584149594
 40
1.0
 40
1.0
 40
1.0
 40
1.0
 10
4054.106525119048
 20
1640.931923651194
 30
0.0
 10
4054.10768300209
 20
1640.932462661358
 30
0.0
 10
4054.110450532731
 20
1640.933750984173
 30
0.0
 10
4054.114746886737
 20
1640.935416930162
 30
0.0
 10
4054.11940164464
 20
1640.936941840175
 30
0.0
 10
4054.122930671588
 20
1640.937914607902
 30
0.0
 10
4054.1249234967
 20
1640.938284523242
 30
0.0
 10
4054.125423144203
 20
1640.938377269602
 30
0.0
  0
LINE
  5
13AD
330
1F
100
AcDbEntity
  8
SANINDUSA
100
AcDbLine
 10
4054.288732956749
 20
1640.227251016593
 30
0.0
 11
4054.372777375977
 21
1640.227251016593
 31
0.0
  0
ARC
  5
13AF
330
1F
100
AcDbEntity
  8
SANINDUSA
100
AcDbCircle
 10
4054.372777373315
 20
1640.229251015858
 30
0.0
 40
0.0019999992647551
100
AcDbArc
 50
270.0000762632893
 51
0.0009909537687012
  0
LINE
  5
13B1
330
1F
100
AcDbEntity
  8
SANINDUSA
100
AcDbLine
 10
4054.288732956749
 20
1640.227251016593
 30
0.0
 11
4054.204688537519
 21
1640.227251016593
 31
0.0
  0
ARC
  5
13B2
330
1F
100
AcDbEntity
  8
SANINDUSA
100
AcDbCircle
 10
4054.204688540181
 20
1640.229251015858
 30
0.0
 40
0.0019999992647551
100
AcDbArc
 50
179.9990090462313
 51
269.9999237367107
  0
LINE
  5
13B3
330
1F
100
AcDbEntity
  8
SANINDUSA
100
AcDbLine
 10
4054.202688540917
 20
1640.920477264619
 30
0.0
 11
4054.202688540917
 21
1640.229251050448
 31
0.0
  0
LINE
  5
13B4
330
1F
100
AcDbEntity
  8
SANINDUSA
100
AcDbLine
 10
4054.37477737258
 20
1640.920477264619
 30
0.0
 11
4054.37477737258
 21
1640.229251050448
 31
0.0
  0
SPLINE
  5
13B5
330
1F
100
AcDbEntity
  8
SANINDUSA
100
AcDbSpline
210
0.0
220
0.0
230
1.0
 70
    24
 71
     3
 72
    33
 73
    29
 74
     0
 42
0.0000000001
 43
0.0000000001
 40
0.0
 40
0.0
 40
0.0
 40
0.0
 40
0.0023486819823913
 40
0.039819543311395
 40
0.0773799045953684
 40
0.1149535640550562
 40
0.1524815792416604
 40
0.1899252969379393
 40
0.2266457853905135
 40
0.2634868869047857
 40
0.3003602585157842
 40
0.3371850315849501
 40
0.3738917633398238
 40
0.4123702008397287
 40
0.4508977483042539
 40
0.4893787648215033
 40
0.5292507768068959
 40
0.5692521687094248
 40
0.6093130246889894
 40
0.6493438006869069
 40
0.6892405696184709
 40
0.7327824831907909
 40
0.7764717045485146
 40
0.8202546234062435
 40
0.8640590335767756
 40
0.9077978785730611
 40
0.9513730163167782
 40
1.0
 40
1.0
 40
1.0
 40
1.0
 10
4054.582806419235
 20
1641.066477262473
 30
0.0
 10
4054.582814867474
 20
1641.066477262473
 30
0.0
 10
4054.58295809888
 20
1641.066477262473
 30
0.0
 10
4054.582446926126
 20
1641.066477262473
 30
0.0
 10
4054.581192448402
 20
1641.066477262473
 30
0.0
 10
4054.578934341368
 20
1641.066477262473
 30
0.0
 10
4054.575752013743
 20
1641.066477262473
 30
0.0
 10
4054.571599116797
 20
1641.066477262473
 30
0.0
 10
4054.566439624331
 20
1641.066477262473
 30
0.0
 10
4054.560299245149
 20
1641.066477262473
 30
0.0
 10
4054.553164408726
 20
1641.066477262473
 30
0.0
 10
4054.545060732067
 20
1641.066477262473
 30
0.0
 10
4054.53584981598
 20
1641.066477262473
 30
0.0
 10
4054.525489915871
 20
1641.066477262473
 30
0.0
 10
4054.514014627677
 20
1641.066477262473
 30
0.0
 10
4054.50150030975
 20
1641.066477262473
 30
0.0
 10
4054.487954254796
 20
1641.066477262473
 30
0.0
 10
4054.473434197944
 20
1641.066477262473
 30
0.0
 10
4054.458200933814
 20
1641.066477262473
 30
0.0
 10
4054.442374239537
 20
1641.066477262473
 30
0.0
 10
4054.425542027522
 20
1641.066477262473
 30
0.0
 10
4054.407703065156
 20
1641.066477262473
 30
0.0
 10
4054.388882778074
 20
1641.066477262473
 30
0.0
 10
4054.369676509863
 20
1641.066477262473
 30
0.0
 10
4054.350195375259
 20
1641.066477262473
 30
0.0
 10
4054.330549813502
 20
1641.066477262473
 30
0.0
 10
4054.310047747611
 20
1641.066477262473
 30
0.0
 10
4054.29609275632
 20
1641.066477262473
 30
0.0
 10
4054.288732956749
 20
1641.066477262473
 30
0.0
  0
SPLINE
  5
13B6
330
1F
100
AcDbEntity
  8
SANINDUSA
100
AcDbSpline
210
0.0
220
0.0
230
1.0
 70
    24
 71
     3
 72
    33
 73
    29
 74
     0
 42
0.0000000001
 43
0.0000000001
 40
0.0
 40
0.0
 40
0.0
 40
0.0
 40
0.0023486819823913
 40
0.039819543311395
 40
0.0773799045953684
 40
0.1149535640550563
 40
0.1524815792416605
 40
0.1899252969379393
 40
0.2266457853905135
 40
0.2634868869047857
 40
0.3003602585157843
 40
0.3371850315849501
 40
0.3738917633398238
 40
0.4123702008397288
 40
0.4508977483042541
 40
0.4893787648215034
 40
0.529250776806896
 40
0.5692521687094249
 40
0.6093130246889896
 40
0.649343800686907
 40
0.6892405696184709
 40
0.7327824831907912
 40
0.7764717045485148
 40
0.8202546234062435
 40
0.8640590335767758
 40
0.9077978785730612
 40
0.9513730163167783
 40
1.0
 40
1.0
 40
1.0
 40
1.0
 10
4053.994659494263
 20
1641.066477262473
 30
0.0
 10
4053.994651046024
 20
1641.066477262473
 30
0.0
 10
4053.994507814617
 20
1641.066477262473
 30
0.0
 10
4053.995018987371
 20
1641.066477262473
 30
0.0
 10
4053.996273465095
 20
1641.066477262473
 30
0.0
 10
4053.998531572129
 20
1641.066477262473
 30
0.0
 10
4054.001713899754
 20
1641.066477262473
 30
0.0
 10
4054.0058667967
 20
1641.066477262473
 30
0.0
 10
4054.011026289166
 20
1641.066477262473
 30
0.0
 10
4054.017166668349
 20
1641.066477262473
 30
0.0
 10
4054.024301504772
 20
1641.066477262473
 30
0.0
 10
4054.03240518143
 20
1641.066477262473
 30
0.0
 10
4054.041616097517
 20
1641.066477262473
 30
0.0
 10
4054.051975997626
 20
1641.066477262473
 30
0.0
 10
4054.063451285819
 20
1641.066477262473
 30
0.0
 10
4054.075965603748
 20
1641.066477262473
 30
0.0
 10
4054.089511658701
 20
1641.066477262473
 30
0.0
 10
4054.104031715554
 20
1641.066477262473
 30
0.0
 10
4054.119264979683
 20
1641.066477262473
 30
0.0
 10
4054.135091673961
 20
1641.066477262473
 30
0.0
 10
4054.151923885974
 20
1641.066477262473
 30
0.0
 10
4054.169762848341
 20
1641.066477262473
 30
0.0
 10
4054.188583135423
 20
1641.066477262473
 30
0.0
 10
4054.207789403634
 20
1641.066477262473
 30
0.0
 10
4054.227270538239
 20
1641.066477262473
 30
0.0
 10
4054.246916099995
 20
1641.066477262473
 30
0.0
 10
4054.267418165887
 20
1641.066477262473
 30
0.0
 10
4054.281373157177
 20
1641.066477262473
 30
0.0
 10
4054.288732956749
 20
1641.066477262473
 30
0.0
  0
SPLINE
  5
13BD
330
1F
100
AcDbEntity
  8
SANINDUSA
100
AcDbSpline
210
0.0
220
0.0
230
1.0
 70
    24
 71
     3
 72
    35
 73
    31
 74
     0
 42
0.0000000001
 43
0.0000000001
 40
0.0
 40
0.0
 40
0.0
 40
0.0
 40
0.0494167171461201
 40
0.0990040230996514
 40
0.1472481698478357
 40
0.1954884843993525
 40
0.2282529423756661
 40
0.2610355017383528
 40
0.2937965382799498
 40
0.3236003303500921
 40
0.3534211396908628
 40
0.383222590502718
 40
0.4137477449095103
 40
0.4442945797429432
 40
0.4748176777388526
 40
0.5046180590925089
 40
0.5344410302457323
 40
0.564240659209716
 40
0.5949102834202506
 40
0.6256054214562003
 40
0.6562760441947547
 40
0.6960721449333872
 40
0.7359203463976277
 40
0.7757241216588823
 40
0.8172145966951182
 40
0.8587521792663723
 40
0.9002534851900881
 40
0.9403476922416636
 40
0.9804719481688451
 40
1.0
 40
1.0
 40
1.0
 40
1.0
 10
4054.288732956749
 20
1640.991477259493
 30
0.0
 10
4054.295635054438
 20
1640.991477259493
 30
0.0
 10
4054.309463076179
 20
1640.991477259493
 30
0.0
 10
4054.329961376042
 20
1640.991477259493
 30
0.0
 10
4054.350147072131
 20
1640.991477259493
 30
0.0
 10
4054.367800867638
 20
1640.991477259493
 30
0.0
 10
4054.383116514793
 20
1640.991477259493
 30
0.0
 10
4054.39615726914
 20
1640.991477259493
 30
0.0
 10
4054.408581494582
 20
1640.991477259493
 30
0.0
 10
4054.420372327999
 20
1640.991477259493
 30
0.0
 10
4054.431525514964
 20
1640.991477259493
 30
0.0
 10
4054.442472239307
 20
1640.991477259493
 30
0.0
 10
4054.453163577239
 20
1640.991477259493
 30
0.0
 10
4054.463552377992
 20
1640.991477259493
 30
0.0
 10
4054.473437098955
 20
1640.991477259493
 30
0.0
 10
4054.482786545213
 20
1640.991477259493
 30
0.0
 10
4054.491585405295
 20
1640.991477259493
 30
0.0
 10
4054.499959158369
 20
1640.991477259493
 30
0.0
 10
4054.507854998183
 20
1640.991477259493
 30
0.0
 10
4054.515237386155
 20
1640.991477259493
 30
0.0
 10
4054.522684902052
 20
1640.991477259493
 30
0.0
 10
4054.529938942109
 20
1640.991477259493
 30
0.0
 10
4054.53673673027
 20
1640.991477259493
 30
0.0
 10
4054.542563508059
 20
1640.991477259493
 30
0.0
 10
4054.5473669379
 20
1640.991477259493
 30
0.0
 10
4054.551142796589
 20
1640.991477259493
 30
0.0
 10
4054.553852837326
 20
1640.991477259493
 30
0.0
 10
4054.55552280497
 20
1640.991477259493
 30
0.0
 10
4054.556296313831
 20
1640.991477259493
 30
0.0
 10
4054.556232022464
 20
1640.991477259493
 30
0.0
 10
4054.556210975748
 20
1640.991477259493
 30
0.0
  0
SPLINE
  5
13BE
330
1F
100
AcDbEntity
  8
SANINDUSA
100
AcDbSpline
210
0.0
220
0.0
230
1.0
 70
    24
 71
     3
 72
    35
 73
    31
 74
     0
 42
0.0000000001
 43
0.0000000001
 40
0.0
 40
0.0
 40
0.0
 40
0.0
 40
0.0494167171461199
 40
0.0990040230996512
 40
0.1472481698478355
 40
0.1954884843993523
 40
0.2282529423756659
 40
0.2610355017383525
 40
0.2937965382799495
 40
0.3236003303500919
 40
0.3534211396908626
 40
0.3832225905027178
 40
0.4137477449095102
 40
0.444294579742943
 40
0.4748176777388525
 40
0.5046180590925087
 40
0.5344410302457322
 40
0.564240659209716
 40
0.5949102834202505
 40
0.6256054214562001
 40
0.6562760441947546
 40
0.696072144933387
 40
0.7359203463976276
 40
0.7757241216588822
 40
0.8172145966951182
 40
0.8587521792663723
 40
0.9002534851900881
 40
0.9403476922416635
 40
0.9804719481688449
 40
0.9999999999999998
 40
0.9999999999999998
 40
0.9999999999999998
 40
0.9999999999999998
 10
4054.288732956749
 20
1640.991477259493
 30
0.0
 10
4054.28183085906
 20
1640.991477259493
 30
0.0
 10
4054.26800283732
 20
1640.991477259493
 30
0.0
 10
4054.247504537455
 20
1640.991477259493
 30
0.0
 10
4054.227318841365
 20
1640.991477259493
 30
0.0
 10
4054.209665045859
 20
1640.991477259493
 30
0.0
 10
4054.194349398704
 20
1640.991477259493
 30
0.0
 10
4054.181308644357
 20
1640.991477259493
 30
0.0
 10
4054.168884418915
 20
1640.991477259493
 30
0.0
 10
4054.157093585499
 20
1640.991477259493
 30
0.0
 10
4054.145940398533
 20
1640.991477259493
 30
0.0
 10
4054.13499367419
 20
1640.991477259493
 30
0.0
 10
4054.124302336258
 20
1640.991477259493
 30
0.0
 10
4054.113913535505
 20
1640.991477259493
 30
0.0
 10
4054.104028814541
 20
1640.991477259493
 30
0.0
 10
4054.094679368284
 20
1640.991477259493
 30
0.0
 10
4054.085880508202
 20
1640.991477259493
 30
0.0
 10
4054.077506755128
 20
1640.991477259493
 30
0.0
 10
4054.069610915314
 20
1640.991477259493
 30
0.0
 10
4054.062228527341
 20
1640.991477259493
 30
0.0
 10
4054.054781011446
 20
1640.991477259493
 30
0.0
 10
4054.047526971388
 20
1640.991477259493
 30
0.0
 10
4054.040729183228
 20
1640.991477259493
 30
0.0
 10
4054.034902405439
 20
1640.991477259493
 30
0.0
 10
4054.030098975597
 20
1640.991477259493
 30
0.0
 10
4054.026323116908
 20
1640.991477259493
 30
0.0
 10
4054.023613076171
 20
1640.991477259493
 30
0.0
 10
4054.021943108527
 20
1640.991477259493
 30
0.0
 10
4054.021169599666
 20
1640.991477259493
 30
0.0
 10
4054.021233891034
 20
1640.991477259493
 30
0.0
 10
4054.02125493775
 20
1640.991477259493
 30
0.0
  0
SPLINE
  5
13BF
330
1F
100
AcDbEntity
  8
SANINDUSA
100
AcDbSpline
210
0.0
220
0.0
230
1.0
 70
     8
 71
     3
 72
    21
 73
    17
 74
     0
 42
0.0000000001
 43
0.0000000001
 40
0.0
 40
0.0
 40
0.0
 40
0.0
 40
0.0715742895203083
 40
0.143376672724514
 40
0.2149501553086161
 40
0.2863710666473932
 40
0.3580198554160249
 40
0.4294392596472103
 40
0.5007640142973324
 40
0.5723172521633414
 40
0.6436438111363248
 40
0.7151433982919845
 40
0.7868705025929326
 40
0.858370556968074
 40
0.9291854784421838
 40
1.0
 40
1.0
 40
1.0
 40
1.0
 10
4054.384823824864
 20
1640.928519495821
 30
0.0
 10
4054.38470201365
 20
1640.928568321873
 30
0.0
 10
4054.384458003034
 20
1640.928666129575
 30
0.0
 10
4054.382565078672
 20
1640.928764356462
 30
0.0
 10
4054.379590828321
 20
1640.928857854468
 30
0.0
 10
4054.375419879619
 20
1640.928971612667
 30
0.0
 10
4054.370179055601
 20
1640.929130116415
 30
0.0
 10
4054.363923007596
 20
1640.929349677183
 30
0.0
 10
4054.356700992346
 20
1640.929652335085
 30
0.0
 10
4054.348640782033
 20
1640.930016906185
 30
0.0
 10
4054.339829918341
 20
1640.930425422154
 30
0.0
 10
4054.330355278279
 20
1640.930852451715
 30
0.0
 10
4054.320358196785
 20
1640.931252428501
 30
0.0
 10
4054.309998192856
 20
1640.931581481711
 30
0.0
 10
4054.299413822874
 20
1640.931811608757
 30
0.0
 10
4054.292293238755
 20
1640.931843716227
 30
0.0
 10
4054.288732956749
 20
1640.931859769916
 30
0.0
  0
LINE
  5
13C1
330
1F
100
AcDbEntity
  8
SANINDUSA
100
AcDbLine
 10
4054.384828794401
 20
1640.928400971985
 30
0.0
 11
4054.384827132922
 21
1640.928440728283
 31
0.0
  0
SPLINE
  5
13C3
330
1F
100
AcDbEntity
  8
SANINDUSA
100
AcDbSpline
210
0.0
220
0.0
230
1.0
 70
     8
 71
     3
 72
    21
 73
    17
 74
     0
 42
0.0000000001
 43
0.0000000001
 40
0.0
 40
0.0
 40
0.0
 40
0.0
 40
0.0715742895203083
 40
0.1433766727245141
 40
0.2149501553086162
 40
0.2863710666473934
 40
0.358019855416025
 40
0.4294392596472106
 40
0.5007640142973326
 40
0.5723172521633418
 40
0.6436438111363251
 40
0.715143398291985
 40
0.786870502592933
 40
0.8583705569680745
 40
0.9291854784421841
 40
1.0
 40
1.0
 40
1.0
 40
1.0
 10
4054.192642088633
 20
1640.928519495821
 30
0.0
 10
4054.192763899847
 20
1640.928568321873
 30
0.0
 10
4054.193007910463
 20
1640.928666129575
 30
0.0
 10
4054.194900834825
 20
1640.928764356462
 30
0.0
 10
4054.197875085177
 20
1640.928857854468
 30
0.0
 10
4054.202046033878
 20
1640.928971612667
 30
0.0
 10
4054.207286857897
 20
1640.929130116415
 30
0.0
 10
4054.213542905902
 20
1640.929349677183
 30
0.0
 10
4054.220764921152
 20
1640.929652335085
 30
0.0
 10
4054.228825131464
 20
1640.930016906185
 30
0.0
 10
4054.237635995156
 20
1640.930425422154
 30
0.0
 10
4054.247110635218
 20
1640.930852451715
 30
0.0
 10
4054.257107716712
 20
1640.931252428501
 30
0.0
 10
4054.267467720642
 20
1640.931581481711
 30
0.0
 10
4054.278052090623
 20
1640.931811608757
 30
0.0
 10
4054.285172674743
 20
1640.931843716227
 30
0.0
 10
4054.288732956749
 20
1640.931859769916
 30
0.0
  0
LINE
  5
13C4
330
1F
100
AcDbEntity
  8
SANINDUSA
100
AcDbLine
 10
4054.192637104195
 20
1640.928400688863
 30
0.0
 11
4054.192638780576
 21
1640.928440728283
 31
0.0
  0
ARC
  5
13C9
330
1F
100
AcDbEntity
  8
SANINDUSA
100
AcDbCircle
 10
4054.198232956749
 20
1640.923477262473
 30
0.0
 40
0.0030000000000001
100
AcDbArc
 50
180.0
 51
270.0
  0
ARC
  5
13CB
330
1F
100
AcDbEntity
  8
SANINDUSA
100
AcDbCircle
 10
4054.379232956749
 20
1640.923477262473
 30
0.0
 40
0.0030000000000001
100
AcDbArc
 50
270.0
 51
0.0
  0
LINE
  5
13CC
330
1F
100
AcDbEntity
  8
SANINDUSA
100
AcDbLine
 10
4054.19823295961
 20
1640.920477264619
 30
0.0
 11
4054.379232953888
 21
1640.920477264619
 31
0.0
  0
LINE
  5
13CD
330
1F
100
AcDbEntity
  8
SANINDUSA
100
AcDbLine
 10
4054.382232959968
 20
1640.925547861552
 30
0.0
 11
4054.382232959968
 21
1640.923477255797
 31
0.0
  0
LINE
  5
13CE
330
1F
100
AcDbEntity
  8
SANINDUSA
100
AcDbLine
 10
4054.195232953531
 20
1640.925547861552
 30
0.0
 11
4054.195232953531
 21
1640.923477255797
 31
0.0
  0
SPLINE
  5
13D7
330
1F
100
AcDbEntity
  8
SANINDUSA
100
AcDbSpline
210
0.0
220
0.0
230
1.0
 70
    24
 71
     3
 72
     9
 73
     5
 74
     0
 42
0.0000000001
 43
0.0000000001
 40
0.0
 40
0.0
 40
0.0
 40
0.0
 40
0.7964732821364596
 40
1.0
 40
1.0
 40
1.0
 40
1.0
 10
4054.480932201844
 20
1640.926783048606
 30
0.0
 10
4054.478952395034
 20
1640.926499528784
 30
0.0
 10
4054.476466678495
 20
1640.926143559753
 30
0.0
 10
4054.4739792885
 20
1640.925799501875
 30
0.0
 10
4054.473473038178
 20
1640.925729476905
 30
0.0
  0
SPLINE
  5
13DB
330
1F
100
AcDbEntity
  8
SANINDUSA
100
AcDbSpline
210
0.0
220
0.0
230
1.0
 70
     8
 71
     3
 72
    12
 73
     8
 74
     0
 42
0.0000000001
 43
0.0000000001
 40
0.0
 40
0.0
 40
0.0
 40
0.0
 40
0.2635330666066671
 40
0.630915585092784
 40
0.8147034745680231
 40
0.9984538873200733
 40
1.0
 40
1.0
 40
1.0
 40
1.0
 10
4054.429270352822
 20
1640.935624160862
 30
0.0
 10
4054.427644568871
 20
1640.935349586953
 30
0.0
 10
4054.423752334604
 20
1640.934692238862
 30
0.0
 10
4054.418534771913
 20
1640.933824326742
 30
0.0
 10
4054.413820476941
 20
1640.933061546983
 30
0.0
 10
4054.411449246706
 20
1640.932685456232
 30
0.0
 10
4054.410260467094
 20
1640.932499138949
 30
0.0
 10
4054.410250547927
 20
1640.932497584319
 30
0.0
  0
SPLINE
  5
13DC
330
1F
100
AcDbEntity
  8
SANINDUSA
100
AcDbSpline
210
0.0
220
0.0
230
1.0
 70
     8
 71
     3
 72
    12
 73
     8
 74
     0
 42
0.0000000001
 43
0.0000000001
 40
0.0
 40
0.0
 40
0.0
 40
0.0
 40
0.26614191936918
 40
0.6322230258640819
 40
0.8153598670417897
 40
0.9984593642534608
 40
1.0
 40
1.0
 40
1.0
 40
1.0
 10
4054.148129414421
 20
1640.93563530693
 30
0.0
 10
4054.149777068338
 20
1640.935357035535
 30
0.0
 10
4054.153691088148
 20
1640.934695998807
 30
0.0
 10
4054.1589311022
 20
1640.933824330622
 30
0.0
 10
4054.163645444424
 20
1640.933061546208
 30
0.0
 10
4054.166016666781
 20
1640.932685456233
 30
0.0
 10
4054.167205446403
 20
1640.932499138949
 30
0.0
 10
4054.16721536557
 20
1640.932497584319
 30
0.0
  0
SPLINE
  5
13E0
330
1F
100
AcDbEntity
  8
SANINDUSA
100
AcDbSpline
210
0.0
220
0.0
230
1.0
 70
    24
 71
     3
 72
     9
 73
     5
 74
     0
 42
0.0000000001
 43
0.0000000001
 40
0.0
 40
0.0
 40
0.0
 40
0.0
 40
0.7964732821364596
 40
1.0
 40
1.0
 40
1.0
 40
1.0
 10
4054.096533711653
 20
1640.926783048606
 30
0.0
 10
4054.098513518463
 20
1640.926499528784
 30
0.0
 10
4054.100999235003
 20
1640.926143559753
 30
0.0
 10
4054.103486624997
 20
1640.925799501875
 30
0.0
 10
4054.103992875319
 20
1640.925729476905
 30
0.0
  0
LINE
  5
13E5
330
1F
100
AcDbEntity
  8
SANINDUSA
100
AcDbLine
 10
4054.488416980606
 20
1640.93939641962
 30
0.0
 11
4054.484867583614
 21
1640.929825597501
 31
0.0
  0
SPLINE
  5
13E6
330
1F
100
AcDbEntity
  8
SANINDUSA
100
AcDbSpline
210
0.0
220
0.0
230
1.0
 70
     8
 71
     3
 72
     9
 73
     5
 74
     0
 42
0.0000000001
 43
0.0000000001
 40
0.0
 40
0.0
 40
0.0
 40
0.0
 40
0.324563985513421
 40
1.0
 40
1.0
 40
1.0
 40
1.0
 10
4054.484867583614
 20
1640.929825597501
 30
0.0
 10
4054.484880305259
 20
1640.930033875594
 30
0.0
 10
4054.484919501365
 20
1640.930675592185
 30
0.0
 10
4054.484927406786
 20
1640.931302325985
 30
0.0
 10
4054.484932746392
 20
1640.931725644565
 30
0.0
  0
LINE
  5
13E7
330
1F
100
AcDbEntity
  8
SANINDUSA
100
AcDbLine
 10
4054.484932746392
 20
1640.931725644565
 30
0.0
 11
4054.484931897025
 21
1640.931990125275
 31
0.0
  0
SPLINE
  5
13E8
330
1F
100
AcDbEntity
  8
SANINDUSA
100
AcDbSpline
210
0.0
220
0.0
230
1.0
 70
     8
 71
     3
 72
    13
 73
     9
 74
     0
 42
0.0000000001
 43
0.0000000001
 40
0.0
 40
0.0
 40
0.0
 40
0.0
 40
0.1784072772484158
 40
0.3569365218716979
 40
0.5176325862327289
 40
0.6783858393458205
 40
0.8391733446028736
 40
1.0
 40
1.0
 40
1.0
 40
1.0
 10
4054.484931897025
 20
1640.931990125275
 30
0.0
 10
4054.48485533959
 20
1640.933410744494
 30
0.0
 10
4054.484702172381
 20
1640.936252954132
 30
0.0
 10
4054.48369023603
 20
1640.940070846997
 30
0.0
 10
4054.482252038034
 20
1640.943616433696
 30
0.0
 10
4054.480431778059
 20
1640.946897455578
 30
0.0
 10
4054.478262955945
 20
1640.950064139384
 30
0.0
 10
4054.47653409463
 20
1640.952066882915
 30
0.0
 10
4054.475669558745
 20
1640.953068376577
 30
0.0
  0
SPLINE
  5
13EA
330
1F
100
AcDbEntity
  8
SANINDUSA
100
AcDbSpline
210
0.0
220
0.0
230
1.0
 70
     8
 71
     3
 72
    13
 73
     9
 74
     0
 42
0.0000000001
 43
0.0000000001
 40
0.0
 40
0.0
 40
0.0
 40
0.0
 40
0.1784072772484158
 40
0.3569365218716979
 40
0.5176325862327289
 40
0.6783858393458205
 40
0.8391733446028736
 40
1.0
 40
1.0
 40
1.0
 40
1.0
 10
4054.092534016471
 20
1640.931990125275
 30
0.0
 10
4054.092610573907
 20
1640.933410744494
 30
0.0
 10
4054.092763741116
 20
1640.936252954132
 30
0.0
 10
4054.093775677467
 20
1640.940070846997
 30
0.0
 10
4054.095213875464
 20
1640.943616433696
 30
0.0
 10
4054.097034135438
 20
1640.946897455578
 30
0.0
 10
4054.099202957552
 20
1640.950064139384
 30
0.0
 10
4054.100931818868
 20
1640.952066882915
 30
0.0
 10
4054.101796354752
 20
1640.953068376577
 30
0.0
  0
LINE
  5
13EB
330
1F
100
AcDbEntity
  8
SANINDUSA
100
AcDbLine
 10
4054.092533167105
 20
1640.931725644565
 30
0.0
 11
4054.092534016471
 21
1640.931990125275
 31
0.0
  0
SPLINE
  5
13EC
330
1F
100
AcDbEntity
  8
SANINDUSA
100
AcDbSpline
210
0.0
220
0.0
230
1.0
 70
     8
 71
     3
 72
     9
 73
     5
 74
     0
 42
0.0000000001
 43
0.0000000001
 40
0.0
 40
0.0
 40
0.0
 40
0.0
 40
0.324563985513421
 40
1.0
 40
1.0
 40
1.0
 40
1.0
 10
4054.092598329883
 20
1640.929825597501
 30
0.0
 10
4054.092585608239
 20
1640.930033875594
 30
0.0
 10
4054.092546412132
 20
1640.930675592185
 30
0.0
 10
4054.092538506711
 20
1640.931302325985
 30
0.0
 10
4054.092533167105
 20
1640.931725644565
 30
0.0
  0
LINE
  5
13ED
330
1F
100
AcDbEntity
  8
SANINDUSA
100
AcDbLine
 10
4054.089038114649
 20
1640.939425596094
 30
0.0
 11
4054.092598329883
 21
1640.929825597501
 31
0.0
  0
SPLINE
  5
13F5
330
1F
100
AcDbEntity
  8
SANINDUSA
100
AcDbSpline
210
0.0
220
0.0
230
1.0
 70
     8
 71
     3
 72
    10
 73
     6
 74
     0
 42
0.0000000001
 43
0.0000000001
 40
0.0
 40
0.0
 40
0.0
 40
0.0
 40
0.3909810902803349
 40
0.6927073234517765
 40
0.9999999999999998
 40
0.9999999999999998
 40
0.9999999999999998
 40
0.9999999999999998
 10
4054.459031667214
 20
1640.936587461328
 30
0.0
 10
4054.460058105856
 20
1640.93567773161
 30
0.0
 10
4054.461876663281
 20
1640.934065949215
 30
0.0
 10
4054.464321164585
 20
1640.931807752036
 30
0.0
 10
4054.465666820341
 20
1640.930533748279
 30
0.0
 10
4054.466345797878
 20
1640.929890924191
 30
0.0
  0
SPLINE
  5
13F7
330
1F
100
AcDbEntity
  8
SANINDUSA
100
AcDbSpline
210
0.0
220
0.0
230
1.0
 70
     8
 71
     3
 72
    10
 73
     6
 74
     0
 42
0.0000000001
 43
0.0000000001
 40
0.0
 40
0.0
 40
0.0
 40
0.0
 40
0.3904422548613601
 40
0.6924354432597609
 40
1.0
 40
1.0
 40
1.0
 40
1.0
 10
4054.118427376848
 20
1640.93658132205
 30
0.0
 10
4054.117403269959
 20
1640.935673655063
 30
0.0
 10
4054.115587052838
 20
1640.934063939964
 30
0.0
 10
4054.11314475722
 20
1640.931807755009
 30
0.0
 10
4054.111799095942
 20
1640.930533749275
 30
0.0
 10
4054.11112011562
 20
1640.929890924191
 30
0.0
  0
SPLINE
  5
13FB
330
1F
100
AcDbEntity
  8
SANINDUSA
100
AcDbSpline
210
0.0
220
0.0
230
1.0
 70
     8
 71
     3
 72
    10
 73
     6
 74
     0
 42
0.0000000001
 43
0.0000000001
 40
0.0
 40
0.0
 40
0.0
 40
0.0
 40
0.2528321874571208
 40
0.6273980376489414
 40
1.0
 40
1.0
 40
1.0
 40
1.0
 10
4054.473473038178
 20
1640.925729476905
 30
0.0
 10
4054.473084984793
 20
1640.925698009469
 30
0.0
 10
4054.472122038045
 20
1640.925619923654
 30
0.0
 10
4054.470582307728
 20
1640.926017028458
 30
0.0
 10
4054.469683363921
 20
1640.926735563581
 30
0.0
 10
4054.469235073429
 20
1640.927093886828
 30
0.0
  0
SPLINE
  5
13FC
330
1F
100
AcDbEntity
  8
SANINDUSA
100
AcDbSpline
210
0.0
220
0.0
230
1.0
 70
    24
 71
     3
 72
     9
 73
     5
 74
     0
 42
0.0000000001
 43
0.0000000001
 40
0.0
 40
0.0
 40
0.0
 40
0.0
 40
0.4933844173944469
 40
1.0
 40
1.0
 40
1.0
 40
1.0
 10
4054.466345797878
 20
1640.929890924191
 30
0.0
 10
4054.466812646727
 20
1640.929444392451
 30
0.0
 10
4054.467758863983
 20
1640.928539354259
 30
0.0
 10
4054.468738682234
 20
1640.927579940692
 30
0.0
 10
4054.469235073429
 20
1640.927093886828
 30
0.0
  0
SPLINE
  5
13FD
330
1F
100
AcDbEntity
  8
SANINDUSA
100
AcDbSpline
210
0.0
220
0.0
230
1.0
 70
     8
 71
     3
 72
    10
 73
     6
 74
     0
 42
0.0000000001
 43
0.0000000001
 40
0.0
 40
0.0
 40
0.0
 40
0.0
 40
0.2528321874571208
 40
0.6273980376489414
 40
1.0
 40
1.0
 40
1.0
 40
1.0
 10
4054.103992875319
 20
1640.925729476905
 30
0.0
 10
4054.104380928705
 20
1640.925698009469
 30
0.0
 10
4054.105343875452
 20
1640.925619923654
 30
0.0
 10
4054.10688360577
 20
1640.926017028458
 30
0.0
 10
4054.107782549577
 20
1640.926735563581
 30
0.0
 10
4054.108230840069
 20
1640.927093886828
 30
0.0
  0
SPLINE
  5
13FE
330
1F
100
AcDbEntity
  8
SANINDUSA
100
AcDbSpline
210
0.0
220
0.0
230
1.0
 70
    24
 71
     3
 72
     9
 73
     5
 74
     0
 42
0.0000000001
 43
0.0000000001
 40
0.0
 40
0.0
 40
0.0
 40
0.0
 40
0.4933844173944469
 40
1.0
 40
1.0
 40
1.0
 40
1.0
 10
4054.11112011562
 20
1640.929890924191
 30
0.0
 10
4054.110653266771
 20
1640.929444392451
 30
0.0
 10
4054.109707049515
 20
1640.928539354259
 30
0.0
 10
4054.108727231263
 20
1640.927579940692
 30
0.0
 10
4054.108230840069
 20
1640.927093886828
 30
0.0
  0
SPLINE
  5
1401
330
1F
100
AcDbEntity
  8
SANINDUSA
100
AcDbSpline
210
0.0
220
0.0
230
1.0
 70
     8
 71
     3
 72
    11
 73
     7
 74
     0
 42
0.0000000001
 43
0.0000000001
 40
0.0
 40
0.0
 40
0.0
 40
0.0
 40
0.0402016552944504
 40
0.3611839086687357
 40
0.6797188546469145
 40
1.0
 40
1.0
 40
1.0
 40
1.0
 10
4054.484867583614
 20
1640.929825597501
 30
0.0
 10
4054.484840397938
 20
1640.929761885141
 30
0.0
 10
4054.484596153545
 20
1640.92918947391
 30
0.0
 10
4054.483915129316
 20
1640.928209557296
 30
0.0
 10
4054.48256409227
 20
1640.927172565086
 30
0.0
 10
4054.481477155697
 20
1640.926913123826
 30
0.0
 10
4054.480932201844
 20
1640.926783048606
 30
0.0
  0
SPLINE
  5
1402
330
1F
100
AcDbEntity
  8
SANINDUSA
100
AcDbSpline
210
0.0
220
0.0
230
1.0
 70
     8
 71
     3
 72
    11
 73
     7
 74
     0
 42
0.0000000001
 43
0.0000000001
 40
0.0
 40
0.0
 40
0.0
 40
0.0
 40
0.0402016552944504
 40
0.3611839086687357
 40
0.6797188546469145
 40
1.0
 40
1.0
 40
1.0
 40
1.0
 10
4054.092598329883
 20
1640.929825597501
 30
0.0
 10
4054.09262551556
 20
1640.929761885141
 30
0.0
 10
4054.092869759951
 20
1640.92918947391
 30
0.0
 10
4054.093550784181
 20
1640.928209557296
 30
0.0
 10
4054.094901821228
 20
1640.927172565086
 30
0.0
 10
4054.0959887578
 20
1640.926913123826
 30
0.0
 10
4054.096533711653
 20
1640.926783048606
 30
0.0
  0
LINE
  5
1409
330
1F
100
AcDbEntity
  8
SANINDUSA
100
AcDbLine
 10
4054.384827132922
 20
1640.928440728283
 30
0.0
 11
4054.384823824864
 21
1640.928519495821
 31
0.0
  0
LINE
  5
140A
330
1F
100
AcDbEntity
  8
SANINDUSA
100
AcDbLine
 10
4054.192638780576
 20
1640.928440728283
 30
0.0
 11
4054.192642088633
 21
1640.928519495821
 31
0.0
  0
ARC
  5
1413
330
1F
100
AcDbEntity
  8
SANINDUSA
100
AcDbCircle
 10
4054.4728957014
 20
1640.93619358519
 30
0.0
 40
0.0046510789768643
100
AcDbArc
 50
245.3999126321159
 51
282.1939709214433
  0
ARC
  5
1414
330
1F
100
AcDbEntity
  8
SANINDUSA
100
AcDbCircle
 10
4054.104570221322
 20
1640.936193815921
 30
0.0
 40
0.0046513064507608
100
AcDbArc
 50
257.8065183592414
 51
294.5393417777077
  0
ARC
  5
1423
330
1F
100
AcDbEntity
  8
SANINDUSA
100
AcDbCircle
 10
4055.164234702266
 20
1640.923477262473
 30
0.0
 40
0.0030000000000143
100
AcDbArc
 50
270.0
 51
0.0
  0
LINE
  5
1424
330
1F
100
AcDbEntity
  8
SANINDUSA
100
AcDbLine
 10
4055.167234698967
 20
1640.923477255797
 30
0.0
 11
4055.167234698967
 21
1640.928936147189
 31
0.0
  0
LINE
  5
1429
330
1F
100
AcDbEntity
  8
SANINDUSA
100
AcDbLine
 10
4055.159222404198
 20
1640.920477264619
 30
0.0
 11
4055.159222404198
 21
1640.229251050448
 31
0.0
  0
SPLINE
  5
142A
330
1F
100
AcDbEntity
  8
SANINDUSA
100
AcDbSpline
210
0.0
220
0.0
230
1.0
 70
     8
 71
     3
 72
    12
 73
     8
 74
     0
 42
0.0000000001
 43
0.0000000001
 40
0.0
 40
0.0
 40
0.0
 40
0.0
 40
0.2146981349193353
 40
0.4294011626925055
 40
0.6440929551707852
 40
0.8587806782402083
 40
1.0
 40
1.0
 40
1.0
 40
1.0
 10
4055.159222404198
 20
1640.229251050448
 30
0.0
 10
4055.159200295235
 20
1640.229026196905
 30
0.0
 10
4055.159156076803
 20
1640.228576484696
 30
0.0
 10
4055.158811255746
 20
1640.227977117307
 30
0.0
 10
4055.158303740307
 20
1640.227524815895
 30
0.0
 10
4055.157741393216
 20
1640.227285210694
 30
0.0
 10
4055.15736983117
 20
1640.227260730155
 30
0.0
 10
4055.157222400145
 20
1640.227251016593
 30
0.0
  0
LINE
  5
142B
330
1F
100
AcDbEntity
  8
SANINDUSA
100
AcDbLine
 10
4055.157222400145
 20
1640.227251016593
 30
0.0
 11
4055.073180670575
 21
1640.227251016593
 31
0.0
  0
LINE
  5
142E
330
1F
100
AcDbEntity
  8
SANINDUSA
100
AcDbLine
 10
4054.979222404496
 20
1640.229251050448
 30
0.0
 11
4054.979222404496
 21
1640.924251028395
 31
0.0
  0
LINE
  5
1431
330
1F
100
AcDbEntity
  8
SANINDUSA
100
AcDbLine
 10
4054.981222401099
 20
1640.926251032448
 30
0.0
 11
4054.997152815299
 21
1640.926251032448
 31
0.0
  0
ARC
  5
1433
330
1F
100
AcDbEntity
  8
SANINDUSA
100
AcDbCircle
 10
4054.981222401099
 20
1640.924251031249
 30
0.0
 40
0.0019999999999999
100
AcDbArc
 50
90.0
 51
180.0
  0
ARC
  5
1435
330
1F
100
AcDbEntity
  8
SANINDUSA
100
AcDbCircle
 10
4054.981222401099
 20
1640.229251031249
 30
0.0
 40
0.0020000000000005
100
AcDbArc
 50
180.0
 51
270.0
  0
LINE
  5
1437
330
1F
100
AcDbEntity
  8
SANINDUSA
100
AcDbLine
 10
4055.073180670575
 20
1640.227251016593
 30
0.0
 11
4054.981222401099
 21
1640.227251016593
 31
0.0
  0
ARC
  5
1438
330
1F
100
AcDbEntity
  8
SANINDUSA
100
AcDbCircle
 10
4055.324325128564
 20
1641.061477262473
 30
0.0
 40
0.0050000000000048
100
AcDbArc
 50
341.380062747655
 51
90.0
  0
SPLINE
  5
143B
330
1F
100
AcDbEntity
  8
SANINDUSA
100
AcDbSpline
210
0.0
220
0.0
230
1.0
 70
    24
 71
     3
 72
    41
 73
    37
 74
     0
 42
0.0000000001
 43
0.0000000001
 40
0.0
 40
0.0
 40
0.0
 40
0.0
 40
0.0384584179136722
 40
0.0769152379356203
 40
0.1136961325984396
 40
0.1504916987334372
 40
0.1872651733466775
 40
0.2154791950009809
 40
0.2437206162787269
 40
0.2719547813104997
 40
0.3001589041206319
 40
0.3264442887860295
 40
0.3527924566557752
 40
0.3791499530451119
 40
0.4054754304940447
 40
0.431741774208632
 40
0.4575007808031801
 40
0.4833443960939246
 40
0.5092106484918921
 40
0.535042809563401
 40
0.5607921659903801
 40
0.5877843539235032
 40
0.6148109919403759
 40
0.641804989024945
 40
0.6697747536699909
 40
0.697835276860992
 40
0.7259375134282866
 40
0.7540186492292715
 40
0.7820057805915525
 40
0.812549939618664
 40
0.8431974333881914
 40
0.87391065489235
 40
0.9046389523089363
 40
0.9353212564986634
 40
0.9658887219055694
 40
1.0
 40
1.0
 40
1.0
 40
1.0
 10
4054.859222401125
 20
1641.066477262473
 30
0.0
 10
4054.866942153203
 20
1641.066477262473
 30
0.0
 10
4054.882381336617
 20
1641.066477262473
 30
0.0
 10
4054.905601224889
 20
1641.066477262473
 30
0.0
 10
4054.928753805046
 20
1641.066477262473
 30
0.0
 10
4054.951835059206
 20
1641.066477262473
 30
0.0
 10
4054.973352472276
 20
1641.066477262473
 30
0.0
 10
4054.993220022635
 20
1641.066477262473
 30
0.0
 10
4055.011372796119
 20
1641.066477262473
 30
0.0
 10
4055.029600454072
 20
1641.066477262473
 30
0.0
 10
4055.047448507938
 20
1641.066477262473
 30
0.0
 10
4055.064887720887
 20
1641.066477262473
 30
0.0
 10
4055.081883579692
 20
1641.066477262473
 30
0.0
 10
4055.098793503143
 20
1641.066477262473
 30
0.0
 10
4055.115533287615
 20
1641.066477262473
 30
0.0
 10
4055.131928888667
 20
1641.066477262473
 30
0.0
 10
4055.147926880835
 20
1641.066477262473
 30
0.0
 10
4055.163481979051
 20
1641.066477262473
 30
0.0
 10
4055.178624492154
 20
1641.066477262473
 30
0.0
 10
4055.193248968363
 20
1641.066477262473
 30
0.0
 10
4055.207494030919
 20
1641.066477262473
 30
0.0
 10
4055.221252457744
 20
1641.066477262473
 30
0.0
 10
4055.23445191666
 20
1641.066477262473
 30
0.0
 10
4055.24697142098
 20
1641.066477262473
 30
0.0
 10
4055.258711506363
 20
1641.066477262473
 30
0.0
 10
4055.269623360342
 20
1641.066477262473
 30
0.0
 10
4055.27955740891
 20
1641.066477262473
 30
0.0
 10
4055.288482327636
 20
1641.066477262473
 30
0.0
 10
4055.296620434353
 20
1641.066477262473
 30
0.0
 10
4055.303859677478
 20
1641.066477262473
 30
0.0
 10
4055.310134338484
 20
1641.066477262473
 30
0.0
 10
4055.315255343957
 20
1641.066477262473
 30
0.0
 10
4055.319243352745
 20
1641.066477262473
 30
0.0
 10
4055.322084449024
 20
1641.066477262473
 30
0.0
 10
4055.323961947714
 20
1641.066477262473
 30
0.0
 10
4055.324199722898
 20
1641.066477262473
 30
0.0
 10
4055.324325124458
 20
1641.066477262473
 30
0.0
  0
SPLINE
  5
143C
330
1F
100
AcDbEntity
  8
SANINDUSA
100
AcDbSpline
210
0.0
220
0.0
230
1.0
 70
     8
 71
     3
 72
    11
 73
     7
 74
     0
 42
0.0000000001
 43
0.0000000001
 40
0.0
 40
0.0
 40
0.0
 40
0.0
 40
0.199791991929349
 40
0.4997728671788129
 40
0.749651813680989
 40
1.0
 40
1.0
 40
1.0
 40
1.0
 10
4055.329063425498
 20
1641.059880816901
 30
0.0
 10
4055.32754618214
 20
1641.055524375195
 30
0.0
 10
4055.323750849524
 20
1641.044626884554
 30
0.0
 10
4055.317187614027
 20
1641.028601901738
 30
0.0
 10
4055.309479764513
 20
1641.011804216759
 30
0.0
 10
4055.304087183067
 20
1641.001589441039
 30
0.0
 10
4055.301388363079
 20
1640.996477262175
 30
0.0
  0
ARC
  5
1442
330
1F
100
AcDbEntity
  8
SANINDUSA
100
AcDbCircle
 10
4055.295685939539
 20
1640.996477262473
 30
0.0
 40
0.0050000000000003
100
AcDbArc
 50
270.0
 51
331.0630827762038
  0
SPLINE
  5
1443
330
1F
100
AcDbEntity
  8
SANINDUSA
100
AcDbSpline
210
0.0
220
0.0
230
1.0
 70
    24
 71
     3
 72
    44
 73
    40
 74
     0
 42
0.0000000001
 43
0.0000000001
 40
0.0
 40
0.0
 40
0.0
 40
0.0
 40
0.0343760952356766
 40
0.0688708583519486
 40
0.1024312702723862
 40
0.1359890163751571
 40
0.1587811845478969
 40
0.1815859447141522
 40
0.2043757328104228
 40
0.2251083523318303
 40
0.2458528096957647
 40
0.2665838005513582
 40
0.2878182263807563
 40
0.3090677339163863
 40
0.3303007292303548
 40
0.3510309761312905
 40
0.3717769373318826
 40
0.3925066608427485
 40
0.4138415852082481
 40
0.4351942579338763
 40
0.456529876912379
 40
0.4842135157294757
 40
0.511933397737314
 40
0.5396223752360508
 40
0.5684846834505311
 40
0.5973797614077954
 40
0.6262496039879922
 40
0.6541406165764744
 40
0.6820525322736457
 40
0.7099488954175685
 40
0.7384307184428102
 40
0.7669276568860017
 40
0.7954134561780498
 40
0.8292791303630167
 40
0.8631617355347444
 40
0.8970325134558358
 40
0.9313501898127638
 40
0.9656790997072414
 40
0.9999999999999998
 40
0.9999999999999998
 40
0.9999999999999998
 40
0.9999999999999998
 10
4055.295685927108
 20
1640.991477259493
 30
0.0
 10
4055.295574607131
 20
1640.991477259493
 30
0.0
 10
4055.295351582895
 20
1640.991477259493
 30
0.0
 10
4055.293495679381
 20
1640.991477259493
 30
0.0
 10
4055.290481254612
 20
1640.991477259493
 30
0.0
 10
4055.286649541546
 20
1640.991477259493
 30
0.0
 10
4055.282394134038
 20
1640.991477259493
 30
0.0
 10
4055.278084500713
 20
1640.991477259493
 30
0.0
 10
4055.273278954717
 20
1640.991477259493
 30
0.0
 10
4055.26802938447
 20
1640.991477259493
 30
0.0
 10
4055.262399697599
 20
1640.991477259493
 30
0.0
 10
4055.256171330839
 20
1640.991477259493
 30
0.0
 10
4055.249322909524
 20
1640.991477259493
 30
0.0
 10
4055.241849522452
 20
1640.991477259493
 30
0.0
 10
4055.233880850917
 20
1640.991477259493
 30
0.0
 10
4055.225440896853
 20
1640.991477259493
 30
0.0
 10
4055.216570213626
 20
1640.991477259493
 30
0.0
 10
4055.207133923421
 20
1640.991477259493
 30
0.0
 10
4055.197137927986
 20
1640.991477259493
 30
0.0
 10
4055.186608253587
 20
1640.991477259493
 30
0.0
 10
4055.174594873932
 20
1640.991477259493
 30
0.0
 10
4055.160988185071
 20
1640.991477259493
 30
0.0
 10
4055.145740756564
 20
1640.991477259493
 30
0.0
 10
4055.129844625946
 20
1640.991477259493
 30
0.0
 10
4055.113363583069
 20
1640.991477259493
 30
0.0
 10
4055.096376717727
 20
1640.991477259493
 30
0.0
 10
4055.079383983733
 20
1640.991477259493
 30
0.0
 10
4055.062463002935
 20
1640.991477259493
 30
0.0
 10
4055.045672249146
 20
1640.991477259493
 30
0.0
 10
4055.028744375534
 20
1640.991477259493
 30
0.0
 10
4055.011719244462
 20
1640.991477259493
 30
0.0
 10
4054.994629728542
 20
1640.991477259493
 30
0.0
 10
4054.976549525102
 20
1640.991477259493
 30
0.0
 10
4054.957522065641
 20
1640.991477259493
 30
0.0
 10
4054.937601710156
 20
1640.991477259493
 30
0.0
 10
4054.91778319188
 20
1640.991477259493
 30
0.0
 10
4054.898089543299
 20
1640.991477259493
 30
0.0
 10
4054.878513052229
 20
1640.991477259493
 30
0.0
 10
4054.865652117983
 20
1640.991477259493
 30
0.0
 10
4054.859222401125
 20
1640.991477259493
 30
0.0
  0
LINE
  5
1446
330
1F
100
AcDbEntity
  8
SANINDUSA
100
AcDbLine
 10
4055.300061712698
 20
1640.994058028853
 30
0.0
 11
4055.301388363079
 21
1640.996477262175
 31
0.0
  0
SPLINE
  5
1449
330
1F
100
AcDbEntity
  8
SANINDUSA
100
AcDbSpline
210
0.0
220
0.0
230
1.0
 70
    24
 71
     3
 72
    13
 73
     9
 74
     0
 42
0.0000000001
 43
0.0000000001
 40
0.0
 40
0.0
 40
0.0
 40
0.0
 40
0.1678219144649876
 40
0.3356276058124257
 40
0.5047377673784227
 40
0.6824287335569651
 40
0.8727684511976383
 40
1.0
 40
1.0
 40
1.0
 40
1.0
 10
4054.856222401098
 20
1641.061003214738
 30
0.0
 10
4054.856222401098
 20
1641.061211270859
 30
0.0
 10
4054.856222401098
 20
1641.061627362988
 30
0.0
 10
4054.856222401098
 20
1641.062249945138
 30
0.0
 10
4054.856222401098
 20
1641.062794081337
 30
0.0
 10
4054.856222401098
 20
1641.063214972264
 30
0.0
 10
4054.856222401098
 20
1641.063443746848
 30
0.0
 10
4054.856222401098
 20
1641.063467675634
 30
0.0
 10
4054.856222401098
 20
1641.063477262447
 30
0.0
  0
ARC
  5
144A
330
1F
100
AcDbEntity
  8
SANINDUSA
100
AcDbCircle
 10
4054.859222401098
 20
1641.063477262473
 30
0.0
 40
0.0030000000000007
100
AcDbArc
 50
90.0
 51
180.0
  0
SPLINE
  5
144C
330
1F
100
AcDbEntity
  8
SANINDUSA
100
AcDbSpline
210
0.0
220
0.0
230
1.0
 70
    24
 71
     3
 72
    10
 73
     6
 74
     0
 42
0.0000000001
 43
0.0000000001
 40
0.0
 40
0.0
 40
0.0
 40
0.0
 40
0.3121541109805051
 40
0.6554921201014831
 40
1.0
 40
1.0
 40
1.0
 40
1.0
 10
4054.856222401098
 20
1640.997646600997
 30
0.0
 10
4054.856222401098
 20
1641.004069781064
 30
0.0
 10
4054.856222401098
 20
1641.017557810763
 30
0.0
 10
4054.856222401098
 20
1641.038700507678
 30
0.0
 10
4054.856222401098
 20
1641.053560554521
 30
0.0
 10
4054.856222401098
 20
1641.061003214738
 30
0.0
  0
SPLINE
  5
1451
330
1F
100
AcDbEntity
  8
SANINDUSA
100
AcDbSpline
210
0.0
220
0.0
230
1.0
 70
     8
 71
     3
 72
    16
 73
    12
 74
     0
 42
0.0000000001
 43
0.0000000001
 40
0.0
 40
0.0
 40
0.0
 40
0.0
 40
0.072407446220918
 40
0.178745068119843
 40
0.2875920367054476
 40
0.3964384676817492
 40
0.5150128504099784
 40
0.6336000956824885
 40
0.7552763754391686
 40
0.8769757674992218
 40
0.9999999999999998
 40
0.9999999999999998
 40
0.9999999999999998
 40
0.9999999999999998
 10
4055.269779304699
 20
1640.991477259493
 30
0.0
 10
4055.267957799343
 20
1640.989259028599
 30
0.0
 10
4055.263461230054
 20
1640.983783102394
 30
0.0
 10
4055.255436842315
 20
1640.975664392852
 30
0.0
 10
4055.245789265222
 20
1640.967176066769
 30
0.0
 10
4055.235086772808
 20
1640.959210582213
 30
0.0
 10
4055.2234306193
 20
1640.951959279932
 30
0.0
 10
4055.210762537625
 20
1640.945463274479
 30
0.0
 10
4055.197497194716
 20
1640.93997406432
 30
0.0
 10
4055.183714137614
 20
1640.935357208949
 30
0.0
 10
4055.174296448021
 20
1640.93302978286
 30
0.0
 10
4055.169562111334
 20
1640.931859769916
 30
0.0
  0
SPLINE
  5
1452
330
1F
100
AcDbEntity
  8
SANINDUSA
100
AcDbSpline
210
0.0
220
0.0
230
1.0
 70
     8
 71
     3
 72
    19
 73
    15
 74
     0
 42
0.0000000001
 43
0.0000000001
 40
0.0
 40
0.0
 40
0.0
 40
0.0
 40
0.0881755881667557
 40
0.1763511572359053
 40
0.2619174430651669
 40
0.3474839077983817
 40
0.4355397190802996
 40
0.523595669067155
 40
0.6093768578081335
 40
0.695158097584107
 40
0.7834219450612914
 40
0.8716856823715289
 40
0.9857401581041315
 40
1.0
 40
1.0
 40
1.0
 40
1.0
 10
4055.120029966072
 20
1640.929047503567
 30
0.0
 10
4055.122391082528
 20
1640.929091106684
 30
0.0
 10
4055.127113314928
 20
1640.929178312907
 30
0.0
 10
4055.133649862113
 20
1640.929354974454
 30
0.0
 10
4055.139717038914
 20
1640.929569929708
 30
0.0
 10
4055.145316428086
 20
1640.929822934223
 30
0.0
 10
4055.150457270563
 20
1640.930112563317
 30
0.0
 10
4055.15504820188
 20
1640.93042397427
 30
0.0
 10
4055.159021791349
 20
1640.930741015051
 30
0.0
 10
4055.162400703351
 20
1640.931048774748
 30
0.0
 10
4055.165197525066
 20
1640.931335743367
 30
0.0
 10
4055.167479325547
 20
1640.93159318649
 30
0.0
 10
4055.168818479912
 20
1640.931761221948
 30
0.0
 10
4055.169017338616
 20
1640.931787700781
 30
0.0
 10
4055.169039438204
 20
1640.93179064343
 30
0.0
  0
SPLINE
  5
1453
330
1F
100
AcDbEntity
  8
SANINDUSA
100
AcDbSpline
210
0.0
220
0.0
230
1.0
 70
     8
 71
     3
 72
    10
 73
     6
 74
     0
 42
0.0000000001
 43
0.0000000001
 40
0.0
 40
0.0
 40
0.0
 40
0.0
 40
0.1121344757298633
 40
0.5606846328007008
 40
1.0
 40
1.0
 40
1.0
 40
1.0
 10
4055.020184959011
 20
1640.928749376035
 30
0.0
 10
4055.022184546296
 20
1640.928708929529
 30
0.0
 10
4055.032182701242
 20
1640.92850669258
 30
0.0
 10
4055.050018673095
 20
1640.928309421683
 30
0.0
 10
4055.065854076988
 20
1640.928449958354
 30
0.0
 10
4055.073689426021
 20
1640.928519495821
 30
0.0
  0
LINE
  5
145A
330
1F
100
AcDbEntity
  8
SANINDUSA
100
AcDbLine
 10
4054.856222401098
 20
1640.995688394701
 30
0.0
 11
4054.856222401098
 21
1640.997646600997
 31
0.0
  0
ARC
  5
145B
330
1F
100
AcDbEntity
  8
SANINDUSA
100
AcDbCircle
 10
4054.859222401098
 20
1640.994477262473
 30
0.0
 40
0.0030000000000007
100
AcDbArc
 50
180.0
 51
270.0
  0
SPLINE
  5
145C
330
1F
100
AcDbEntity
  8
SANINDUSA
100
AcDbSpline
210
0.0
220
0.0
230
1.0
 70
    24
 71
     3
 72
    11
 73
     7
 74
     0
 42
0.0000000001
 43
0.0000000001
 40
0.0
 40
0.0
 40
0.0
 40
0.0
 40
0.3140447078138053
 40
0.6284725491863103
 40
0.9306088765794047
 40
0.9999999999999998
 40
0.9999999999999998
 40
0.9999999999999998
 40
0.9999999999999998
 10
4054.856222401098
 20
1640.994477265573
 30
0.0
 10
4054.856222401098
 20
1640.99450189609
 30
0.0
 10
4054.856222401098
 20
1640.994551187174
 30
0.0
 10
4054.856222401098
 20
1640.994938869693
 30
0.0
 10
4054.856222401098
 20
1640.995367495361
 30
0.0
 10
4054.856222401098
 20
1640.99563789203
 30
0.0
 10
4054.856222401098
 20
1640.995688394701
 30
0.0
  0
LINE
  5
145F
330
1F
100
AcDbEntity
  8
SANINDUSA
100
AcDbLine
 10
4054.856222401098
 20
1640.992819079256
 30
0.0
 11
4054.856222401098
 21
1640.994477262473
 31
0.0
  0
SPLINE
  5
1461
330
1F
100
AcDbEntity
  8
SANINDUSA
100
AcDbSpline
210
0.0
220
0.0
230
1.0
 70
    24
 71
     3
 72
    11
 73
     7
 74
     0
 42
0.0000000001
 43
0.0000000001
 40
0.0
 40
0.0
 40
0.0
 40
0.0
 40
0.2485947209619284
 40
0.497191364657709
 40
0.7485943403109506
 40
1.0
 40
1.0
 40
1.0
 40
1.0
 10
4054.856222401098
 20
1640.930947565532
 30
0.0
 10
4054.856222401098
 20
1640.935930633483
 30
0.0
 10
4054.856222401098
 20
1640.945896807928
 30
0.0
 10
4054.856222401098
 20
1640.961267547753
 30
0.0
 10
4054.856222401098
 20
1640.976897144597
 30
0.0
 10
4054.856222401098
 20
1640.987511748816
 30
0.0
 10
4054.856222401098
 20
1640.992819079256
 30
0.0
  0
SPLINE
  5
146A
330
1F
100
AcDbEntity
  8
SANINDUSA
100
AcDbSpline
210
0.0
220
0.0
230
1.0
 70
    24
 71
     3
 72
    11
 73
     7
 74
     0
 42
0.0000000001
 43
0.0000000001
 40
0.0
 40
0.0
 40
0.0
 40
0.0
 40
0.3185714180684722
 40
0.6369892455557846
 40
0.9595149510567861
 40
1.0
 40
1.0
 40
1.0
 40
1.0
 10
4054.856222401098
 20
1640.929698118067
 30
0.0
 10
4054.856222401098
 20
1640.929752060974
 30
0.0
 10
4054.856222401098
 20
1640.929859920781
 30
0.0
 10
4054.856222401098
 20
1640.930286487772
 30
0.0
 10
4054.856222401098
 20
1640.930687363605
 30
0.0
 10
4054.856222401098
 20
1640.930921457979
 30
0.0
 10
4054.856222401098
 20
1640.930947565532
 30
0.0
  0
SPLINE
  5
146B
330
1F
100
AcDbEntity
  8
SANINDUSA
100
AcDbSpline
210
0.0
220
0.0
230
1.0
 70
     8
 71
     3
 72
    18
 73
    14
 74
     0
 42
0.0000000001
 43
0.0000000001
 40
0.0
 40
0.0
 40
0.0
 40
0.0
 40
0.1028426279942671
 40
0.2058060574713389
 40
0.2958491995950055
 40
0.3862711008321113
 40
0.4765329283832915
 40
0.6063534151561078
 40
0.7362869602999455
 40
0.8678387738161834
 40
0.9336492817914106
 40
0.9994463701545111
 40
1.0
 40
1.0
 40
1.0
 40
1.0
 10
4054.965836080448
 20
1640.938488685584
 30
0.0
 10
4054.967827856743
 20
1640.938568991418
 30
0.0
 10
4054.971813748921
 20
1640.938729697416
 30
0.0
 10
4054.977034657959
 20
1640.938567081177
 30
0.0
 10
4054.981572798976
 20
1640.938189122499
 30
0.0
 10
4054.985483759605
 20
1640.937659060933
 30
0.0
 10
4054.989521487041
 20
1640.936913614008
 30
0.0
 10
4054.993529790038
 20
1640.935947474806
 30
0.0
 10
4054.997491310984
 20
1640.934793924946
 30
0.0
 10
4055.00054301945
 20
1640.93382484627
 30
0.0
 10
4055.002940700901
 20
1640.933061443183
 30
0.0
 10
4055.004144383164
 20
1640.932685456379
 30
0.0
 10
4055.004752178942
 20
1640.93249913895
 30
0.0
 10
4055.004757250385
 20
1640.932497584319
 30
0.0
  0
SPLINE
  5
146C
330
1F
100
AcDbEntity
  8
SANINDUSA
100
AcDbSpline
210
0.0
220
0.0
230
1.0
 70
     8
 71
     3
 72
    11
 73
     7
 74
     0
 42
0.0000000001
 43
0.0000000001
 40
0.0
 40
0.0
 40
0.0
 40
0.0
 40
0.1303859235060385
 40
0.391165344826953
 40
0.6520268735264089
 40
1.0
 40
1.0
 40
1.0
 40
1.0
 10
4054.892046442912
 20
1640.93164744327
 30
0.0
 10
4054.895240836087
 20
1640.932048292943
 30
0.0
 10
4054.904824201176
 20
1640.933250865245
 30
0.0
 10
4054.920834253479
 20
1640.934995932568
 30
0.0
 10
4054.942229026745
 20
1640.936982258367
 30
0.0
 10
4054.957250635763
 20
1640.93794082613
 30
0.0
 10
4054.965836080448
 20
1640.938488685584
 30
0.0
  0
SPLINE
  5
146D
330
1F
100
AcDbEntity
  8
SANINDUSA
100
AcDbSpline
210
0.0
220
0.0
230
1.0
 70
     8
 71
     3
 72
    13
 73
     9
 74
     0
 42
0.0000000001
 43
0.0000000001
 40
0.0
 40
0.0
 40
0.0
 40
0.0
 40
0.157118893733217
 40
0.3181216344072167
 40
0.4864687001749655
 40
0.6596225139766689
 40
0.8273224438517344
 40
1.0
 40
1.0
 40
1.0
 40
1.0
 10
4054.877950303914
 20
1640.928639628982
 30
0.0
 10
4054.878557133431
 20
1640.928822786898
 30
0.0
 10
4054.87978579278
 20
1640.929193630239
 30
0.0
 10
4054.881947909273
 20
1640.929757118551
 30
0.0
 10
4054.884335789711
 20
1640.930314392205
 30
0.0
 10
4054.88687604983
 20
1640.930831848883
 30
0.0
 10
4054.889489746087
 20
1640.931294869794
 30
0.0
 10
4054.891185942335
 20
1640.931528778564
 30
0.0
 10
4054.892046442912
 20
1640.93164744327
 30
0.0
  0
SPLINE
  5
146E
330
1F
100
AcDbEntity
  8
SANINDUSA
100
AcDbSpline
210
0.0
220
0.0
230
1.0
 70
     8
 71
     3
 72
     9
 73
     5
 74
     0
 42
0.0000000001
 43
0.0000000001
 40
0.0
 40
0.0
 40
0.0
 40
0.0
 40
0.5166438436144368
 40
1.0
 40
1.0
 40
1.0
 40
1.0
 10
4054.859776185085
 20
1640.925729476905
 30
0.0
 10
4054.862902125305
 20
1640.926245174478
 30
0.0
 10
4054.868952599451
 20
1640.927243342906
 30
0.0
 10
4054.875018374298
 20
1640.928184644879
 30
0.0
 10
4054.877950303914
 20
1640.928639628982
 30
0.0
  0
SPLINE
  5
1472
330
1F
100
AcDbEntity
  8
SANINDUSA
100
AcDbSpline
210
0.0
220
0.0
230
1.0
 70
     8
 71
     3
 72
     9
 73
     5
 74
     0
 42
0.0000000001
 43
0.0000000001
 40
0.0
 40
0.0
 40
0.0
 40
0.0
 40
0.3927998681957299
 40
1.0
 40
1.0
 40
1.0
 40
1.0
 10
4055.004336203174
 20
1640.928726309037
 30
0.0
 10
4055.006336172772
 20
1640.928738038854
 30
0.0
 10
4055.011427746777
 20
1640.928767900923
 30
0.0
 10
4055.01651941125
 20
1640.928760723071
 30
0.0
 10
4055.01961107059
 20
1640.928756364679
 30
0.0
  0
ARC
  5
1474
330
1F
100
AcDbEntity
  8
SANINDUSA
100
AcDbCircle
 10
4054.859214118065
 20
1640.928667973085
 30
0.0
 40
0.0029917685629281
100
AcDbArc
 50
180.3364982476396
 51
280.8285733188146
  0
LINE
  5
1475
330
1F
100
AcDbEntity
  8
SANINDUSA
100
AcDbLine
 10
4054.856222401098
 20
1640.928650402522
 30
0.0
 11
4054.856222401098
 21
1640.929698118067
 31
0.0
  0
LINE
  5
1478
330
1F
100
AcDbEntity
  8
SANINDUSA
100
AcDbLine
 10
4055.01961107059
 20
1640.928756364679
 30
0.0
 11
4055.020184959011
 21
1640.928749376035
 31
0.0
  0
SPLINE
  5
147B
330
1F
100
AcDbEntity
  8
SANINDUSA
100
AcDbSpline
210
0.0
220
0.0
230
1.0
 70
     8
 71
     3
 72
    11
 73
     7
 74
     0
 42
0.0000000001
 43
0.0000000001
 40
0.0
 40
0.0
 40
0.0
 40
0.0
 40
0.2186908723774819
 40
0.5414089994191287
 40
0.8689923358149275
 40
1.0
 40
1.0
 40
1.0
 40
1.0
 10
4054.995224396424
 20
1640.930392080045
 30
0.0
 10
4054.995863803096
 20
1640.930162787861
 30
0.0
 10
4054.99744677052
 20
1640.929595133391
 30
0.0
 10
4055.000087853742
 20
1640.929006307307
 30
0.0
 10
4055.002505570334
 20
1640.928740665514
 30
0.0
 10
4055.003929440156
 20
1640.928729499018
 30
0.0
 10
4055.004336203174
 20
1640.928726309037
 30
0.0
  0
ARC
  5
1480
330
1F
100
AcDbEntity
  8
SANINDUSA
100
AcDbCircle
 10
4055.170234702266
 20
1640.928936148531
 30
0.0
 40
0.0030000000000683
100
AcDbArc
 50
102.9559088961895
 51
180.000384638472
  0
SPLINE
  5
1486
330
1F
100
AcDbEntity
  8
SANINDUSA
100
AcDbSpline
210
0.0
220
0.0
230
1.0
 70
     8
 71
     3
 72
    13
 73
     9
 74
     0
 42
0.0000000001
 43
0.0000000001
 40
0.0
 40
0.0
 40
0.0
 40
0.0
 40
0.1316921539362045
 40
0.1602046217191035
 40
0.3964182638041531
 40
0.7977735930852773
 40
0.9977966305251349
 40
1.0
 40
1.0
 40
1.0
 40
1.0
 10
4054.997152815299
 20
1640.926909455156
 30
0.0
 10
4054.997133257742
 20
1640.92718539445
 30
0.0
 10
4054.99710946581
 20
1640.92752107694
 30
0.0
 10
4054.996939138652
 20
1640.928199469289
 30
0.0
 10
4054.996532292275
 20
1640.929112411217
 30
0.0
 10
4054.995897659264
 20
1640.929868508691
 30
0.0
 10
4054.995399078121
 20
1640.930271858808
 30
0.0
 10
4054.995226279165
 20
1640.930390784285
 30
0.0
 10
4054.995224396424
 20
1640.930392080045
 30
0.0
  0
LINE
  5
148E
330
1F
100
AcDbEntity
  8
SANINDUSA
100
AcDbLine
 10
4054.997152815299
 20
1640.926038929319
 30
0.0
 11
4054.997152815299
 21
1640.926909455156
 31
0.0
  0
ARC
  5
1491
330
1F
100
AcDbEntity
  8
SANINDUSA
100
AcDbCircle
 10
4055.000152809646
 20
1640.923477262473
 30
0.0
 40
0.0030000000000001
100
AcDbArc
 50
180.0
 51
270.0
  0
LINE
  5
1493
330
1F
100
AcDbEntity
  8
SANINDUSA
100
AcDbLine
 10
4054.997152815299
 20
1640.923477255797
 30
0.0
 11
4054.997152815299
 21
1640.924650722241
 31
0.0
  0
LINE
  5
1496
330
1F
100
AcDbEntity
  8
SANINDUSA
100
AcDbLine
 10
4055.000152806477
 20
1640.920477264619
 30
0.0
 11
4055.073734695748
 21
1640.920477264619
 31
0.0
  0
LINE
  5
1499
330
1F
100
AcDbEntity
  8
SANINDUSA
100
AcDbLine
 10
4055.073734695748
 20
1640.920477264619
 30
0.0
 11
4055.164234707789
 21
1640.920477264619
 31
0.0
  0
LINE
  5
149A
330
1F
100
AcDbEntity
  8
SANINDUSA
100
AcDbLine
 10
4054.997152815299
 20
1640.925801807141
 30
0.0
 11
4054.997152815299
 21
1640.924650722241
 31
0.0
  0
ARC
  5
149D
330
1F
100
AcDbEntity
  8
SANINDUSA
100
AcDbCircle
 10
4055.017599170237
 20
1640.947891456193
 30
0.0
 40
0.0580160294746462
100
AcDbArc
 50
189.8170232295638
 51
228.5867268515518
  0
SPLINE
  5
14A1
330
1F
100
AcDbEntity
  8
SANINDUSA
100
AcDbSpline
210
0.0
220
0.0
230
1.0
 70
     8
 71
     3
 72
    13
 73
     9
 74
     0
 42
0.0000000001
 43
0.0000000001
 40
0.0
 40
0.0
 40
0.0
 40
0.0
 40
0.1651869135533327
 40
0.330374062429896
 40
0.5003620214937606
 40
0.6703493241786193
 40
0.8351749743254359
 40
1.0
 40
1.0
 40
1.0
 40
1.0
 10
4055.073689426021
 20
1640.928519495821
 30
0.0
 10
4055.076352385536
 20
1640.928556871829
 30
0.0
 10
4055.08167830836
 20
1640.928631623899
 30
0.0
 10
4055.089688657763
 20
1640.928714616209
 30
0.0
 10
4055.097663190124
 20
1640.928787321143
 30
0.0
 10
4055.105452377886
 20
1640.928859048369
 30
0.0
 10
4055.112958178232
 20
1640.928938909833
 30
0.0
 10
4055.117672706436
 20
1640.929011305701
 30
0.0
 10
4055.120029966072
 20
1640.929047503567
 30
0.0
  0
SPLINE
  5
14B3
330
1F
100
AcDbEntity
  8
SANINDUSA
100
AcDbSpline
210
0.0
220
0.0
230
1.0
 70
     8
 71
     3
 72
    71
 73
    67
 74
     0
 42
0.0000000001
 43
0.0000000001
 40
0.0
 40
0.0
 40
0.0
 40
0.0
 40
0.0157357998316415
 40
0.0368155904526248
 40
0.0592497362682913
 40
0.0811168595207637
 40
0.10241500273721
 40
0.123161581827137
 40
0.1433750929874597
 40
0.1632003387621611
 40
0.1825681287992952
 40
0.2013951329427353
 40
0.2197549083191337
 40
0.2377129160042424
 40
0.2553271761170295
 40
0.2726503537065597
 40
0.2895134331420767
 40
0.3060519143007207
 40
0.3223043517319589
 40
0.3382677146840722
 40
0.3539424254459727
 40
0.3693322768935024
 40
0.3844439523098627
 40
0.3992965388585494
 40
0.4138261138828366
 40
0.4282656920942626
 40
0.4426157215215535
 40
0.4568588621213526
 40
0.4709802265020467
 40
0.4849675484172714
 40
0.4988110207021171
 40
0.5125035730027962
 40
0.5260519907329774
 40
0.5395374940348902
 40
0.5530733023307439
 40
0.5666709966033787
 40
0.5803161182286482
 40
0.5939936171224883
 40
0.6076881260581104
 40
0.6213824143942986
 40
0.6350582190572258
 40
0.6486945956929077
 40
0.6622959508547315
 40
0.6760957072805449
 40
0.6899941299676314
 40
0.70400161064095
 40
0.7181268600707093
 40
0.7323773509223242
 40
0.746759380787432
 40
0.7612779445083225
 40
0.7759364716020522
 40
0.7907369149796726
 40
0.8056796029329536
 40
0.8207630251385705
 40
0.8359838908596911
 40
0.8513369776620434
 40
0.8668150628584761
 40
0.882408934701516
 40
0.8981085105852733
 40
0.9139512703254306
 40
0.9299251535515409
 40
0.946069584966548
 40
0.9623514150886057
 40
0.9787348136370043
 40
0.9951812922178524
 40
1.0
 40
1.0
 40
1.0
 40
1.0
 10
4053.254346391769
 20
1640.904199888262
 30
0.0
 10
4053.253075274436
 20
1640.90100117935
 30
0.0
 10
4053.250101359181
 20
1640.893517456974
 30
0.0
 10
4053.245542038346
 20
1640.88138476096
 30
0.0
 10
4053.240788356323
 20
1640.867895607664
 30
0.0
 10
4053.236328815425
 20
1640.854255919644
 30
0.0
 10
4053.232293739265
 20
1640.840869799312
 30
0.0
 10
4053.228674809125
 20
1640.827739986784
 30
0.0
 10
4053.225456988351
 20
1640.814837963822
 30
0.0
 10
4053.222623957209
 20
1640.802154841055
 30
0.0
 10
4053.220175391869
 20
1640.789700780606
 30
0.0
 10
4053.218110332053
 20
1640.777502380663
 30
0.0
 10
4053.216418973498
 20
1640.765557918992
 30
0.0
 10
4053.215087686269
 20
1640.753834890028
 30
0.0
 10
4053.214105463195
 20
1640.74230501634
 30
0.0
 10
4053.213465324522
 20
1640.730990896907
 30
0.0
 10
4053.213166851725
 20
1640.719897979353
 30
0.0
 10
4053.213198185204
 20
1640.709035310172
 30
0.0
 10
4053.213551838375
 20
1640.69837522517
 30
0.0
 10
4053.214221732453
 20
1640.687919624561
 30
0.0
 10
4053.215201242617
 20
1640.67767796439
 30
0.0
 10
4053.216483887249
 20
1640.667657595039
 30
0.0
 10
4053.218062686119
 20
1640.657861678129
 30
0.0
 10
4053.219930031072
 20
1640.648308233374
 30
0.0
 10
4053.222087417069
 20
1640.638966944777
 30
0.0
 10
4053.224528653929
 20
1640.62980953317
 30
0.0
 10
4053.227260088461
 20
1640.620799874845
 30
0.0
 10
4053.230274620884
 20
1640.611954435615
 30
0.0
 10
4053.233563604705
 20
1640.603292123864
 30
0.0
 10
4053.237117859461
 20
1640.594829949781
 30
0.0
 10
4053.240928122667
 20
1640.586583114687
 30
0.0
 10
4053.244985529395
 20
1640.578562420547
 30
0.0
 10
4053.249292179653
 20
1640.570762071656
 30
0.0
 10
4053.253857899729
 20
1640.563150511787
 30
0.0
 10
4053.258695734688
 20
1640.555696113488
 30
0.0
 10
4053.263813295652
 20
1640.548388236803
 30
0.0
 10
4053.269203364641
 20
1640.541240117312
 30
0.0
 10
4053.274854599528
 20
1640.534269343761
 30
0.0
 10
4053.280754513137
 20
1640.527493469353
 30
0.0
 10
4053.286889110482
 20
1640.520929827111
 30
0.0
 10
4053.29324223852
 20
1640.514595409744
 30
0.0
 10
4053.299801760886
 20
1640.508504884154
 30
0.0
 10
4053.306587441816
 20
1640.502626068768
 30
0.0
 10
4053.313614442742
 20
1640.49694625138
 30
0.0
 10
4053.320901543593
 20
1640.491455339875
 30
0.0
 10
4053.328428030335
 20
1640.486172538389
 30
0.0
 10
4053.336191482179
 20
1640.481102360082
 30
0.0
 10
4053.34418877306
 20
1640.476249837652
 30
0.0
 10
4053.352416097935
 20
1640.471620432755
 30
0.0
 10
4053.360868811631
 20
1640.467219900471
 30
0.0
 10
4053.369541420403
 20
1640.463054406778
 30
0.0
 10
4053.37842744272
 20
1640.459130442989
 30
0.0
 10
4053.387519218385
 20
1640.455454511296
 30
0.0
 10
4053.396808051954
 20
1640.45203364769
 30
0.0
 10
4053.406283800125
 20
1640.44887454607
 30
0.0
 10
4053.415935112822
 20
1640.44598427194
 30
0.0
 10
4053.425749155713
 20
1640.443369590687
 30
0.0
 10
4053.435711908105
 20
1640.441037093562
 30
0.0
 10
4053.445818753124
 20
1640.438990728009
 30
0.0
 10
4053.456064632017
 20
1640.437236176249
 30
0.0
 10
4053.466454403333
 20
1640.435772567039
 30
0.0
 10
4053.47697811606
 20
1640.434605815179
 30
0.0
 10
4053.487620730948
 20
1640.433733220853
 30
0.0
 10
4053.498349973357
 20
1640.433190246073
 30
0.0
 10
4053.506584164057
 20
1640.432946008318
 30
0.0
 10
4053.511235569091
 20
1640.432986681235
 30
0.0
 10
4053.512289581092
 20
1640.432995897749
 30
0.0
  0
SPLINE
  5
14B4
330
1F
100
AcDbEntity
  8
SANINDUSA
100
AcDbSpline
210
0.0
220
0.0
230
1.0
 70
     8
 71
     3
 72
    72
 73
    68
 74
     0
 42
0.0000000001
 43
0.0000000001
 40
0.0
 40
0.0
 40
0.0
 40
0.0
 40
0.0056378109921835
 40
0.0221596025543423
 40
0.0386742064627447
 40
0.0551301994316365
 40
0.0714874826731366
 40
0.0877083835821736
 40
0.1037582370242913
 40
0.1196456503992644
 40
0.1354721288373149
 40
0.1511945991269113
 40
0.1668009075769871
 40
0.1822812967337397
 40
0.197628202053445
 40
0.2128362167152568
 40
0.2279019904409835
 40
0.2428242483802792
 40
0.2576035413105391
 40
0.2722422922877946
 40
0.286744585604262
 40
0.3011160989084788
 40
0.3153638786796331
 40
0.3294964372825424
 40
0.343523374523528
 40
0.3574557893238198
 40
0.3712603951462243
 40
0.3848706672864206
 40
0.3985164573317031
 40
0.4121829521118578
 40
0.4258548315673652
 40
0.4395120987059127
 40
0.453139300210606
 40
0.4667215010936646
 40
0.4802440503891522
 40
0.4937023174938041
 40
0.5071761361906257
 40
0.5208021288123316
 40
0.5345767278609062
 40
0.5484927446736025
 40
0.562540400702761
 40
0.576707590031809
 40
0.5909798318155439
 40
0.6053402061864005
 40
0.6197715307906031
 40
0.6343562552631305
 40
0.6492751623104446
 40
0.6644529105760107
 40
0.679895106432749
 40
0.695603780395163
 40
0.7115781044373618
 40
0.727813836478664
 40
0.7442999627476064
 40
0.7610714121419897
 40
0.7782885045093181
 40
0.7958053082295623
 40
0.8136701863145214
 40
0.8319336102218652
 40
0.8506515762235055
 40
0.8698905352272893
 40
0.8896854213116764
 40
0.9097896449874655
 40
0.9303787947822611
 40
0.9514617087302925
 40
0.9730478126226717
 40
0.9951158370607828
 40
1.0
 40
1.0
 40
1.0
 40
1.0
 10
4053.512289635971
 20
1640.432998967388
 30
0.0
 10
4053.51352282993
 20
1640.432989457501
 30
0.0
 10
4053.51836993957
 20
1640.432952078576
 30
0.0
 10
4053.526828097935
 20
1640.433211714913
 30
0.0
 10
4053.537639582073
 20
1640.433778678183
 30
0.0
 10
4053.548393467892
 20
1640.434681549986
 30
0.0
 10
4053.559052257344
 20
1640.435888970674
 30
0.0
 10
4053.569582330797
 20
1640.43740276139
 30
0.0
 10
4053.579960694739
 20
1640.439215697746
 30
0.0
 10
4053.590194253451
 20
1640.441327918421
 30
0.0
 10
4053.600288606968
 20
1640.443736214391
 30
0.0
 10
4053.610244339796
 20
1640.446439402858
 30
0.0
 10
4053.620038619035
 20
1640.449429390988
 30
0.0
 10
4053.629656325395
 20
1640.452699290515
 30
0.0
 10
4053.639083944139
 20
1640.456241952245
 30
0.0
 10
4053.648309457715
 20
1640.460050121059
 30
0.0
 10
4053.65732240754
 20
1640.464116306557
 30
0.0
 10
4053.666113581544
 20
1640.468433374476
 30
0.0
 10
4053.674675183118
 20
1640.472994101698
 30
0.0
 10
4053.683000576141
 20
1640.477791565158
 30
0.0
 10
4053.691084210269
 20
1640.482819174905
 30
0.0
 10
4053.698921484613
 20
1640.48807070315
 30
0.0
 10
4053.706508780765
 20
1640.493540180498
 30
0.0
 10
4053.71384316566
 20
1640.49922219283
 30
0.0
 10
4053.720922146174
 20
1640.505112107463
 30
0.0
 10
4053.72773782666
 20
1640.511197689047
 30
0.0
 10
4053.734266013846
 20
1640.51745980557
 30
0.0
 10
4053.740523813803
 20
1640.523904895895
 30
0.0
 10
4053.746531566799
 20
1640.530542978049
 30
0.0
 10
4053.752311344324
 20
1640.537398123683
 30
0.0
 10
4053.75784833757
 20
1640.544454020299
 30
0.0
 10
4053.763128479924
 20
1640.551693502611
 30
0.0
 10
4053.768138723422
 20
1640.559098671078
 30
0.0
 10
4053.772867613436
 20
1640.56665186073
 30
0.0
 10
4053.777305943839
 20
1640.574336761218
 30
0.0
 10
4053.781453882973
 20
1640.582155353412
 30
0.0
 10
4053.785333494521
 20
1640.590135571869
 30
0.0
 10
4053.788962387097
 20
1640.598308622988
 30
0.0
 10
4053.792344993854
 20
1640.606691020063
 30
0.0
 10
4053.795472389793
 20
1640.615270162933
 30
0.0
 10
4053.798335568309
 20
1640.624031438445
 30
0.0
 10
4053.800925820644
 20
1640.632958402055
 30
0.0
 10
4053.803234686268
 20
1640.64203283232
 30
0.0
 10
4053.805254469352
 20
1640.651235134552
 30
0.0
 10
4053.806981368831
 20
1640.660566315278
 30
0.0
 10
4053.8084300791
 20
1640.670068212999
 30
0.0
 10
4053.809601303025
 20
1640.679772772992
 30
0.0
 10
4053.810490641177
 20
1640.689695506024
 30
0.0
 10
4053.811090368644
 20
1640.699812977452
 30
0.0
 10
4053.811395090376
 20
1640.710117918725
 30
0.0
 10
4053.811399276233
 20
1640.720600907776
 30
0.0
 10
4053.811098275626
 20
1640.731249696212
 30
0.0
 10
4053.810485990299
 20
1640.742059706457
 30
0.0
 10
4053.809562863516
 20
1640.753062984693
 30
0.0
 10
4053.808319145381
 20
1640.764261539902
 30
0.0
 10
4053.806746516867
 20
1640.775660106902
 30
0.0
 10
4053.804841993314
 20
1640.787239909383
 30
0.0
 10
4053.80259655578
 20
1640.799025998209
 30
0.0
 10
4053.799998704199
 20
1640.811047071091
 30
0.0
 10
4053.797038420974
 20
1640.823328903857
 30
0.0
 10
4053.793710076347
 20
1640.835830218699
 30
0.0
 10
4053.790011815428
 20
1640.848534964989
 30
0.0
 10
4053.785944922054
 20
1640.861422260839
 30
0.0
 10
4053.781493691158
 20
1640.874524715181
 30
0.0
 10
4053.776651460201
 20
1640.88783243082
 30
0.0
 10
4053.772820916124
 20
1640.89773518911
 30
0.0
 10
4053.770632847146
 20
1640.903209500819
 30
0.0
 10
4053.770236334415
 20
1640.904201532745
 30
0.0
  0
ARC
  5
14B5
330
1F
100
AcDbEntity
  8
SANINDUSA
100
AcDbCircle
 10
4053.25713785318
 20
1640.903064778052
 30
0.0
 40
0.0030000424549581
100
AcDbArc
 50
89.99823674689498
 51
157.9668986009348
  0
ARC
  5
14B6
330
1F
100
AcDbEntity
  8
SANINDUSA
100
AcDbCircle
 10
4053.767441355918
 20
1640.90306477746
 30
0.0
 40
0.0030000430474399
100
AcDbArc
 50
22.2821138620781
 51
89.99947868948016
  0
SPLINE
  5
14BC
330
1F
100
AcDbEntity
  8
SANINDUSA
100
AcDbSpline
210
0.0
220
0.0
230
1.0
 70
     8
 71
     3
 72
    16
 73
    12
 74
     0
 42
0.0000000001
 43
0.0000000001
 40
0.0
 40
0.0
 40
0.0
 40
0.0
 40
0.0735059040722002
 40
0.1932044472181083
 40
0.3128743727691457
 40
0.428598958842694
 40
0.5442969137556272
 40
0.6583718863103782
 40
0.772429226161938
 40
0.8862154865136664
 40
1.0
 40
1.0
 40
1.0
 40
1.0
 10
4053.266749283881
 20
1640.780739572862
 30
0.0
 10
4053.266221052859
 20
1640.780727575122
 30
0.0
 10
4053.26483263945
 20
1640.780696040015
 30
0.0
 10
4053.262606747163
 20
1640.780297958443
 30
0.0
 10
4053.260179822879
 20
1640.779473262142
 30
0.0
 10
4053.257948156928
 20
1640.778264915525
 30
0.0
 10
4053.255970996703
 20
1640.776737899509
 30
0.0
 10
4053.254288662612
 20
1640.774903772698
 30
0.0
 10
4053.252947767729
 20
1640.772826552721
 30
0.0
 10
4053.251960315062
 20
1640.770551587766
 30
0.0
 10
4053.251642829088
 20
1640.768938990965
 30
0.0
 10
4053.251484087319
 20
1640.768132698753
 30
0.0
  0
SPLINE
  5
14BD
330
1F
100
AcDbEntity
  8
SANINDUSA
100
AcDbSpline
210
0.0
220
0.0
230
1.0
 70
     8
 71
     3
 72
    28
 73
    24
 74
     0
 42
0.0000000001
 43
0.0000000001
 40
0.0
 40
0.0
 40
0.0
 40
0.0
 40
0.0389538997102227
 40
0.0780310451955002
 40
0.117076546835444
 40
0.1559871350582523
 40
0.195929385411314
 40
0.2360627063751771
 40
0.276192977809947
 40
0.3161311263308193
 40
0.3557339714098139
 40
0.3954425081487336
 40
0.4351977465551079
 40
0.4748644013169124
 40
0.52412653588072
 40
0.5734450930394357
 40
0.6227992912966691
 40
0.6721100632608392
 40
0.7375595065714686
 40
0.8030314759263379
 40
0.8684886287695212
 40
0.9665236663238141
 40
1.0
 40
1.0
 40
1.0
 40
1.0
 10
4053.266749283881
 20
1640.780739572862
 30
0.0
 10
4053.267790446908
 20
1640.780483029973
 30
0.0
 10
4053.269876067087
 20
1640.779969132523
 30
0.0
 10
4053.274036029297
 20
1640.779221316105
 30
0.0
 10
4053.278982470827
 20
1640.778497959364
 30
0.0
 10
4053.284857882174
 20
1640.777801873548
 30
0.0
 10
4053.291731585696
 20
1640.777142387147
 30
0.0
 10
4053.299569384633
 20
1640.776526395093
 30
0.0
 10
4053.308211203424
 20
1640.775965104537
 30
0.0
 10
4053.317565721036
 20
1640.775468384098
 30
0.0
 10
4053.327515592251
 20
1640.775037647879
 30
0.0
 10
4053.337889015747
 20
1640.774662040769
 30
0.0
 10
4053.348612025595
 20
1640.774336903214
 30
0.0
 10
4053.360471447468
 20
1640.774034460269
 30
0.0
 10
4053.373457566538
 20
1640.77376054325
 30
0.0
 10
4053.387552117623
 20
1640.773518764902
 30
0.0
 10
4053.401787807534
 20
1640.773320142118
 30
0.0
 10
4053.417672202807
 20
1640.773137755575
 30
0.0
 10
4053.435201347143
 20
1640.772976584357
 30
0.0
 10
4053.454377551646
 20
1640.772848374431
 30
0.0
 10
4053.476791856256
 20
1640.772749016932
 30
0.0
 10
4053.496108363722
 20
1640.772711972267
 30
0.0
 10
4053.509006398746
 20
1640.772706866721
 30
0.0
 10
4053.512289604755
 20
1640.772705567101
 30
0.0
  0
SPLINE
  5
14BE
330
1F
100
AcDbEntity
  8
SANINDUSA
100
AcDbSpline
210
0.0
220
0.0
230
1.0
 70
     8
 71
     3
 72
    16
 73
    12
 74
     0
 42
0.0000000001
 43
0.0000000001
 40
0.0
 40
0.0
 40
0.0
 40
0.0
 40
0.0735059040722002
 40
0.1932044472181083
 40
0.3128743727691457
 40
0.428598958842694
 40
0.5442969137556272
 40
0.6583718863103782
 40
0.772429226161938
 40
0.8862154865136664
 40
1.0
 40
1.0
 40
1.0
 40
1.0
 10
4053.757829925628
 20
1640.780739572862
 30
0.0
 10
4053.758358156652
 20
1640.780727575122
 30
0.0
 10
4053.759746570061
 20
1640.780696040015
 30
0.0
 10
4053.761972462347
 20
1640.780297958443
 30
0.0
 10
4053.764399386632
 20
1640.779473262142
 30
0.0
 10
4053.766631052583
 20
1640.778264915525
 30
0.0
 10
4053.768608212807
 20
1640.776737899509
 30
0.0
 10
4053.770290546897
 20
1640.774903772698
 30
0.0
 10
4053.771631441781
 20
1640.772826552721
 30
0.0
 10
4053.772618894448
 20
1640.770551587766
 30
0.0
 10
4053.772936380421
 20
1640.768938990965
 30
0.0
 10
4053.77309512219
 20
1640.768132698753
 30
0.0
  0
SPLINE
  5
14C0
330
1F
100
AcDbEntity
  8
SANINDUSA
100
AcDbSpline
210
0.0
220
0.0
230
1.0
 70
     8
 71
     3
 72
    28
 73
    24
 74
     0
 42
0.0000000001
 43
0.0000000001
 40
0.0
 40
0.0
 40
0.0
 40
0.0
 40
0.0389538997102227
 40
0.0780310451955002
 40
0.1170765468354439
 40
0.1559871350582523
 40
0.195929385411314
 40
0.2360627063751771
 40
0.276192977809947
 40
0.3161311263308192
 40
0.3557339714098139
 40
0.3954425081487336
 40
0.4351977465551078
 40
0.4748644013169123
 40
0.52412653588072
 40
0.5734450930394356
 40
0.6227992912966691
 40
0.6721100632608391
 40
0.7375595065714685
 40
0.8030314759263379
 40
0.8684886287695212
 40
0.966523666323814
 40
1.0
 40
1.0
 40
1.0
 40
1.0
 10
4053.757829925628
 20
1640.780739572862
 30
0.0
 10
4053.7567887626
 20
1640.780483029973
 30
0.0
 10
4053.754703142423
 20
1640.779969132523
 30
0.0
 10
4053.750543180213
 20
1640.779221316105
 30
0.0
 10
4053.745596738684
 20
1640.778497959364
 30
0.0
 10
4053.739721327336
 20
1640.777801873548
 30
0.0
 10
4053.732847623814
 20
1640.777142387147
 30
0.0
 10
4053.725009824877
 20
1640.776526395093
 30
0.0
 10
4053.716368006085
 20
1640.775965104537
 30
0.0
 10
4053.707013488475
 20
1640.775468384098
 30
0.0
 10
4053.69706361726
 20
1640.775037647879
 30
0.0
 10
4053.686690193763
 20
1640.774662040769
 30
0.0
 10
4053.675967183916
 20
1640.774336903214
 30
0.0
 10
4053.664107762042
 20
1640.774034460269
 30
0.0
 10
4053.651121642972
 20
1640.77376054325
 30
0.0
 10
4053.637027091887
 20
1640.773518764902
 30
0.0
 10
4053.622791401976
 20
1640.773320142118
 30
0.0
 10
4053.606907006703
 20
1640.773137755575
 30
0.0
 10
4053.589377862367
 20
1640.772976584357
 30
0.0
 10
4053.570201657865
 20
1640.772848374431
 30
0.0
 10
4053.547787353254
 20
1640.772749016932
 30
0.0
 10
4053.528470845789
 20
1640.772711972267
 30
0.0
 10
4053.515572810764
 20
1640.772706866721
 30
0.0
 10
4053.512289604755
 20
1640.772705567101
 30
0.0
  0
LINE
  5
14C1
330
1F
100
AcDbEntity
  8
SANINDUSA
100
AcDbLine
 10
4053.757829925628
 20
1640.780739572862
 30
0.0
 11
4053.266749283881
 21
1640.780739572862
 31
0.0
  0
LWPOLYLINE
  5
14C2
330
1F
100
AcDbEntity
  8
SANINDUSA
100
AcDbPolyline
 90
       11
 70
   128
 43
0.0
 10
4053.512289604755
 20
1640.78014579139
 10
4053.514557904448
 20
1640.780133348921
 10
4053.51677035133
 20
1640.780096289733
 10
4053.518872466987
 20
1640.7800355526
 10
4053.520812490607
 20
1640.779952627638
 10
4053.522542653257
 20
1640.779849541405
 10
4053.524020351122
 20
1640.7797288569
 10
4053.525209199288
 20
1640.779593524554
 10
4053.526079924429
 20
1640.779446882227
 10
4053.526611085632
 20
1640.779292550901
 10
4053.526667010622
 20
1640.779265579799
  0
LWPOLYLINE
  5
14C3
330
1F
100
AcDbEntity
  8
SANINDUSA
100
AcDbPolyline
 90
       19
 70
   128
 43
0.0
 10
4053.526329335408
 20
1640.778881502369
 10
4053.526079924429
 20
1640.778821763614
 10
4053.525209199288
 20
1640.778675136188
 10
4053.524020351122
 20
1640.778539803841
 10
4053.522542653257
 20
1640.778419104436
 10
4053.520812490607
 20
1640.778316033104
 10
4053.518872466987
 20
1640.778233108142
 10
4053.51677035133
 20
1640.778172356108
 10
4053.514557904448
 20
1640.778135311821
 10
4053.512289604755
 20
1640.77812285445
 10
4053.510021305061
 20
1640.778135311821
 10
4053.507808858181
 20
1640.778172356108
 10
4053.505706742523
 20
1640.778233108142
 10
4053.503766718903
 20
1640.778316033104
 10
4053.502036556253
 20
1640.778419104436
 10
4053.500558858389
 20
1640.778539803841
 10
4053.499370010221
 20
1640.778675136188
 10
4053.498499285081
 20
1640.778821763614
 10
4053.498388272362
 20
1640.778846693256
  0
LWPOLYLINE
  5
14C4
330
1F
100
AcDbEntity
  8
SANINDUSA
100
AcDbPolyline
 90
       11
 70
   128
 43
0.0
 10
4053.497904895457
 20
1640.77926161609
 10
4053.497968123877
 20
1640.779292550901
 10
4053.498499285081
 20
1640.779446882227
 10
4053.499370010221
 20
1640.779593524554
 10
4053.500558858389
 20
1640.7797288569
 10
4053.502036556253
 20
1640.779849541405
 10
4053.503766718903
 20
1640.779952627638
 10
4053.505706742523
 20
1640.7800355526
 10
4053.507808858181
 20
1640.780096289733
 10
4053.510021305061
 20
1640.780133348921
 10
4053.512289604755
 20
1640.78014579139
  0
SPLINE
  5
14C7
330
1F
100
AcDbEntity
  8
SANINDUSA
100
AcDbSpline
210
0.0
220
0.0
230
1.0
 70
     8
 71
     3
 72
    36
 73
    32
 74
     0
 42
0.0000000001
 43
0.0000000001
 40
0.0
 40
0.0
 40
0.0
 40
0.0
 40
0.0416367273619985
 40
0.0832974699214287
 40
0.124922956852845
 40
0.1571567974025743
 40
0.1894335081285499
 40
0.2217007607311097
 40
0.253921642765194
 40
0.2869835502103995
 40
0.3201564751009754
 40
0.3533547666614701
 40
0.3865043418241516
 40
0.4195465534748296
 40
0.4526416012201258
 40
0.4858550029042589
 40
0.5191144851153912
 40
0.552339144477596
 40
0.5854436642199222
 40
0.6176802662201111
 40
0.6500001394965202
 40
0.6823588003334372
 40
0.714698785165107
 40
0.7469523104918285
 40
0.7835127390058289
 40
0.8201567679220136
 40
0.8568401782388242
 40
0.8935051987223353
 40
0.930083241928242
 40
0.9570302671050503
 40
1.0
 40
1.0
 40
1.0
 40
1.0
 10
4053.251484087319
 20
1640.768132698753
 30
0.0
 10
4053.250636589867
 20
1640.761784121871
 30
0.0
 10
4053.24894110614
 20
1640.749083306378
 30
0.0
 10
4053.247609734609
 20
1640.729904000534
 30
0.0
 10
4053.247297173633
 20
1640.712131532472
 30
0.0
 10
4053.247896558133
 20
1640.695812681601
 30
0.0
 10
4053.249173111666
 20
1640.680977094516
 30
0.0
 10
4053.251223174877
 20
1640.666229691167
 30
0.0
 10
4053.254106080472
 20
1640.651497971125
 30
0.0
 10
4053.257915873344
 20
1640.636832496105
 30
0.0
 10
4053.262694550235
 20
1640.622294874432
 30
0.0
 10
4053.268404371915
 20
1640.608081977793
 30
0.0
 10
4053.275039225476
 20
1640.594298138405
 30
0.0
 10
4053.282606163252
 20
1640.581019748875
 30
0.0
 10
4053.291130111608
 20
1640.568322321559
 30
0.0
 10
4053.300549524506
 20
1640.556233274971
 30
0.0
 10
4053.310791699489
 20
1640.544806711848
 30
0.0
 10
4053.32177299618
 20
1640.534112849703
 30
0.0
 10
4053.333335716017
 20
1640.524291505147
 30
0.0
 10
4053.345417405127
 20
1640.515350689268
 30
0.0
 10
4053.357932814783
 20
1640.507238909136
 30
0.0
 10
4053.370923380068
 20
1640.499880962175
 30
0.0
 10
4053.384306043308
 20
1640.493287028762
 30
0.0
 10
4053.398632450676
 20
1640.487202264759
 30
0.0
 10
4053.413915051429
 20
1640.481740715368
 30
0.0
 10
4053.430144210552
 20
1640.476991911941
 30
0.0
 10
4053.446629977056
 20
1640.473161309699
 30
0.0
 10
4053.463288444283
 20
1640.470227257585
 30
0.0
 10
4053.47859129023
 20
1640.468372141643
 30
0.0
 10
4053.494924907581
 20
1640.467077171154
 30
0.0
 10
4053.50567981121
 20
1640.466903834398
 30
0.0
 10
4053.512289604755
 20
1640.466797304371
 30
0.0
  0
SPLINE
  5
14C8
330
1F
100
AcDbEntity
  8
SANINDUSA
100
AcDbSpline
210
0.0
220
0.0
230
1.0
 70
     8
 71
     3
 72
    36
 73
    32
 74
     0
 42
0.0000000001
 43
0.0000000001
 40
0.0
 40
0.0
 40
0.0
 40
0.0
 40
0.0416367273619985
 40
0.0832974699214287
 40
0.124922956852845
 40
0.1571567974025743
 40
0.1894335081285498
 40
0.2217007607311096
 40
0.2539216427651939
 40
0.2869835502103994
 40
0.3201564751009752
 40
0.35335476666147
 40
0.3865043418241514
 40
0.4195465534748294
 40
0.4526416012201256
 40
0.4858550029042588
 40
0.519114485115391
 40
0.5523391444775957
 40
0.5854436642199219
 40
0.6176802662201109
 40
0.6500001394965198
 40
0.6823588003334369
 40
0.7146987851651067
 40
0.7469523104918281
 40
0.7835127390058286
 40
0.8201567679220133
 40
0.8568401782388239
 40
0.8935051987223349
 40
0.9300832419282416
 40
0.9570302671050498
 40
0.9999999999999998
 40
0.9999999999999998
 40
0.9999999999999998
 40
0.9999999999999998
 10
4053.77309512219
 20
1640.768132698753
 30
0.0
 10
4053.773942619644
 20
1640.761784121871
 30
0.0
 10
4053.77563810337
 20
1640.749083306378
 30
0.0
 10
4053.776969474902
 20
1640.729904000534
 30
0.0
 10
4053.777282035877
 20
1640.712131532472
 30
0.0
 10
4053.776682651377
 20
1640.695812681601
 30
0.0
 10
4053.775406097844
 20
1640.680977094516
 30
0.0
 10
4053.773356034633
 20
1640.666229691167
 30
0.0
 10
4053.770473129037
 20
1640.651497971125
 30
0.0
 10
4053.766663336165
 20
1640.636832496105
 30
0.0
 10
4053.761884659276
 20
1640.622294874432
 30
0.0
 10
4053.756174837594
 20
1640.608081977793
 30
0.0
 10
4053.749539984034
 20
1640.594298138405
 30
0.0
 10
4053.741973046259
 20
1640.581019748875
 30
0.0
 10
4053.733449097902
 20
1640.568322321559
 30
0.0
 10
4053.724029685003
 20
1640.556233274971
 30
0.0
 10
4053.713787510021
 20
1640.544806711848
 30
0.0
 10
4053.70280621333
 20
1640.534112849703
 30
0.0
 10
4053.691243493492
 20
1640.524291505147
 30
0.0
 10
4053.679161804383
 20
1640.515350689268
 30
0.0
 10
4053.666646394726
 20
1640.507238909136
 30
0.0
 10
4053.653655829442
 20
1640.499880962175
 30
0.0
 10
4053.640273166202
 20
1640.493287028762
 30
0.0
 10
4053.625946758834
 20
1640.487202264759
 30
0.0
 10
4053.610664158081
 20
1640.481740715368
 30
0.0
 10
4053.594434998958
 20
1640.476991911941
 30
0.0
 10
4053.577949232454
 20
1640.473161309699
 30
0.0
 10
4053.561290765226
 20
1640.470227257585
 30
0.0
 10
4053.545987919281
 20
1640.468372141643
 30
0.0
 10
4053.529654301929
 20
1640.467077171154
 30
0.0
 10
4053.518899398301
 20
1640.466903834398
 30
0.0
 10
4053.512289604755
 20
1640.466797304371
 30
0.0
  0
SPLINE
  5
14CB
330
1F
100
AcDbEntity
  8
SANINDUSA
100
AcDbSpline
210
0.0
220
0.0
230
1.0
 70
    24
 71
     3
 72
    13
 73
     9
 74
     0
 42
0.0000000001
 43
0.0000000001
 40
0.0
 40
0.0
 40
0.0
 40
0.0
 40
0.0430684917900784
 40
0.2360302581457443
 40
0.4304920503676984
 40
0.6348210121802316
 40
0.8536949241951578
 40
0.9999999999999998
 40
0.9999999999999998
 40
0.9999999999999998
 40
0.9999999999999998
 10
4053.257156244131
 20
1640.906064820507
 30
0.0
 10
4053.257150839292
 20
1640.906064820507
 30
0.0
 10
4053.257121218904
 20
1640.906064820507
 30
0.0
 10
4053.257277904676
 20
1640.906064820507
 30
0.0
 10
4053.257620645232
 20
1640.906064820507
 30
0.0
 10
4053.258155638813
 20
1640.906064820507
 30
0.0
 10
4053.25874141257
 20
1640.906064820507
 30
0.0
 10
4053.259136933839
 20
1640.906064820507
 30
0.0
 10
4053.259295395228
 20
1640.906064820507
 30
0.0
  0
SPLINE
  5
14CD
330
1F
100
AcDbEntity
  8
SANINDUSA
100
AcDbSpline
210
0.0
220
0.0
230
1.0
 70
    24
 71
     3
 72
    13
 73
     9
 74
     0
 42
0.0000000001
 43
0.0000000001
 40
0.0
 40
0.0
 40
0.0
 40
0.0
 40
0.0430791627129095
 40
0.2360387773157066
 40
0.4304984010577217
 40
0.6348250843596564
 40
0.8536965556705146
 40
0.9999999999999998
 40
0.9999999999999998
 40
0.9999999999999998
 40
0.9999999999999998
 10
4053.767422965379
 20
1640.906064820507
 30
0.0
 10
4053.767428370704
 20
1640.906064820507
 30
0.0
 10
4053.767457987491
 20
1640.906064820507
 30
0.0
 10
4053.767301307714
 20
1640.906064820507
 30
0.0
 10
4053.766958563462
 20
1640.906064820507
 30
0.0
 10
4053.76642357094
 20
1640.906064820507
 30
0.0
 10
4053.765837796901
 20
1640.906064820507
 30
0.0
 10
4053.76544227566
 20
1640.906064820507
 30
0.0
 10
4053.765283814283
 20
1640.906064820507
 30
0.0
  0
LINE
  5
14D6
330
1F
100
AcDbEntity
  8
SANINDUSA
100
AcDbLine
 10
4053.259295395228
 20
1640.906064820507
 30
0.0
 11
4053.765283814283
 21
1640.906064820507
 31
0.0
  0
CIRCLE
  5
14D7
330
1F
100
AcDbEntity
  8
SANINDUSA
100
AcDbCircle
 10
4053.512289604755
 20
1640.843402198097
 30
0.0
 40
0.0174999999999997
  0
SPLINE
  5
14D8
330
1F
100
AcDbEntity
  8
SANINDUSA
100
AcDbSpline
210
0.0
220
0.0
230
1.0
 70
     8
 71
     3
 72
    26
 73
    22
 74
     0
 42
0.0000000001
 43
0.0000000001
 40
0.0
 40
0.0
 40
0.0
 40
0.0
 40
0.043413430891496
 40
0.086836450382496
 40
0.1369702650986761
 40
0.1871229745446203
 40
0.2418025712008118
 40
0.296480011527951
 40
0.3544140274139775
 40
0.4123169409150841
 40
0.4666254291099128
 40
0.5209235737769468
 40
0.5712854425073675
 40
0.6216621941041309
 40
0.6725174358309212
 40
0.7233703811171094
 40
0.7803802745674346
 40
0.8373787653589817
 40
0.8924353044098324
 40
0.9474850455836351
 40
1.0
 40
1.0
 40
1.0
 40
1.0
 10
4053.512289604755
 20
1640.651596051672
 30
0.0
 10
4053.510650203771
 20
1640.651667968021
 30
0.0
 10
4053.507371039713
 20
1640.651811816601
 30
0.0
 10
4053.502309670061
 20
1640.652979212134
 30
0.0
 10
4053.497237861782
 20
1640.654945270742
 30
0.0
 10
4053.492157549235
 20
1640.657883793942
 30
0.0
 10
4053.487456423471
 20
1640.661680716103
 30
0.0
 10
4053.483203082441
 20
1640.666380994808
 30
0.0
 10
4053.479734818687
 20
1640.671838881753
 30
0.0
 10
4053.47728225507
 20
1640.677812674059
 30
0.0
 10
4053.476018960778
 20
1640.684001616298
 30
0.0
 10
4053.475875850968
 20
1640.690031563363
 30
0.0
 10
4053.476798283222
 20
1640.695834748258
 30
0.0
 10
4053.478617041575
 20
1640.701279978276
 30
0.0
 10
4053.481279574643
 20
1640.706384374534
 30
0.0
 10
4053.484802333811
 20
1640.711253295881
 30
0.0
 10
4053.489249234107
 20
1640.71564620348
 30
0.0
 10
4053.494511227036
 20
1640.719315632557
 30
0.0
 10
4053.500274835314
 20
1640.721934435087
 30
0.0
 10
4053.506241582606
 20
1640.723556263121
 30
0.0
 10
4053.51030551991
 20
1640.723747386218
 30
0.0
 10
4053.512289604755
 20
1640.723840695837
 30
0.0
  0
SPLINE
  5
14D9
330
1F
100
AcDbEntity
  8
SANINDUSA
100
AcDbSpline
210
0.0
220
0.0
230
1.0
 70
     8
 71
     3
 72
    26
 73
    22
 74
     0
 42
0.0000000001
 43
0.0000000001
 40
0.0
 40
0.0
 40
0.0
 40
0.0
 40
0.0434134308914964
 40
0.0868364503824963
 40
0.1369702650986764
 40
0.1871229745446205
 40
0.2418025712008119
 40
0.2964800115279509
 40
0.3544140274139773
 40
0.4123169409150839
 40
0.4666254291099124
 40
0.5209235737769462
 40
0.5712854425073668
 40
0.6216621941041302
 40
0.6725174358309203
 40
0.7233703811171085
 40
0.7803802745674334
 40
0.8373787653589804
 40
0.8924353044098312
 40
0.9474850455836337
 40
0.9999999999999998
 40
0.9999999999999998
 40
0.9999999999999998
 40
0.9999999999999998
 10
4053.512289604755
 20
1640.651596051672
 30
0.0
 10
4053.513929005739
 20
1640.651667968021
 30
0.0
 10
4053.517208169798
 20
1640.651811816601
 30
0.0
 10
4053.522269539449
 20
1640.652979212134
 30
0.0
 10
4053.527341347727
 20
1640.654945270742
 30
0.0
 10
4053.532421660275
 20
1640.657883793942
 30
0.0
 10
4053.53712278604
 20
1640.661680716103
 30
0.0
 10
4053.541376127069
 20
1640.666380994808
 30
0.0
 10
4053.544844390823
 20
1640.671838881753
 30
0.0
 10
4053.547296954439
 20
1640.677812674059
 30
0.0
 10
4053.548560248732
 20
1640.684001616298
 30
0.0
 10
4053.548703358542
 20
1640.690031563363
 30
0.0
 10
4053.547780926288
 20
1640.695834748258
 30
0.0
 10
4053.545962167936
 20
1640.701279978276
 30
0.0
 10
4053.543299634867
 20
1640.706384374534
 30
0.0
 10
4053.5397768757
 20
1640.711253295881
 30
0.0
 10
4053.535329975403
 20
1640.71564620348
 30
0.0
 10
4053.530067982474
 20
1640.719315632557
 30
0.0
 10
4053.524304374195
 20
1640.721934435087
 30
0.0
 10
4053.518337626903
 20
1640.723556263121
 30
0.0
 10
4053.514273689599
 20
1640.723747386218
 30
0.0
 10
4053.512289604755
 20
1640.723840695837
 30
0.0
  0
CIRCLE
  5
14DA
330
1F
100
AcDbEntity
  8
SANINDUSA
100
AcDbCircle
 10
4053.512289604755
 20
1640.688564820508
 30
0.0
 40
0.0230000000000001
  0
LWPOLYLINE
  5
14E0
330
1F
100
AcDbEntity
  8
SANINDUSA
100
AcDbPolyline
 90
        4
 70
   128
 43
0.0
 10
4053.526667010622
 20
1640.779265579799
 10
4053.526789604338
 20
1640.779134330371
 10
4053.526611085632
 20
1640.77897609494
 10
4053.526329335408
 20
1640.778881502369
  0
LWPOLYLINE
  5
14E1
330
1F
100
AcDbEntity
  8
SANINDUSA
100
AcDbPolyline
 90
        4
 70
   128
 43
0.0
 10
4053.498388272362
 20
1640.778846693256
 10
4053.497968123877
 20
1640.77897609494
 10
4053.497789605172
 20
1640.779134330371
 10
4053.497904895457
 20
1640.77926161609
  0
LINE
  5
14E5
330
1F
100
AcDbEntity
  8
SANINDUSA
100
AcDbLine
 10
4055.83787256364
 20
1640.923477255797
 30
0.0
 11
4055.83787256364
 21
1640.928761133051
 31
0.0
  0
LINE
  5
14E6
330
1F
100
AcDbEntity
  8
SANINDUSA
100
AcDbLine
 10
4055.777860252897
 20
1640.885477268195
 30
0.0
 11
4055.780441759864
 21
1640.914983966446
 31
0.0
  0
LINE
  5
14E7
330
1F
100
AcDbEntity
  8
SANINDUSA
100
AcDbLine
 10
4055.708458750287
 20
1640.912927099561
 30
0.0
 11
4055.708810417692
 21
1640.908907108998
 31
0.0
  0
SPLINE
  5
14E8
330
1F
100
AcDbEntity
  8
SANINDUSA
100
AcDbSpline
210
0.0
220
0.0
230
1.0
 70
     8
 71
     3
 72
    12
 73
     8
 74
     0
 42
0.0000000001
 43
0.0000000001
 40
0.0
 40
0.0
 40
0.0
 40
0.0
 40
0.195009431204873
 40
0.4645100416817697
 40
0.7280884659931496
 40
0.9861695450713241
 40
1.0
 40
1.0
 40
1.0
 40
1.0
 10
4055.56247853745
 20
1640.931493260955
 30
0.0
 10
4055.566929263907
 20
1640.932059538662
 30
0.0
 10
4055.577530839017
 20
1640.933408405121
 30
0.0
 10
4055.594196558007
 20
1640.93516342764
 30
0.0
 10
4055.612339570201
 20
1640.936753554805
 30
0.0
 10
4055.62463496131
 20
1640.93769076543
 30
0.0
 10
4055.630890342998
 20
1640.938010473136
 30
0.0
 10
4055.631208515505
 20
1640.938026734686
 30
0.0
  0
SPLINE
  5
14E9
330
1F
100
AcDbEntity
  8
SANINDUSA
100
AcDbSpline
210
0.0
220
0.0
230
1.0
 70
     8
 71
     3
 72
    15
 73
    11
 74
     0
 42
0.0000000001
 43
0.0000000001
 40
0.0
 40
0.0
 40
0.0
 40
0.0
 40
0.1207577265315131
 40
0.2589778591670178
 40
0.4015493763041434
 40
0.5456256320845739
 40
0.6904853964932408
 40
0.8343513954785509
 40
0.9781159337808237
 40
1.0
 40
1.0
 40
1.0
 40
1.0
 10
4055.549221082369
 20
1640.928737157082
 30
0.0
 10
4055.549640185515
 20
1640.928864917024
 30
0.0
 10
4055.550538997032
 20
1640.929138911882
 30
0.0
 10
4055.55216272512
 20
1640.929574427836
 30
0.0
 10
4055.554006805667
 20
1640.93002485311
 30
0.0
 10
4055.555993726438
 20
1640.930460395453
 30
0.0
 10
4055.558053085026
 20
1640.930864434055
 30
0.0
 10
4055.560124938056
 20
1640.93121467703
 30
0.0
 10
4055.561611952822
 20
1640.931441868182
 30
0.0
 10
4055.562366128269
 20
1640.931530146383
 30
0.0
 10
4055.562465763429
 20
1640.931541808939
 30
0.0
  0
ARC
  5
14EA
330
1F
100
AcDbEntity
  8
SANINDUSA
100
AcDbCircle
 10
4055.547725069403
 20
1640.933510392217
 30
0.0
 40
0.0050000000000008
100
AcDbArc
 50
278.7079704563636
 51
287.2968304489727
  0
SPLINE
  5
14EB
330
1F
100
AcDbEntity
  8
SANINDUSA
100
AcDbSpline
210
0.0
220
0.0
230
1.0
 70
     8
 71
     3
 72
     9
 73
     5
 74
     0
 42
0.0000000001
 43
0.0000000001
 40
0.0
 40
0.0
 40
0.0
 40
0.0
 40
0.4177381745288448
 40
1.0
 40
1.0
 40
1.0
 40
1.0
 10
4055.530367497599
 20
1640.925616302586
 30
0.0
 10
4055.532887178727
 20
1640.926039981813
 30
0.0
 10
4055.538918902138
 20
1640.927054203769
 30
0.0
 10
4055.544974169282
 20
1640.927970747449
 30
0.0
 10
4055.548499920184
 20
1640.928504415846
 30
0.0
  0
ARC
  5
14EC
330
1F
100
AcDbEntity
  8
SANINDUSA
100
AcDbCircle
 10
4055.529860265772
 20
1640.928631604495
 30
0.0
 40
0.003000000567766
100
AcDbArc
 50
179.9999993746775
 51
279.4859731331099
  0
LINE
  5
14ED
330
1F
100
AcDbEntity
  8
SANINDUSA
100
AcDbLine
 10
4055.819860248606
 20
1640.90625103662
 30
0.0
 11
4055.809860258142
 21
1640.90625103662
 31
0.0
  0
LINE
  5
14EE
330
1F
100
AcDbEntity
  8
SANINDUSA
100
AcDbLine
 10
4055.809860258142
 20
1640.90625103662
 30
0.0
 11
4055.809860258142
 21
1640.886251025891
 31
0.0
  0
LINE
  5
14EF
330
1F
100
AcDbEntity
  8
SANINDUSA
100
AcDbLine
 10
4055.809860258142
 20
1640.886251025891
 30
0.0
 11
4055.819860248606
 21
1640.886251025891
 31
0.0
  0
LINE
  5
14F0
330
1F
100
AcDbEntity
  8
SANINDUSA
100
AcDbLine
 10
4055.819860248606
 20
1640.886251025891
 30
0.0
 11
4055.819860248606
 21
1640.90625103662
 31
0.0
  0
LINE
  5
14F1
330
1F
100
AcDbEntity
  8
SANINDUSA
100
AcDbLine
 10
4055.817860274355
 20
1640.247251057124
 30
0.0
 11
4055.807860254089
 21
1640.247251057124
 31
0.0
  0
LINE
  5
14F2
330
1F
100
AcDbEntity
  8
SANINDUSA
100
AcDbLine
 10
4055.807860254089
 20
1640.247251057124
 30
0.0
 11
4055.807860254089
 21
1640.237251007056
 31
0.0
  0
LINE
  5
14F3
330
1F
100
AcDbEntity
  8
SANINDUSA
100
AcDbLine
 10
4055.817860274355
 20
1640.237251007056
 30
0.0
 11
4055.807860254089
 21
1640.237251007056
 31
0.0
  0
LINE
  5
14F4
330
1F
100
AcDbEntity
  8
SANINDUSA
100
AcDbLine
 10
4055.817860274355
 20
1640.237251007056
 30
0.0
 11
4055.817860274355
 21
1640.247251057124
 31
0.0
  0
ARC
  5
14F5
330
1F
100
AcDbEntity
  8
SANINDUSA
100
AcDbCircle
 10
4055.812860268424
 20
1640.262251031249
 30
0.0
 40
0.0050000000000006
100
AcDbArc
 50
270.0
 51
0.0
  0
LINE
  5
14F6
330
1F
100
AcDbEntity
  8
SANINDUSA
100
AcDbLine
 10
4055.817860274355
 20
1640.262251042819
 30
0.0
 11
4055.817860274355
 21
1640.876251035428
 31
0.0
  0
LINE
  5
14F7
330
1F
100
AcDbEntity
  8
SANINDUSA
100
AcDbLine
 10
4055.799860267678
 20
1640.876251035428
 30
0.0
 11
4055.817860274355
 21
1640.876251035428
 31
0.0
  0
LINE
  5
14F8
330
1F
100
AcDbEntity
  8
SANINDUSA
100
AcDbLine
 10
4055.799860267678
 20
1640.876251035428
 30
0.0
 11
4055.799860267678
 21
1640.911627196765
 31
0.0
  0
ARC
  5
14F9
330
1F
100
AcDbEntity
  8
SANINDUSA
100
AcDbCircle
 10
4055.804860275895
 20
1640.911627198375
 30
0.0
 40
0.0050000000000006
100
AcDbArc
 50
99.95185663395302
 51
180.0
  0
ARC
  5
14FA
330
1F
100
AcDbEntity
  8
SANINDUSA
100
AcDbCircle
 10
4055.800539760349
 20
1640.936251031249
 30
0.0
 40
0.020000000000001
100
AcDbArc
 50
279.951856633953
 51
323.1301023437339
  0
ARC
  5
14FB
330
1F
100
AcDbEntity
  8
SANINDUSA
100
AcDbCircle
 10
4055.820539760349
 20
1640.921251031249
 30
0.0
 40
0.0050000000000003
100
AcDbArc
 50
90.0
 51
143.1301023437339
  0
ARC
  5
14FC
330
1F
100
AcDbEntity
  8
SANINDUSA
100
AcDbCircle
 10
4055.827860268425
 20
1640.924251031249
 30
0.0
 40
0.0019999999999999
100
AcDbArc
 50
0.0
 51
90.0
  0
LINE
  5
14FD
330
1F
100
AcDbEntity
  8
SANINDUSA
100
AcDbLine
 10
4055.829860268871
 20
1640.924251028395
 30
0.0
 11
4055.829860268871
 21
1640.229251050448
 31
0.0
  0
ARC
  5
14FE
330
1F
100
AcDbEntity
  8
SANINDUSA
100
AcDbCircle
 10
4055.827860268425
 20
1640.229251031249
 30
0.0
 40
0.0020000000000005
100
AcDbArc
 50
270.0
 51
0.0
  0
ARC
  5
14FF
330
1F
100
AcDbEntity
  8
SANINDUSA
100
AcDbCircle
 10
4055.766191603654
 20
1640.229251031249
 30
0.0
 40
0.0020000000000005
100
AcDbArc
 50
180.0
 51
270.0
  0
LINE
  5
1500
330
1F
100
AcDbEntity
  8
SANINDUSA
100
AcDbLine
 10
4055.764191596547
 20
1640.235251032805
 30
0.0
 11
4055.764191596547
 21
1640.229251050448
 31
0.0
  0
ARC
  5
1501
330
1F
100
AcDbEntity
  8
SANINDUSA
100
AcDbCircle
 10
4055.766191603654
 20
1640.235251031249
 30
0.0
 40
0.0020000000000005
100
AcDbArc
 50
90.0
 51
180.0
  0
ARC
  5
1502
330
1F
100
AcDbEntity
  8
SANINDUSA
100
AcDbCircle
 10
4055.792860268424
 20
1640.242251031249
 30
0.0
 40
0.005
100
AcDbArc
 50
270.0
 51
0.0
  0
LINE
  5
1503
330
1F
100
AcDbEntity
  8
SANINDUSA
100
AcDbLine
 10
4055.797860263626
 20
1640.247251057124
 30
0.0
 11
4055.797860263626
 21
1640.242251002288
 31
0.0
  0
ARC
  5
1504
330
1F
100
AcDbEntity
  8
SANINDUSA
100
AcDbCircle
 10
4055.807860268425
 20
1640.247251031249
 30
0.0
 40
0.01
100
AcDbArc
 50
90.0
 51
180.0
  0
LINE
  5
1505
330
1F
100
AcDbEntity
  8
SANINDUSA
100
AcDbLine
 10
4055.812860279123
 20
1640.257251047587
 30
0.0
 11
4055.807860254089
 21
1640.257251047587
 31
0.0
  0
LINE
  5
1506
330
1F
100
AcDbEntity
  8
SANINDUSA
100
AcDbLine
 10
4055.827860264818
 20
1640.227251016593
 30
0.0
 11
4055.766191600601
 21
1640.227251016593
 31
0.0
  0
LINE
  5
1507
330
1F
100
AcDbEntity
  8
SANINDUSA
100
AcDbLine
 10
4055.792860268394
 20
1640.237251007056
 30
0.0
 11
4055.766191600601
 21
1640.237251007056
 31
0.0
  0
LINE
  5
1508
330
1F
100
AcDbEntity
  8
SANINDUSA
100
AcDbLine
 10
4055.827860264818
 20
1640.926251032448
 30
0.0
 11
4055.820539771358
 21
1640.926251032448
 31
0.0
  0
ARC
  5
1509
330
1F
100
AcDbEntity
  8
SANINDUSA
100
AcDbCircle
 10
4055.804860292654
 20
1640.911627181665
 30
0.0
 40
0.0050000249751486
100
AcDbArc
 50
99.95198292055091
 51
179.9998269680547
  0
LINE
  5
150D
330
1F
100
AcDbEntity
  8
SANINDUSA
100
AcDbLine
 10
4055.817860244552
 20
1640.262251042819
 30
0.0
 11
4055.817860244552
 21
1640.876251035428
 31
0.0
  0
LINE
  5
1513
330
1F
100
AcDbEntity
  8
SANINDUSA
100
AcDbLine
 10
4055.817860244552
 20
1640.237251007056
 30
0.0
 11
4055.817860244552
 21
1640.247251057124
 31
0.0
  0
SPLINE
  5
1515
330
1F
100
AcDbEntity
  8
SANINDUSA
100
AcDbSpline
210
0.0
220
0.0
230
1.0
 70
     8
 71
     3
 72
    12
 73
     8
 74
     0
 42
0.0000000001
 43
0.0000000001
 40
0.0
 40
0.0
 40
0.0
 40
0.0
 40
0.2146998364018258
 40
0.4293855891006261
 40
0.6440755246328914
 40
0.8587721940408059
 40
1.0
 40
1.0
 40
1.0
 40
1.0
 10
4055.764191581647
 20
1640.235251032805
 30
0.0
 10
4055.764213688331
 20
1640.23547588706
 30
0.0
 10
4055.764257900252
 20
1640.235925580818
 30
0.0
 10
4055.764602731112
 20
1640.23652491989
 30
0.0
 10
4055.76511023063
 20
1640.236977189734
 30
0.0
 10
4055.765672555962
 20
1640.237216910515
 30
0.0
 10
4055.766044143087
 20
1640.237241321131
 30
0.0
 10
4055.766191585699
 20
1640.237251007056
 30
0.0
  0
SPLINE
  5
1517
330
1F
100
AcDbEntity
  8
SANINDUSA
100
AcDbSpline
210
0.0
220
0.0
230
1.0
 70
     8
 71
     3
 72
    12
 73
     8
 74
     0
 42
0.0000000001
 43
0.0000000001
 40
0.0
 40
0.0
 40
0.0
 40
0.0
 40
0.2146948550673395
 40
0.4293847474931378
 40
0.6440724075834301
 40
0.858772381937735
 40
0.9999999999999998
 40
0.9999999999999998
 40
0.9999999999999998
 40
0.9999999999999998
 10
4055.766191585699
 20
1640.227251016593
 30
0.0
 10
4055.765966737714
 20
1640.22727313875
 30
0.0
 10
4055.765517046941
 20
1640.227317382553
 30
0.0
 10
4055.764917693834
 20
1640.227662172395
 30
0.0
 10
4055.764465373483
 20
1640.228169661849
 30
0.0
 10
4055.76422572926
 20
1640.228732021333
 30
0.0
 10
4055.764201282009
 20
1640.229103609078
 30
0.0
 10
4055.764191581647
 20
1640.229251050448
 30
0.0
  0
LINE
  5
1519
330
1F
100
AcDbEntity
  8
SANINDUSA
100
AcDbLine
 10
4055.766191585699
 20
1640.227251016593
 30
0.0
 11
4055.766191600601
 21
1640.227251016593
 31
0.0
  0
LINE
  5
151A
330
1F
100
AcDbEntity
  8
SANINDUSA
100
AcDbLine
 10
4055.764191581647
 20
1640.235251032805
 30
0.0
 11
4055.764191581647
 21
1640.229251050448
 31
0.0
  0
LINE
  5
151E
330
1F
100
AcDbEntity
  8
SANINDUSA
100
AcDbLine
 10
4055.766191585699
 20
1640.237251007056
 30
0.0
 11
4055.722279532591
 21
1640.237251007056
 31
0.0
  0
LINE
  5
1522
330
1F
100
AcDbEntity
  8
SANINDUSA
100
AcDbLine
 10
4055.722279532591
 20
1640.227251016593
 30
0.0
 11
4055.766191585699
 21
1640.227251016593
 31
0.0
  0
LINE
  5
1523
330
1F
100
AcDbEntity
  8
SANINDUSA
100
AcDbLine
 10
4055.820539741556
 20
1640.926251032448
 30
0.0
 11
4055.808117030898
 21
1640.926251032448
 31
0.0
  0
LINE
  5
152E
330
1F
100
AcDbEntity
  8
SANINDUSA
100
AcDbLine
 10
4055.799860267678
 20
1640.876251035428
 30
0.0
 11
4055.774789853732
 21
1640.876251035428
 31
0.0
  0
LINE
  5
1568
330
1F
100
AcDbEntity
  8
SANINDUSA
100
AcDbLine
 10
4055.651860265771
 20
1640.227251016593
 30
0.0
 11
4055.722279532591
 21
1640.227251016593
 31
0.0
  0
LINE
  5
156B
330
1F
100
AcDbEntity
  8
SANINDUSA
100
AcDbLine
 10
4055.722279532591
 20
1640.237251007056
 30
0.0
 11
4055.651860265771
 21
1640.237251007056
 31
0.0
  0
LINE
  5
157E
330
1F
100
AcDbEntity
  8
SANINDUSA
100
AcDbLine
 10
4055.649860269169
 20
1640.712454372144
 30
0.0
 11
4055.649860269169
 21
1640.68204768846
 31
0.0
  0
LINE
  5
1583
330
1F
100
AcDbEntity
  8
SANINDUSA
100
AcDbLine
 10
4055.649860269169
 20
1640.472454392409
 30
0.0
 11
4055.649860269169
 21
1640.442047678924
 31
0.0
  0
LINE
  5
158A
330
1F
100
AcDbEntity
  8
SANINDUSA
100
AcDbLine
 10
4055.764441563527
 20
1640.876251035428
 30
0.0
 11
4055.774789853732
 21
1640.876251035428
 31
0.0
  0
ARC
  5
158C
330
1F
100
AcDbEntity
  8
SANINDUSA
100
AcDbCircle
 10
4055.651860265771
 20
1640.235251031249
 30
0.0
 40
0.0020000000000005
100
AcDbArc
 50
90.0
 51
180.0
  0
ARC
  5
158D
330
1F
100
AcDbEntity
  8
SANINDUSA
100
AcDbCircle
 10
4055.651860265771
 20
1640.229251031249
 30
0.0
 40
0.0020000000000005
100
AcDbArc
 50
180.0
 51
270.0
  0
LINE
  5
158F
330
1F
100
AcDbEntity
  8
SANINDUSA
100
AcDbLine
 10
4055.649860269169
 20
1640.235251032805
 30
0.0
 11
4055.649860269169
 21
1640.229251050448
 31
0.0
  0
LINE
  5
15B1
330
1F
100
AcDbEntity
  8
SANINDUSA
100
AcDbLine
 10
4055.649860269169
 20
1640.242251002288
 30
0.0
 11
4055.649860269169
 21
1640.235251032805
 31
0.0
  0
LINE
  5
15BE
330
1F
100
AcDbEntity
  8
SANINDUSA
100
AcDbLine
 10
4055.649860269169
 20
1640.904381879663
 30
0.0
 11
4055.649860269169
 21
1640.712454372144
 31
0.0
  0
LINE
  5
15BF
330
1F
100
AcDbEntity
  8
SANINDUSA
100
AcDbLine
 10
4055.649860269169
 20
1640.68204768846
 30
0.0
 11
4055.649860269169
 21
1640.472454392409
 31
0.0
  0
LINE
  5
15C0
330
1F
100
AcDbEntity
  8
SANINDUSA
100
AcDbLine
 10
4055.649860269169
 20
1640.442047678924
 30
0.0
 11
4055.649860269169
 21
1640.242251002288
 31
0.0
  0
SPLINE
  5
15C1
330
1F
100
AcDbEntity
  8
SANINDUSA
100
AcDbSpline
210
0.0
220
0.0
230
1.0
 70
     8
 71
     3
 72
     9
 73
     5
 74
     0
 42
0.0000000001
 43
0.0000000001
 40
0.0
 40
0.0
 40
0.0
 40
0.0
 40
0.3710228024176311
 40
1.0
 40
1.0
 40
1.0
 40
1.0
 10
4055.977188854257
 20
1641.029808369523
 30
0.0
 10
4055.97580090449
 20
1641.026635603476
 30
0.0
 10
4055.97206002992
 20
1641.018084199017
 30
0.0
 10
4055.967748819173
 20
1641.009803595317
 30
0.0
 10
4055.96503716592
 20
1641.004595284408
 30
0.0
  0
ARC
  5
15C4
330
1F
100
AcDbEntity
  8
SANINDUSA
100
AcDbCircle
 10
4055.97102178343
 20
1641.061477262473
 30
0.0
 40
0.0050000000000065
100
AcDbArc
 50
90.0
 51
168.1805096467514
  0
SPLINE
  5
15C5
330
1F
100
AcDbEntity
  8
SANINDUSA
100
AcDbSpline
210
0.0
220
0.0
230
1.0
 70
    24
 71
     3
 72
    36
 73
    32
 74
     0
 42
0.0000000001
 43
0.0000000001
 40
0.0
 40
0.0
 40
0.0
 40
0.0
 40
0.0348388193278696
 40
0.0696770672226282
 40
0.1061898678979326
 40
0.1427897160495112
 40
0.1794078997841944
 40
0.2159867023003953
 40
0.2524818104496778
 40
0.28478086995716
 40
0.3171669273357302
 40
0.3495720360546351
 40
0.3819382727342158
 40
0.4142206134606637
 40
0.4474469949046246
 40
0.4807935223969902
 40
0.5141756219527716
 40
0.547512167983106
 40
0.5807300590994624
 40
0.613858078190567
 40
0.6470929053877452
 40
0.6803759107701454
 40
0.71363330263839
 40
0.746780311497575
 40
0.7778305124256227
 40
0.8089224219835216
 40
0.8400222817787065
 40
0.8710833131286404
 40
0.9140380574490441
 40
0.9570324955165833
 40
0.9999999999999998
 40
0.9999999999999998
 40
0.9999999999999998
 40
0.9999999999999998
 10
4055.971021770278
 20
1641.066477262473
 30
0.0
 10
4055.970948006295
 20
1641.066477262473
 30
0.0
 10
4055.970800479536
 20
1641.066477262473
 30
0.0
 10
4055.969577033836
 20
1641.066477262473
 30
0.0
 10
4055.967543852874
 20
1641.066477262473
 30
0.0
 10
4055.964563677276
 20
1641.066477262473
 30
0.0
 10
4055.960671328754
 20
1641.066477262473
 30
0.0
 10
4055.955844747328
 20
1641.066477262473
 30
0.0
 10
4055.950287381623
 20
1641.066477262473
 30
0.0
 10
4055.944086917121
 20
1641.066477262473
 30
0.0
 10
4055.937357336757
 20
1641.066477262473
 30
0.0
 10
4055.929846581754
 20
1641.066477262473
 30
0.0
 10
4055.921565781725
 20
1641.066477262473
 30
0.0
 10
4055.912431649053
 20
1641.066477262473
 30
0.0
 10
4055.902390640956
 20
1641.066477262473
 30
0.0
 10
4055.891450609816
 20
1641.066477262473
 30
0.0
 10
4055.879762918126
 20
1641.066477262473
 30
0.0
 10
4055.867400426165
 20
1641.066477262473
 30
0.0
 10
4055.854424053509
 20
1641.066477262473
 30
0.0
 10
4055.84086327253
 20
1641.066477262473
 30
0.0
 10
4055.82679466243
 20
1641.066477262473
 30
0.0
 10
4055.812290094452
 20
1641.066477262473
 30
0.0
 10
4055.797454972863
 20
1641.066477262473
 30
0.0
 10
4055.782679499819
 20
1641.066477262473
 30
0.0
 10
4055.76803605675
 20
1641.066477262473
 30
0.0
 10
4055.75357793524
 20
1641.066477262473
 30
0.0
 10
4055.739032852302
 20
1641.066477262473
 30
0.0
 10
4055.722584935909
 20
1641.066477262473
 30
0.0
 10
4055.704256816467
 20
1641.066477262473
 30
0.0
 10
4055.68410216029
 20
1641.066477262473
 30
0.0
 10
4055.670757383544
 20
1641.066477262473
 30
0.0
 10
4055.664087085763
 20
1641.066477262473
 30
0.0
  0
ARC
  5
15C6
330
1F
100
AcDbEntity
  8
SANINDUSA
100
AcDbCircle
 10
4055.965442416162
 20
1640.995477262473
 30
0.0
 40
0.0040000000000057
100
AcDbArc
 50
202.0243128373296
 51
270.0
  0
ARC
  5
15C8
330
1F
100
AcDbEntity
  8
SANINDUSA
100
AcDbCircle
 10
4055.958026217676
 20
1640.992477262473
 30
0.0
 40
0.0040000000000214
100
AcDbArc
 50
22.02431283732964
 51
90.0
  0
ARC
  5
15C9
330
1F
100
AcDbEntity
  8
SANINDUSA
100
AcDbCircle
 10
4055.966323804212
 20
1640.996477262473
 30
0.0
 40
0.0050000000000001
100
AcDbArc
 50
270.0
 51
331.0630827762038
  0
ARC
  5
15CA
330
1F
100
AcDbEntity
  8
SANINDUSA
100
AcDbCircle
 10
4055.958026217676
 20
1640.992477262473
 30
0.0
 40
0.0140000000000037
100
AcDbArc
 50
59.94819823664824
 51
90.0
  0
SPLINE
  5
15CB
330
1F
100
AcDbEntity
  8
SANINDUSA
100
AcDbSpline
210
0.0
220
0.0
230
1.0
 70
     8
 71
     3
 72
    12
 73
     8
 74
     0
 42
0.0000000001
 43
0.0000000001
 40
0.0
 40
0.0
 40
0.0
 40
0.0
 40
0.2197648443190466
 40
0.4396584402899239
 40
0.6653148546856603
 40
0.8910021306202866
 40
0.9999999999999998
 40
0.9999999999999998
 40
0.9999999999999998
 40
0.9999999999999998
 10
4055.974999456445
 20
1641.056477262696
 30
0.0
 10
4055.973884714888
 20
1641.052569730412
 30
0.0
 10
4055.971654578691
 20
1641.044752376573
 30
0.0
 10
4055.966902344183
 20
1641.033390514326
 30
0.0
 10
4055.961379665078
 20
1641.022281876264
 30
0.0
 10
4055.956161459127
 20
1641.01332832832
 30
0.0
 10
4055.952765950357
 20
1641.008160338012
 30
0.0
 10
4055.951660125295
 20
1641.006477263814
 30
0.0
  0
SPLINE
  5
15CC
330
1F
100
AcDbEntity
  8
SANINDUSA
100
AcDbSpline
210
0.0
220
0.0
230
1.0
 70
     8
 71
     3
 72
    16
 73
    12
 74
     0
 42
0.0000000001
 43
0.0000000001
 40
0.0
 40
0.0
 40
0.0
 40
0.0
 40
0.1028610419313012
 40
0.2057075157685906
 40
0.3109809524601518
 40
0.4162538691925477
 40
0.5309353613423627
 40
0.6456292937489772
 40
0.7633108451994016
 40
0.8810147501580361
 40
1.0
 40
1.0
 40
1.0
 40
1.0
 10
4055.943016736547
 20
1640.994563960529
 30
0.0
 10
4055.940349879893
 20
1640.991298281477
 30
0.0
 10
4055.935016544291
 20
1640.984767385888
 30
0.0
 10
4055.926082869483
 20
1640.975657241759
 30
0.0
 10
4055.916424927573
 20
1640.967177996204
 30
0.0
 10
4055.905725286535
 20
1640.959210013581
 30
0.0
 10
4055.894068303951
 20
1640.951959437648
 30
0.0
 10
4055.881400451919
 20
1640.945463231006
 30
0.0
 10
4055.868135046015
 20
1640.939974076036
 30
0.0
 10
4055.854352005672
 20
1640.935357205983
 30
0.0
 10
4055.844934313827
 20
1640.933029781868
 30
0.0
 10
4055.840199976007
 20
1640.931859769916
 30
0.0
  0
SPLINE
  5
15CD
330
1F
100
AcDbEntity
  8
SANINDUSA
100
AcDbSpline
210
0.0
220
0.0
230
1.0
 70
     8
 71
     3
 72
     9
 73
     5
 74
     0
 42
0.0000000001
 43
0.0000000001
 40
0.0
 40
0.0
 40
0.0
 40
0.0
 40
0.4995510353170076
 40
1.0
 40
1.0
 40
1.0
 40
1.0
 10
4055.828325657884
 20
1640.929402002192
 30
0.0
 10
4055.821855358835
 20
1640.92832464983
 30
0.0
 10
4055.808903130551
 20
1640.926168008596
 30
0.0
 10
4055.795848631233
 20
1640.924756790704
 30
0.0
 10
4055.789315520565
 20
1640.924050548172
 30
0.0
  0
SPLINE
  5
15CE
330
1F
100
AcDbEntity
  8
SANINDUSA
100
AcDbSpline
210
0.0
220
0.0
230
1.0
 70
     8
 71
     3
 72
    25
 73
    21
 74
     0
 42
0.0000000001
 43
0.0000000001
 40
0.0
 40
0.0
 40
0.0
 40
0.0
 40
0.0079356704293363
 40
0.0560650744180058
 40
0.1103924448695547
 40
0.1660549971416938
 40
0.225260436003012
 40
0.2859912900476121
 40
0.3484931292810911
 40
0.4130402142938294
 40
0.4716142570390424
 40
0.5321610521295641
 40
0.5866270769555611
 40
0.6426501420693299
 40
0.6977935606036394
 40
0.7541938798024441
 40
0.8157603216256454
 40
0.8792358624005082
 40
0.93868508905412
 40
0.9999999999999998
 40
0.9999999999999998
 40
0.9999999999999998
 40
0.9999999999999998
 10
4055.781033812801
 20
1640.933205687499
 30
0.0
 10
4055.781016367849
 20
1640.93320415624
 30
0.0
 10
4055.780893120226
 20
1640.933193337986
 30
0.0
 10
4055.779918397296
 20
1640.933115336334
 30
0.0
 10
4055.778004706832
 20
1640.932990842078
 30
0.0
 10
4055.775063953317
 20
1640.932853914428
 30
0.0
 10
4055.771266096467
 20
1640.932759307755
 30
0.0
 10
4055.766590814459
 20
1640.932728815097
 30
0.0
 10
4055.761123216834
 20
1640.932746746931
 30
0.0
 10
4055.755177778332
 20
1640.932763491105
 30
0.0
 10
4055.748959717771
 20
1640.932731219623
 30
0.0
 10
4055.742954081531
 20
1640.932631005074
 30
0.0
 10
4055.737115122715
 20
1640.932464367231
 30
0.0
 10
4055.731689631928
 20
1640.932250813205
 30
0.0
 10
4055.726560252929
 20
1640.932049414486
 30
0.0
 10
4055.721715826237
 20
1640.931924318316
 30
0.0
 10
4055.717290222385
 20
1640.931839393398
 30
0.0
 10
4055.713662606879
 20
1640.931800244116
 30
0.0
 10
4055.710932387125
 20
1640.931783348108
 30
0.0
 10
4055.710031740291
 20
1640.931773816548
 30
0.0
 10
4055.709574459831
 20
1640.931768977141
 30
0.0
  0
SPLINE
  5
15D0
330
1F
100
AcDbEntity
  8
SANINDUSA
100
AcDbSpline
210
0.0
220
0.0
230
1.0
 70
     8
 71
     3
 72
    27
 73
    23
 74
     0
 42
0.0000000001
 43
0.0000000001
 40
0.0
 40
0.0
 40
0.0
 40
0.0
 40
0.0360522558315292
 40
0.0722018755558983
 40
0.1084041921172967
 40
0.1445285206078863
 40
0.1955931250394766
 40
0.2468583441131831
 40
0.2981602140883426
 40
0.3493648720771567
 40
0.4003785372130547
 40
0.4488835345027245
 40
0.4975839828039891
 40
0.5463772384682355
 40
0.5951272897281955
 40
0.6436739335380519
 40
0.6995229771364705
 40
0.7554424568391751
 40
0.8113285426661811
 40
0.8741956028695438
 40
0.9370962684788322
 40
0.9999999999999998
 40
0.9999999999999998
 40
0.9999999999999998
 40
0.9999999999999998
 10
4055.966127781908
 20
1641.062501407752
 30
0.0
 10
4055.965452776131
 20
1641.059657892523
 30
0.0
 10
4055.964100941638
 20
1641.053963182775
 30
0.0
 10
4055.961186584261
 20
1641.045664043365
 30
0.0
 10
4055.957773511733
 20
1641.037562047213
 30
0.0
 10
4055.953363548374
 20
1641.028585556796
 30
0.0
 10
4055.947865757064
 20
1641.01879938612
 30
0.0
 10
4055.941055128699
 20
1641.008370254824
 30
0.0
 10
4055.93353722075
 20
1640.998423570571
 30
0.0
 10
4055.925333656237
 20
1640.989060532739
 30
0.0
 10
4055.916607458773
 20
1640.980500088244
 30
0.0
 10
4055.907364877199
 20
1640.972813876079
 30
0.0
 10
4055.897695007495
 20
1640.965982360702
 30
0.0
 10
4055.887530127054
 20
1640.959875521512
 30
0.0
 10
4055.876966986075
 20
1640.954515056405
 30
0.0
 10
4055.8655261968
 20
1640.949689061576
 30
0.0
 10
4055.853216102305
 20
1640.945512798166
 30
0.0
 10
4055.840092635523
 20
1640.941981700485
 30
0.0
 10
4055.826239548085
 20
1640.939061816118
 30
0.0
 10
4055.811698728932
 20
1640.936759520032
 30
0.0
 10
4055.796525294816
 20
1640.934904865796
 30
0.0
 10
4055.786394536974
 20
1640.933789086586
 30
0.0
 10
4055.781329034607
 20
1640.933231183386
 30
0.0
  0
LINE
  5
15D1
330
1F
100
AcDbEntity
  8
SANINDUSA
100
AcDbLine
 10
4055.83787256364
 20
1640.923477255797
 30
0.0
 11
4055.83787256364
 21
1640.928936147189
 31
0.0
  0
LINE
  5
15D3
330
1F
100
AcDbEntity
  8
SANINDUSA
100
AcDbLine
 10
4055.831872551481
 20
1640.92645227263
 30
0.0
 11
4055.831872551481
 21
1640.923477255797
 31
0.0
  0
ARC
  5
15D4
330
1F
100
AcDbEntity
  8
SANINDUSA
100
AcDbCircle
 10
4055.828872566939
 20
1640.926452275229
 30
0.0
 40
0.0030000000000038
100
AcDbArc
 50
0.0
 51
100.5042011655753
  0
SPLINE
  5
15D5
330
1F
100
AcDbEntity
  8
SANINDUSA
100
AcDbSpline
210
0.0
220
0.0
230
1.0
 70
     8
 71
     3
 72
    11
 73
     7
 74
     0
 42
0.0000000001
 43
0.0000000001
 40
0.0
 40
0.0
 40
0.0
 40
0.0
 40
0.2454931943150713
 40
0.4909855574223866
 40
0.7364793706358776
 40
1.0
 40
1.0
 40
1.0
 40
1.0
 10
4055.789315520565
 20
1640.924050548172
 30
0.0
 10
4055.788208564971
 20
1640.923818411587
 30
0.0
 10
4055.785994657531
 20
1640.923354139203
 30
0.0
 10
4055.783224501523
 20
1640.921313254258
 30
0.0
 10
4055.781121596259
 20
1640.918480797959
 30
0.0
 10
4055.780673522451
 20
1640.916175126576
 30
0.0
 10
4055.780441551248
 20
1640.914981463051
 30
0.0
  0
LINE
  5
15D6
330
1F
100
AcDbEntity
  8
SANINDUSA
100
AcDbLine
 10
4055.781329034607
 20
1640.933231183386
 30
0.0
 11
4055.781329004804
 21
1640.933231183386
 31
0.0
  0
LWPOLYLINE
  5
15D7
330
1F
100
AcDbEntity
  8
SANINDUSA
100
AcDbPolyline
 90
        3
 70
   128
 43
0.0
 10
4055.767360224168
 20
1640.921088331437
 10
4055.77028763179
 20
1640.92363307724
 10
4055.781329004804
 20
1640.933231183386
  0
LINE
  5
15D8
330
1F
100
AcDbEntity
  8
SANINDUSA
100
AcDbLine
 10
4055.767360224168
 20
1640.921088331437
 30
0.0
 11
4055.721360309759
 21
1640.921088331437
 31
0.0
  0
LINE
  5
15D9
330
1F
100
AcDbEntity
  8
SANINDUSA
100
AcDbLine
 10
4055.709084420244
 20
1640.931759574509
 30
0.0
 11
4055.721360309759
 21
1640.921088331437
 31
0.0
  0
LINE
  5
15DB
330
1F
100
AcDbEntity
  8
SANINDUSA
100
AcDbLine
 10
4055.828325657884
 20
1640.929402002192
 30
0.0
 11
4055.828325628082
 21
1640.929402002192
 31
0.0
  0
SPLINE
  5
15DD
330
1F
100
AcDbEntity
  8
SANINDUSA
100
AcDbSpline
210
0.0
220
0.0
230
1.0
 70
     8
 71
     3
 72
     9
 73
     5
 74
     0
 42
0.0000000001
 43
0.0000000001
 40
0.0
 40
0.0
 40
0.0
 40
0.0
 40
0.4997392086470337
 40
0.9999999999999998
 40
0.9999999999999998
 40
0.9999999999999998
 40
0.9999999999999998
 10
4055.789315490762
 20
1640.924050548172
 30
0.0
 10
4055.795839333764
 20
1640.924755767299
 30
0.0
 10
4055.808893828767
 20
1640.926166941598
 30
0.0
 10
4055.821846109748
 20
1640.928323273758
 30
0.0
 10
4055.828325628082
 20
1640.929402002192
 30
0.0
  0
LINE
  5
15DF
330
1F
100
AcDbEntity
  8
SANINDUSA
100
AcDbLine
 10
4055.840199946205
 20
1640.931859769916
 30
0.0
 11
4055.840199976007
 21
1640.931859769916
 31
0.0
  0
LINE
  5
15E3
330
1F
100
AcDbEntity
  8
SANINDUSA
100
AcDbLine
 10
4055.674032597582
 20
1640.92300722847
 30
0.0
 11
4055.698811067979
 21
1640.922050603723
 31
0.0
  0
LINE
  5
15E4
330
1F
100
AcDbEntity
  8
SANINDUSA
100
AcDbLine
 10
4055.67449276034
 20
1640.932996624207
 30
0.0
 11
4055.709084420244
 21
1640.931759574509
 31
0.0
  0
SPLINE
  5
15E5
330
1F
100
AcDbEntity
  8
SANINDUSA
100
AcDbSpline
210
0.0
220
0.0
230
1.0
 70
     8
 71
     3
 72
    11
 73
     7
 74
     0
 42
0.0000000001
 43
0.0000000001
 40
0.0
 40
0.0
 40
0.0
 40
0.0
 40
0.199791991929349
 40
0.4997728671788129
 40
0.749651813680989
 40
1.0
 40
1.0
 40
1.0
 40
1.0
 10
4055.99970129017
 20
1641.059880816901
 30
0.0
 10
4055.998184046813
 20
1641.055524375195
 30
0.0
 10
4055.994388714196
 20
1641.044626884554
 30
0.0
 10
4055.987825478699
 20
1641.028601901738
 30
0.0
 10
4055.980117629187
 20
1641.011804216759
 30
0.0
 10
4055.97472504774
 20
1641.001589441039
 30
0.0
 10
4055.972026227752
 20
1640.996477262175
 30
0.0
  0
LINE
  5
15E7
330
1F
100
AcDbEntity
  8
SANINDUSA
100
AcDbLine
 10
4055.972026227752
 20
1640.996477262175
 30
0.0
 11
4055.970699577371
 21
1640.994058028853
 31
0.0
  0
SPLINE
  5
15E9
330
1F
100
AcDbEntity
  8
SANINDUSA
100
AcDbSpline
210
0.0
220
0.0
230
1.0
 70
     8
 71
     3
 72
    10
 73
     6
 74
     0
 42
0.0000000001
 43
0.0000000001
 40
0.0
 40
0.0
 40
0.0
 40
0.0
 40
0.3723585872619045
 40
0.7447231249001493
 40
1.0
 40
1.0
 40
1.0
 40
1.0
 10
4055.946950196068
 20
1640.996477262175
 30
0.0
 10
4055.946389390811
 20
1640.996421070957
 30
0.0
 10
4055.945267771338
 20
1640.996308687623
 30
0.0
 10
4055.943908871506
 20
1640.995549321094
 30
0.0
 10
4055.943274657039
 20
1640.99484885639
 30
0.0
 10
4055.943016706744
 20
1640.994563960529
 30
0.0
  0
SPLINE
  5
15EA
330
1F
100
AcDbEntity
  8
SANINDUSA
100
AcDbSpline
210
0.0
220
0.0
230
1.0
 70
     8
 71
     3
 72
    11
 73
     7
 74
     0
 42
0.0000000001
 43
0.0000000001
 40
0.0
 40
0.0
 40
0.0
 40
0.0
 40
0.2508809824292943
 40
0.5017663430853157
 40
0.7526539276608519
 40
1.0
 40
1.0
 40
1.0
 40
1.0
 10
4055.840199946205
 20
1640.931859769916
 30
0.0
 10
4055.839878294872
 20
1640.931751806987
 30
0.0
 10
4055.839234986593
 20
1640.931535879243
 30
0.0
 10
4055.838480931487
 20
1640.930830639019
 30
0.0
 10
4055.837969524286
 20
1640.929939494478
 30
0.0
 10
4055.837904730334
 20
1640.929269007649
 30
0.0
 10
4055.83787256364
 20
1640.928936147189
 30
0.0
  0
SPLINE
  5
15EB
330
1F
100
AcDbEntity
  8
SANINDUSA
100
AcDbSpline
210
0.0
220
0.0
230
1.0
 70
     8
 71
     3
 72
    13
 73
     9
 74
     0
 42
0.0000000001
 43
0.0000000001
 40
0.0
 40
0.0
 40
0.0
 40
0.0
 40
0.0332449475655966
 40
0.2478602787855887
 40
0.3821834995067817
 40
0.5968008802257434
 40
0.8114138991814414
 40
1.0
 40
1.0
 40
1.0
 40
1.0
 10
4055.83487254266
 20
1640.920477264619
 30
0.0
 10
4055.834924540577
 20
1640.920478118851
 30
0.0
 10
4055.835312215073
 20
1640.920484487644
 30
0.0
 10
4055.835909262786
 20
1640.920622050591
 30
0.0
 10
4055.836690231334
 20
1640.921042161495
 30
0.0
 10
4055.837333186854
 20
1640.921667441039
 30
0.0
 10
4055.837791885258
 20
1640.922548211228
 30
0.0
 10
4055.8378468536
 20
1640.923181194174
 30
0.0
 10
4055.83787256364
 20
1640.923477255797
 30
0.0
  0
SPLINE
  5
15EC
330
1F
100
AcDbEntity
  8
SANINDUSA
100
AcDbSpline
210
0.0
220
0.0
230
1.0
 70
     8
 71
     3
 72
    13
 73
     9
 74
     0
 42
0.0000000001
 43
0.0000000001
 40
0.0
 40
0.0
 40
0.0
 40
0.0
 40
0.0794486957391746
 40
0.2939919814338631
 40
0.5085324596089676
 40
0.6428146679140206
 40
0.8573517725099716
 40
1.0
 40
1.0
 40
1.0
 40
1.0
 10
4055.831872551481
 20
1640.923477255797
 30
0.0
 10
4055.83187729526
 20
1640.92335289792
 30
0.0
 10
4055.831894849141
 20
1640.922892723987
 30
0.0
 10
4055.83213731258
 20
1640.922114931609
 30
0.0
 10
4055.832665740534
 20
1640.92138805551
 30
0.0
 10
4055.833363261921
 20
1640.920842384949
 30
0.0
 10
4055.834089149429
 20
1640.920529055579
 30
0.0
 10
4055.834648968924
 20
1640.920492045316
 30
0.0
 10
4055.83487254266
 20
1640.920477264619
 30
0.0
  0
LINE
  5
15ED
330
1F
100
AcDbEntity
  8
SANINDUSA
100
AcDbLine
 10
4055.777860223094
 20
1640.885477268195
 30
0.0
 11
4055.767360224168
 21
1640.885477268195
 31
0.0
  0
LINE
  5
15EE
330
1F
100
AcDbEntity
  8
SANINDUSA
100
AcDbLine
 10
4055.767360224168
 20
1640.885477268195
 30
0.0
 11
4055.767360224168
 21
1640.921088331437
 31
0.0
  0
LINE
  5
15F0
330
1F
100
AcDbEntity
  8
SANINDUSA
100
AcDbLine
 10
4055.946950196068
 20
1640.996477262175
 30
0.0
 11
4055.958026229183
 21
1640.996477262175
 31
0.0
  0
LINE
  5
15F1
330
1F
100
AcDbEntity
  8
SANINDUSA
100
AcDbLine
 10
4055.9654424179
 20
1640.991477259493
 30
0.0
 11
4055.966323791782
 21
1640.991477259493
 31
0.0
  0
LINE
  5
15F2
330
1F
100
AcDbEntity
  8
SANINDUSA
100
AcDbLine
 10
4055.951660125295
 20
1641.006477263814
 30
0.0
 11
4055.958026229183
 21
1641.006477263814
 31
0.0
  0
LINE
  5
15F3
330
1F
100
AcDbEntity
  8
SANINDUSA
100
AcDbLine
 10
4055.971021770278
 20
1641.066477262473
 30
0.0
 11
4055.994962989131
 21
1641.066477262473
 31
0.0
  0
LINE
  5
15F4
330
1F
100
AcDbEntity
  8
SANINDUSA
100
AcDbLine
 10
4055.974999456445
 20
1641.056477262696
 30
0.0
 11
4055.987936257163
 21
1641.056477262696
 31
0.0
  0
LINE
  5
15F5
330
1F
100
AcDbEntity
  8
SANINDUSA
100
AcDbLine
 10
4055.970699577371
 20
1640.994058028853
 30
0.0
 11
4055.972026227752
 21
1640.996477262175
 31
0.0
  0
SPLINE
  5
15F6
330
1F
100
AcDbEntity
  8
SANINDUSA
100
AcDbSpline
210
0.0
220
0.0
230
1.0
 70
     8
 71
     3
 72
    16
 73
    12
 74
     0
 42
0.0000000001
 43
0.0000000001
 40
0.0
 40
0.0
 40
0.0
 40
0.0
 40
0.1159316313099982
 40
0.2318634025981441
 40
0.3477951580748013
 40
0.4637269208662584
 40
0.5796587877858234
 40
0.69559038974662
 40
0.8115221697229941
 40
0.9274540821289257
 40
1.0
 40
1.0
 40
1.0
 40
1.0
 10
4055.650243877212
 20
1640.946236827469
 30
0.0
 10
4055.6504117773
 20
1640.944839719807
 30
0.0
 10
4055.650747577678
 20
1640.942045502796
 30
0.0
 10
4055.652124271271
 20
1640.938032715811
 30
0.0
 10
4055.654117147981
 20
1640.934304565591
 30
0.0
 10
4055.656709606605
 20
1640.930957425345
 30
0.0
 10
4055.659833525857
 20
1640.928103925103
 30
0.0
 10
4055.66338520425
 20
1640.92580042164
 30
0.0
 10
4055.667278471487
 20
1640.924149670647
 30
0.0
 10
4055.670878251844
 20
1640.923251443123
 30
0.0
 10
4055.673155915255
 20
1640.923075102662
 30
0.0
 10
4055.674032597582
 20
1640.92300722847
 30
0.0
  0
LINE
  5
15F8
330
1F
100
AcDbEntity
  8
SANINDUSA
100
AcDbLine
 10
4055.721360309759
 20
1640.921088331437
 30
0.0
 11
4055.721360309759
 21
1640.90938630054
 31
0.0
  0
SPLINE
  5
15F9
330
1F
100
AcDbEntity
  8
SANINDUSA
100
AcDbSpline
210
0.0
220
0.0
230
1.0
 70
     8
 71
     3
 72
    12
 73
     8
 74
     0
 42
0.0000000001
 43
0.0000000001
 40
0.0
 40
0.0
 40
0.0
 40
0.0
 40
0.2087175481358455
 40
0.4174315684327702
 40
0.6261430586785816
 40
0.8348500673085345
 40
1.0
 40
1.0
 40
1.0
 40
1.0
 10
4055.720315172115
 20
1640.908387311792
 30
0.0
 10
4055.720427980403
 20
1640.908393282651
 30
0.0
 10
4055.720653595069
 20
1640.908405224266
 30
0.0
 10
4055.72096078493
 20
1640.90856394092
 30
0.0
 10
4055.721198016788
 20
1640.908807194259
 30
0.0
 10
4055.721337569366
 20
1640.909096581243
 30
0.0
 10
4055.721353342177
 20
1640.909297531501
 30
0.0
 10
4055.721360309759
 20
1640.90938630054
 30
0.0
  0
LINE
  5
15FA
330
1F
100
AcDbEntity
  8
SANINDUSA
100
AcDbLine
 10
4055.720315172115
 20
1640.908387311792
 30
0.0
 11
4055.708810447494
 21
1640.908907108998
 31
0.0
  0
LINE
  5
15FD
330
1F
100
AcDbEntity
  8
SANINDUSA
100
AcDbLine
 10
4055.650243877212
 20
1640.946236827469
 30
0.0
 11
4055.644756822625
 21
1641.024705314135
 31
0.0
  0
LINE
  5
15FE
330
1F
100
AcDbEntity
  8
SANINDUSA
100
AcDbLine
 10
4055.644756822625
 20
1641.024705314135
 30
0.0
 11
4055.653734906355
 21
1641.025333122408
 31
0.0
  0
SPLINE
  5
15FF
330
1F
100
AcDbEntity
  8
SANINDUSA
100
AcDbSpline
210
0.0
220
0.0
230
1.0
 70
     8
 71
     3
 72
    13
 73
     9
 74
     0
 42
0.0000000001
 43
0.0000000001
 40
0.0
 40
0.0
 40
0.0
 40
0.0
 40
0.0478640643635829
 40
0.262450381483651
 40
0.3967544287235895
 40
0.6113467180043193
 40
0.8259302775496612
 40
1.0
 40
1.0
 40
1.0
 40
1.0
 10
4055.654802216927
 20
1641.024405309057
 30
0.0
 10
4055.654799894222
 20
1641.024430165575
 30
0.0
 10
4055.654787158262
 20
1641.024566459949
 30
0.0
 10
4055.654720239303
 20
1641.024767740398
 30
0.0
 10
4055.654556817561
 20
1641.025013995566
 30
0.0
 10
4055.654329378042
 20
1641.025208147208
 30
0.0
 10
4055.654030169537
 20
1641.02533004525
 30
0.0
 10
4055.653826241488
 20
1641.025332170537
 30
0.0
 10
4055.653734906355
 20
1641.025333122408
 30
0.0
  0
LINE
  5
1600
330
1F
100
AcDbEntity
  8
SANINDUSA
100
AcDbLine
 10
4055.660219519178
 20
1640.946934395528
 30
0.0
 11
4055.654802216927
 21
1641.024405309057
 31
0.0
  0
ARC
  5
1601
330
1F
100
AcDbEntity
  8
SANINDUSA
100
AcDbCircle
 10
4055.675182978308
 20
1640.947980739668
 30
0.0
 40
0.0150000000000008
100
AcDbArc
 50
184.000000001066
 51
267.3626063943621
  0
LINE
  5
1602
330
1F
100
AcDbEntity
  8
SANINDUSA
100
AcDbLine
 10
4055.540685907716
 20
1641.010972694552
 30
0.0
 11
4055.536860265548
 21
1641.010972694552
 31
0.0
  0
LINE
  5
1603
330
1F
100
AcDbEntity
  8
SANINDUSA
100
AcDbLine
 10
4055.540685907716
 20
1641.010972694552
 30
0.0
 11
4055.542274962889
 21
1641.056477262696
 31
0.0
  0
LINE
  5
1604
330
1F
100
AcDbEntity
  8
SANINDUSA
100
AcDbLine
 10
4055.536860265548
 20
1641.056477262696
 30
0.0
 11
4055.536860265548
 21
1641.010972694552
 31
0.0
  0
SPLINE
  5
1605
330
1F
100
AcDbEntity
  8
SANINDUSA
100
AcDbSpline
210
0.0
220
0.0
230
1.0
 70
     8
 71
     3
 72
    13
 73
     9
 74
     0
 42
0.0000000001
 43
0.0000000001
 40
0.0
 40
0.0
 40
0.0
 40
0.0
 40
0.0448261832246881
 40
0.179133532244592
 40
0.3937243841822493
 40
0.6083152120045974
 40
0.8229041009922331
 40
1.0
 40
1.0
 40
1.0
 40
1.0
 10
4055.572022943536
 20
1641.065477262426
 30
0.0
 10
4055.572022434398
 20
1641.06550064434
 30
0.0
 10
4055.572020399791
 20
1641.065594082697
 30
0.0
 10
4055.571983240112
 20
1641.065797736806
 30
0.0
 10
4055.571853679288
 20
1641.066068231544
 30
0.0
 10
4055.571611257963
 20
1641.066308199407
 30
0.0
 10
4055.571320463405
 20
1641.066452968323
 30
0.0
 10
4055.571115578107
 20
1641.066469698232
 30
0.0
 10
4055.571022941509
 20
1641.066477262473
 30
0.0
  0
LINE
  5
1606
330
1F
100
AcDbEntity
  8
SANINDUSA
100
AcDbLine
 10
4055.572022943536
 20
1641.065477262426
 30
0.0
 11
4055.572022943536
 21
1641.054477262368
 31
0.0
  0
LINE
  5
1607
330
1F
100
AcDbEntity
  8
SANINDUSA
100
AcDbLine
 10
4055.572022943536
 20
1641.054477262368
 30
0.0
 11
4055.557039660181
 21
1641.054477262368
 31
0.0
  0
ARC
  5
1608
330
1F
100
AcDbEntity
  8
SANINDUSA
100
AcDbCircle
 10
4055.557039660412
 20
1641.049477262473
 30
0.0
 40
0.0050000000000006
100
AcDbArc
 50
90.0
 51
177.9999999962464
  0
LINE
  5
1609
330
1F
100
AcDbEntity
  8
SANINDUSA
100
AcDbLine
 10
4055.550511306861
 20
1641.005798195546
 30
0.0
 11
4055.552042706648
 21
1641.049651759735
 31
0.0
  0
SPLINE
  5
160A
330
1F
100
AcDbEntity
  8
SANINDUSA
100
AcDbSpline
210
0.0
220
0.0
230
1.0
 70
     8
 71
     3
 72
    12
 73
     8
 74
     0
 42
0.0000000001
 43
0.0000000001
 40
0.0
 40
0.0
 40
0.0
 40
0.0
 40
0.2195693470032729
 40
0.4391381732234033
 40
0.6587072076065314
 40
0.8782757792522167
 40
1.0
 40
1.0
 40
1.0
 40
1.0
 10
4055.545514351467
 20
1641.000972689187
 30
0.0
 10
4055.546076483095
 20
1641.001027965442
 30
0.0
 10
4055.547200745018
 20
1641.00113851782
 30
0.0
 10
4055.548698943722
 20
1641.002000549574
 30
0.0
 10
4055.549830374204
 20
1641.003269335273
 30
0.0
 10
4055.550404094041
 20
1641.004620331675
 30
0.0
 10
4055.550483121295
 20
1641.005488542645
 30
0.0
 10
4055.550511306861
 20
1641.005798195546
 30
0.0
  0
LINE
  5
160B
330
1F
100
AcDbEntity
  8
SANINDUSA
100
AcDbLine
 10
4055.545514351467
 20
1641.000972689187
 30
0.0
 11
4055.529860265798
 21
1641.000972689187
 31
0.0
  0
SPLINE
  5
160C
330
1F
100
AcDbEntity
  8
SANINDUSA
100
AcDbSpline
210
0.0
220
0.0
230
1.0
 70
     8
 71
     3
 72
    13
 73
     9
 74
     0
 42
0.0000000001
 43
0.0000000001
 40
0.0
 40
0.0
 40
0.0
 40
0.0
 40
0.1853934523521527
 40
0.4000006786296883
 40
0.6146083111219807
 40
0.748928523428266
 40
0.9635360669255387
 40
1.0
 40
1.0
 40
1.0
 40
1.0
 10
4055.526860265771
 20
1641.003972695267
 30
0.0
 10
4055.526885121159
 20
1641.003681677424
 30
0.0
 10
4055.526938748577
 20
1641.003053783972
 30
0.0
 10
4055.52739049492
 20
1641.002175307633
 30
0.0
 10
4055.528030342702
 20
1641.001546780426
 30
0.0
 10
4055.528809163112
 20
1641.001122773908
 30
0.0
 10
4055.529410524787
 20
1641.000980800952
 30
0.0
 10
4055.529803231688
 20
1641.000973717885
 30
0.0
 10
4055.529860265798
 20
1641.000972689187
 30
0.0
  0
LINE
  5
160D
330
1F
100
AcDbEntity
  8
SANINDUSA
100
AcDbLine
 10
4055.526860265771
 20
1641.063477262447
 30
0.0
 11
4055.526860265771
 21
1641.003972695267
 31
0.0
  0
ARC
  5
160E
330
1F
100
AcDbEntity
  8
SANINDUSA
100
AcDbCircle
 10
4055.529860265772
 20
1641.063477262473
 30
0.0
 40
0.0030000000000001
100
AcDbArc
 50
90.0
 51
180.0
  0
LINE
  5
160F
330
1F
100
AcDbEntity
  8
SANINDUSA
100
AcDbLine
 10
4055.529860265798
 20
1641.066477262473
 30
0.0
 11
4055.571022941509
 21
1641.066477262473
 31
0.0
  0
LINE
  5
1610
330
1F
100
AcDbEntity
  8
SANINDUSA
100
AcDbLine
 10
4055.536860265548
 20
1641.056477262696
 30
0.0
 11
4055.542274962889
 21
1641.056477262696
 31
0.0
  0
LINE
  5
1613
330
1F
100
AcDbEntity
  8
SANINDUSA
100
AcDbLine
 10
4055.526860265771
 20
1640.92923297832
 30
0.0
 11
4055.526860265771
 21
1641.003972695267
 31
0.0
  0
LWPOLYLINE
  5
1617
330
1F
100
AcDbEntity
  8
SANINDUSA
100
AcDbPolyline
 90
       20
 70
   128
 43
0.0
 10
4055.550511306861
 20
1641.005798195546
 10
4055.550505147095
 20
1641.005621806776
 10
4055.550486561621
 20
1641.00508961553
 10
4055.550455578382
 20
1641.004202340788
 10
4055.550412234629
 20
1641.002961182094
 10
4055.550356593693
 20
1641.00136783073
 10
4055.55028873008
 20
1640.999424443638
 10
4055.550208733196
 20
1640.997133658325
 10
4055.5501167148
 20
1640.994498581684
 10
4055.550012797827
 20
1640.99152278254
 10
4055.549897123838
 20
1640.988210314011
 10
4055.549769849295
 20
1640.984565661347
 10
4055.549631147424
 20
1640.980593764281
 10
4055.549481206353
 20
1640.976300017035
 10
4055.549320230971
 20
1640.971690245962
 10
4055.549148435483
 20
1640.9667707021
 10
4055.548966056446
 20
1640.961548061168
 10
4055.548773341591
 20
1640.956029401219
 10
4055.548570549825
 20
1640.950222217536
 10
4055.548357958683
 20
1640.944134392834
  0
SPLINE
  5
161A
330
1F
100
AcDbEntity
  8
SANINDUSA
100
AcDbSpline
210
0.0
220
0.0
230
1.0
 70
     8
 71
     3
 72
    13
 73
     9
 74
     0
 42
0.0000000001
 43
0.0000000001
 40
0.0
 40
0.0
 40
0.0
 40
0.0
 40
0.1003752747405306
 40
0.2346451908713134
 40
0.449173040469236
 40
0.6637013907628865
 40
0.8782300122408097
 40
0.9999999999999998
 40
0.9999999999999998
 40
0.9999999999999998
 40
0.9999999999999998
 10
4055.608022837678
 20
1641.066477262473
 30
0.0
 10
4055.607970417508
 20
1641.066474820695
 30
0.0
 10
4055.607847875966
 20
1641.066469112603
 30
0.0
 10
4055.607620013443
 20
1641.066405722018
 30
0.0
 10
4055.607361896756
 20
1641.066253543069
 30
0.0
 10
4055.607143625578
 20
1641.065990976442
 30
0.0
 10
4055.607036503615
 20
1641.065716480414
 30
0.0
 10
4055.607026463585
 20
1641.065540854586
 30
0.0
 10
4055.607022828201
 20
1641.065477262426
 30
0.0
  0
LINE
  5
161B
330
1F
100
AcDbEntity
  8
SANINDUSA
100
AcDbLine
 10
4055.571022941509
 20
1641.066477262473
 30
0.0
 11
4055.608022837678
 21
1641.066477262473
 31
0.0
  0
LINE
  5
161C
330
1F
100
AcDbEntity
  8
SANINDUSA
100
AcDbLine
 10
4055.607022828201
 20
1641.054477262368
 30
0.0
 11
4055.607022828201
 21
1641.065477262426
 31
0.0
  0
LINE
  5
161D
330
1F
100
AcDbEntity
  8
SANINDUSA
100
AcDbLine
 10
4055.607022828201
 20
1641.054477262368
 30
0.0
 11
4055.572022943536
 21
1641.054477262368
 31
0.0
  0
LINE
  5
161E
330
1F
100
AcDbEntity
  8
SANINDUSA
100
AcDbLine
 10
4055.651851488987
 20
1641.052267206891
 30
0.0
 11
4055.642873412709
 21
1641.051639398618
 31
0.0
  0
LINE
  5
161F
330
1F
100
AcDbEntity
  8
SANINDUSA
100
AcDbLine
 10
4055.632510698179
 20
1641.056477262696
 30
0.0
 11
4055.642535111646
 21
1641.056477262696
 31
0.0
  0
LINE
  5
1620
330
1F
100
AcDbEntity
  8
SANINDUSA
100
AcDbLine
 10
4055.632510698179
 20
1641.056477262696
 30
0.0
 11
4055.640337972681
 21
1640.944542028999
 31
0.0
  0
ARC
  5
1621
330
1F
100
AcDbEntity
  8
SANINDUSA
100
AcDbCircle
 10
4055.688237034909
 20
1640.947891456193
 30
0.0
 40
0.048016029474646
100
AcDbArc
 50
184.000000001066
 51
267.4130719422163
  0
LINE
  5
1622
330
1F
100
AcDbEntity
  8
SANINDUSA
100
AcDbLine
 10
4055.6860698301
 20
1640.899924361205
 30
0.0
 11
4055.72040544335
 21
1640.898373046017
 31
0.0
  0
SPLINE
  5
1623
330
1F
100
AcDbEntity
  8
SANINDUSA
100
AcDbSpline
210
0.0
220
0.0
230
1.0
 70
     8
 71
     3
 72
    12
 73
     8
 74
     0
 42
0.0000000001
 43
0.0000000001
 40
0.0
 40
0.0
 40
0.0
 40
0.0
 40
0.2210397666363934
 40
0.4420856611795025
 40
0.6631277636759067
 40
0.8841702103128652
 40
1.0
 40
1.0
 40
1.0
 40
1.0
 10
4055.721360309759
 20
1640.897374057269
 30
0.0
 10
4055.721349255619
 20
1640.897486482774
 30
0.0
 10
4055.721327147032
 20
1640.897711336901
 30
0.0
 10
4055.721154728451
 20
1640.898010954589
 30
0.0
 10
4055.720900985666
 20
1640.898237299595
 30
0.0
 10
4055.720633998703
 20
1640.898350538621
 30
0.0
 10
4055.720463922255
 20
1640.898367287202
 30
0.0
 10
4055.72040544335
 20
1640.898373046017
 30
0.0
  0
LINE
  5
1624
330
1F
100
AcDbEntity
  8
SANINDUSA
100
AcDbLine
 10
4055.721360309759
 20
1640.897374057269
 30
0.0
 11
4055.721360309759
 21
1640.885477268195
 31
0.0
  0
LINE
  5
1625
330
1F
100
AcDbEntity
  8
SANINDUSA
100
AcDbLine
 10
4055.721360309759
 20
1640.885477268195
 30
0.0
 11
4055.71085707728
 21
1640.885477268195
 31
0.0
  0
SPLINE
  5
1626
330
1F
100
AcDbEntity
  8
SANINDUSA
100
AcDbSpline
210
0.0
220
0.0
230
1.0
 70
     8
 71
     3
 72
    12
 73
     8
 74
     0
 42
0.0000000001
 43
0.0000000001
 40
0.0
 40
0.0
 40
0.0
 40
0.0
 40
0.2127500246847311
 40
0.4538909426035621
 40
0.6950299173009568
 40
0.9361711844524142
 40
1.0
 40
1.0
 40
1.0
 40
1.0
 10
4055.71085707728
 20
1640.885477268195
 30
0.0
 10
4055.710772530288
 20
1640.885865974659
 30
0.0
 10
4055.710592153746
 20
1640.886695259374
 30
0.0
 10
4055.709833382738
 20
1640.887783893703
 30
0.0
 10
4055.708742864313
 20
1640.88859913799
 30
0.0
 10
4055.707752937948
 20
1640.888915501476
 30
0.0
 10
4055.707188178486
 20
1640.888956720053
 30
0.0
 10
4055.707069976966
 20
1640.888965346908
 30
0.0
  0
LINE
  5
1627
330
1F
100
AcDbEntity
  8
SANINDUSA
100
AcDbLine
 10
4055.685618473927
 20
1640.889934548235
 30
0.0
 11
4055.707069976966
 21
1640.888965346908
 31
0.0
  0
ARC
  5
1628
330
1F
100
AcDbEntity
  8
SANINDUSA
100
AcDbCircle
 10
4055.688237034909
 20
1640.947891456193
 30
0.0
 40
0.0580160294746456
100
AcDbArc
 50
184.000000001066
 51
267.4130719422163
  0
LINE
  5
1629
330
1F
100
AcDbEntity
  8
SANINDUSA
100
AcDbLine
 10
4055.622951372305
 20
1641.049826045579
 30
0.0
 11
4055.630362330715
 21
1640.94384446094
 31
0.0
  0
ARC
  5
162A
330
1F
100
AcDbEntity
  8
SANINDUSA
100
AcDbCircle
 10
4055.617963555142
 20
1641.049477262473
 30
0.0
 40
0.0050000000000006
100
AcDbArc
 50
4.00000000106604
 51
90.0
  0
ARC
  5
162B
330
1F
100
AcDbEntity
  8
SANINDUSA
100
AcDbCircle
 10
4055.64719769034
 20
1641.061477262473
 30
0.0
 40
0.005
100
AcDbArc
 50
4.00000000106604
 51
90.0
  0
SPLINE
  5
162C
330
1F
100
AcDbEntity
  8
SANINDUSA
100
AcDbSpline
210
0.0
220
0.0
230
1.0
 70
     8
 71
     3
 72
    13
 73
     9
 74
     0
 42
0.0000000001
 43
0.0000000001
 40
0.0
 40
0.0
 40
0.0
 40
0.0
 40
0.0308529833508463
 40
0.1651818586531378
 40
0.3797963403303523
 40
0.5944158683753238
 40
0.8090380239409167
 40
1.0
 40
1.0
 40
1.0
 40
1.0
 10
4055.651851488987
 20
1641.052267206891
 30
0.0
 10
4055.651867522283
 20
1641.052268574155
 30
0.0
 10
4055.65195336194
 20
1641.052275894267
 30
0.0
 10
4055.652147853606
 20
1641.052320820234
 30
0.0
 10
4055.65241183324
 20
1641.05246334763
 30
0.0
 10
4055.65263984722
 20
1641.052716920478
 30
0.0
 10
4055.652773727108
 20
1641.053021188608
 30
0.0
 10
4055.652777512571
 20
1641.053234227053
 30
0.0
 10
4055.652779294888
 20
1641.053334532364
 30
0.0
  0
LINE
  5
162D
330
1F
100
AcDbEntity
  8
SANINDUSA
100
AcDbLine
 10
4055.617963558773
 20
1641.054477262368
 30
0.0
 11
4055.607022828201
 21
1641.054477262368
 31
0.0
  0
LINE
  5
162E
330
1F
100
AcDbEntity
  8
SANINDUSA
100
AcDbLine
 10
4055.642873412709
 20
1641.051639398618
 30
0.0
 11
4055.642535111646
 21
1641.056477262696
 31
0.0
  0
LINE
  5
162F
330
1F
100
AcDbEntity
  8
SANINDUSA
100
AcDbLine
 10
4055.652779294888
 20
1641.053334532364
 30
0.0
 11
4055.652185513417
 21
1641.061826044752
 31
0.0
  0
LINE
  5
1630
330
1F
100
AcDbEntity
  8
SANINDUSA
100
AcDbLine
 10
4055.608022837678
 20
1641.066477262473
 30
0.0
 11
4055.647197692434
 21
1641.066477262473
 31
0.0
  0
LWPOLYLINE
  5
1632
330
1F
100
AcDbEntity
  8
SANINDUSA
100
AcDbPolyline
 90
       20
 70
   128
 43
0.0
 10
4055.644756822625
 20
1641.024705314135
 10
4055.644744439761
 20
1641.024882447964
 10
4055.644706598262
 20
1641.02542360971
 10
4055.644644333759
 20
1641.026313983893
 10
4055.644559359888
 20
1641.027529173589
 10
4055.644454001227
 20
1641.029035897052
 10
4055.644331141154
 20
1641.030792881793
 10
4055.644194147329
 20
1641.032752000785
 10
4055.644046767393
 20
1641.034859594947
 10
4055.643893047014
 20
1641.037057927868
 10
4055.643737188319
 20
1641.039286785817
 10
4055.64358346794
 20
1641.0414851206
 10
4055.643436088006
 20
1641.0435927129
 10
4055.64329909418
 20
1641.045551831892
 10
4055.643176234106
 20
1641.047308818495
 10
4055.643070875446
 20
1641.048815541959
 10
4055.642985901574
 20
1641.050030731654
 10
4055.642923637072
 20
1641.050921102112
 10
4055.642885795573
 20
1641.051462265721
 10
4055.642873412709
 20
1641.051639398618
  0
LWPOLYLINE
  5
1633
330
1F
100
AcDbEntity
  8
SANINDUSA
100
AcDbPolyline
 90
       21
 70
   128
 43
0.0
 10
4055.652779294888
 20
1641.053334532364
 10
4055.652791305224
 20
1641.053162700554
 10
4055.652828036587
 20
1641.052637562214
 10
4055.652888550201
 20
1641.051772098115
 10
4055.652971370856
 20
1641.050587701669
 10
4055.653074442187
 20
1641.049113649002
 10
4055.653195231001
 20
1641.047386380902
 10
4055.653330727259
 20
1641.045448591059
 10
4055.653477608005
 20
1641.04334818112
 10
4055.653632222454
 20
1641.041137072316
 10
4055.653790755907
 20
1641.038869922107
 10
4055.653949289362
 20
1641.036602770036
 10
4055.65410390381
 20
1641.034391661232
 10
4055.654250784556
 20
1641.032291253155
 10
4055.654386280814
 20
1641.03035346145
 10
4055.654507069627
 20
1641.028626193351
 10
4055.654610140959
 20
1641.027152140683
 10
4055.654692961613
 20
1641.025967744237
 10
4055.65475349013
 20
1641.025102281069
 10
4055.654790206591
 20
1641.024577141797
 10
4055.654802216927
 20
1641.024405309057
  0
ARC
  5
1634
330
1F
100
AcDbEntity
  8
SANINDUSA
100
AcDbCircle
 10
4055.69849676964
 20
1640.912055537433
 30
0.0
 40
0.0100000000000004
100
AcDbArc
 50
4.999999996291116
 51
88.19907291053716
  0
LINE
  5
1640
330
1F
100
AcDbEntity
  8
SANINDUSA
100
AcDbLine
 10
4055.767360224168
 20
1640.885477268195
 30
0.0
 11
4055.721360309759
 21
1640.885477268195
 31
0.0
  0
ARC
  5
1642
330
1F
100
AcDbEntity
  8
SANINDUSA
100
AcDbCircle
 10
4055.994962993237
 20
1641.061477262473
 30
0.0
 40
0.0050000000000048
100
AcDbArc
 50
341.380062747655
 51
90.0
  0
LINE
  5
1644
330
1F
100
AcDbEntity
  8
SANINDUSA
100
AcDbLine
 10
4055.660219295661
 20
1640.946937621629
 30
0.0
 11
4055.660219519178
 21
1640.946934395528
 31
0.0
  0
SPLINE
  5
1655
330
1F
100
AcDbEntity
  8
SANINDUSA
100
AcDbSpline
210
0.0
220
0.0
230
1.0
 70
     8
 71
     3
 72
    11
 73
     7
 74
     0
 42
0.0000000001
 43
0.0000000001
 40
0.0
 40
0.0
 40
0.0
 40
0.0
 40
0.1899977326430587
 40
0.3827103739182075
 40
0.688513484210748
 40
0.9999999999999998
 40
0.9999999999999998
 40
0.9999999999999998
 40
0.9999999999999998
 10
4055.551130958611
 20
1640.933030062413
 30
0.0
 10
4055.550752976597
 20
1640.933700157694
 30
0.0
 10
4055.549991611523
 20
1640.935049923355
 30
0.0
 10
4055.54908678286
 20
1640.937599056263
 30
0.0
 10
4055.548401931448
 20
1640.940648971984
 30
0.0
 10
4055.548372705966
 20
1640.942965476506
 30
0.0
 10
4055.548357958683
 20
1640.944134392834
 30
0.0
  0
SPLINE
  5
1657
330
1F
100
AcDbEntity
  8
SANINDUSA
100
AcDbSpline
210
0.0
220
0.0
230
1.0
 70
    24
 71
     3
 72
    10
 73
     6
 74
     0
 42
0.0000000001
 43
0.0000000001
 40
0.0
 40
0.0
 40
0.0
 40
0.0
 40
0.4388248005084304
 40
0.8778462088841443
 40
1.0
 40
1.0
 40
1.0
 40
1.0
 10
4055.526860265771
 20
1640.92923297832
 30
0.0
 10
4055.526860265771
 20
1640.929085813935
 30
0.0
 10
4055.526860265771
 20
1640.92879141923
 30
0.0
 10
4055.526860265771
 20
1640.92862880992
 30
0.0
 10
4055.526860265771
 20
1640.928642173821
 30
0.0
 10
4055.526860265771
 20
1640.928645082808
 30
0.0
  0
SPLINE
  5
1658
330
1F
100
AcDbEntity
  8
SANINDUSA
100
AcDbSpline
210
0.0
220
0.0
230
1.0
 70
    24
 71
     3
 72
    16
 73
    12
 74
     0
 42
0.0000000001
 43
0.0000000001
 40
0.0
 40
0.0
 40
0.0
 40
0.0
 40
0.114779650360584
 40
0.2295609801662858
 40
0.3443005571638526
 40
0.459050317496222
 40
0.5746771668833918
 40
0.6903190814193067
 40
0.808918059661836
 40
0.9275339502546819
 40
1.0
 40
1.0
 40
1.0
 40
1.0
 10
4055.664087085763
 20
1641.066477262473
 30
0.0
 10
4055.663012594214
 20
1641.066477262473
 30
0.0
 10
4055.660863595394
 20
1641.066477262473
 30
0.0
 10
4055.657831498074
 20
1641.066477262473
 30
0.0
 10
4055.65505777467
 20
1641.066477262473
 30
0.0
 10
4055.652606887519
 20
1641.066477262473
 30
0.0
 10
4055.650559150512
 20
1641.066477262473
 30
0.0
 10
4055.648935253578
 20
1641.066477262473
 30
0.0
 10
4055.64781817551
 20
1641.066477262473
 30
0.0
 10
4055.647270096846
 20
1641.066477262473
 30
0.0
 10
4055.647217600997
 20
1641.066477262473
 30
0.0
 10
4055.647197692434
 20
1641.066477262473
 30
0.0
  0
LINE
  5
165E
330
1F
100
AcDbEntity
  8
SANINDUSA
100
AcDbLine
 10
4055.764441563527
 20
1640.885477268195
 30
0.0
 11
4055.764441563527
 21
1640.876251035428
 31
0.0
  0
SPLINE
  5
1662
330
1F
100
AcDbEntity
  8
SANINDUSA
100
AcDbSpline
210
0.0
220
0.0
230
1.0
 70
     8
 71
     3
 72
     9
 73
     5
 74
     0
 42
0.0000000001
 43
0.0000000001
 40
0.0
 40
0.0
 40
0.0
 40
0.0
 40
0.7501478829527225
 40
1.0
 40
1.0
 40
1.0
 40
1.0
 10
4055.987936257163
 20
1641.056477262696
 30
0.0
 10
4055.985457009771
 20
1641.049721794502
 30
0.0
 10
4055.982151998255
 20
1641.040716279258
 30
0.0
 10
4055.978181013264
 20
1641.031988918968
 30
0.0
 10
4055.977188854257
 20
1641.029808369523
 30
0.0
  0
LWPOLYLINE
  5
166C
330
1F
100
AcDbEntity
  8
SANINDUSA
100
AcDbPolyline
 90
        8
 70
   128
 43
0.0
 10
4055.551130958611
 20
1640.933030062413
 10
4055.551166309753
 20
1640.932155304646
 10
4055.551086553151
 20
1640.931325891113
 10
4055.550894357974
 20
1640.930569523072
 10
4055.550596152211
 20
1640.929911547399
 10
4055.550201910327
 20
1640.929373943305
 10
4055.549724821712
 20
1640.928974696493
 10
4055.549221171776
 20
1640.928739481664
  0
ENDSEC
  0
SECTION
  2
OBJECTS
  0
DICTIONARY
  5
C
330
0
100
AcDbDictionary
281
     1
  3
ACAD_2007HEADERVARS_RT
350
1726
  3
ACAD_BACKGROUND
350
16DA
  3
ACAD_COLOR
350
EE6
  3
ACAD_GROUP
350
D
  3
ACAD_LAYOUT
350
1A
  3
ACAD_MATERIAL
350
EE5
  3
ACAD_MLEADERSTYLE
350
10A8
  3
ACAD_MLINESTYLE
350
17
  3
ACAD_PLOTSETTINGS
350
19
  3
ACAD_PLOTSTYLENAME
350
E
  3
ACAD_SCALELIST
350
1096
  3
ACAD_TABLESTYLE
350
EE7
  3
ACAD_VISUALSTYLE
350
1082
  3
ACDB_RECOMPOSE_DATA
350
1724
  3
AcDbVariableDictionary
350
3D
  3
AEC_PROPERTY_SET_DEFS
350
1391
  3
ASE_INDEX_DICTIONARY
350
1066
  3
Autodesk_PNP
350
10B2
  3
DWGPROPS
350
1725
  0
DICTIONARY
  5
16E2
330
8
100
AcDbDictionary
280
     1
281
     1
  0
DICTIONARY
  5
1051
330
2
100
AcDbDictionary
280
     1
281
     1
  3
ACAD_LAYERFILTERS
360
1065
  3
ACLYDICTIONARY
360
1064
  0
DICTIONARY
  5
167C
330
10
100
AcDbDictionary
280
     1
281
     1
  3
ADSK_XREC_LAYER_RECONCILED
360
167D
  0
DICTIONARY
  5
167E
330
2F
100
AcDbDictionary
280
     1
281
     1
  3
ADSK_XREC_LAYER_RECONCILED
360
167F
  0
DICTIONARY
  5
1680
330
30
100
AcDbDictionary
280
     1
281
     1
  3
ADSK_XREC_LAYER_RECONCILED
360
1681
  0
DICTIONARY
  5
1682
330
31
100
AcDbDictionary
280
     1
281
     1
  3
ADSK_XREC_LAYER_RECONCILED
360
1683
  0
DICTIONARY
  5
1684
330
32
100
AcDbDictionary
280
     1
281
     1
  3
ADSK_XREC_LAYER_RECONCILED
360
1685
  0
DICTIONARY
  5
1686
330
33
100
AcDbDictionary
280
     1
281
     1
  3
ADSK_XREC_LAYER_RECONCILED
360
1687
  0
DICTIONARY
  5
1688
330
34
100
AcDbDictionary
280
     1
281
     1
  3
ADSK_XREC_LAYER_RECONCILED
360
1689
  0
DICTIONARY
  5
168A
330
35
100
AcDbDictionary
280
     1
281
     1
  3
ADSK_XREC_LAYER_RECONCILED
360
168B
  0
DICTIONARY
  5
168C
330
36
100
AcDbDictionary
280
     1
281
     1
  3
ADSK_XREC_LAYER_RECONCILED
360
168D
  0
DICTIONARY
  5
168E
330
37
100
AcDbDictionary
280
     1
281
     1
  3
ADSK_XREC_LAYER_RECONCILED
360
168F
  0
DICTIONARY
  5
1690
330
5D6
100
AcDbDictionary
280
     1
281
     1
  3
ADSK_XREC_LAYER_RECONCILED
360
1691
  0
DICTIONARY
  5
1692
330
8AF
100
AcDbDictionary
280
     1
281
     1
  3
ADSK_XREC_LAYER_RECONCILED
360
1693
  0
DICTIONARY
  5
1694
330
8F8
100
AcDbDictionary
280
     1
281
     1
  3
ADSK_XREC_LAYER_RECONCILED
360
1695
  0
DICTIONARY
  5
1696
330
91D
100
AcDbDictionary
280
     1
281
     1
  3
ADSK_XREC_LAYER_RECONCILED
360
1697
  0
DICTIONARY
  5
1698
330
C7B
100
AcDbDictionary
280
     1
281
     1
  3
ADSK_XREC_LAYER_RECONCILED
360
1699
  0
DICTIONARY
  5
169A
330
1060
100
AcDbDictionary
280
     1
281
     1
  3
ADSK_XREC_LAYER_RECONCILED
360
169B
  0
DICTIONARY
  5
1726
102
{ACAD_REACTORS
330
C
102
}
330
C
100
AcDbDictionary
281
     1
  3
DIMJOGANG
350
1727
  0
DICTIONARY
  5
16DA
102
{ACAD_REACTORS
330
C
102
}
330
C
100
AcDbDictionary
281
     1
  0
DICTIONARY
  5
EE6
102
{ACAD_REACTORS
330
C
102
}
330
C
100
AcDbDictionary
281
     1
  0
DICTIONARY
  5
D
102
{ACAD_REACTORS
330
C
102
}
330
C
100
AcDbDictionary
281
     1
  0
DICTIONARY
  5
1A
102
{ACAD_REACTORS
330
C
102
}
330
C
100
AcDbDictionary
281
     1
  3
Layout1
350
1E
  3
Layout2
350
26
  3
Model
350
22
  0
DICTIONARY
  5
EE5
102
{ACAD_REACTORS
330
C
102
}
330
C
100
AcDbDictionary
281
     1
  3
ByBlock
350
1072
  3
ByLayer
350
106A
  3
Global
350
107A
  0
DICTIONARY
  5
10A8
102
{ACAD_REACTORS
330
C
102
}
330
C
100
AcDbDictionary
281
     1
  3
Standard
350
10A9
  0
DICTIONARY
  5
17
102
{ACAD_REACTORS
330
C
102
}
330
C
100
AcDbDictionary
281
     1
  3
Standard
350
18
  0
DICTIONARY
  5
19
102
{ACAD_REACTORS
330
C
102
}
330
C
100
AcDbDictionary
281
     1
  0
ACDBDICTIONARYWDFLT
  5
E
102
{ACAD_REACTORS
330
C
102
}
330
C
100
AcDbDictionary
281
     1
  3
Normal
350
F
100
AcDbDictionaryWithDefault
340
F
  0
DICTIONARY
  5
1096
102
{ACAD_REACTORS
330
C
102
}
330
C
100
AcDbDictionary
281
     1
  3
A0
350
1097
  3
A1
350
1098
  3
A2
350
1099
  3
A3
350
109A
  3
A4
350
109B
  3
A5
350
109C
  3
A6
350
109D
  3
A7
350
109E
  3
A8
350
109F
  3
A9
350
10A0
  3
B0
350
10A1
  3
B1
350
10A2
  3
B2
350
10A3
  3
B3
350
10A4
  3
B4
350
10A5
  3
B5
350
10A6
  3
B6
350
10A7
  0
DICTIONARY
  5
EE7
102
{ACAD_REACTORS
330
C
102
}
330
C
100
AcDbDictionary
281
     1
  3
Standard
350
EE8
  0
DICTIONARY
  5
1082
102
{ACAD_REACTORS
330
C
102
}
330
C
100
AcDbDictionary
281
     1
  3
2dWireframe
350
1088
  3
3D Hidden
350
108A
  3
3dWireframe
350
1089
  3
Basic
350
1087
  3
Brighten
350
108E
  3
ColorChange
350
1092
  3
Conceptual
350
108B
  3
Dim
350
108D
  3
EdgeColorOff
350
1095
  3
Facepattern
350
1091
  3
Flat
350
1083
  3
FlatWithEdges
350
1084
  3
Gouraud
350
1085
  3
GouraudWithEdges
350
1086
  3
JitterOff
350
1093
  3
Linepattern
350
1090
  3
OverhangOff
350
1094
  3
Realistic
350
108C
  3
Thicken
350
108F
  0
XRECORD
  5
1724
102
{ACAD_REACTORS
330
C
102
}
330
C
100
AcDbXrecord
280
     1
 90
        1
330
EE8
  0
DICTIONARY
  5
3D
102
{ACAD_REACTORS
330
C
102
}
330
C
100
AcDbDictionary
281
     1
  3
CANNOSCALE
350
1716
  3
CMLEADERSTYLE
350
1715
  3
CTABLESTYLE
350
1049
  3
DIMASSOC
350
3F
  3
HIDETEXT
350
3E
  3
INDEXCTL
350
1718
  3
SORTENTS
350
1717
  3
XCLIPFRAME
350
1722
  0
DICTIONARY
  5
1391
102
{ACAD_REACTORS
330
C
102
}
330
C
100
AcDbDictionary
281
     1
  0
DICTIONARY
  5
1066
102
{ACAD_REACTORS
330
C
102
}
330
C
100
AcDbDictionary
281
     1
  3
ASEBlockHierarchyIndexRecord
350
1067
1001
DCO15
1040
1602247867.484
  0
DICTIONARY
  5
10B2
102
{ACAD_REACTORS
330
C
102
}
330
C
100
AcDbDictionary
281
     1
  0
XRECORD
  5
1725
102
{ACAD_REACTORS
330
C
102
}
330
C
100
AcDbXrecord
280
     1
  1
DWGPROPS COOKIE
  2

  3

  4

  6

  7

  8
Julio
  9

300
=
301
=
302
=
303
=
304
=
305
=
306
=
307
=
308
=
309
=
 40
0.0095688657407407
 41
2455779.457668901
 42
2456111.440877269
  1

 90
        0
  0
DICTIONARY
  5
1065
102
{ACAD_REACTORS
330
1051
102
}
330
1051
100
AcDbDictionary
281
     1
  0
DICTIONARY
  5
1064
102
{ACAD_REACTORS
330
1051
102
}
330
1051
100
AcDbDictionary
281
     1
1001
ACAD
1000
<All
  0
XRECORD
  5
167D
102
{ACAD_REACTORS
330
167C
102
}
330
167C
100
AcDbXrecord
280
     1
290
     1
  0
XRECORD
  5
167F
102
{ACAD_REACTORS
330
167E
102
}
330
167E
100
AcDbXrecord
280
     1
290
     1
  0
XRECORD
  5
1681
102
{ACAD_REACTORS
330
1680
102
}
330
1680
100
AcDbXrecord
280
     1
290
     1
  0
XRECORD
  5
1683
102
{ACAD_REACTORS
330
1682
102
}
330
1682
100
AcDbXrecord
280
     1
290
     1
  0
XRECORD
  5
1685
102
{ACAD_REACTORS
330
1684
102
}
330
1684
100
AcDbXrecord
280
     1
290
     1
  0
XRECORD
  5
1687
102
{ACAD_REACTORS
330
1686
102
}
330
1686
100
AcDbXrecord
280
     1
290
     1
  0
XRECORD
  5
1689
102
{ACAD_REACTORS
330
1688
102
}
330
1688
100
AcDbXrecord
280
     1
290
     1
  0
XRECORD
  5
168B
102
{ACAD_REACTORS
330
168A
102
}
330
168A
100
AcDbXrecord
280
     1
290
     1
  0
XRECORD
  5
168D
102
{ACAD_REACTORS
330
168C
102
}
330
168C
100
AcDbXrecord
280
     1
290
     1
  0
XRECORD
  5
168F
102
{ACAD_REACTORS
330
168E
102
}
330
168E
100
AcDbXrecord
280
     1
290
     1
  0
XRECORD
  5
1691
102
{ACAD_REACTORS
330
1690
102
}
330
1690
100
AcDbXrecord
280
     1
290
     1
  0
XRECORD
  5
1693
102
{ACAD_REACTORS
330
1692
102
}
330
1692
100
AcDbXrecord
280
     1
290
     1
  0
XRECORD
  5
1695
102
{ACAD_REACTORS
330
1694
102
}
330
1694
100
AcDbXrecord
280
     1
290
     1
  0
XRECORD
  5
1697
102
{ACAD_REACTORS
330
1696
102
}
330
1696
100
AcDbXrecord
280
     1
290
     1
  0
XRECORD
  5
1699
102
{ACAD_REACTORS
330
1698
102
}
330
1698
100
AcDbXrecord
280
     1
290
     1
  0
XRECORD
  5
169B
102
{ACAD_REACTORS
330
169A
102
}
330
169A
100
AcDbXrecord
280
     1
290
     1
  0
XRECORD
  5
1727
102
{ACAD_REACTORS
330
1726
102
}
330
1726
100
AcDbXrecord
280
     1
 40
1.570796326794896
  0
LAYOUT
  5
1E
102
{ACAD_XDICTIONARY
360
1728
102
}
102
{ACAD_REACTORS
330
1A
102
}
330
1A
100
AcDbPlotSettings
  1

  2
Ploter HP500
  4

  6

 40
0.0
 41
0.0
 42
0.0
 43
0.0
 44
0.0
 45
0.0
 46
0.0
 47
0.0
 48
0.0
 49
0.0
140
0.0
141
0.0
142
1.0
143
1.0
 70
   688
 72
     0
 73
     0
 74
     5
  7
sanindusa.ctb
 75
    16
147
1.0
148
0.0
149
0.0
100
AcDbLayout
  1
Layout1
 70
     1
 71
     1
 10
0.0
 20
0.0
 11
420.0
 21
297.0
 12
0.0
 22
0.0
 32
0.0
 14
1.000000000000000E+20
 24
1.000000000000000E+20
 34
1.000000000000000E+20
 15
-1.000000000000000E+20
 25
-1.000000000000000E+20
 35
-1.000000000000000E+20
146
0.0
 13
0.0
 23
0.0
 33
0.0
 16
1.0
 26
0.0
 36
0.0
 17
0.0
 27
1.0
 37
0.0
 76
     0
330
1B
  0
LAYOUT
  5
26
102
{ACAD_XDICTIONARY
360
172C
102
}
102
{ACAD_REACTORS
330
1A
102
}
330
1A
100
AcDbPlotSettings
  1

  2
Ploter HP500
  4

  6

 40
0.0
 41
0.0
 42
0.0
 43
0.0
 44
0.0
 45
0.0
 46
0.0
 47
0.0
 48
0.0
 49
0.0
140
0.0
141
0.0
142
1.0
143
1.0
 70
   688
 72
     0
 73
     0
 74
     5
  7
sanindusa.ctb
 75
    16
147
1.0
148
0.0
149
0.0
100
AcDbLayout
  1
Layout2
 70
     1
 71
     2
 10
0.0
 20
0.0
 11
12.0
 21
9.0
 12
0.0
 22
0.0
 32
0.0
 14
0.0
 24
0.0
 34
0.0
 15
0.0
 25
0.0
 35
0.0
146
0.0
 13
0.0
 23
0.0
 33
0.0
 16
1.0
 26
0.0
 36
0.0
 17
0.0
 27
1.0
 37
0.0
 76
     0
330
23
  0
LAYOUT
  5
22
102
{ACAD_XDICTIONARY
360
172A
102
}
102
{ACAD_REACTORS
330
1A
102
}
330
1A
100
AcDbPlotSettings
  1

  2
Ploter HP500
  4
User268
  6

 40
4.995333194732666
 41
16.97565841674804
 42
4.995330810546875
 43
16.97567749023437
 44
209.9733276367187
 45
296.9259948730469
 46
0.0
 47
0.0
 48
0.0
 49
0.0
140
0.0
141
0.0
142
1.0
143
1.0
 70
 11952
 72
     1
 73
     1
 74
     0
  7
sanindusa.ctb
 75
     0
147
1.0
148
-427.5957866592534
149
7.362384574453926
100
AcDbLayout
  1
Model
 70
     1
 71
     0
 10
0.0
 20
0.0
 11
12.0
 21
9.0
 12
0.0
 22
0.0
 32
0.0
 14
0.0
 24
0.0
 34
0.0
 15
0.0
 25
0.0
 35
0.0
146
0.0
 13
0.0
 23
0.0
 33
0.0
 16
1.0
 26
0.0
 36
0.0
 17
0.0
 27
1.0
 37
0.0
 76
     0
330
1F
331
1068
  0
MATERIAL
  5
1072
102
{ACAD_XDICTIONARY
360
1073
102
}
102
{ACAD_REACTORS
330
EE5
102
}
330
EE5
100
AcDbMaterial
  1
ByBlock
 72
     0
 43
0.0008202099737533
 43
0.0
 43
0.0
 43
0.0
 43
0.0
 43
0.0008202099737533
 43
0.0
 43
0.0
 43
0.0
 43
0.0
 43
1.0
 43
0.0
 43
0.0
 43
0.0
 43
0.0
 43
1.0
 77
     0
 47
0.0008202099737533
 47
0.0
 47
0.0
 47
0.0
 47
0.0
 47
0.0008202099737533
 47
0.0
 47
0.0
 47
0.0
 47
0.0
 47
1.0
 47
0.0
 47
0.0
 47
0.0
 47
0.0
 47
1.0
171
     0
 49
0.0008202099737533
 49
0.0
 49
0.0
 49
0.0
 49
0.0
 49
0.0008202099737533
 49
0.0
 49
0.0
 49
0.0
 49
0.0
 49
1.0
 49
0.0
 49
0.0
 49
0.0
 49
0.0
 49
1.0
175
     0
142
0.0008202099737533
142
0.0
142
0.0
142
0.0
142
0.0
142
0.0008202099737533
142
0.0
142
0.0
142
0.0
142
0.0
142
1.0
142
0.0
142
0.0
142
0.0
142
0.0
142
1.0
179
     0
144
0.0008202099737533
144
0.0
144
0.0
144
0.0
144
0.0
144
0.0008202099737533
144
0.0
144
0.0
144
0.0
144
0.0
144
1.0
144
0.0
144
0.0
144
0.0
144
0.0
144
1.0
147
0.0008202099737533
147
0.0
147
0.0
147
0.0
147
0.0
147
0.0008202099737533
147
0.0
147
0.0
147
0.0
147
0.0
147
1.0
147
0.0
147
0.0
147
0.0
147
0.0
147
1.0
  0
MATERIAL
  5
106A
102
{ACAD_XDICTIONARY
360
106B
102
}
102
{ACAD_REACTORS
330
EE5
102
}
330
EE5
100
AcDbMaterial
  1
ByLayer
 72
     0
 43
0.0008202099737533
 43
0.0
 43
0.0
 43
0.0
 43
0.0
 43
0.0008202099737533
 43
0.0
 43
0.0
 43
0.0
 43
0.0
 43
1.0
 43
0.0
 43
0.0
 43
0.0
 43
0.0
 43
1.0
 77
     0
 47
0.0008202099737533
 47
0.0
 47
0.0
 47
0.0
 47
0.0
 47
0.0008202099737533
 47
0.0
 47
0.0
 47
0.0
 47
0.0
 47
1.0
 47
0.0
 47
0.0
 47
0.0
 47
0.0
 47
1.0
171
     0
 49
0.0008202099737533
 49
0.0
 49
0.0
 49
0.0
 49
0.0
 49
0.0008202099737533
 49
0.0
 49
0.0
 49
0.0
 49
0.0
 49
1.0
 49
0.0
 49
0.0
 49
0.0
 49
0.0
 49
1.0
175
     0
142
0.0008202099737533
142
0.0
142
0.0
142
0.0
142
0.0
142
0.0008202099737533
142
0.0
142
0.0
142
0.0
142
0.0
142
1.0
142
0.0
142
0.0
142
0.0
142
0.0
142
1.0
179
     0
144
0.0008202099737533
144
0.0
144
0.0
144
0.0
144
0.0
144
0.0008202099737533
144
0.0
144
0.0
144
0.0
144
0.0
144
1.0
144
0.0
144
0.0
144
0.0
144
0.0
144
1.0
147
0.0008202099737533
147
0.0
147
0.0
147
0.0
147
0.0
147
0.0008202099737533
147
0.0
147
0.0
147
0.0
147
0.0
147
1.0
147
0.0
147
0.0
147
0.0
147
0.0
147
1.0
  0
MATERIAL
  5
107A
102
{ACAD_XDICTIONARY
360
107B
102
}
102
{ACAD_REACTORS
330
EE5
102
}
330
EE5
100
AcDbMaterial
  1
Global
 72
     0
 43
0.0008202099737533
 43
0.0
 43
0.0
 43
0.0
 43
0.0
 43
0.0008202099737533
 43
0.0
 43
0.0
 43
0.0
 43
0.0
 43
1.0
 43
0.0
 43
0.0
 43
0.0
 43
0.0
 43
1.0
 77
     0
 47
0.0008202099737533
 47
0.0
 47
0.0
 47
0.0
 47
0.0
 47
0.0008202099737533
 47
0.0
 47
0.0
 47
0.0
 47
0.0
 47
1.0
 47
0.0
 47
0.0
 47
0.0
 47
0.0
 47
1.0
171
     0
 49
0.0008202099737533
 49
0.0
 49
0.0
 49
0.0
 49
0.0
 49
0.0008202099737533
 49
0.0
 49
0.0
 49
0.0
 49
0.0
 49
1.0
 49
0.0
 49
0.0
 49
0.0
 49
0.0
 49
1.0
175
     0
142
0.0008202099737533
142
0.0
142
0.0
142
0.0
142
0.0
142
0.0008202099737533
142
0.0
142
0.0
142
0.0
142
0.0
142
1.0
142
0.0
142
0.0
142
0.0
142
0.0
142
1.0
179
     0
144
0.0008202099737533
144
0.0
144
0.0
144
0.0
144
0.0
144
0.0008202099737533
144
0.0
144
0.0
144
0.0
144
0.0
144
1.0
144
0.0
144
0.0
144
0.0
144
0.0
144
1.0
147
0.0008202099737533
147
0.0
147
0.0
147
0.0
147
0.0
147
0.0008202099737533
147
0.0
147
0.0
147
0.0
147
0.0
147
1.0
147
0.0
147
0.0
147
0.0
147
0.0
147
1.0
  0
MLEADERSTYLE
  5
10A9
102
{ACAD_REACTORS
330
10A8
102
}
330
10A8
100
AcDbMLeaderStyle
170
     2
171
     1
172
     0
 90
        2
 40
0.0
 41
0.0
173
     1
 91
-1056964608
340
14
 92
       -2
290
     1
 42
2.0
291
     1
 43
0.36
  3
Standard
 44
4.0
300

342
11
174
     1
178
     6
175
     1
176
     0
 93
-1056964608
 45
4.0
292
     0
297
     0
 46
4.0
 94
-1056964608
 47
1.0
 49
1.0
140
1.0
293
     1
141
0.0
294
     1
177
     0
142
1.0
295
     0
296
     0
143
0.125
1001
ACAD_MLEADERVER
1070
     2
  0
MLINESTYLE
  5
18
102
{ACAD_REACTORS
330
17
102
}
330
17
100
AcDbMlineStyle
  2
STANDARD
 70
     0
  3

 62
   256
 51
90.0
 52
90.0
 71
     2
 49
0.5
 62
   256
  6
BYLAYER
 49
-0.5
 62
   256
  6
BYLAYER
  0
ACDBPLACEHOLDER
  5
F
102
{ACAD_REACTORS
330
E
102
}
330
E
  0
SCALE
  5
1097
102
{ACAD_REACTORS
330
1096
102
}
330
1096
100
AcDbScale
 70
     0
300
1:1
140
1.0
141
1.0
290
     1
  0
SCALE
  5
1098
102
{ACAD_REACTORS
330
1096
102
}
330
1096
100
AcDbScale
 70
     0
300
1:2
140
1.0
141
2.0
290
     0
  0
SCALE
  5
1099
102
{ACAD_REACTORS
330
1096
102
}
330
1096
100
AcDbScale
 70
     0
300
1:4
140
1.0
141
4.0
290
     0
  0
SCALE
  5
109A
102
{ACAD_REACTORS
330
1096
102
}
330
1096
100
AcDbScale
 70
     0
300
1:5
140
1.0
141
5.0
290
     0
  0
SCALE
  5
109B
102
{ACAD_REACTORS
330
1096
102
}
330
1096
100
AcDbScale
 70
     0
300
1:8
140
1.0
141
8.0
290
     0
  0
SCALE
  5
109C
102
{ACAD_REACTORS
330
1096
102
}
330
1096
100
AcDbScale
 70
     0
300
1:10
140
1.0
141
10.0
290
     0
  0
SCALE
  5
109D
102
{ACAD_REACTORS
330
1096
102
}
330
1096
100
AcDbScale
 70
     0
300
1:16
140
1.0
141
16.0
290
     0
  0
SCALE
  5
109E
102
{ACAD_REACTORS
330
1096
102
}
330
1096
100
AcDbScale
 70
     0
300
1:20
140
1.0
141
20.0
290
     0
  0
SCALE
  5
109F
102
{ACAD_REACTORS
330
1096
102
}
330
1096
100
AcDbScale
 70
     0
300
1:30
140
1.0
141
30.0
290
     0
  0
SCALE
  5
10A0
102
{ACAD_REACTORS
330
1096
102
}
330
1096
100
AcDbScale
 70
     0
300
1:40
140
1.0
141
40.0
290
     0
  0
SCALE
  5
10A1
102
{ACAD_REACTORS
330
1096
102
}
330
1096
100
AcDbScale
 70
     0
300
1:50
140
1.0
141
50.0
290
     0
  0
SCALE
  5
10A2
102
{ACAD_REACTORS
330
1096
102
}
330
1096
100
AcDbScale
 70
     0
300
1:100
140
1.0
141
100.0
290
     0
  0
SCALE
  5
10A3
102
{ACAD_REACTORS
330
1096
102
}
330
1096
100
AcDbScale
 70
     0
300
2:1
140
2.0
141
1.0
290
     0
  0
SCALE
  5
10A4
102
{ACAD_REACTORS
330
1096
102
}
330
1096
100
AcDbScale
 70
     0
300
4:1
140
4.0
141
1.0
290
     0
  0
SCALE
  5
10A5
102
{ACAD_REACTORS
330
1096
102
}
330
1096
100
AcDbScale
 70
     0
300
8:1
140
8.0
141
1.0
290
     0
  0
SCALE
  5
10A6
102
{ACAD_REACTORS
330
1096
102
}
330
1096
100
AcDbScale
 70
     0
300
10:1
140
10.0
141
1.0
290
     0
  0
SCALE
  5
10A7
102
{ACAD_REACTORS
330
1096
102
}
330
1096
100
AcDbScale
 70
     0
300
100:1
140
100.0
141
1.0
290
     0
  0
TABLESTYLE
  5
EE8
102
{ACAD_XDICTIONARY
360
16DC
102
}
102
{ACAD_REACTORS
330
EE7
102
}
330
EE7
100
AcDbTableStyle
  3
Standard
 70
     0
 71
     0
 40
1.5
 41
1.5
280
     0
281
     0
  7
Standard
140
4.5
170
     2
 62
     0
 63
     7
283
     0
274
    -2
284
     1
 64
     0
275
    -2
285
     1
 65
     0
276
    -2
286
     1
 66
     0
277
    -2
287
     1
 67
     0
278
    -2
288
     1
 68
     0
279
    -2
289
     1
 69
     0
  7
Standard
140
6.0
170
     5
 62
     0
 63
     7
283
     0
274
    -2
284
     1
 64
     0
275
    -2
285
     1
 65
     0
276
    -2
286
     1
 66
     0
277
    -2
287
     1
 67
     0
278
    -2
288
     1
 68
     0
279
    -2
289
     1
 69
     0
  7
Standard
140
4.5
170
     5
 62
     0
 63
     7
283
     0
274
    -2
284
     1
 64
     0
275
    -2
285
     1
 65
     0
276
    -2
286
     1
 66
     0
277
    -2
287
     1
 67
     0
278
    -2
288
     1
 68
     0
279
    -2
289
     1
 69
     0
  0
VISUALSTYLE
  5
1088
102
{ACAD_XDICTIONARY
360
173C
102
}
102
{ACAD_REACTORS
330
1082
102
}
330
1082
100
AcDbVisualStyle
  2
2dWireframe
 70
     4
 71
     0
 72
     2
 73
     0
 90
        0
 40
-0.6
 41
-30.0
 62
     5
 63
     7
 74
     1
 91
        4
 64
     7
 65
   257
 75
     1
175
     1
 42
1.0
 92
        0
 66
   257
 43
1.0
 76
     1
 77
     6
 78
     2
 67
     7
 79
     5
170
     0
171
     0
290
     0
174
     0
 93
        1
 44
0.0
173
     0
291
     0
 45
0.0
1001
ACAD
1000
AcDbSavedByObjectVersion
1070
     0
  0
VISUALSTYLE
  5
108A
102
{ACAD_XDICTIONARY
360
1740
102
}
102
{ACAD_REACTORS
330
1082
102
}
330
1082
100
AcDbVisualStyle
  2
3D Hidden
 70
     6
 71
     1
 72
     2
 73
     2
 90
        0
 40
-0.6
 41
-30.0
 62
     5
 63
     7
 74
     2
 91
        2
 64
     7
 65
   257
 75
     2
175
     1
 42
179.0
 92
        0
 66
   257
 43
1.0
 76
     1
 77
     6
 78
     2
 67
     7
 79
     3
170
     0
171
     0
290
     0
174
     0
 93
        1
 44
0.0
173
     0
291
     0
 45
0.0
1001
ACAD
1000
AcDbSavedByObjectVersion
1070
     0
  0
VISUALSTYLE
  5
1089
102
{ACAD_XDICTIONARY
360
173E
102
}
102
{ACAD_REACTORS
330
1082
102
}
330
1082
100
AcDbVisualStyle
  2
3dWireframe
 70
     5
 71
     0
 72
     2
 73
     0
 90
        0
 40
-0.6
 41
-30.0
 62
     5
 63
     7
 74
     1
 91
        4
 64
     7
 65
   257
 75
     1
175
     1
 42
1.0
 92
        0
 66
   257
 43
1.0
 76
     1
 77
     6
 78
     2
 67
     7
 79
     5
170
     0
171
     0
290
     0
174
     0
 93
        1
 44
0.0
173
     0
291
     0
 45
0.0
1001
ACAD
1000
AcDbSavedByObjectVersion
1070
     0
  0
VISUALSTYLE
  5
1087
102
{ACAD_XDICTIONARY
360
173A
102
}
102
{ACAD_REACTORS
330
1082
102
}
330
1082
100
AcDbVisualStyle
  2
Basic
 70
     7
 71
     1
 72
     0
 73
     1
 90
        0
 40
-0.6
 41
-30.0
 62
     5
 63
     7
 74
     0
 91
        4
 64
     7
 65
   257
 75
     1
175
     1
 42
1.0
 92
        8
 66
     7
 43
1.0
 76
     1
 77
     6
 78
     2
 67
     7
 79
     5
170
     0
171
     0
290
     0
174
     0
 93
        1
 44
0.0
173
     0
291
     1
 45
0.0
1001
ACAD
1000
AcDbSavedByObjectVersion
1070
     0
  0
VISUALSTYLE
  5
108E
102
{ACAD_XDICTIONARY
360
1748
102
}
102
{ACAD_REACTORS
330
1082
102
}
330
1082
100
AcDbVisualStyle
  2
Brighten
 70
    12
 71
     2
 72
     2
 73
     0
 90
        0
 40
-0.6
 41
-30.0
 62
     5
 63
     7
 74
     1
 91
        4
 64
     7
 65
   257
 75
     1
175
     1
 42
1.0
 92
        8
 66
     7
 43
1.0
 76
     1
 77
     6
 78
     2
 67
     7
 79
     5
170
     0
171
     0
290
     0
174
     0
 93
        1
 44
50.0
173
     0
291
     1
 45
0.0
1001
ACAD
1000
AcDbSavedByObjectVersion
1070
     0
  0
VISUALSTYLE
  5
1092
102
{ACAD_XDICTIONARY
360
1750
102
}
102
{ACAD_REACTORS
330
1082
102
}
330
1082
100
AcDbVisualStyle
  2
ColorChange
 70
    16
 71
     2
 72
     2
 73
     3
 90
        0
 40
-0.6
 41
-30.0
 62
     5
 63
     8
 74
     1
 91
        4
 64
     7
 65
   257
 75
     1
175
     1
 42
1.0
 92
        8
 66
     8
 43
1.0
 76
     1
 77
     6
 78
     2
 67
     7
 79
     5
170
     0
171
     0
290
     0
174
     0
 93
        1
 44
0.0
173
     0
291
     1
 45
0.0
1001
ACAD
1000
AcDbSavedByObjectVersion
1070
     0
  0
VISUALSTYLE
  5
108B
102
{ACAD_XDICTIONARY
360
1742
102
}
102
{ACAD_REACTORS
330
1082
102
}
330
1082
100
AcDbVisualStyle
  2
Conceptual
 70
     9
 71
     3
 72
     2
 73
     0
 90
        0
 40
-0.6
 41
-30.0
 62
     5
 63
     7
 74
     2
 91
        2
 64
     7
 65
   257
 75
     1
175
     1
 42
179.0
 92
        8
 66
     7
 43
1.0
 76
     1
 77
     6
 78
     2
 67
     7
 79
     3
170
     0
171
     0
290
     0
174
     0
 93
        1
 44
0.0
173
     0
291
     0
 45
0.0
1001
ACAD
1000
AcDbSavedByObjectVersion
1070
     0
  0
VISUALSTYLE
  5
108D
102
{ACAD_XDICTIONARY
360
1746
102
}
102
{ACAD_REACTORS
330
1082
102
}
330
1082
100
AcDbVisualStyle
  2
Dim
 70
    11
 71
     2
 72
     2
 73
     0
 90
        0
 40
-0.6
 41
-30.0
 62
     5
 63
     7
 74
     1
 91
        4
 64
     7
 65
   257
 75
     1
175
     1
 42
1.0
 92
        8
 66
     7
 43
1.0
 76
     1
 77
     6
 78
     2
 67
     7
 79
     5
170
     0
171
     0
290
     0
174
     0
 93
        1
 44
-50.0
173
     0
291
     1
 45
0.0
1001
ACAD
1000
AcDbSavedByObjectVersion
1070
     0
  0
VISUALSTYLE
  5
1095
102
{ACAD_XDICTIONARY
360
1756
102
}
102
{ACAD_REACTORS
330
1082
102
}
330
1082
100
AcDbVisualStyle
  2
EdgeColorOff
 70
    22
 71
     2
 72
     2
 73
     0
 90
        0
 40
-0.6
 41
-30.0
 62
     5
 63
     7
 74
     1
 91
        4
 64
     7
 65
   257
 75
     1
175
     1
 42
1.0
 92
        8
 66
     7
 43
1.0
 76
     1
 77
     6
 78
     2
 67
     7
 79
     5
170
     0
171
     0
290
     0
174
     0
 93
        1
 44
0.0
173
     0
291
     1
 45
0.0
1001
ACAD
1000
AcDbSavedByObjectVersion
1070
     0
  0
VISUALSTYLE
  5
1091
102
{ACAD_XDICTIONARY
360
174E
102
}
102
{ACAD_REACTORS
330
1082
102
}
330
1082
100
AcDbVisualStyle
  2
Facepattern
 70
    15
 71
     2
 72
     2
 73
     0
 90
        0
 40
-0.6
 41
-30.0
 62
     5
 63
     7
 74
     1
 91
        4
 64
     7
 65
   257
 75
     1
175
     1
 42
1.0
 92
        8
 66
     7
 43
1.0
 76
     1
 77
     6
 78
     2
 67
     7
 79
     5
170
     0
171
     0
290
     0
174
     0
 93
        1
 44
0.0
173
     0
291
     1
 45
0.0
1001
ACAD
1000
AcDbSavedByObjectVersion
1070
     0
  0
VISUALSTYLE
  5
1083
102
{ACAD_XDICTIONARY
360
1732
102
}
102
{ACAD_REACTORS
330
1082
102
}
330
1082
100
AcDbVisualStyle
  2
Flat
 70
     0
 71
     2
 72
     1
 73
     1
 90
        2
 40
-0.6
 41
30.0
 62
     5
 63
     7
 74
     0
 91
        4
 64
     7
 65
   257
 75
     1
175
     1
 42
1.0
 92
        8
 66
     7
 43
1.0
 76
     1
 77
     6
 78
     2
 67
     7
 79
     5
170
     0
171
     0
290
     0
174
     0
 93
       13
 44
0.0
173
     0
291
     1
 45
0.0
1001
ACAD
1000
AcDbSavedByObjectVersion
1070
     0
  0
VISUALSTYLE
  5
1084
102
{ACAD_XDICTIONARY
360
1734
102
}
102
{ACAD_REACTORS
330
1082
102
}
330
1082
100
AcDbVisualStyle
  2
FlatWithEdges
 70
     1
 71
     2
 72
     1
 73
     1
 90
        2
 40
-0.6
 41
30.0
 62
     5
 63
     7
 74
     1
 91
        4
 64
     7
 65
   257
 75
     1
175
     1
 42
1.0
 92
        0
 66
   257
 43
1.0
 76
     1
 77
     6
 78
     2
 67
     7
 79
     5
170
     0
171
     0
290
     0
174
     0
 93
       13
 44
0.0
173
     0
291
     1
 45
0.0
1001
ACAD
1000
AcDbSavedByObjectVersion
1070
     0
  0
VISUALSTYLE
  5
1085
102
{ACAD_XDICTIONARY
360
1736
102
}
102
{ACAD_REACTORS
330
1082
102
}
330
1082
100
AcDbVisualStyle
  2
Gouraud
 70
     2
 71
     2
 72
     2
 73
     1
 90
        2
 40
-0.6
 41
30.0
 62
     5
 63
     7
 74
     0
 91
        4
 64
     7
 65
   257
 75
     1
175
     1
 42
1.0
 92
        0
 66
     7
 43
1.0
 76
     1
 77
     6
 78
     2
 67
     7
 79
     5
170
     0
171
     0
290
     0
174
     0
 93
       13
 44
0.0
173
     0
291
     1
 45
0.0
1001
ACAD
1000
AcDbSavedByObjectVersion
1070
     0
  0
VISUALSTYLE
  5
1086
102
{ACAD_XDICTIONARY
360
1738
102
}
102
{ACAD_REACTORS
330
1082
102
}
330
1082
100
AcDbVisualStyle
  2
GouraudWithEdges
 70
     3
 71
     2
 72
     2
 73
     1
 90
        2
 40
-0.6
 41
30.0
 62
     5
 63
     7
 74
     1
 91
        4
 64
     7
 65
   257
 75
     1
175
     1
 42
1.0
 92
        0
 66
   257
 43
1.0
 76
     1
 77
     6
 78
     2
 67
     7
 79
     5
170
     0
171
     0
290
     0
174
     0
 93
       13
 44
0.0
173
     0
291
     1
 45
0.0
1001
ACAD
1000
AcDbSavedByObjectVersion
1070
     0
  0
VISUALSTYLE
  5
1093
102
{ACAD_XDICTIONARY
360
1752
102
}
102
{ACAD_REACTORS
330
1082
102
}
330
1082
100
AcDbVisualStyle
  2
JitterOff
 70
    20
 71
     2
 72
     2
 73
     0
 90
        0
 40
-0.6
 41
-30.0
 62
     5
 63
     7
 74
     1
 91
        4
 64
     7
 65
   257
 75
     1
175
     1
 42
1.0
 92
       10
 66
     7
 43
1.0
 76
     1
 77
     6
 78
     2
 67
     7
 79
     5
170
     0
171
     0
290
     0
174
     0
 93
        1
 44
0.0
173
     0
291
     1
 45
0.0
1001
ACAD
1000
AcDbSavedByObjectVersion
1070
     0
  0
VISUALSTYLE
  5
1090
102
{ACAD_XDICTIONARY
360
174C
102
}
102
{ACAD_REACTORS
330
1082
102
}
330
1082
100
AcDbVisualStyle
  2
Linepattern
 70
    14
 71
     2
 72
     2
 73
     0
 90
        0
 40
-0.6
 41
-30.0
 62
     5
 63
     7
 74
     1
 91
        4
 64
     7
 65
   257
 75
     7
175
     7
 42
1.0
 92
        8
 66
     7
 43
1.0
 76
     1
 77
     6
 78
     2
 67
     7
 79
     5
170
     0
171
     0
290
     0
174
     0
 93
        1
 44
0.0
173
     0
291
     1
 45
0.0
1001
ACAD
1000
AcDbSavedByObjectVersion
1070
     0
  0
VISUALSTYLE
  5
1094
102
{ACAD_XDICTIONARY
360
1754
102
}
102
{ACAD_REACTORS
330
1082
102
}
330
1082
100
AcDbVisualStyle
  2
OverhangOff
 70
    21
 71
     2
 72
     2
 73
     0
 90
        0
 40
-0.6
 41
-30.0
 62
     5
 63
     7
 74
     1
 91
        4
 64
     7
 65
   257
 75
     1
175
     1
 42
1.0
 92
        9
 66
     7
 43
1.0
 76
     1
 77
     6
 78
     2
 67
     7
 79
     5
170
     0
171
     0
290
     0
174
     0
 93
        1
 44
0.0
173
     0
291
     1
 45
0.0
1001
ACAD
1000
AcDbSavedByObjectVersion
1070
     0
  0
VISUALSTYLE
  5
108C
102
{ACAD_XDICTIONARY
360
1744
102
}
102
{ACAD_REACTORS
330
1082
102
}
330
1082
100
AcDbVisualStyle
  2
Realistic
 70
     8
 71
     2
 72
     2
 73
     0
 90
        0
 40
-0.6
 41
-30.0
 62
     5
 63
     7
 74
     1
 91
        0
 64
     7
 65
   257
 75
     1
175
     1
 42
1.0
 92
        8
 66
     8
 43
1.0
 76
     1
 77
     6
 78
     2
 67
     7
 79
     5
170
     0
171
     0
290
     0
174
     0
 93
       13
 44
0.0
173
     0
291
     0
 45
0.0
1001
ACAD
1000
AcDbSavedByObjectVersion
1070
     0
  0
VISUALSTYLE
  5
108F
102
{ACAD_XDICTIONARY
360
174A
102
}
102
{ACAD_REACTORS
330
1082
102
}
330
1082
100
AcDbVisualStyle
  2
Thicken
 70
    13
 71
     2
 72
     2
 73
     0
 90
        0
 40
-0.6
 41
-30.0
 62
     5
 63
     7
 74
     1
 91
        4
 64
     7
 65
   257
 75
     1
175
     1
 42
1.0
 92
       12
 66
     7
 43
1.0
 76
     1
 77
     6
 78
     2
 67
     7
 79
     5
170
     0
171
     0
290
     0
174
     0
 93
        1
 44
0.0
173
     0
291
     1
 45
0.0
1001
ACAD
1000
AcDbSavedByObjectVersion
1070
     0
  0
DICTIONARYVAR
  5
1716
102
{ACAD_REACTORS
330
3D
102
}
330
3D
100
DictionaryVariables
280
     0
  1
1:1
  0
DICTIONARYVAR
  5
1715
102
{ACAD_REACTORS
330
3D
102
}
330
3D
100
DictionaryVariables
280
     0
  1
STANDARD
  0
DICTIONARYVAR
  5
1049
102
{ACAD_REACTORS
330
3D
102
}
330
3D
100
DictionaryVariables
280
     0
  1
STANDARD
  0
DICTIONARYVAR
  5
3F
102
{ACAD_REACTORS
330
3D
102
}
330
3D
100
DictionaryVariables
280
     0
  1
2
  0
DICTIONARYVAR
  5
3E
102
{ACAD_REACTORS
330
3D
102
}
330
3D
100
DictionaryVariables
280
     0
  1
1
  0
DICTIONARYVAR
  5
1718
102
{ACAD_REACTORS
330
3D
102
}
330
3D
100
DictionaryVariables
280
     0
  1
0
  0
DICTIONARYVAR
  5
1717
102
{ACAD_REACTORS
330
3D
102
}
330
3D
100
DictionaryVariables
280
     0
  1
127
  0
DICTIONARYVAR
  5
1722
102
{ACAD_REACTORS
330
3D
102
}
330
3D
100
DictionaryVariables
280
     0
  1
2
  0
XRECORD
  5
1067
102
{ACAD_REACTORS
330
1066
102
}
330
1066
100
AcDbXrecord
280
     1
  0
DICTIONARY
  5
1728
330
1E
100
AcDbDictionary
280
     1
281
     1
  3
ACAD_XREC_ROUNDTRIP
360
1729
  0
DICTIONARY
  5
172C
330
26
100
AcDbDictionary
280
     1
281
     1
  3
ACAD_XREC_ROUNDTRIP
360
172D
  0
DICTIONARY
  5
172A
330
22
100
AcDbDictionary
280
     1
281
     1
  3
ACAD_XREC_ROUNDTRIP
360
172B
  0
DICTIONARY
  5
1073
330
1072
100
AcDbDictionary
280
     1
281
     1
  3
ACAD_XREC_ROUNDTRIP
360
1730
  3
BUMPTILE
360
1075
  3
DIFFUSETILE
360
1074
  3
OPACITYTILE
360
1078
  3
REFLECTIONTILE
360
1077
  3
REFRACTIONTILE
360
1079
  3
SPECULARTILE
360
1076
  0
DICTIONARY
  5
106B
330
106A
100
AcDbDictionary
280
     1
281
     1
  3
ACAD_XREC_ROUNDTRIP
360
172F
  3
BUMPTILE
360
106D
  3
DIFFUSETILE
360
106C
  3
OPACITYTILE
360
1070
  3
REFLECTIONTILE
360
106F
  3
REFRACTIONTILE
360
1071
  3
SPECULARTILE
360
106E
  0
DICTIONARY
  5
107B
330
107A
100
AcDbDictionary
280
     1
281
     1
  3
ACAD_XREC_ROUNDTRIP
360
1731
  3
BUMPTILE
360
107D
  3
DIFFUSETILE
360
107C
  3
OPACITYTILE
360
1080
  3
REFLECTIONTILE
360
107F
  3
REFRACTIONTILE
360
1081
  3
SPECULARTILE
360
107E
  0
DICTIONARY
  5
16DC
330
EE8
100
AcDbDictionary
280
     1
281
     1
  3
ACAD_ROUNDTRIP_2008_TABLESTYLE_CELLSTYLEMAP
360
1723
  3
ACAD_XREC_ROUNDTRIP
360
172E
  0
DICTIONARY
  5
173C
330
1088
100
AcDbDictionary
280
     1
281
     1
  3
ACAD_XREC_ROUNDTRIP
360
173D
  0
DICTIONARY
  5
1740
330
108A
100
AcDbDictionary
280
     1
281
     1
  3
ACAD_XREC_ROUNDTRIP
360
1741
  0
DICTIONARY
  5
173E
330
1089
100
AcDbDictionary
280
     1
281
     1
  3
ACAD_XREC_ROUNDTRIP
360
173F
  0
DICTIONARY
  5
173A
330
1087
100
AcDbDictionary
280
     1
281
     1
  3
ACAD_XREC_ROUNDTRIP
360
173B
  0
DICTIONARY
  5
1748
330
108E
100
AcDbDictionary
280
     1
281
     1
  3
ACAD_XREC_ROUNDTRIP
360
1749
  0
DICTIONARY
  5
1750
330
1092
100
AcDbDictionary
280
     1
281
     1
  3
ACAD_XREC_ROUNDTRIP
360
1751
  0
DICTIONARY
  5
1742
330
108B
100
AcDbDictionary
280
     1
281
     1
  3
ACAD_XREC_ROUNDTRIP
360
1743
  0
DICTIONARY
  5
1746
330
108D
100
AcDbDictionary
280
     1
281
     1
  3
ACAD_XREC_ROUNDTRIP
360
1747
  0
DICTIONARY
  5
1756
330
1095
100
AcDbDictionary
280
     1
281
     1
  3
ACAD_XREC_ROUNDTRIP
360
1757
  0
DICTIONARY
  5
174E
330
1091
100
AcDbDictionary
280
     1
281
     1
  3
ACAD_XREC_ROUNDTRIP
360
174F
  0
DICTIONARY
  5
1732
330
1083
100
AcDbDictionary
280
     1
281
     1
  3
ACAD_XREC_ROUNDTRIP
360
1733
  0
DICTIONARY
  5
1734
330
1084
100
AcDbDictionary
280
     1
281
     1
  3
ACAD_XREC_ROUNDTRIP
360
1735
  0
DICTIONARY
  5
1736
330
1085
100
AcDbDictionary
280
     1
281
     1
  3
ACAD_XREC_ROUNDTRIP
360
1737
  0
DICTIONARY
  5
1738
330
1086
100
AcDbDictionary
280
     1
281
     1
  3
ACAD_XREC_ROUNDTRIP
360
1739
  0
DICTIONARY
  5
1752
330
1093
100
AcDbDictionary
280
     1
281
     1
  3
ACAD_XREC_ROUNDTRIP
360
1753
  0
DICTIONARY
  5
174C
330
1090
100
AcDbDictionary
280
     1
281
     1
  3
ACAD_XREC_ROUNDTRIP
360
174D
  0
DICTIONARY
  5
1754
330
1094
100
AcDbDictionary
280
     1
281
     1
  3
ACAD_XREC_ROUNDTRIP
360
1755
  0
DICTIONARY
  5
1744
330
108C
100
AcDbDictionary
280
     1
281
     1
  3
ACAD_XREC_ROUNDTRIP
360
1745
  0
DICTIONARY
  5
174A
330
108F
100
AcDbDictionary
280
     1
281
     1
  3
ACAD_XREC_ROUNDTRIP
360
174B
  0
XRECORD
  5
1729
102
{ACAD_REACTORS
330
1728
102
}
330
1728
100
AcDbXrecord
280
     1
102
SHADEPLOT
 70
     0
102
SHADEPLOTRESLEVEL
 70
     2
102
SHADEPLOTCUSTOMDPI
 70
   300
  0
XRECORD
  5
172D
102
{ACAD_REACTORS
330
172C
102
}
330
172C
100
AcDbXrecord
280
     1
102
SHADEPLOT
 70
     0
102
SHADEPLOTRESLEVEL
 70
     2
102
SHADEPLOTCUSTOMDPI
 70
   300
  0
XRECORD
  5
172B
102
{ACAD_REACTORS
330
172A
102
}
330
172A
100
AcDbXrecord
280
     1
102
SHADEPLOT
 70
     0
102
SHADEPLOTRESLEVEL
 70
     2
102
SHADEPLOTCUSTOMDPI
 70
   300
  0
XRECORD
  5
1730
102
{ACAD_REACTORS
330
1073
102
}
330
1073
100
AcDbXrecord
280
     1
102
MATERIAL
148
0.0
149
0.0
149
0.0
 93
        0
 94
      127
282
     0
 72
     0
 77
     0
171
     0
175
     0
179
     0
273
     0
  0
XRECORD
  5
1075
102
{ACAD_REACTORS
330
1073
102
}
330
1073
100
AcDbXrecord
280
     1
270
     1
271
     1
  0
XRECORD
  5
1074
102
{ACAD_REACTORS
330
1073
102
}
330
1073
100
AcDbXrecord
280
     1
270
     1
271
     1
  0
XRECORD
  5
1078
102
{ACAD_REACTORS
330
1073
102
}
330
1073
100
AcDbXrecord
280
     1
270
     1
271
     1
  0
XRECORD
  5
1077
102
{ACAD_REACTORS
330
1073
102
}
330
1073
100
AcDbXrecord
280
     1
270
     1
271
     1
  0
XRECORD
  5
1079
102
{ACAD_REACTORS
330
1073
102
}
330
1073
100
AcDbXrecord
280
     1
270
     1
271
     1
  0
XRECORD
  5
1076
102
{ACAD_REACTORS
330
1073
102
}
330
1073
100
AcDbXrecord
280
     1
270
     1
271
     1
  0
XRECORD
  5
172F
102
{ACAD_REACTORS
330
106B
102
}
330
106B
100
AcDbXrecord
280
     1
102
MATERIAL
148
0.0
149
0.0
149
0.0
 93
        0
 94
      127
282
     0
 72
     0
 77
     0
171
     0
175
     0
179
     0
273
     0
  0
XRECORD
  5
106D
102
{ACAD_REACTORS
330
106B
102
}
330
106B
100
AcDbXrecord
280
     1
270
     1
271
     1
  0
XRECORD
  5
106C
102
{ACAD_REACTORS
330
106B
102
}
330
106B
100
AcDbXrecord
280
     1
270
     1
271
     1
  0
XRECORD
  5
1070
102
{ACAD_REACTORS
330
106B
102
}
330
106B
100
AcDbXrecord
280
     1
270
     1
271
     1
  0
XRECORD
  5
106F
102
{ACAD_REACTORS
330
106B
102
}
330
106B
100
AcDbXrecord
280
     1
270
     1
271
     1
  0
XRECORD
  5
1071
102
{ACAD_REACTORS
330
106B
102
}
330
106B
100
AcDbXrecord
280
     1
270
     1
271
     1
  0
XRECORD
  5
106E
102
{ACAD_REACTORS
330
106B
102
}
330
106B
100
AcDbXrecord
280
     1
270
     1
271
     1
  0
XRECORD
  5
1731
102
{ACAD_REACTORS
330
107B
102
}
330
107B
100
AcDbXrecord
280
     1
102
MATERIAL
148
0.0
149
0.0
149
0.0
 93
        0
 94
      127
282
     0
 72
     0
 77
     0
171
     0
175
     0
179
     0
273
     0
  0
XRECORD
  5
107D
102
{ACAD_REACTORS
330
107B
102
}
330
107B
100
AcDbXrecord
280
     1
270
     1
271
     1
  0
XRECORD
  5
107C
102
{ACAD_REACTORS
330
107B
102
}
330
107B
100
AcDbXrecord
280
     1
270
     1
271
     1
  0
XRECORD
  5
1080
102
{ACAD_REACTORS
330
107B
102
}
330
107B
100
AcDbXrecord
280
     1
270
     1
271
     1
  0
XRECORD
  5
107F
102
{ACAD_REACTORS
330
107B
102
}
330
107B
100
AcDbXrecord
280
     1
270
     1
271
     1
  0
XRECORD
  5
1081
102
{ACAD_REACTORS
330
107B
102
}
330
107B
100
AcDbXrecord
280
     1
270
     1
271
     1
  0
XRECORD
  5
107E
102
{ACAD_REACTORS
330
107B
102
}
330
107B
100
AcDbXrecord
280
     1
270
     1
271
     1
  0
CELLSTYLEMAP
  5
1723
102
{ACAD_REACTORS
330
16DC
102
}
330
16DC
100
AcDbCellStyleMap
 90
        3
300
CELLSTYLE
  1
TABLEFORMAT_BEGIN
 90
        5
170
     1
 91
        0
 92
    32768
 62
   257
 93
        1
300
CONTENTFORMAT
  1
CONTENTFORMAT_BEGIN
 90
        0
 91
        0
 92
        4
 93
        0
300

 40
0.0
140
1.0
 94
        5
 62
     0
340
11
144
6.0
309
CONTENTFORMAT_END
171
     1
301
MARGIN
  1
CELLMARGIN_BEGIN
 40
1.5
 40
1.5
 40
1.5
 40
1.5
 40
0.18
 40
0.18
309
CELLMARGIN_END
 94
        6
 95
        1
302
GRIDFORMAT
  1
GRIDFORMAT_BEGIN
 90
        0
 91
        1
 62
     0
 92
       -2
340
0
 93
        0
 40
0.045
309
GRIDFORMAT_END
 95
        2
302
GRIDFORMAT
  1
GRIDFORMAT_BEGIN
 90
        0
 91
        1
 62
     0
 92
       -2
340
0
 93
        0
 40
0.045
309
GRIDFORMAT_END
 95
        4
302
GRIDFORMAT
  1
GRIDFORMAT_BEGIN
 90
        0
 91
        1
 62
     0
 92
       -2
340
0
 93
        0
 40
0.045
309
GRIDFORMAT_END
 95
        8
302
GRIDFORMAT
  1
GRIDFORMAT_BEGIN
 90
        0
 91
        1
 62
     0
 92
       -2
340
0
 93
        0
 40
0.045
309
GRIDFORMAT_END
 95
       16
302
GRIDFORMAT
  1
GRIDFORMAT_BEGIN
 90
        0
 91
        1
 62
     0
 92
       -2
340
0
 93
        0
 40
0.045
309
GRIDFORMAT_END
 95
       32
302
GRIDFORMAT
  1
GRIDFORMAT_BEGIN
 90
        0
 91
        1
 62
     0
 92
       -2
340
0
 93
        0
 40
0.045
309
GRIDFORMAT_END
309
TABLEFORMAT_END
  1
CELLSTYLE_BEGIN
 90
        1
 91
        1
300
_TITLE
309
CELLSTYLE_END
300
CELLSTYLE
  1
TABLEFORMAT_BEGIN
 90
        5
170
     1
 91
        0
 92
        0
 62
   257
 93
        1
300
CONTENTFORMAT
  1
CONTENTFORMAT_BEGIN
 90
        0
 91
        0
 92
        4
 93
        0
300

 40
0.0
140
1.0
 94
        5
 62
     0
340
11
144
4.5
309
CONTENTFORMAT_END
171
     1
301
MARGIN
  1
CELLMARGIN_BEGIN
 40
1.5
 40
1.5
 40
1.5
 40
1.5
 40
0.18
 40
0.18
309
CELLMARGIN_END
 94
        6
 95
        1
302
GRIDFORMAT
  1
GRIDFORMAT_BEGIN
 90
        0
 91
        1
 62
     0
 92
       -2
340
0
 93
        0
 40
0.045
309
GRIDFORMAT_END
 95
        2
302
GRIDFORMAT
  1
GRIDFORMAT_BEGIN
 90
        0
 91
        1
 62
     0
 92
       -2
340
0
 93
        0
 40
0.045
309
GRIDFORMAT_END
 95
        4
302
GRIDFORMAT
  1
GRIDFORMAT_BEGIN
 90
        0
 91
        1
 62
     0
 92
       -2
340
0
 93
        0
 40
0.045
309
GRIDFORMAT_END
 95
        8
302
GRIDFORMAT
  1
GRIDFORMAT_BEGIN
 90
        0
 91
        1
 62
     0
 92
       -2
340
0
 93
        0
 40
0.045
309
GRIDFORMAT_END
 95
       16
302
GRIDFORMAT
  1
GRIDFORMAT_BEGIN
 90
        0
 91
        1
 62
     0
 92
       -2
340
0
 93
        0
 40
0.045
309
GRIDFORMAT_END
 95
       32
302
GRIDFORMAT
  1
GRIDFORMAT_BEGIN
 90
        0
 91
        1
 62
     0
 92
       -2
340
0
 93
        0
 40
0.045
309
GRIDFORMAT_END
309
TABLEFORMAT_END
  1
CELLSTYLE_BEGIN
 90
        2
 91
        1
300
_HEADER
309
CELLSTYLE_END
300
CELLSTYLE
  1
TABLEFORMAT_BEGIN
 90
        5
170
     1
 91
        0
 92
        0
 62
   257
 93
        1
300
CONTENTFORMAT
  1
CONTENTFORMAT_BEGIN
 90
        0
 91
        0
 92
        4
 93
        0
300

 40
0.0
140
1.0
 94
        2
 62
     0
340
11
144
4.5
309
CONTENTFORMAT_END
171
     1
301
MARGIN
  1
CELLMARGIN_BEGIN
 40
1.5
 40
1.5
 40
1.5
 40
1.5
 40
0.18
 40
0.18
309
CELLMARGIN_END
 94
        6
 95
        1
302
GRIDFORMAT
  1
GRIDFORMAT_BEGIN
 90
        0
 91
        1
 62
     0
 92
       -2
340
0
 93
        0
 40
0.045
309
GRIDFORMAT_END
 95
        2
302
GRIDFORMAT
  1
GRIDFORMAT_BEGIN
 90
        0
 91
        1
 62
     0
 92
       -2
340
0
 93
        0
 40
0.045
309
GRIDFORMAT_END
 95
        4
302
GRIDFORMAT
  1
GRIDFORMAT_BEGIN
 90
        0
 91
        1
 62
     0
 92
       -2
340
0
 93
        0
 40
0.045
309
GRIDFORMAT_END
 95
        8
302
GRIDFORMAT
  1
GRIDFORMAT_BEGIN
 90
        0
 91
        1
 62
     0
 92
       -2
340
0
 93
        0
 40
0.045
309
GRIDFORMAT_END
 95
       16
302
GRIDFORMAT
  1
GRIDFORMAT_BEGIN
 90
        0
 91
        1
 62
     0
 92
       -2
340
0
 93
        0
 40
0.045
309
GRIDFORMAT_END
 95
       32
302
GRIDFORMAT
  1
GRIDFORMAT_BEGIN
 90
        0
 91
        1
 62
     0
 92
       -2
340
0
 93
        0
 40
0.045
309
GRIDFORMAT_END
309
TABLEFORMAT_END
  1
CELLSTYLE_BEGIN
 90
        3
 91
        2
300
_DATA
309
CELLSTYLE_END
  0
XRECORD
  5
172E
102
{ACAD_REACTORS
330
16DC
102
}
330
16DC
100
AcDbXrecord
280
     1
102
ACAD_ROUNDTRIP_PRE2007_TABLESTYLE
 90
        4
 91
        0
  1

 92
        4
 93
        0
  2

 94
        4
 95
        0
  3

  0
XRECORD
  5
173D
102
{ACAD_REACTORS
330
173C
102
}
330
173C
100
AcDbXrecord
280
     1
102
RTVSPropertyOp0
 70
     1
102
RTVSPropertyOp1
 70
     1
102
RTVSPropertyOp2
 70
     1
102
RTVSPropertyOp3
 70
     1
102
RTVSPropertyOp4
 70
     1
102
RTVSPropertyOp5
 70
     1
102
RTVSPropertyOp6
 70
     1
102
RTVSPropertyOp7
 70
     1
102
RTVSPropertyOp8
 70
     1
102
RTVSPropertyOp9
 70
     1
102
RTVSPropertyOp10
 70
     1
102
RTVSPropertyOp11
 70
     1
102
RTVSPropertyOp12
 70
     1
102
RTVSPropertyOp13
 70
     1
102
RTVSPropertyOp14
 70
     1
102
RTVSPropertyOp15
 70
     1
102
RTVSPropertyOp16
 70
     1
102
RTVSPropertyOp17
 70
     1
102
RTVSPropertyOp18
 70
     1
102
RTVSPropertyOp19
 70
     1
102
RTVSPropertyOp20
 70
     1
102
RTVSPropertyOp21
 70
     1
102
RTVSPropertyOp22
 70
     1
102
RTVSPropertyOp23
 70
     1
102
RTVSPropertyOp24
 70
     1
102
RTVSPropertyOp25
 70
     1
102
RTVSPropertyOp26
 70
     1
102
RTVSPropertyOp27
 70
     1
  0
XRECORD
  5
1741
102
{ACAD_REACTORS
330
1740
102
}
330
1740
100
AcDbXrecord
280
     1
102
RTVSPropertyOp0
 70
     1
102
RTVSPropertyOp1
 70
     1
102
RTVSPropertyOp2
 70
     1
102
RTVSPropertyOp3
 70
     1
102
RTVSPropertyOp4
 70
     1
102
RTVSPropertyOp5
 70
     1
102
RTVSPropertyOp6
 70
     1
102
RTVSPropertyOp7
 70
     1
102
RTVSPropertyOp8
 70
     1
102
RTVSPropertyOp9
 70
     1
102
RTVSPropertyOp10
 70
     1
102
RTVSPropertyOp11
 70
     1
102
RTVSPropertyOp12
 70
     1
102
RTVSPropertyOp13
 70
     1
102
RTVSPropertyOp14
 70
     1
102
RTVSPropertyOp15
 70
     1
102
RTVSPropertyOp16
 70
     1
102
RTVSPropertyOp17
 70
     1
102
RTVSPropertyOp18
 70
     1
102
RTVSPropertyOp19
 70
     1
102
RTVSPropertyOp20
 70
     1
102
RTVSPropertyOp21
 70
     1
102
RTVSPropertyOp22
 70
     1
102
RTVSPropertyOp23
 70
     1
102
RTVSPropertyOp24
 70
     1
102
RTVSPropertyOp25
 70
     1
102
RTVSPropertyOp26
 70
     1
102
RTVSPropertyOp27
 70
     1
  0
XRECORD
  5
173F
102
{ACAD_REACTORS
330
173E
102
}
330
173E
100
AcDbXrecord
280
     1
102
RTVSPropertyOp0
 70
     1
102
RTVSPropertyOp1
 70
     1
102
RTVSPropertyOp2
 70
     1
102
RTVSPropertyOp3
 70
     1
102
RTVSPropertyOp4
 70
     1
102
RTVSPropertyOp5
 70
     1
102
RTVSPropertyOp6
 70
     1
102
RTVSPropertyOp7
 70
     1
102
RTVSPropertyOp8
 70
     1
102
RTVSPropertyOp9
 70
     1
102
RTVSPropertyOp10
 70
     1
102
RTVSPropertyOp11
 70
     1
102
RTVSPropertyOp12
 70
     1
102
RTVSPropertyOp13
 70
     1
102
RTVSPropertyOp14
 70
     1
102
RTVSPropertyOp15
 70
     1
102
RTVSPropertyOp16
 70
     1
102
RTVSPropertyOp17
 70
     1
102
RTVSPropertyOp18
 70
     1
102
RTVSPropertyOp19
 70
     1
102
RTVSPropertyOp20
 70
     1
102
RTVSPropertyOp21
 70
     1
102
RTVSPropertyOp22
 70
     1
102
RTVSPropertyOp23
 70
     1
102
RTVSPropertyOp24
 70
     1
102
RTVSPropertyOp25
 70
     1
102
RTVSPropertyOp26
 70
     1
102
RTVSPropertyOp27
 70
     1
  0
XRECORD
  5
173B
102
{ACAD_REACTORS
330
173A
102
}
330
173A
100
AcDbXrecord
280
     1
102
RTVSPropertyOp0
 70
     1
102
RTVSPropertyOp1
 70
     1
102
RTVSPropertyOp2
 70
     1
102
RTVSPropertyOp3
 70
     1
102
RTVSPropertyOp4
 70
     1
102
RTVSPropertyOp5
 70
     1
102
RTVSPropertyOp6
 70
     1
102
RTVSPropertyOp7
 70
     1
102
RTVSPropertyOp8
 70
     1
102
RTVSPropertyOp9
 70
     1
102
RTVSPropertyOp10
 70
     1
102
RTVSPropertyOp11
 70
     1
102
RTVSPropertyOp12
 70
     1
102
RTVSPropertyOp13
 70
     1
102
RTVSPropertyOp14
 70
     1
102
RTVSPropertyOp15
 70
     1
102
RTVSPropertyOp16
 70
     1
102
RTVSPropertyOp17
 70
     1
102
RTVSPropertyOp18
 70
     1
102
RTVSPropertyOp19
 70
     1
102
RTVSPropertyOp20
 70
     1
102
RTVSPropertyOp21
 70
     1
102
RTVSPropertyOp22
 70
     1
102
RTVSPropertyOp23
 70
     1
102
RTVSPropertyOp24
 70
     1
102
RTVSPropertyOp25
 70
     1
102
RTVSPropertyOp26
 70
     1
102
RTVSPropertyOp27
 70
     1
  0
XRECORD
  5
1749
102
{ACAD_REACTORS
330
1748
102
}
330
1748
100
AcDbXrecord
280
     1
102
RTVSPropertyOp0
 70
     1
102
RTVSPropertyOp1
 70
     1
102
RTVSPropertyOp2
 70
     1
102
RTVSPropertyOp3
 70
     1
102
RTVSPropertyOp4
 70
     1
102
RTVSPropertyOp5
 70
     1
102
RTVSPropertyOp6
 70
     1
102
RTVSPropertyOp7
 70
     1
102
RTVSPropertyOp8
 70
     1
102
RTVSPropertyOp9
 70
     1
102
RTVSPropertyOp10
 70
     1
102
RTVSPropertyOp11
 70
     1
102
RTVSPropertyOp12
 70
     1
102
RTVSPropertyOp13
 70
     1
102
RTVSPropertyOp14
 70
     1
102
RTVSPropertyOp15
 70
     1
102
RTVSPropertyOp16
 70
     1
102
RTVSPropertyOp17
 70
     1
102
RTVSPropertyOp18
 70
     1
102
RTVSPropertyOp19
 70
     1
102
RTVSPropertyOp20
 70
     1
102
RTVSPropertyOp21
 70
     1
102
RTVSPropertyOp22
 70
     1
102
RTVSPropertyOp23
 70
     1
102
RTVSPropertyOp24
 70
     1
102
RTVSPropertyOp25
 70
     1
102
RTVSPropertyOp26
 70
     1
102
RTVSPropertyOp27
 70
     1
  0
XRECORD
  5
1751
102
{ACAD_REACTORS
330
1750
102
}
330
1750
100
AcDbXrecord
280
     1
102
RTVSPropertyOp0
 70
     1
102
RTVSPropertyOp1
 70
     1
102
RTVSPropertyOp2
 70
     1
102
RTVSPropertyOp3
 70
     1
102
RTVSPropertyOp4
 70
     1
102
RTVSPropertyOp5
 70
     1
102
RTVSPropertyOp6
 70
     1
102
RTVSPropertyOp7
 70
     1
102
RTVSPropertyOp8
 70
     1
102
RTVSPropertyOp9
 70
     1
102
RTVSPropertyOp10
 70
     1
102
RTVSPropertyOp11
 70
     1
102
RTVSPropertyOp12
 70
     1
102
RTVSPropertyOp13
 70
     1
102
RTVSPropertyOp14
 70
     1
102
RTVSPropertyOp15
 70
     1
102
RTVSPropertyOp16
 70
     1
102
RTVSPropertyOp17
 70
     1
102
RTVSPropertyOp18
 70
     1
102
RTVSPropertyOp19
 70
     1
102
RTVSPropertyOp20
 70
     1
102
RTVSPropertyOp21
 70
     1
102
RTVSPropertyOp22
 70
     1
102
RTVSPropertyOp23
 70
     1
102
RTVSPropertyOp24
 70
     1
102
RTVSPropertyOp25
 70
     1
102
RTVSPropertyOp26
 70
     1
102
RTVSPropertyOp27
 70
     1
  0
XRECORD
  5
1743
102
{ACAD_REACTORS
330
1742
102
}
330
1742
100
AcDbXrecord
280
     1
102
RTVSPropertyOp0
 70
     1
102
RTVSPropertyOp1
 70
     1
102
RTVSPropertyOp2
 70
     1
102
RTVSPropertyOp3
 70
     1
102
RTVSPropertyOp4
 70
     1
102
RTVSPropertyOp5
 70
     1
102
RTVSPropertyOp6
 70
     1
102
RTVSPropertyOp7
 70
     1
102
RTVSPropertyOp8
 70
     1
102
RTVSPropertyOp9
 70
     1
102
RTVSPropertyOp10
 70
     1
102
RTVSPropertyOp11
 70
     1
102
RTVSPropertyOp12
 70
     1
102
RTVSPropertyOp13
 70
     1
102
RTVSPropertyOp14
 70
     1
102
RTVSPropertyOp15
 70
     1
102
RTVSPropertyOp16
 70
     1
102
RTVSPropertyOp17
 70
     1
102
RTVSPropertyOp18
 70
     1
102
RTVSPropertyOp19
 70
     1
102
RTVSPropertyOp20
 70
     1
102
RTVSPropertyOp21
 70
     1
102
RTVSPropertyOp22
 70
     1
102
RTVSPropertyOp23
 70
     1
102
RTVSPropertyOp24
 70
     1
102
RTVSPropertyOp25
 70
     1
102
RTVSPropertyOp26
 70
     1
102
RTVSPropertyOp27
 70
     1
  0
XRECORD
  5
1747
102
{ACAD_REACTORS
330
1746
102
}
330
1746
100
AcDbXrecord
280
     1
102
RTVSPropertyOp0
 70
     1
102
RTVSPropertyOp1
 70
     1
102
RTVSPropertyOp2
 70
     1
102
RTVSPropertyOp3
 70
     1
102
RTVSPropertyOp4
 70
     1
102
RTVSPropertyOp5
 70
     1
102
RTVSPropertyOp6
 70
     1
102
RTVSPropertyOp7
 70
     1
102
RTVSPropertyOp8
 70
     1
102
RTVSPropertyOp9
 70
     1
102
RTVSPropertyOp10
 70
     1
102
RTVSPropertyOp11
 70
     1
102
RTVSPropertyOp12
 70
     1
102
RTVSPropertyOp13
 70
     1
102
RTVSPropertyOp14
 70
     1
102
RTVSPropertyOp15
 70
     1
102
RTVSPropertyOp16
 70
     1
102
RTVSPropertyOp17
 70
     1
102
RTVSPropertyOp18
 70
     1
102
RTVSPropertyOp19
 70
     1
102
RTVSPropertyOp20
 70
     1
102
RTVSPropertyOp21
 70
     1
102
RTVSPropertyOp22
 70
     1
102
RTVSPropertyOp23
 70
     1
102
RTVSPropertyOp24
 70
     1
102
RTVSPropertyOp25
 70
     1
102
RTVSPropertyOp26
 70
     1
102
RTVSPropertyOp27
 70
     1
  0
XRECORD
  5
1757
102
{ACAD_REACTORS
330
1756
102
}
330
1756
100
AcDbXrecord
280
     1
102
RTVSPropertyOp0
 70
     0
102
RTVSPropertyOp1
 70
     0
102
RTVSPropertyOp2
 70
     0
102
RTVSPropertyOp3
 70
     0
102
RTVSPropertyOp4
 70
     0
102
RTVSPropertyOp5
 70
     0
102
RTVSPropertyOp6
 70
     0
102
RTVSPropertyOp7
 70
     0
102
RTVSPropertyOp8
 70
     0
102
RTVSPropertyOp9
 70
     0
102
RTVSPropertyOp10
 70
     0
102
RTVSPropertyOp11
 70
     0
102
RTVSPropertyOp12
 70
     0
102
RTVSPropertyOp13
 70
     0
102
RTVSPropertyOp14
 70
     2
102
RTVSPropertyOp15
 70
     0
102
RTVSPropertyOp16
 70
     0
102
RTVSPropertyOp17
 70
     0
102
RTVSPropertyOp18
 70
     0
102
RTVSPropertyOp19
 70
     0
102
RTVSPropertyOp20
 70
     0
102
RTVSPropertyOp21
 70
     0
102
RTVSPropertyOp22
 70
     0
102
RTVSPropertyOp23
 70
     0
102
RTVSPropertyOp24
 70
     0
102
RTVSPropertyOp25
 70
     0
102
RTVSPropertyOp26
 70
     0
102
RTVSPropertyOp27
 70
     0
  0
XRECORD
  5
174F
102
{ACAD_REACTORS
330
174E
102
}
330
174E
100
AcDbXrecord
280
     1
102
RTVSPropertyOp0
 70
     1
102
RTVSPropertyOp1
 70
     1
102
RTVSPropertyOp2
 70
     1
102
RTVSPropertyOp3
 70
     1
102
RTVSPropertyOp4
 70
     1
102
RTVSPropertyOp5
 70
     1
102
RTVSPropertyOp6
 70
     1
102
RTVSPropertyOp7
 70
     1
102
RTVSPropertyOp8
 70
     1
102
RTVSPropertyOp9
 70
     1
102
RTVSPropertyOp10
 70
     1
102
RTVSPropertyOp11
 70
     1
102
RTVSPropertyOp12
 70
     1
102
RTVSPropertyOp13
 70
     1
102
RTVSPropertyOp14
 70
     1
102
RTVSPropertyOp15
 70
     1
102
RTVSPropertyOp16
 70
     1
102
RTVSPropertyOp17
 70
     1
102
RTVSPropertyOp18
 70
     1
102
RTVSPropertyOp19
 70
     1
102
RTVSPropertyOp20
 70
     1
102
RTVSPropertyOp21
 70
     1
102
RTVSPropertyOp22
 70
     1
102
RTVSPropertyOp23
 70
     1
102
RTVSPropertyOp24
 70
     1
102
RTVSPropertyOp25
 70
     1
102
RTVSPropertyOp26
 70
     1
102
RTVSPropertyOp27
 70
     1
  0
XRECORD
  5
1733
102
{ACAD_REACTORS
330
1732
102
}
330
1732
100
AcDbXrecord
280
     1
102
RTVSPropertyOp0
 70
     1
102
RTVSPropertyOp1
 70
     1
102
RTVSPropertyOp2
 70
     1
102
RTVSPropertyOp3
 70
     1
102
RTVSPropertyOp4
 70
     1
102
RTVSPropertyOp5
 70
     1
102
RTVSPropertyOp6
 70
     1
102
RTVSPropertyOp7
 70
     1
102
RTVSPropertyOp8
 70
     1
102
RTVSPropertyOp9
 70
     1
102
RTVSPropertyOp10
 70
     1
102
RTVSPropertyOp11
 70
     1
102
RTVSPropertyOp12
 70
     1
102
RTVSPropertyOp13
 70
     1
102
RTVSPropertyOp14
 70
     1
102
RTVSPropertyOp15
 70
     1
102
RTVSPropertyOp16
 70
     1
102
RTVSPropertyOp17
 70
     1
102
RTVSPropertyOp18
 70
     1
102
RTVSPropertyOp19
 70
     1
102
RTVSPropertyOp20
 70
     1
102
RTVSPropertyOp21
 70
     1
102
RTVSPropertyOp22
 70
     1
102
RTVSPropertyOp23
 70
     1
102
RTVSPropertyOp24
 70
     1
102
RTVSPropertyOp25
 70
     1
102
RTVSPropertyOp26
 70
     1
102
RTVSPropertyOp27
 70
     1
  0
XRECORD
  5
1735
102
{ACAD_REACTORS
330
1734
102
}
330
1734
100
AcDbXrecord
280
     1
102
RTVSPropertyOp0
 70
     1
102
RTVSPropertyOp1
 70
     1
102
RTVSPropertyOp2
 70
     1
102
RTVSPropertyOp3
 70
     1
102
RTVSPropertyOp4
 70
     1
102
RTVSPropertyOp5
 70
     1
102
RTVSPropertyOp6
 70
     1
102
RTVSPropertyOp7
 70
     1
102
RTVSPropertyOp8
 70
     1
102
RTVSPropertyOp9
 70
     1
102
RTVSPropertyOp10
 70
     1
102
RTVSPropertyOp11
 70
     1
102
RTVSPropertyOp12
 70
     1
102
RTVSPropertyOp13
 70
     1
102
RTVSPropertyOp14
 70
     1
102
RTVSPropertyOp15
 70
     1
102
RTVSPropertyOp16
 70
     1
102
RTVSPropertyOp17
 70
     1
102
RTVSPropertyOp18
 70
     1
102
RTVSPropertyOp19
 70
     1
102
RTVSPropertyOp20
 70
     1
102
RTVSPropertyOp21
 70
     1
102
RTVSPropertyOp22
 70
     1
102
RTVSPropertyOp23
 70
     1
102
RTVSPropertyOp24
 70
     1
102
RTVSPropertyOp25
 70
     1
102
RTVSPropertyOp26
 70
     1
102
RTVSPropertyOp27
 70
     1
  0
XRECORD
  5
1737
102
{ACAD_REACTORS
330
1736
102
}
330
1736
100
AcDbXrecord
280
     1
102
RTVSPropertyOp0
 70
     1
102
RTVSPropertyOp1
 70
     1
102
RTVSPropertyOp2
 70
     1
102
RTVSPropertyOp3
 70
     1
102
RTVSPropertyOp4
 70
     1
102
RTVSPropertyOp5
 70
     1
102
RTVSPropertyOp6
 70
     1
102
RTVSPropertyOp7
 70
     1
102
RTVSPropertyOp8
 70
     1
102
RTVSPropertyOp9
 70
     1
102
RTVSPropertyOp10
 70
     1
102
RTVSPropertyOp11
 70
     1
102
RTVSPropertyOp12
 70
     1
102
RTVSPropertyOp13
 70
     1
102
RTVSPropertyOp14
 70
     1
102
RTVSPropertyOp15
 70
     1
102
RTVSPropertyOp16
 70
     1
102
RTVSPropertyOp17
 70
     1
102
RTVSPropertyOp18
 70
     1
102
RTVSPropertyOp19
 70
     1
102
RTVSPropertyOp20
 70
     1
102
RTVSPropertyOp21
 70
     1
102
RTVSPropertyOp22
 70
     1
102
RTVSPropertyOp23
 70
     1
102
RTVSPropertyOp24
 70
     1
102
RTVSPropertyOp25
 70
     1
102
RTVSPropertyOp26
 70
     1
102
RTVSPropertyOp27
 70
     1
  0
XRECORD
  5
1739
102
{ACAD_REACTORS
330
1738
102
}
330
1738
100
AcDbXrecord
280
     1
102
RTVSPropertyOp0
 70
     1
102
RTVSPropertyOp1
 70
     1
102
RTVSPropertyOp2
 70
     1
102
RTVSPropertyOp3
 70
     1
102
RTVSPropertyOp4
 70
     1
102
RTVSPropertyOp5
 70
     1
102
RTVSPropertyOp6
 70
     1
102
RTVSPropertyOp7
 70
     1
102
RTVSPropertyOp8
 70
     1
102
RTVSPropertyOp9
 70
     1
102
RTVSPropertyOp10
 70
     1
102
RTVSPropertyOp11
 70
     1
102
RTVSPropertyOp12
 70
     1
102
RTVSPropertyOp13
 70
     1
102
RTVSPropertyOp14
 70
     1
102
RTVSPropertyOp15
 70
     1
102
RTVSPropertyOp16
 70
     1
102
RTVSPropertyOp17
 70
     1
102
RTVSPropertyOp18
 70
     1
102
RTVSPropertyOp19
 70
     1
102
RTVSPropertyOp20
 70
     1
102
RTVSPropertyOp21
 70
     1
102
RTVSPropertyOp22
 70
     1
102
RTVSPropertyOp23
 70
     1
102
RTVSPropertyOp24
 70
     1
102
RTVSPropertyOp25
 70
     1
102
RTVSPropertyOp26
 70
     1
102
RTVSPropertyOp27
 70
     1
  0
XRECORD
  5
1753
102
{ACAD_REACTORS
330
1752
102
}
330
1752
100
AcDbXrecord
280
     1
102
RTVSPropertyOp0
 70
     0
102
RTVSPropertyOp1
 70
     0
102
RTVSPropertyOp2
 70
     0
102
RTVSPropertyOp3
 70
     0
102
RTVSPropertyOp4
 70
     0
102
RTVSPropertyOp5
 70
     0
102
RTVSPropertyOp6
 70
     0
102
RTVSPropertyOp7
 70
     0
102
RTVSPropertyOp8
 70
     0
102
RTVSPropertyOp9
 70
     0
102
RTVSPropertyOp10
 70
     0
102
RTVSPropertyOp11
 70
     0
102
RTVSPropertyOp12
 70
     0
102
RTVSPropertyOp13
 70
     0
102
RTVSPropertyOp14
 70
     2
102
RTVSPropertyOp15
 70
     0
102
RTVSPropertyOp16
 70
     0
102
RTVSPropertyOp17
 70
     0
102
RTVSPropertyOp18
 70
     0
102
RTVSPropertyOp19
 70
     0
102
RTVSPropertyOp20
 70
     0
102
RTVSPropertyOp21
 70
     0
102
RTVSPropertyOp22
 70
     0
102
RTVSPropertyOp23
 70
     0
102
RTVSPropertyOp24
 70
     0
102
RTVSPropertyOp25
 70
     0
102
RTVSPropertyOp26
 70
     0
102
RTVSPropertyOp27
 70
     0
  0
XRECORD
  5
174D
102
{ACAD_REACTORS
330
174C
102
}
330
174C
100
AcDbXrecord
280
     1
102
RTVSPropertyOp0
 70
     1
102
RTVSPropertyOp1
 70
     1
102
RTVSPropertyOp2
 70
     1
102
RTVSPropertyOp3
 70
     1
102
RTVSPropertyOp4
 70
     1
102
RTVSPropertyOp5
 70
     1
102
RTVSPropertyOp6
 70
     1
102
RTVSPropertyOp7
 70
     1
102
RTVSPropertyOp8
 70
     1
102
RTVSPropertyOp9
 70
     1
102
RTVSPropertyOp10
 70
     1
102
RTVSPropertyOp11
 70
     1
102
RTVSPropertyOp12
 70
     1
102
RTVSPropertyOp13
 70
     1
102
RTVSPropertyOp14
 70
     1
102
RTVSPropertyOp15
 70
     1
102
RTVSPropertyOp16
 70
     1
102
RTVSPropertyOp17
 70
     1
102
RTVSPropertyOp18
 70
     1
102
RTVSPropertyOp19
 70
     1
102
RTVSPropertyOp20
 70
     1
102
RTVSPropertyOp21
 70
     1
102
RTVSPropertyOp22
 70
     1
102
RTVSPropertyOp23
 70
     1
102
RTVSPropertyOp24
 70
     1
102
RTVSPropertyOp25
 70
     1
102
RTVSPropertyOp26
 70
     1
102
RTVSPropertyOp27
 70
     1
  0
XRECORD
  5
1755
102
{ACAD_REACTORS
330
1754
102
}
330
1754
100
AcDbXrecord
280
     1
102
RTVSPropertyOp0
 70
     0
102
RTVSPropertyOp1
 70
     0
102
RTVSPropertyOp2
 70
     0
102
RTVSPropertyOp3
 70
     0
102
RTVSPropertyOp4
 70
     0
102
RTVSPropertyOp5
 70
     0
102
RTVSPropertyOp6
 70
     0
102
RTVSPropertyOp7
 70
     0
102
RTVSPropertyOp8
 70
     0
102
RTVSPropertyOp9
 70
     0
102
RTVSPropertyOp10
 70
     0
102
RTVSPropertyOp11
 70
     0
102
RTVSPropertyOp12
 70
     0
102
RTVSPropertyOp13
 70
     0
102
RTVSPropertyOp14
 70
     2
102
RTVSPropertyOp15
 70
     0
102
RTVSPropertyOp16
 70
     0
102
RTVSPropertyOp17
 70
     0
102
RTVSPropertyOp18
 70
     0
102
RTVSPropertyOp19
 70
     0
102
RTVSPropertyOp20
 70
     0
102
RTVSPropertyOp21
 70
     0
102
RTVSPropertyOp22
 70
     0
102
RTVSPropertyOp23
 70
     0
102
RTVSPropertyOp24
 70
     0
102
RTVSPropertyOp25
 70
     0
102
RTVSPropertyOp26
 70
     0
102
RTVSPropertyOp27
 70
     0
  0
XRECORD
  5
1745
102
{ACAD_REACTORS
330
1744
102
}
330
1744
100
AcDbXrecord
280
     1
102
RTVSPropertyOp0
 70
     1
102
RTVSPropertyOp1
 70
     1
102
RTVSPropertyOp2
 70
     1
102
RTVSPropertyOp3
 70
     1
102
RTVSPropertyOp4
 70
     1
102
RTVSPropertyOp5
 70
     1
102
RTVSPropertyOp6
 70
     1
102
RTVSPropertyOp7
 70
     1
102
RTVSPropertyOp8
 70
     1
102
RTVSPropertyOp9
 70
     1
102
RTVSPropertyOp10
 70
     1
102
RTVSPropertyOp11
 70
     1
102
RTVSPropertyOp12
 70
     1
102
RTVSPropertyOp13
 70
     1
102
RTVSPropertyOp14
 70
     1
102
RTVSPropertyOp15
 70
     1
102
RTVSPropertyOp16
 70
     1
102
RTVSPropertyOp17
 70
     1
102
RTVSPropertyOp18
 70
     1
102
RTVSPropertyOp19
 70
     1
102
RTVSPropertyOp20
 70
     1
102
RTVSPropertyOp21
 70
     1
102
RTVSPropertyOp22
 70
     1
102
RTVSPropertyOp23
 70
     1
102
RTVSPropertyOp24
 70
     1
102
RTVSPropertyOp25
 70
     1
102
RTVSPropertyOp26
 70
     1
102
RTVSPropertyOp27
 70
     1
  0
XRECORD
  5
174B
102
{ACAD_REACTORS
330
174A
102
}
330
174A
100
AcDbXrecord
280
     1
102
RTVSPropertyOp0
 70
     1
102
RTVSPropertyOp1
 70
     1
102
RTVSPropertyOp2
 70
     1
102
RTVSPropertyOp3
 70
     1
102
RTVSPropertyOp4
 70
     1
102
RTVSPropertyOp5
 70
     1
102
RTVSPropertyOp6
 70
     1
102
RTVSPropertyOp7
 70
     1
102
RTVSPropertyOp8
 70
     1
102
RTVSPropertyOp9
 70
     1
102
RTVSPropertyOp10
 70
     1
102
RTVSPropertyOp11
 70
     1
102
RTVSPropertyOp12
 70
     1
102
RTVSPropertyOp13
 70
     1
102
RTVSPropertyOp14
 70
     1
102
RTVSPropertyOp15
 70
     1
102
RTVSPropertyOp16
 70
     1
102
RTVSPropertyOp17
 70
     1
102
RTVSPropertyOp18
 70
     1
102
RTVSPropertyOp19
 70
     1
102
RTVSPropertyOp20
 70
     1
102
RTVSPropertyOp21
 70
     1
102
RTVSPropertyOp22
 70
     1
102
RTVSPropertyOp23
 70
     1
102
RTVSPropertyOp24
 70
     1
102
RTVSPropertyOp25
 70
     1
102
RTVSPropertyOp26
 70
     1
102
RTVSPropertyOp27
 70
     1
  0
ENDSEC
  0
EOF
