  0
SECTION
  2
HEADER
  9
$ACADVER
  1
AC1015
  9
$ACADMAINTVER
 70
    20
  9
$DWGCODEPAGE
  3
ANSI_1252
  9
$INSBASE
 10
0.0
 20
0.0
 30
0.0
  9
$EXTMIN
 10
4323.890799189644
 20
2663.495344429906
 30
0.0
  9
$EXTMAX
 10
4326.051541518875
 20
2663.871792124283
 30
0.0
  9
$LIMMIN
 10
0.0
 20
0.0
  9
$LIMMAX
 10
420.0
 20
297.0
  9
$ORTHOMODE
 70
     1
  9
$REGENMODE
 70
     1
  9
$FILLMODE
 70
     1
  9
$QTEXTMODE
 70
     0
  9
$MIRRTEXT
 70
     1
  9
$LTSCALE
 40
1.0
  9
$ATTMODE
 70
     1
  9
$TEXTSIZE
 40
2.5
  9
$TRACEWID
 40
1.0
  9
$TEXTSTYLE
  7
SANINDUSA
  9
$CLAYER
  8
0
  9
$CELTYPE
  6
ByLayer
  9
$CECOLOR
 62
   256
  9
$CELTSCALE
 40
1.0
  9
$DISPSILH
 70
     0
  9
$DIMSCALE
 40
1.0
  9
$DIMASZ
 40
2.0
  9
$DIMEXO
 40
1.0
  9
$DIMDLI
 40
1.0
  9
$DIMRND
 40
0.0
  9
$DIMDLE
 40
0.0
  9
$DIMEXE
 40
1.0
  9
$DIMTP
 40
0.0
  9
$DIMTM
 40
0.0
  9
$DIMTXT
 40
2.0
  9
$DIMCEN
 40
0.0
  9
$DIMTSZ
 40
0.0
  9
$DIMTOL
 70
     0
  9
$DIMLIM
 70
     0
  9
$DIMTIH
 70
     0
  9
$DIMTOH
 70
     0
  9
$DIMSE1
 70
     0
  9
$DIMSE2
 70
     0
  9
$DIMTAD
 70
     1
  9
$DIMZIN
 70
     8
  9
$DIMBLK
  1

  9
$DIMASO
 70
     1
  9
$DIMSHO
 70
     1
  9
$DIMPOST
  1

  9
$DIMAPOST
  1

  9
$DIMALT
 70
     0
  9
$DIMALTD
 70
     3
  9
$DIMALTF
 40
0.03937007874016
  9
$DIMLFAC
 40
1.0
  9
$DIMTOFL
 70
     1
  9
$DIMTVP
 40
0.0
  9
$DIMTIX
 70
     0
  9
$DIMSOXD
 70
     0
  9
$DIMSAH
 70
     0
  9
$DIMBLK1
  1

  9
$DIMBLK2
  1

  9
$DIMSTYLE
  2
SANINDUSA
  9
$DIMCLRD
 70
   256
  9
$DIMCLRE
 70
   256
  9
$DIMCLRT
 70
   256
  9
$DIMTFAC
 40
1.0
  9
$DIMGAP
 40
1.0
  9
$DIMJUST
 70
     0
  9
$DIMSD1
 70
     0
  9
$DIMSD2
 70
     0
  9
$DIMTOLJ
 70
     0
  9
$DIMTZIN
 70
     8
  9
$DIMALTZ
 70
     0
  9
$DIMALTTZ
 70
     0
  9
$DIMUPT
 70
     0
  9
$DIMDEC
 70
     1
  9
$DIMTDEC
 70
     1
  9
$DIMALTU
 70
     2
  9
$DIMALTTD
 70
     3
  9
$DIMTXSTY
  7
SANINDUSA
  9
$DIMAUNIT
 70
     0
  9
$DIMADEC
 70
     1
  9
$DIMALTRND
 40
0.0
  9
$DIMAZIN
 70
     0
  9
$DIMDSEP
 70
    44
  9
$DIMATFIT
 70
     3
  9
$DIMFRAC
 70
     0
  9
$DIMLDRBLK
  1

  9
$DIMLUNIT
 70
     2
  9
$DIMLWD
 70
    -1
  9
$DIMLWE
 70
    -1
  9
$DIMTMOVE
 70
     0
  9
$LUNITS
 70
     2
  9
$LUPREC
 70
     4
  9
$SKETCHINC
 40
1.0
  9
$FILLETRAD
 40
0.0
  9
$AUNITS
 70
     0
  9
$AUPREC
 70
     0
  9
$MENU
  1
.
  9
$ELEVATION
 40
0.0
  9
$PELEVATION
 40
0.0
  9
$THICKNESS
 40
0.0
  9
$LIMCHECK
 70
     0
  9
$CHAMFERA
 40
10.0
  9
$CHAMFERB
 40
10.0
  9
$CHAMFERC
 40
20.0
  9
$CHAMFERD
 40
0.0
  9
$SKPOLY
 70
     0
  9
$TDCREATE
 40
2455776.715337454
  9
$TDUCREATE
 40
2455776.673670787
  9
$TDUPDATE
 40
2456111.487624595
  9
$TDUUPDATE
 40
2456111.445957929
  9
$TDINDWG
 40
0.0050408681
  9
$TDUSRTIMER
 40
0.0050408681
  9
$USRTIMER
 70
     1
  9
$ANGBASE
 50
0.0
  9
$ANGDIR
 70
     0
  9
$PDMODE
 70
     0
  9
$PDSIZE
 40
0.0
  9
$PLINEWID
 40
0.0
  9
$SPLFRAME
 70
     0
  9
$SPLINETYPE
 70
     6
  9
$SPLINESEGS
 70
     8
  9
$HANDSEED
  5
1849
  9
$SURFTAB1
 70
     6
  9
$SURFTAB2
 70
     6
  9
$SURFTYPE
 70
     6
  9
$SURFU
 70
     6
  9
$SURFV
 70
     6
  9
$UCSBASE
  2

  9
$UCSNAME
  2

  9
$UCSORG
 10
0.0
 20
0.0
 30
0.0
  9
$UCSXDIR
 10
1.0
 20
0.0
 30
0.0
  9
$UCSYDIR
 10
0.0
 20
1.0
 30
0.0
  9
$UCSORTHOREF
  2

  9
$UCSORTHOVIEW
 70
     0
  9
$UCSORGTOP
 10
0.0
 20
0.0
 30
0.0
  9
$UCSORGBOTTOM
 10
0.0
 20
0.0
 30
0.0
  9
$UCSORGLEFT
 10
0.0
 20
0.0
 30
0.0
  9
$UCSORGRIGHT
 10
0.0
 20
0.0
 30
0.0
  9
$UCSORGFRONT
 10
0.0
 20
0.0
 30
0.0
  9
$UCSORGBACK
 10
0.0
 20
0.0
 30
0.0
  9
$PUCSBASE
  2

  9
$PUCSNAME
  2

  9
$PUCSORG
 10
0.0
 20
0.0
 30
0.0
  9
$PUCSXDIR
 10
1.0
 20
0.0
 30
0.0
  9
$PUCSYDIR
 10
0.0
 20
1.0
 30
0.0
  9
$PUCSORTHOREF
  2

  9
$PUCSORTHOVIEW
 70
     0
  9
$PUCSORGTOP
 10
0.0
 20
0.0
 30
0.0
  9
$PUCSORGBOTTOM
 10
0.0
 20
0.0
 30
0.0
  9
$PUCSORGLEFT
 10
0.0
 20
0.0
 30
0.0
  9
$PUCSORGRIGHT
 10
0.0
 20
0.0
 30
0.0
  9
$PUCSORGFRONT
 10
0.0
 20
0.0
 30
0.0
  9
$PUCSORGBACK
 10
0.0
 20
0.0
 30
0.0
  9
$USERI1
 70
     0
  9
$USERI2
 70
     0
  9
$USERI3
 70
     0
  9
$USERI4
 70
     0
  9
$USERI5
 70
     0
  9
$USERR1
 40
0.0
  9
$USERR2
 40
0.0
  9
$USERR3
 40
0.0
  9
$USERR4
 40
0.0
  9
$USERR5
 40
0.0
  9
$WORLDVIEW
 70
     1
  9
$SHADEDGE
 70
     3
  9
$SHADEDIF
 70
    70
  9
$TILEMODE
 70
     1
  9
$MAXACTVP
 70
    64
  9
$PINSBASE
 10
0.0
 20
0.0
 30
0.0
  9
$PLIMCHECK
 70
     0
  9
$PEXTMIN
 10
1.000000000000000E+20
 20
1.000000000000000E+20
 30
1.000000000000000E+20
  9
$PEXTMAX
 10
-1.000000000000000E+20
 20
-1.000000000000000E+20
 30
-1.000000000000000E+20
  9
$PLIMMIN
 10
0.0
 20
0.0
  9
$PLIMMAX
 10
420.0
 20
297.0
  9
$UNITMODE
 70
     0
  9
$VISRETAIN
 70
     1
  9
$PLINEGEN
 70
     0
  9
$PSLTSCALE
 70
     1
  9
$TREEDEPTH
 70
  3020
  9
$CMLSTYLE
  2
Standard
  9
$CMLJUST
 70
     0
  9
$CMLSCALE
 40
20.0
  9
$PROXYGRAPHICS
 70
     1
  9
$MEASUREMENT
 70
     1
  9
$CELWEIGHT
370
    -1
  9
$ENDCAPS
280
     0
  9
$JOINSTYLE
280
     0
  9
$LWDISPLAY
290
     0
  9
$INSUNITS
 70
     4
  9
$HYPERLINKBASE
  1

  9
$STYLESHEET
  1
sanindusa.ctb
  9
$XEDIT
290
     1
  9
$CEPSNTYPE
380
     0
  9
$PSTYLEMODE
290
     1
  9
$FINGERPRINTGUID
  2
{1AEED909-DB46-4A2A-BD53-325500077485}
  9
$VERSIONGUID
  2
{B85B10FD-5244-4A7B-89F4-83056A41A5D8}
  9
$EXTNAMES
290
     1
  9
$PSVPSCALE
 40
0.0
  9
$OLESTARTUP
290
     0
  0
ENDSEC
  0
SECTION
  2
CLASSES
  0
CLASS
  1
ACDBDICTIONARYWDFLT
  2
AcDbDictionaryWithDefault
  3
ObjectDBX Classes
 90
        0
280
     0
281
     0
  0
CLASS
  1
ACDBPLACEHOLDER
  2
AcDbPlaceHolder
  3
ObjectDBX Classes
 90
        0
280
     0
281
     0
  0
CLASS
  1
LAYOUT
  2
AcDbLayout
  3
ObjectDBX Classes
 90
        0
280
     0
281
     0
  0
CLASS
  1
DICTIONARYVAR
  2
AcDbDictionaryVar
  3
ObjectDBX Classes
 90
        0
280
     0
281
     0
  0
CLASS
  1
DIMASSOC
  2
AcDbDimAssoc
  3
"AcDbDimAssoc|Product Desc:     AcDim ARX App For Dimension|Company:          Autodesk, Inc.|WEB Address:      www.autodesk.com"
 90
    32768
280
     0
281
     0
  0
CLASS
  1
TABLESTYLE
  2
AcDbTableStyle
  3
ObjectDBX Classes
 90
     4095
280
     0
281
     0
  0
CLASS
  1
MATERIAL
  2
AcDbMaterial
  3
ObjectDBX Classes
 90
     1153
280
     0
281
     0
  0
CLASS
  1
VISUALSTYLE
  2
AcDbVisualStyle
  3
ObjectDBX Classes
 90
     4095
280
     0
281
     0
  0
CLASS
  1
SCALE
  2
AcDbScale
  3
ObjectDBX Classes
 90
     1153
280
     0
281
     0
  0
CLASS
  1
MLEADERSTYLE
  2
AcDbMLeaderStyle
  3
ACDB_MLEADERSTYLE_CLASS
 90
     4095
280
     0
281
     0
  0
CLASS
  1
SORTENTSTABLE
  2
AcDbSortentsTable
  3
ObjectDBX Classes
 90
    32768
280
     0
281
     0
  0
CLASS
  1
AEC_REFEDIT_STATUS_TRACKER
  2
AecDbRefEditStatusTracker
  3
AecArchBase60|Product Desc: Autodesk Architectural Desktop 2007 |Company: Autodesk,Inc. |WEB Address: www.autodesk.com
 90
    32897
280
     0
281
     0
  0
CLASS
  1
NPOCOLLECTION
  2
AcDbImpNonPersistentObjectsCollection
  3
ObjectDBX Classes
 90
    33921
280
     0
281
     0
  0
CLASS
  1
CELLSTYLEMAP
  2
AcDbCellStyleMap
  3
ObjectDBX Classes
 90
     1152
280
     0
281
     0
  0
CLASS
  1
SOLID_BACKGROUND
  2
AcDbSolidBackground
  3
SCENEOE
 90
    36863
280
     0
281
     0
  0
ENDSEC
  0
SECTION
  2
TABLES
  0
TABLE
  2
VPORT
  5
8
102
{ACAD_XDICTIONARY
360
17C7
102
}
330
0
100
AcDbSymbolTable
 70
     1
  0
VPORT
  5
1068
330
8
100
AcDbSymbolTableRecord
100
AcDbViewportTableRecord
  2
*Active
 70
     0
 10
0.0
 20
0.0
 11
1.0
 21
1.0
 12
4324.971076239655
 22
2663.683568277094
 13
0.0
 23
0.0
 14
10.0
 24
10.0
 15
10.0
 25
10.0
 16
0.0
 26
0.0
 36
1.0
 17
0.0
 27
0.0
 37
0.0
 40
1.318023696847272
 41
1.645464025026068
 42
50.0
 43
0.0
 44
0.0
 50
0.0
 51
0.0
 71
     0
 72
   100
 73
     1
 74
     2
 75
     0
 76
     0
 77
     0
 78
     0
281
     0
 65
     1
110
0.0
120
0.0
130
0.0
111
1.0
121
0.0
131
0.0
112
0.0
122
1.0
132
0.0
 79
     0
146
0.0
  0
ENDTAB
  0
TABLE
  2
LTYPE
  5
5
330
0
100
AcDbSymbolTable
 70
     5
  0
LTYPE
  5
14
330
5
100
AcDbSymbolTableRecord
100
AcDbLinetypeTableRecord
  2
ByBlock
 70
     0
  3

 72
    65
 73
     0
 40
0.0
  0
LTYPE
  5
15
330
5
100
AcDbSymbolTableRecord
100
AcDbLinetypeTableRecord
  2
ByLayer
 70
     0
  3

 72
    65
 73
     0
 40
0.0
  0
LTYPE
  5
16
330
5
100
AcDbSymbolTableRecord
100
AcDbLinetypeTableRecord
  2
Continuous
 70
     0
  3
Solid line
 72
    65
 73
     0
 40
0.0
  0
LTYPE
  5
2D
330
5
100
AcDbSymbolTableRecord
100
AcDbLinetypeTableRecord
  2
DASHDOT
 70
     0
  3
Dash dot __ . __ . __ . __ . __ . __ . __ . __
 72
    65
 73
     4
 40
25.4
 49
12.7
 74
     0
 49
-6.349999999999999
 74
     0
 49
0.0
 74
     0
 49
-6.349999999999999
 74
     0
  0
LTYPE
  5
2E
330
5
100
AcDbSymbolTableRecord
100
AcDbLinetypeTableRecord
  2
HIDDEN
 70
     0
  3
Hidden __ __ __ __ __ __ __ __ __ __ __ __ __ _
 72
    65
 73
     2
 40
9.524999999999998
 49
6.349999999999999
 74
     0
 49
-3.174999999999999
 74
     0
  0
LTYPE
  5
C75
330
5
100
AcDbSymbolTableRecord
100
AcDbLinetypeTableRecord
  2
AM_ISO02W050
 70
     0
  3
__ __ __ __ __ __ __ __ __ __ __ __ __ __ __
 72
    65
 73
     2
 40
7.5
 49
6.0
 74
     0
 49
-1.5
 74
     0
  0
LTYPE
  5
C76
330
5
100
AcDbSymbolTableRecord
100
AcDbLinetypeTableRecord
  2
AM_ISO08W050
 70
     0
  3
____ . ____ . ____ . ____ . ____ . ____ . ____
 72
    65
 73
     4
 40
18.0
 49
12.0
 74
     0
 49
-1.5
 74
     0
 49
3.0
 74
     0
 49
-1.5
 74
     0
  0
ENDTAB
  0
TABLE
  2
LAYER
  5
2
102
{ACAD_XDICTIONARY
360
1051
102
}
330
0
100
AcDbSymbolTable
 70
    17
  0
LAYER
  5
10
102
{ACAD_XDICTIONARY
360
1754
102
}
330
2
100
AcDbSymbolTableRecord
100
AcDbLayerTableRecord
  2
0
 70
     0
 62
     7
  6
Continuous
370
    -3
390
F
  0
LAYER
  5
2F
102
{ACAD_XDICTIONARY
360
1756
102
}
330
2
100
AcDbSymbolTableRecord
100
AcDbLayerTableRecord
  2
1
 70
     0
 62
     1
  6
Continuous
370
    -3
390
F
  0
LAYER
  5
30
102
{ACAD_XDICTIONARY
360
1758
102
}
330
2
100
AcDbSymbolTableRecord
100
AcDbLayerTableRecord
  2
2
 70
     0
 62
     2
  6
Continuous
370
    -3
390
F
  0
LAYER
  5
31
102
{ACAD_XDICTIONARY
360
175A
102
}
330
2
100
AcDbSymbolTableRecord
100
AcDbLayerTableRecord
  2
3
 70
     0
 62
     3
  6
Continuous
370
    -3
390
F
  0
LAYER
  5
32
102
{ACAD_XDICTIONARY
360
175C
102
}
330
2
100
AcDbSymbolTableRecord
100
AcDbLayerTableRecord
  2
4
 70
     0
 62
     4
  6
Continuous
370
    -3
390
F
  0
LAYER
  5
33
102
{ACAD_XDICTIONARY
360
175E
102
}
330
2
100
AcDbSymbolTableRecord
100
AcDbLayerTableRecord
  2
5
 70
     0
 62
     5
  6
Continuous
370
    -3
390
F
  0
LAYER
  5
34
102
{ACAD_XDICTIONARY
360
1760
102
}
330
2
100
AcDbSymbolTableRecord
100
AcDbLayerTableRecord
  2
6
 70
     0
 62
     6
  6
Continuous
370
    -3
390
F
  0
LAYER
  5
35
102
{ACAD_XDICTIONARY
360
1762
102
}
330
2
100
AcDbSymbolTableRecord
100
AcDbLayerTableRecord
  2
7
 70
     0
 62
     7
  6
Continuous
370
    -3
390
F
  0
LAYER
  5
36
102
{ACAD_XDICTIONARY
360
1764
102
}
330
2
100
AcDbSymbolTableRecord
100
AcDbLayerTableRecord
  2
cen
 70
     0
 62
     7
  6
DASHDOT
370
    -3
390
F
  0
LAYER
  5
37
102
{ACAD_XDICTIONARY
360
1766
102
}
330
2
100
AcDbSymbolTableRecord
100
AcDbLayerTableRecord
  2
hid
 70
     0
 62
     7
  6
HIDDEN
370
    -3
390
F
  0
LAYER
  5
5D6
102
{ACAD_XDICTIONARY
360
1768
102
}
330
2
100
AcDbSymbolTableRecord
100
AcDbLayerTableRecord
  2
hatch
 70
     0
 62
     9
  6
Continuous
370
    -3
390
F
  0
LAYER
  5
8AF
102
{ACAD_XDICTIONARY
360
176A
102
}
330
2
100
AcDbSymbolTableRecord
100
AcDbLayerTableRecord
  2
9
 70
     0
 62
     9
  6
Continuous
370
    -3
390
F
  0
LAYER
  5
8F8
102
{ACAD_XDICTIONARY
360
176C
102
}
330
2
100
AcDbSymbolTableRecord
100
AcDbLayerTableRecord
  2
leg fin
 70
     0
 62
     9
  6
Continuous
370
    -3
390
F
  0
LAYER
  5
91D
102
{ACAD_XDICTIONARY
360
176E
102
}
330
2
100
AcDbSymbolTableRecord
100
AcDbLayerTableRecord
  2
cotas
 70
     0
 62
     1
  6
Continuous
370
    -3
390
F
  0
LAYER
  5
92F
330
2
100
AcDbSymbolTableRecord
100
AcDbLayerTableRecord
  2
Defpoints
 70
     0
 62
     7
  6
Continuous
290
     0
370
    -3
390
F
  0
LAYER
  5
C7B
102
{ACAD_XDICTIONARY
360
1770
102
}
330
2
100
AcDbSymbolTableRecord
100
AcDbLayerTableRecord
  2
SANINDUSA
 70
     0
 62
     3
  6
Continuous
370
    -3
390
F
  0
LAYER
  5
1060
102
{ACAD_XDICTIONARY
360
1772
102
}
330
2
100
AcDbSymbolTableRecord
100
AcDbLayerTableRecord
  2
hid1
 70
     0
 62
     9
  6
HIDDEN
370
    -3
390
F
1001
AcAecLayerStandard
1000

1000

  0
ENDTAB
  0
TABLE
  2
STYLE
  5
3
330
0
100
AcDbSymbolTable
 70
     4
  0
STYLE
  5
11
330
3
100
AcDbSymbolTableRecord
100
AcDbTextStyleTableRecord
  2
Standard
 70
     0
 40
0.0
 41
1.0
 50
0.0
 71
     0
 42
2.5
  3
Avgardn.ttf
  4

1001
ACAD
1000
AvantGarde Bk BT
1071
       34
  0
STYLE
  5
2C
330
3
100
AcDbSymbolTableRecord
100
AcDbTextStyleTableRecord
  2

 70
     1
 40
0.0
 41
1.0
 50
0.0
 71
     0
 42
2.5
  3
ltypeshp.shx
  4

  0
STYLE
  5
91F
330
3
100
AcDbSymbolTableRecord
100
AcDbTextStyleTableRecord
  2
SANINDUSA
 70
     0
 40
0.0
 41
1.0
 50
0.0
 71
     0
 42
2.5
  3
verdana.TTF
  4

1001
ACAD
1000
Verdana
1071
       34
  0
STYLE
  5
C7C
330
3
100
AcDbSymbolTableRecord
100
AcDbTextStyleTableRecord
  2
futura
 70
     0
 40
0.0
 41
1.0
 50
0.0
 71
     0
 42
2.5
  3
ZURCHN.TTF
  4

1001
ACAD
1000
Zurich BT
1071
       34
  0
ENDTAB
  0
TABLE
  2
VIEW
  5
6
330
0
100
AcDbSymbolTable
 70
     0
  0
ENDTAB
  0
TABLE
  2
UCS
  5
7
330
0
100
AcDbSymbolTable
 70
     0
  0
ENDTAB
  0
TABLE
  2
APPID
  5
9
330
0
100
AcDbSymbolTable
 70
    15
  0
APPID
  5
12
330
9
100
AcDbSymbolTableRecord
100
AcDbRegAppTableRecord
  2
ACAD
 70
     0
  0
APPID
  5
3A
330
9
100
AcDbSymbolTableRecord
100
AcDbRegAppTableRecord
  2
DCO15
 70
     0
  0
APPID
  5
EEE
330
9
100
AcDbSymbolTableRecord
100
AcDbRegAppTableRecord
  2
ACAD_DSTYLE_DIMTEXT_FILL
 70
     0
  0
APPID
  5
EEF
330
9
100
AcDbSymbolTableRecord
100
AcDbRegAppTableRecord
  2
ACAD_DSTYLE_DIMEXT_LENGTH
 70
     0
  0
APPID
  5
EF0
330
9
100
AcDbSymbolTableRecord
100
AcDbRegAppTableRecord
  2
ACAD_DSTYLE_DIMEXT_ENABLED
 70
     0
  0
APPID
  5
EF1
330
9
100
AcDbSymbolTableRecord
100
AcDbRegAppTableRecord
  2
ACAD_DSTYLE_DIM_LINETYPE
 70
     0
  0
APPID
  5
EF2
330
9
100
AcDbSymbolTableRecord
100
AcDbRegAppTableRecord
  2
ACAD_DSTYLE_DIM_EXT1_LINETYPE
 70
     0
  0
APPID
  5
EF3
330
9
100
AcDbSymbolTableRecord
100
AcDbRegAppTableRecord
  2
ACAD_DSTYLE_DIM_EXT2_LINETYPE
 70
     0
  0
APPID
  5
FAF
330
9
100
AcDbSymbolTableRecord
100
AcDbRegAppTableRecord
  2
ACAD_DSTYLE_DIMJOGGED_JOGANGLE_SYMBOL
 70
     0
  0
APPID
  5
1013
330
9
100
AcDbSymbolTableRecord
100
AcDbRegAppTableRecord
  2
ACAD_DSTYLE_DIMARC_LENGTH_SYMBOL
 70
     0
  0
APPID
  5
1061
330
9
100
AcDbSymbolTableRecord
100
AcDbRegAppTableRecord
  2
AcAecLayerStandard
 70
     0
  0
APPID
  5
11F8
330
9
100
AcDbSymbolTableRecord
100
AcDbRegAppTableRecord
  2
ACAD_DSTYLE_DIMJAG
 70
     0
  0
APPID
  5
11F9
330
9
100
AcDbSymbolTableRecord
100
AcDbRegAppTableRecord
  2
ACAD_DSTYLE_DIMTALN
 70
     0
  0
APPID
  5
11FA
330
9
100
AcDbSymbolTableRecord
100
AcDbRegAppTableRecord
  2
ACAD_DSTYLE_DIMRADIAL_EXTENSION
 70
     0
  0
APPID
  5
17F9
330
9
100
AcDbSymbolTableRecord
100
AcDbRegAppTableRecord
  2
ACAD_MLEADERVER
 70
     0
  0
ENDTAB
  0
TABLE
  2
DIMSTYLE
  5
A
330
0
100
AcDbSymbolTable
 70
     3
100
AcDbDimStyleTable
 71
     1
340
921
  0
DIMSTYLE
105
45
330
A
100
AcDbSymbolTableRecord
100
AcDbDimStyleTableRecord
  2
STANDARD
 70
     0
289
     0
340
11
  0
DIMSTYLE
105
921
330
A
100
AcDbSymbolTableRecord
100
AcDbDimStyleTableRecord
  2
SANINDUSA
 70
     0
 41
2.0
 42
1.0
 43
1.0
 44
1.0
 73
     0
 74
     0
 77
     1
 78
     8
140
2.0
141
0.0
143
0.03937007874016
147
1.0
171
     3
172
     1
176
   256
177
   256
178
   256
179
     1
271
     1
272
     1
274
     3
278
    44
283
     0
284
     8
340
91F
371
    -1
372
    -1
1001
ACAD_DSTYLE_DIMJOGGED_JOGANGLE_SYMBOL
1070
   384
1040
1.570796326794896
  0
DIMSTYLE
105
C7D
330
A
100
AcDbSymbolTableRecord
100
AcDbDimStyleTableRecord
  2
AM_ISO
 70
     0
  4
"
 41
2.5
 42
1.0
 43
10.0
 44
1.0
 47
0.1
 48
0.1
 73
     0
 74
     0
 77
     1
 78
     8
 79
     2
140
3.5
141
0.0
143
0.0393701
146
0.71
147
1.5
172
     1
176
   256
177
   256
178
     2
271
     2
272
     3
274
     4
283
     0
284
     8
340
11
371
    -1
372
    -1
  0
ENDTAB
  0
TABLE
  2
BLOCK_RECORD
  5
1
330
0
100
AcDbSymbolTable
 70
    65
  0
BLOCK_RECORD
  5
1F
330
1
100
AcDbSymbolTableRecord
100
AcDbBlockTableRecord
  2
*Model_Space
340
22
  0
BLOCK_RECORD
  5
1B
330
1
100
AcDbSymbolTableRecord
100
AcDbBlockTableRecord
  2
*Paper_Space
340
1E
  0
BLOCK_RECORD
  5
23
330
1
100
AcDbSymbolTableRecord
100
AcDbBlockTableRecord
  2
*Paper_Space0
340
26
  0
BLOCK_RECORD
  5
919
330
1
100
AcDbSymbolTableRecord
100
AcDbBlockTableRecord
  2
_DotSmall
340
0
  0
BLOCK_RECORD
  5
922
330
1
100
AcDbSymbolTableRecord
100
AcDbBlockTableRecord
  2
base para cotas
340
0
310
2800000020000000200000000100080000000000000400000000000000000000000000000000000000000000000080000080000000808000800000008000800080800000C0C0C000C0DCC000F0CAA6000020400000206000002080000020A0000020C0000020E00000400000004020000040400000406000004080000040A0
310
000040C0000040E00000600000006020000060400000606000006080000060A0000060C0000060E00000800000008020000080400000806000008080000080A0000080C0000080E00000A0000000A0200000A0400000A0600000A0800000A0A00000A0C00000A0E00000C0000000C0200000C0400000C0600000C0800000C0
310
A00000C0C00000C0E00000E0000000E0200000E0400000E0600000E0800000E0A00000E0C00000E0E00040000000400020004000400040006000400080004000A0004000C0004000E00040200000402020004020400040206000402080004020A0004020C0004020E000404000004040200040404000404060004040800040
310
40A0004040C0004040E00040600000406020004060400040606000406080004060A0004060C0004060E00040800000408020004080400040806000408080004080A0004080C0004080E00040A0000040A0200040A0400040A0600040A0800040A0A00040A0C00040A0E00040C0000040C0200040C0400040C0600040C08000
310
40C0A00040C0C00040C0E00040E0000040E0200040E0400040E0600040E0800040E0A00040E0C00040E0E00080000000800020008000400080006000800080008000A0008000C0008000E00080200000802020008020400080206000802080008020A0008020C0008020E00080400000804020008040400080406000804080
310
008040A0008040C0008040E00080600000806020008060400080606000806080008060A0008060C0008060E00080800000808020008080400080806000808080008080A0008080C0008080E00080A0000080A0200080A0400080A0600080A0800080A0A00080A0C00080A0E00080C0000080C0200080C0400080C0600080C0
310
800080C0A00080C0C00080C0E00080E0000080E0200080E0400080E0600080E0800080E0A00080E0C00080E0E000C0000000C0002000C0004000C0006000C0008000C000A000C000C000C000E000C0200000C0202000C0204000C0206000C0208000C020A000C020C000C020E000C0400000C0402000C0404000C0406000C0
310
408000C040A000C040C000C040E000C0600000C0602000C0604000C0606000C0608000C060A000C060C000C060E000C0800000C0802000C0804000C0806000C0808000C080A000C080C000C080E000C0A00000C0A02000C0A04000C0A06000C0A08000C0A0A000C0A0C000C0A0E000C0C00000C0C02000C0C04000C0C06000
310
C0C08000C0C0A000F0FBFF00A4A0A000808080000000FF0000FF000000FFFF00FF000000FF00FF00FFFF0000FFFFFF00A4A4A4A4A4A4A4A4A4A4A4A4A4A4A4A4A4A4A4A4A4A4A4A4A4A4A4A4A4A4A4A4A4A4A4A4A4A4A4A4A4A4A4A4A4A4A4A4A4A4A4A4A4A4A4A4A4A4A4A4A4A4A4A4A4A4A4A4A4A4A4A4A4A4A4A4A4A4A4
310
A4A4A4A4A4A4A4A4A4A4A4A4A4A4A4A4A4A4A4A4A4A4A4A4A4A4A4A4A4A4A4A4A4A4A4A4A4A4A4A4A4A4A4A4A4A4A4A4A4A4A4A4A4A4A4A4A4A4A4A4A4A4A4A4A4A4A4A4A4A4A4A4A4A4A4A4A4A4A4A4A4A4A4A4A4A4A4A4A4A4A4A4A4A4A4A4A4A4A4A4A4A4A4A4A4A4A4A4A4A4A4A4A4A4A4A4A4A4A4A4A4A4A4A4A4A4A4
310
A4A4A4A4A4A4A4A4A4A4A4A4A4A4A4A4A4A4A4A4A4A4A4A4A4A4A4A4A4A4A4A4A4A4A4A4A4A4A4A4A4A4A4A4A4A4A4A4A4A4A4A4A4A4A4A4A4A4A4A4A4A4A4A4A4A4A4A4A4A4A4A4A4A4A4A4A4A4A4A4A4A4A4A4A4A4A4A4A4A4A4A4A4A4A4A4A4A4A4A4A4A4A4A4A4A4A4A4A4A4A4A4A4A4A4A4A4A4A4A4A4A4A4A4A4A4A4
310
A4A4A4A4A4A4A4A4A4A4A4A4A4A4A4A4A4A4A4A4A4A4A4A4A4A4A4A4A4A4A4A4A4A4A4A4A4A4A4A4A4A4A4A4A4A4A4A4A4A4A4A4A4A4A4A4A4A4A4A4A4A4A4A4A4A4A4A4A4A4A4A4A4A4A4A4A4A4A4A4A4A4A4A4A4A4A4A4A4A4A4A4A4A4A4A4A4A4A4A4A4A4A4A4A4A4A4A4A4A4A4A4A4A4A4A4F9F9F9F9F9F9F9F9F9F9F9
310
F9F9F9F9F9F9F9F9F9F9F9F9F9F9F9F9F9F9F9A4A4F9F9F9F9F9F9F9F9F9F9F9F9F9F9F9F9F9F9F9F9F9F9F9F9F9F9F9F9F9F9A4A4F9F9F9F9F9F9F9F9F9F9F9F9F9F9F9F9F9F9F9F9F9F9F9F9F9F9F9F9F9F9A4A4F9A4A4A4A4A4A4A4A4A4A4A4A4A4A4A4A4A4A4A4A4A4A4A4A4A4A4A4A4F9A4A4A4A4A4A4A4A4A4A4A4A4
310
A4A4A4A4A4A4A4A4A4A4A4A4A4A4A4A4A4A4A4A4A4A4A4A4A4A4A4A4A4A4A4A4A4A4A4A4A4A4A4A4A4A4A4A4A4A4A4A4A4A4A4A4A4A4A4A4A4A4A4A4A4A4A4A4A4A4A4A4A4A4A4A4A4A4A4A4A4A4A4A4A4A4A4A4A4A4A4A4A4A4A4A4A4A4A4A4A4A4A4A4A4A4A4A4A4A4A4A4A4A4A4A4A4A4A4A4A4A4A4A4A4A4A4A4A4A4A4
310
A4A4A4A4A4A4A4A4A4A4A4A4A4A4A4A4A4A4A4A4A4A4A4A4A4A4A4A4A4A4A4A4A4A4A4A4A4A4A4A4A4A4A4A4A4A4A4A4A4A4A4A4A4A4A4A4A4A4A4A4A4A4A4A4A4A4A4A4A4A4A4A4A4A4A4A4A4A4A4A4A4A4A4A4A4A4A4A4A4A4A4A4A4A4A4A4A4A4A4A4A4A4A4A4A4A4A4A4A4A4A4A4A4A4A4A4A4A4A4A4A4A4A4A4A4A4A4
310
A4A4A4A4A4A4A4A4A4A4A4A4A4A4A4A4A4A4A4A4A4A4A4A4A4A4A4A4A4A4A4A4A4A4A4A4A4A4A4A4A4A4A4A4A4A4A4A4A4A4A4A4A4A4A4A4A4A4A4A4A4A4A4A4A4A4A4A4A4A4A4A4A4A4A4A4A4A4A4A4A4A4A4A4A4A4A4A4A4A4A4A4A4A4A4A4A4A4A4A4A4A4A4A4A4A4A4A4A4A4A4A4A4A4A4A4A4A4A4A4A4A4A4A4A4A4A4
310
A4A4A4A4A4A4A4A4A4A4A4A4A4A4A4A4A4A4A4A4A4A4A4A4A4A4A4A4A4A4A4A4A4A4A4A4A4A4A4A4A4A4A4A4A4A4A4A4A4A4A4A4A4A4A4A4
1001
ACAD
1000
DesignCenter Data
1002
{
1070
     1
1070
     4
1002
}
  0
BLOCK_RECORD
  5
AA8
330
1
100
AcDbSymbolTableRecord
100
AcDbBlockTableRecord
  2
_CLOSED
340
0
  0
BLOCK_RECORD
  5
B79
330
1
100
AcDbSymbolTableRecord
100
AcDbBlockTableRecord
  2
nota revisoes
340
0
1001
ACAD
1000
DesignCenter Data
1002
{
1070
     1
1070
     4
1002
}
  0
BLOCK_RECORD
  5
B8E
330
1
100
AcDbSymbolTableRecord
100
AcDbBlockTableRecord
  2
a3l
340
0
1001
ACAD
1000
DesignCenter Data
1002
{
1070
     1
1070
     4
1002
}
  0
BLOCK_RECORD
  5
B9E
330
1
100
AcDbSymbolTableRecord
100
AcDbBlockTableRecord
  2
legenda desenvolvimento
340
0
1001
ACAD
1000
DesignCenter Data
1002
{
1070
     1
1070
     4
1002
}
  0
ENDTAB
  0
ENDSEC
  0
SECTION
  2
BLOCKS
  0
BLOCK
  5
20
330
1F
100
AcDbEntity
  8
0
100
AcDbBlockBegin
  2
*Model_Space
 70
     0
 10
0.0
 20
0.0
 30
0.0
  3
*Model_Space
  1

  0
ENDBLK
  5
21
330
1F
100
AcDbEntity
  8
0
100
AcDbBlockEnd
  0
BLOCK
  5
1C
330
1B
100
AcDbEntity
 67
     1
  8
0
100
AcDbBlockBegin
  2
*Paper_Space
 70
     0
 10
0.0
 20
0.0
 30
0.0
  3
*Paper_Space
  1

  0
ENDBLK
  5
1D
330
1B
100
AcDbEntity
 67
     1
  8
0
100
AcDbBlockEnd
  0
BLOCK
  5
24
330
23
100
AcDbEntity
 67
     1
  8
0
100
AcDbBlockBegin
  2
*Paper_Space0
 70
     0
 10
0.0
 20
0.0
 30
0.0
  3
*Paper_Space0
  1

  0
ENDBLK
  5
25
330
23
100
AcDbEntity
 67
     1
  8
0
100
AcDbBlockEnd
  0
BLOCK
  5
91B
330
919
100
AcDbEntity
  8
0
100
AcDbBlockBegin
  2
_DotSmall
 70
     0
 10
0.0
 20
0.0
 30
0.0
  3
_DotSmall
  1

  0
LWPOLYLINE
  5
91A
330
919
100
AcDbEntity
  8
0
  6
ByBlock
 62
     0
100
AcDbPolyline
 90
        2
 70
     1
 43
0.5
 10
-0.0625
 20
0.0
 42
1.0
 10
0.0625
 20
0.0
 42
1.0
  0
ENDBLK
  5
91C
330
919
100
AcDbEntity
  8
0
100
AcDbBlockEnd
  0
BLOCK
  5
92A
330
922
100
AcDbEntity
  8
0
100
AcDbBlockBegin
  2
base para cotas
 70
     0
 10
0.0
 20
0.0
 30
0.0
  3
base para cotas
  1

  0
LINE
  5
B36
330
922
100
AcDbEntity
  8
cotas
100
AcDbLine
 10
0.0
 20
-30.0
 30
0.0
 11
327.1260136525398
 21
-30.0
 31
0.0
  0
LINE
  5
B37
330
922
100
AcDbEntity
  8
cotas
100
AcDbLine
 10
0.0
 20
-25.0
 30
0.0
 11
327.1260136525398
 21
-25.0
 31
0.0
  0
LINE
  5
B38
330
922
100
AcDbEntity
  8
cotas
100
AcDbLine
 10
0.0
 20
-20.0
 30
0.0
 11
327.1260136525398
 21
-20.0
 31
0.0
  0
LINE
  5
B39
330
922
100
AcDbEntity
  8
cotas
100
AcDbLine
 10
0.0
 20
-15.0
 30
0.0
 11
327.1260136525398
 21
-15.0
 31
0.0
  0
LINE
  5
B3A
330
922
100
AcDbEntity
  8
cotas
100
AcDbLine
 10
0.0
 20
-10.0
 30
0.0
 11
327.1260136525398
 21
-10.0
 31
0.0
  0
LINE
  5
B3B
330
922
100
AcDbEntity
  8
cotas
100
AcDbLine
 10
0.0
 20
0.0
 30
0.0
 11
0.0
 21
-30.0
 31
0.0
  0
LINE
  5
B3C
330
922
100
AcDbEntity
  8
cotas
100
AcDbLine
 10
327.1260136525398
 20
-30.0
 30
0.0
 11
327.1260136525398
 21
0.0
 31
0.0
  0
ENDBLK
  5
92B
330
922
100
AcDbEntity
  8
0
100
AcDbBlockEnd
  0
BLOCK
  5
AAD
330
AA8
100
AcDbEntity
  8
0
100
AcDbBlockBegin
  2
_CLOSED
 70
     0
 10
0.0
 20
0.0
 30
0.0
  3
_CLOSED
  1

  0
LINE
  5
AA9
330
AA8
100
AcDbEntity
  8
0
100
AcDbLine
 10
-1.0
 20
0.166667
 30
0.0
 11
0.0
 21
0.0
 31
0.0
  0
LINE
  5
AAA
330
AA8
100
AcDbEntity
  8
0
100
AcDbLine
 10
0.0
 20
0.0
 30
0.0
 11
-1.0
 21
-0.166667
 31
0.0
  0
LINE
  5
AAB
330
AA8
100
AcDbEntity
  8
0
100
AcDbLine
 10
-1.0
 20
0.166667
 30
0.0
 11
-1.0
 21
-0.166667
 31
0.0
  0
LINE
  5
AAC
330
AA8
100
AcDbEntity
  8
0
100
AcDbLine
 10
0.0
 20
0.0
 30
0.0
 11
-1.0
 21
0.0
 31
0.0
  0
ENDBLK
  5
AAE
330
AA8
100
AcDbEntity
  8
0
100
AcDbBlockEnd
  0
BLOCK
  5
B7C
330
B79
100
AcDbEntity
  8
0
100
AcDbBlockBegin
  2
nota revisoes
 70
     0
 10
0.0
 20
0.0
 30
0.0
  3
nota revisoes
  1

  0
CIRCLE
  5
B7A
330
B79
100
AcDbEntity
  8
4
100
AcDbCircle
 10
0.0
 20
0.0
 30
0.0
 40
13.69426055101189
  0
TEXT
  5
B7B
330
B79
100
AcDbEntity
  8
4
100
AcDbText
 10
-5.496248358154345
 20
-5.354545554066362
 30
0.0
 40
12.0
  1
1
  7
SANINDUSA
 72
     1
 11
-0.249774214433728
 21
-5.354545554066362
 31
0.0
100
AcDbText
  0
ENDBLK
  5
B7D
330
B79
100
AcDbEntity
  8
0
100
AcDbBlockEnd
  0
BLOCK
  5
B9C
330
B8E
100
AcDbEntity
  8
0
100
AcDbBlockBegin
  2
a3l
 70
     0
 10
0.0
 20
0.0
 30
0.0
  3
a3l
  1

  0
LINE
  5
B8F
330
B8E
100
AcDbEntity
  8
1
100
AcDbLine
 10
-364.2925296599447
 20
-362.1188951399395
 30
0.0
 11
-364.2925296599447
 21
-65.11889513993946
 31
0.0
  0
LINE
  5
B90
330
B8E
100
AcDbEntity
  8
4
100
AcDbLine
 10
-369.2925296599447
 20
-357.1188951399395
 30
0.0
 11
-369.2925296599447
 21
-70.11889513993946
 31
0.0
  0
LINE
  5
B91
330
B8E
100
AcDbEntity
  8
1
100
AcDbLine
 10
-784.2925296599446
 20
-65.11889513993946
 30
0.0
 11
-784.2925296599446
 21
-362.1188951399395
 31
0.0
  0
LINE
  5
B92
330
B8E
100
AcDbEntity
  8
4
100
AcDbLine
 10
-759.2925296599446
 20
-357.1188951399395
 30
0.0
 11
-759.2925296599446
 21
-70.11889513993946
 31
0.0
  0
LINE
  5
B93
330
B8E
100
AcDbEntity
  8
1
100
AcDbLine
 10
-784.2925296599446
 20
-362.1188951399395
 30
0.0
 11
-364.2925296599447
 21
-362.1188951399395
 31
0.0
  0
LINE
  5
B94
330
B8E
100
AcDbEntity
  8
4
100
AcDbLine
 10
-759.2925296599446
 20
-357.1188951399395
 30
0.0
 11
-369.2925296599447
 21
-357.1188951399395
 31
0.0
  0
LINE
  5
B95
330
B8E
100
AcDbEntity
  8
1
100
AcDbLine
 10
-654.2925296599446
 20
-357.1188951399395
 30
0.0
 11
-654.2925296599446
 21
-362.1188951399395
 31
0.0
  0
LINE
  5
B96
330
B8E
100
AcDbEntity
  8
1
100
AcDbLine
 10
-364.2925296599447
 20
-65.11889513993946
 30
0.0
 11
-784.2925296599446
 21
-65.11889513993946
 31
0.0
  0
LINE
  5
B97
330
B8E
100
AcDbEntity
  8
4
100
AcDbLine
 10
-369.2925296599447
 20
-70.11889513993946
 30
0.0
 11
-759.2925296599446
 21
-70.11889513993946
 31
0.0
  0
LINE
  5
B98
330
B8E
100
AcDbEntity
  8
1
100
AcDbLine
 10
-654.2925296599446
 20
-65.11889513993946
 30
0.0
 11
-654.2925296599446
 21
-70.11889513993946
 31
0.0
  0
LINE
  5
B99
330
B8E
100
AcDbEntity
  8
1
100
AcDbLine
 10
-549.2925296599446
 20
-70.11889513993946
 30
0.0
 11
-549.2925296599446
 21
-65.11889513993946
 31
0.0
  0
LINE
  5
B9A
330
B8E
100
AcDbEntity
  8
1
100
AcDbLine
 10
-369.2925296599447
 20
-65.11889513993946
 30
0.0
 11
-364.2925296599447
 21
-65.11889513993946
 31
0.0
  0
LINE
  5
B9B
330
B8E
100
AcDbEntity
  8
1
100
AcDbLine
 10
-549.2925296599446
 20
-357.1188951399395
 30
0.0
 11
-549.2925296599446
 21
-362.1188951399395
 31
0.0
  0
ENDBLK
  5
B9D
330
B8E
100
AcDbEntity
  8
0
100
AcDbBlockEnd
  0
BLOCK
  5
C13
330
B9E
100
AcDbEntity
  8
0
100
AcDbBlockBegin
  2
legenda desenvolvimento
 70
     2
 10
0.0
 20
0.0
 30
0.0
  3
legenda desenvolvimento
  1

  0
ATTDEF
  5
B9F
330
B9E
100
AcDbEntity
  8
1
100
AcDbText
 10
-108.606245802552
 20
55.5
 30
0.0
 40
4.0
  1
XXXXXXXXXXXXXX
 41
0.8
  7
SANINDUSA
 72
     4
 11
-87.5
 21
57.5
 31
0.0
100
AcDbAttributeDefinition
  3
Nome do Produto:
  2
PRODUTO
 70
     0
  0
ATTDEF
  5
BA0
330
B9E
100
AcDbEntity
  8
1
100
AcDbText
 10
-97.9997966101695
 20
41.25
 30
0.0
 40
3.0
  1
XXXXXXXXX
 41
0.8
  7
futura
 72
     4
 11
-87.5
 21
42.75
 31
0.0
100
AcDbAttributeDefinition
  3
Nome da Peça:
  2
PECA
 70
     0
  0
ATTDEF
  5
BA1
330
B9E
100
AcDbEntity
  8
1
100
AcDbText
 10
-133.4422431161853
 20
21.11745296763252
 30
0.0
 40
2.5
  1
X
 41
0.8
  7
SANINDUSA
 72
     4
 11
-132.5
 21
22.36745296763252
 31
0.0
100
AcDbAttributeDefinition
  3
Cod. TESTE:
  2
TESTE
 70
     0
  0
ATTDEF
  5
BA2
330
B9E
100
AcDbEntity
  8
1
100
AcDbText
 10
-124.3844862323707
 20
21.11745296763252
 30
0.0
 40
2.5
  1
XX
 41
0.8
  7
SANINDUSA
 72
     4
 11
-122.5
 21
22.36745296763252
 31
0.0
100
AcDbAttributeDefinition
  3
Cod. Ano:
  2
ANO
 70
     0
  0
ATTDEF
  5
BA3
330
B9E
100
AcDbEntity
  8
1
100
AcDbText
 10
-112.526889953052
 20
21.11745296763252
 30
0.0
 40
2.5
  1
XXX
 41
0.8
  7
SANINDUSA
 72
     4
 11
-109.700160604496
 21
22.36745296763252
 31
0.0
100
AcDbAttributeDefinition
  3
Cod. Sequência:
  2
SEQUENCIA
 70
     0
  0
ATTDEF
  5
BA4
330
B9E
100
AcDbEntity
  8
1
100
AcDbText
 10
-99.35382430979316
 20
21.11745296763252
 30
0.0
 40
2.5
  1
XX
 41
0.8
  7
SANINDUSA
 72
     4
 11
-97.46933807742244
 21
22.36745296763252
 31
0.0
100
AcDbAttributeDefinition
  3
Cod. Tipo:
  2
TIPO
 70
     0
  0
ATTDEF
  5
BA5
330
B9E
100
AcDbEntity
  8
1
100
AcDbText
 10
-87.42035911468438
 20
21.11745296763252
 30
0.0
 40
2.5
  1
XXX
 41
0.8
  7
SANINDUSA
 72
     4
 11
-84.59362976612828
 21
22.36745296763252
 31
0.0
100
AcDbAttributeDefinition
  3
Cod. Produto:
  2
PRODUTO
 70
     0
  0
ATTDEF
  5
BA6
330
B9E
100
AcDbEntity
  8
1
100
AcDbText
 10
-74.62051971917853
 20
21.11745296763252
 30
0.0
 40
2.5
  1
XXX
 41
0.8
  7
SANINDUSA
 72
     4
 11
-71.79379037062244
 21
22.36745296763252
 31
0.0
100
AcDbAttributeDefinition
  3
Cod. Peça:
  2
PECA
 70
     0
  0
ATTDEF
  5
BA7
330
B9E
100
AcDbEntity
  8
1
100
AcDbText
 10
-61.10603446650329
 20
21.11745296763252
 30
0.0
 40
2.5
  1
XX
 41
0.8
  7
SANINDUSA
 72
     4
 11
-59.22154823413257
 21
22.36745296763252
 31
0.0
100
AcDbAttributeDefinition
  3
Cod. Revisão:
  2
REV
 70
     0
  0
ATTDEF
  5
BA8
330
B9E
100
AcDbEntity
  8
1
100
AcDbText
 10
-48.43615325006194
 20
21.11745296763252
 30
0.0
 40
2.5
  1
XX
 41
0.8
  7
SANINDUSA
 72
     4
 11
-46.55166701769121
 21
22.36745296763252
 31
0.0
100
AcDbAttributeDefinition
  3
Cod. Alteração:
  2
ALT
 70
     0
  0
ATTDEF
  5
BA9
330
B9E
100
AcDbEntity
  8
1
100
AcDbText
 10
-35.19086635325722
 20
23.98875083948959
 30
0.0
 40
3.0
  1
1/XXX
 41
0.8
  7
SANINDUSA
 72
     4
 11
-30.0
 21
25.25
 31
0.0
100
AcDbAttributeDefinition
  3
Escala geral:
  2
ESCALA
 70
     0
  0
ATTDEF
  5
BAA
330
B9E
100
AcDbEntity
  8
1
100
AcDbText
 10
-15.65345869711215
 20
23.75
 30
0.0
 40
3.0
  1
XXXXX
 41
0.8
  7
SANINDUSA
 72
     4
 11
-10.0
 21
25.25
 31
0.0
100
AcDbAttributeDefinition
  3
Folha:
  2
FOLHA
 70
     0
  0
ATTDEF
  5
BAB
330
B9E
100
AcDbEntity
  8
1
100
AcDbText
 10
-178.5146998822042
 20
56.9531347542807
 30
0.0
 40
2.0
  1
xx
 41
0.8
  7
SANINDUSA
 72
     4
 11
-177.2123493113513
 21
57.70330265219877
 31
0.0
100
AcDbAttributeDefinition
  3
revisão
  2
REV.
 70
     0
  0
ATTDEF
  5
BAC
330
B9E
100
AcDbEntity
  8
1
100
AcDbText
 10
-172.7849640077129
 20
56.9531347542807
 30
0.0
 40
2.0
  1
xx
 41
0.8
  7
SANINDUSA
 72
     4
 11
-171.48261343686
 21
57.70330265219877
 31
0.0
100
AcDbAttributeDefinition
  3
alteração
  2
ALT.
 70
     0
  0
ATTDEF
  5
BAD
330
B9E
100
AcDbEntity
  8
1
100
AcDbText
 10
-168.007199951307
 20
56.70330265219877
 30
0.0
 40
2.0
  1
xx/xx/xxxx
 41
0.8
  7
SANINDUSA
 11
-168.007199951307
 21
57.70330265219877
 31
0.0
100
AcDbAttributeDefinition
  3
data
  2
DATA
 70
     0
 74
     2
  0
ATTDEF
  5
BAE
330
B9E
100
AcDbEntity
  8
1
100
AcDbText
 10
-168.5396372253371
 20
13.15916722632639
 30
0.0
 40
2.0
  1
XX/XX/XXXX
 41
0.8
  7
SANINDUSA
 72
     4
 11
-161.5099528734231
 21
14.0
 31
0.0
100
AcDbAttributeDefinition
  3
Data projecto
  2
DATA_PROJ
 70
     0
  0
ATTDEF
  5
BAF
330
B9E
100
AcDbEntity
  8
1
100
AcDbText
 10
-150.8658110728766
 20
13.24983210208193
 30
0.0
 40
2.0
  1
xxxxxxxx
 41
0.8
  7
SANINDUSA
 72
     4
 11
-145.6564087894649
 21
14.0
 31
0.0
100
AcDbAttributeDefinition
  3
nome de quem projectou
  2
NOME
 70
     0
  0
ATTDEF
  5
BB0
330
B9E
100
AcDbEntity
  8
1
100
AcDbText
 10
-168.5396372253371
 20
9.159167226326394
 30
0.0
 40
2.0
  1
XX/XX/XXXX
 41
0.8
  7
SANINDUSA
 72
     4
 11
-161.5099528734231
 21
10.0
 31
0.0
100
AcDbAttributeDefinition
  3
Data desenhou
  2
DATA_DES
 70
     0
  0
ATTDEF
  5
BB1
330
B9E
100
AcDbEntity
  8
1
100
AcDbText
 10
-151.516986358303
 20
9.249832102081933
 30
0.0
 40
2.0
  1
xxxxxxxxx
 41
0.8
  7
SANINDUSA
 72
     4
 11
-145.6564087894649
 21
10.0
 31
0.0
100
AcDbAttributeDefinition
  3
nome
  2
NOME
 70
     0
  0
ATTDEF
  5
BB2
330
B9E
100
AcDbEntity
  8
1
100
AcDbText
 10
-127.2924214135946
 20
14.1979876583216
 30
0.0
 40
2.0
  1
Vitreous China
 41
0.8
  7
SANINDUSA
 72
     4
 11
-119.231709526422
 21
15.22216495852308
 31
0.0
100
AcDbAttributeDefinition
  3
Nome do Material:
  2
MATERIAL
 70
     0
  0
ATTDEF
  5
BB3
330
B9E
100
AcDbEntity
  8
1
100
AcDbText
 10
-103.1563452122093
 20
14.38019043949261
 30
0.0
 40
2.0
  1
Branco
 41
0.8
  7
SANINDUSA
 72
     4
 11
-99.33418268702462
 21
15.35937109765245
 31
0.0
100
AcDbAttributeDefinition
  3
cor da peça
  2
COR
 70
     0
  0
ATTDEF
  5
BB4
330
B9E
100
AcDbEntity
  8
1
100
AcDbText
 10
-116.7235057085292
 20
5.975822699798522
 30
0.0
 40
2.0
  1
Vidrado
 41
0.8
  7
SANINDUSA
 72
     4
 11
-112.5
 21
7.0
 31
0.0
100
AcDbAttributeDefinition
  3
Tipo de acabamento:
  2
ACABAMENTO
 70
     0
  0
ATTDEF
  5
BB5
330
B9E
100
AcDbEntity
  8
1
100
AcDbText
 10
-79.18527869967246
 20
16.65066409850533
 30
0.0
 40
2.0
  1
XXXXXXX
 41
0.8
  7
SANINDUSA
 72
     4
 11
-73.90871724903445
 21
17.65066409850533
 31
0.0
100
AcDbAttributeDefinition
  3
Normas
  2
NORMAS
 70
     0
  0
ATTDEF
  5
BB6
330
B9E
100
AcDbEntity
  8
1
100
AcDbText
 10
-30.55312290127603
 20
14.0
 30
0.0
 40
2.0
  1
XXXXXXXXXXXXXX
 41
0.8
  7
SANINDUSA
 72
     4
 11
-20.0
 21
15.0
 31
0.0
100
AcDbAttributeDefinition
  3
Substitui o desenho:
  2
SUBSTITUI
 70
     0
  0
ATTDEF
  5
BB7
330
B9E
100
AcDbEntity
  8
1
100
AcDbText
 10
-31.30691739422431
 20
6.0
 30
0.0
 40
2.0
  1
XXXXXXXXXXXXXXX
 41
0.8
  7
SANINDUSA
 72
     4
 11
-20.0
 21
7.0
 31
0.0
100
AcDbAttributeDefinition
  3
Substituido por:
  2
SUBSTITUIDO
 70
     0
  0
ATTDEF
  5
BB8
330
B9E
100
AcDbEntity
  8
1
100
AcDbText
 10
-110.0220608548302
 20
1.478208457928303
 30
0.0
 40
2.0
  1
XXXXXXXXXXXXXXXXXXXXXXXXXXXXXXXXXX
 41
0.8
  7
SANINDUSA
 11
-110.0220608548302
 21
2.478208457928303
 31
0.0
100
AcDbAttributeDefinition
  3
Localização do desenho:
  2
LOC-DWG
 70
     0
 74
     2
  0
LINE
  5
BB9
330
B9E
100
AcDbEntity
  8
3
100
AcDbLine
 10
-135.0
 20
4.0
 30
0.0
 11
0.0000000000004547
 21
4.0
 31
0.0
  0
LINE
  5
BBA
330
B9E
100
AcDbEntity
  8
3
100
AcDbLine
 10
-90.00000000000046
 20
12.0
 30
0.0
 11
-135.0
 21
12.0
 31
0.0
  0
LINE
  5
BBB
330
B9E
100
AcDbEntity
  8
3
100
AcDbLine
 10
-135.0
 20
32.5
 30
0.0
 11
-40.0
 21
32.5
 31
0.0
  0
TEXT
  5
BBC
330
B9E
100
AcDbEntity
  8
1
100
AcDbText
 10
-134.0
 20
1.25
 30
0.0
 40
2.0
  1
Localização do des.:
 41
0.8
  7
SANINDUSA
 11
-134.0
 21
2.25
 31
0.0
100
AcDbText
 73
     2
  0
LINE
  5
BBD
330
B9E
100
AcDbEntity
  8
3
100
AcDbLine
 10
-180.0
 20
65.0
 30
0.0
 11
0.0
 21
65.0
 31
0.0
  0
LINE
  5
BBE
330
B9E
100
AcDbEntity
  8
leg fin
100
AcDbLine
 10
-40.0
 20
25.05956924886846
 30
0.0
 11
-135.0
 21
25.05956924886846
 31
0.0
  0
LINE
  5
BBF
330
B9E
100
AcDbEntity
  8
leg fin
100
AcDbLine
 10
-40.0
 20
28.5
 30
0.0
 11
-135.0
 21
28.5
 31
0.0
  0
LINE
  5
BC0
330
B9E
100
AcDbEntity
  8
3
100
AcDbLine
 10
-135.0
 20
50.0
 30
0.0
 11
-40.0
 21
50.0
 31
0.0
  0
TEXT
  5
BC1
330
B9E
100
AcDbEntity
  8
1
100
AcDbText
 10
-134.0
 20
29.75
 30
0.0
 40
2.0
  1
Desenho nº:
 41
0.8
  7
SANINDUSA
 11
-134.0
 21
30.75
 31
0.0
100
AcDbText
 73
     2
  0
TEXT
  5
BC2
330
B9E
100
AcDbEntity
  8
1
100
AcDbText
 10
-134.0
 20
9.25
 30
0.0
 40
2.0
  1
Acabamento:
 41
0.8
  7
SANINDUSA
 11
-134.0
 21
10.25
 31
0.0
100
AcDbText
 73
     2
  0
LINE
  5
BC3
330
B9E
100
AcDbEntity
  8
3
100
AcDbLine
 10
-180.0
 20
20.0
 30
0.0
 11
0.0
 21
20.0
 31
0.0
  0
LINE
  5
BC4
330
B9E
100
AcDbEntity
  8
1
100
AcDbLine
 10
-174.5810776056337
 20
55.5
 30
0.0
 11
-174.5810776056337
 21
65.0
 31
0.0
  0
LINE
  5
BC5
330
B9E
100
AcDbEntity
  8
1
100
AcDbLine
 10
-168.9210461879161
 20
55.5
 30
0.0
 11
-168.9210461879161
 21
65.0
 31
0.0
  0
LINE
  5
BC6
330
B9E
100
AcDbEntity
  8
1
100
AcDbLine
 10
-154.0988595589306
 20
55.5
 30
0.0
 11
-154.0988595589306
 21
65.0
 31
0.0
  0
LINE
  5
BC7
330
B9E
100
AcDbEntity
  8
3
100
AcDbLine
 10
-180.0
 20
65.0
 30
0.0
 11
-180.0
 21
0.0
 31
0.0
  0
LINE
  5
BC8
330
B9E
100
AcDbEntity
  8
3
100
AcDbLine
 10
-135.0
 20
0.0
 30
0.0
 11
-135.0
 21
65.0
 31
0.0
  0
TEXT
  5
BC9
330
B9E
100
AcDbEntity
  8
1
100
AcDbText
 10
-179.0
 20
9.75
 30
0.0
 40
1.5
  1
Des.
 41
0.8
  7
SANINDUSA
 11
-179.0
 21
10.5
 31
0.0
100
AcDbText
 73
     2
  0
LINE
  5
BCA
330
B9E
100
AcDbEntity
  8
1
100
AcDbLine
 10
-168.9210461879161
 20
20.0
 30
0.0
 11
-168.9210461879161
 21
0.0
 31
0.0
  0
LINE
  5
BCB
330
B9E
100
AcDbEntity
  8
1
100
AcDbLine
 10
-154.0988595589306
 20
20.0
 30
0.0
 11
-154.0988595589306
 21
0.0
 31
0.0
  0
LINE
  5
BCC
330
B9E
100
AcDbEntity
  8
1
100
AcDbLine
 10
-180.0
 20
4.0
 30
0.0
 11
-135.0
 21
4.0
 31
0.0
  0
LINE
  5
BCD
330
B9E
100
AcDbEntity
  8
1
100
AcDbLine
 10
-180.0
 20
8.0
 30
0.0
 11
-135.0
 21
8.0
 31
0.0
  0
TEXT
  5
BCE
330
B9E
100
AcDbEntity
  8
1
100
AcDbText
 10
-179.0
 20
1.73257823687436
 30
0.0
 40
1.5
  1
Aprov.
 41
0.8
  7
SANINDUSA
 11
-179.0
 21
2.48257823687436
 31
0.0
100
AcDbText
 73
     2
  0
TEXT
  5
BCF
330
B9E
100
AcDbEntity
  8
1
100
AcDbText
 10
-179.0
 20
5.75
 30
0.0
 40
1.5
  1
Ver.
 41
0.8
  7
SANINDUSA
 11
-179.0
 21
6.5
 31
0.0
100
AcDbText
 73
     2
  0
LINE
  5
BD0
330
B9E
100
AcDbEntity
  8
1
100
AcDbLine
 10
-180.0
 20
16.0
 30
0.0
 11
-135.0
 21
16.0
 31
0.0
  0
LINE
  5
BD1
330
B9E
100
AcDbEntity
  8
1
100
AcDbLine
 10
-180.0
 20
12.0
 30
0.0
 11
-135.0
 21
12.0
 31
0.0
  0
TEXT
  5
BD2
330
B9E
100
AcDbEntity
  8
1
100
AcDbText
 10
-179.0
 20
13.75
 30
0.0
 40
1.5
  1
Proj.
 41
0.8
  7
SANINDUSA
 11
-179.0
 21
14.5
 31
0.0
100
AcDbText
 73
     2
  0
TEXT
  5
BD3
330
B9E
100
AcDbEntity
  8
1
100
AcDbText
 10
-167.9210461879161
 20
17.75
 30
0.0
 40
1.5
  1
Data
 41
0.8
  7
SANINDUSA
 11
-167.9210461879161
 21
18.5
 31
0.0
100
AcDbText
 73
     2
  0
TEXT
  5
BD4
330
B9E
100
AcDbEntity
  8
1
100
AcDbText
 10
-153.0988595589306
 20
17.75
 30
0.0
 40
1.5
  1
Nome
 41
0.8
  7
SANINDUSA
 11
-153.0988595589306
 21
18.5
 31
0.0
100
AcDbText
 73
     2
  0
LINE
  5
BD5
330
B9E
100
AcDbEntity
  8
leg fin
100
AcDbLine
 10
-130.0
 20
20.0
 30
0.0
 11
-130.0
 21
28.5
 31
0.0
  0
TEXT
  5
BD6
330
B9E
100
AcDbEntity
  8
1
100
AcDbText
 10
-134.0
 20
17.25
 30
0.0
 40
2.0
  1
Material:
 41
0.8
  7
SANINDUSA
 11
-134.0
 21
18.25
 31
0.0
100
AcDbText
 73
     2
  0
TEXT
  5
BD7
330
B9E
100
AcDbEntity
  8
1
100
AcDbText
 10
-129.0
 20
26.43288406845113
 30
0.0
 40
1.5
  1
Ano:
 41
0.8
  7
SANINDUSA
 11
-129.0
 21
27.18288406845113
 31
0.0
100
AcDbText
 73
     2
  0
LINE
  5
BD8
330
B9E
100
AcDbEntity
  8
1
100
AcDbLine
 10
-180.0
 20
55.5
 30
0.0
 11
-135.0
 21
55.5
 31
0.0
  0
TEXT
  5
BD9
330
B9E
100
AcDbEntity
  8
1
100
AcDbText
 10
-179.0
 20
52.67772246885193
 30
0.0
 40
1.5
  1
descrição
 41
0.8
  7
SANINDUSA
 11
-179.0
 21
53.42772246885193
 31
0.0
100
AcDbText
 73
     2
  0
TEXT
  5
BDA
330
B9E
100
AcDbEntity
  8
1
100
AcDbText
 10
-134.0
 20
47.25
 30
0.0
 40
2.0
  1
Peça:
 41
0.8
  7
SANINDUSA
 11
-134.0
 21
48.25
 31
0.0
100
AcDbText
 73
     2
  0
LINE
  5
BDB
330
B9E
100
AcDbEntity
  8
1
100
AcDbLine
 10
-180.0
 20
59.5
 30
0.0
 11
-135.0
 21
59.5
 31
0.0
  0
TEXT
  5
BDC
330
B9E
100
AcDbEntity
  8
1
100
AcDbText
 10
-173.5810776056337
 20
62.75
 30
0.0
 40
1.5
  1
Alt.
 41
0.8
  7
SANINDUSA
 11
-173.5810776056337
 21
63.5
 31
0.0
100
AcDbText
 73
     2
  0
TEXT
  5
BDD
330
B9E
100
AcDbEntity
  8
1
100
AcDbText
 10
-179.0
 20
62.75
 30
0.0
 40
1.5
  1
Rev.
 41
0.8
  7
SANINDUSA
 11
-179.0
 21
63.5
 31
0.0
100
AcDbText
 73
     2
  0
TEXT
  5
BDE
330
B9E
100
AcDbEntity
  8
1
100
AcDbText
 10
-167.9210461879161
 20
62.75
 30
0.0
 40
1.5
  1
Data
 41
0.8
  7
SANINDUSA
 11
-167.9210461879161
 21
63.5
 31
0.0
100
AcDbText
 73
     2
  0
TEXT
  5
BDF
330
B9E
100
AcDbEntity
  8
1
100
AcDbText
 10
-153.0988595589306
 20
62.75
 30
0.0
 40
1.5
  1
Nome
 41
0.8
  7
SANINDUSA
 11
-153.0988595589306
 21
63.5
 31
0.0
100
AcDbText
 73
     2
  0
TEXT
  5
BE0
330
B9E
100
AcDbEntity
  8
1
100
AcDbText
 10
-134.0
 20
62.25
 30
0.0
 40
2.0
  1
Produto:
 41
0.8
  7
SANINDUSA
 11
-134.0
 21
63.25
 31
0.0
100
AcDbText
 73
     2
  0
LINE
  5
BE1
330
B9E
100
AcDbEntity
  8
3
100
AcDbLine
 10
-40.0
 20
4.0
 30
0.0
 11
-40.0
 21
65.0
 31
0.0
  0
LWPOLYLINE
  5
BE2
102
{ACAD_REACTORS
330
BEC
102
}
330
B9E
100
AcDbEntity
  8
9
100
AcDbPolyline
 90
       12
 70
     1
 43
0.0
 10
-3.038714600644652
 20
58.90010174665076
 10
-5.726962862472191
 20
58.90010174665076
 10
-5.726962862472191
 20
58.5001017466509
 10
-3.038748516195028
 20
58.5001017466509
 42
-0.4142135623731731
 10
-2.638748516194482
 20
58.1001017466508
 10
-2.638748516194482
 20
57.42799728675596
 10
-5.21497371544865
 20
57.42799728675596
 42
0.4142135623731289
 10
-6.014973715448377
 20
56.627997286756
 10
-6.014973715448377
 20
55.92380871629643
 42
0.4142135623731132
 10
-5.21497371544865
 20
55.12380871629648
 10
-2.23871460064447
 20
55.12380871629648
 10
-2.23871460064447
 20
58.10010174665103
 42
0.4142135623730717
  0
LWPOLYLINE
  5
BE3
102
{ACAD_REACTORS
330
BEC
102
}
330
B9E
100
AcDbEntity
  8
9
100
AcDbPolyline
 90
       20
 70
     1
 43
0.0
 10
-10.01531287095122
 20
57.82799728675581
 10
-10.01531287095122
 20
58.10010174665103
 42
-0.4142135623730744
 10
-9.615312870951584
 20
58.5001017466509
 10
-6.92703069357276
 20
58.5001017466509
 10
-6.92703069357276
 20
58.90010174665076
 10
-9.615346786501959
 20
58.90010174665076
 42
0.4142135623730883
 10
-10.41534678650168
 20
58.1001017466508
 10
-10.41534678650168
 20
57.82796337120567
 42
0.4142135623730717
 10
-9.615346786501959
 20
57.02796337120571
 10
-7.423079531965413
 20
57.02796337120571
 42
-0.4142135623730847
 10
-7.023079531965322
 20
56.62796337120562
 10
-7.023079531965322
 20
55.90786840766487
 42
-0.4142135623730744
 10
-7.423079531965413
 20
55.507868407665
 10
-10.41534678650168
 20
55.507868407665
 10
-10.41534678650168
 20
55.12380871629648
 10
-7.445787917283723
 20
55.12380871629648
 42
0.4114777732064574
 10
-6.645822882998345
 20
55.9163291493976
 10
-6.639238813324936
 20
56.62051771985716
 42
0.4169546541682913
 10
-7.439203847610315
 20
57.42799728675596
 10
-9.615312870951584
 20
57.42799728675596
 42
-0.4142135623731576
  0
LWPOLYLINE
  5
BE4
102
{ACAD_REACTORS
330
BEC
102
}
330
B9E
100
AcDbEntity
  8
9
100
AcDbPolyline
 90
       12
 70
     1
 43
0.0
 10
-14.41561811090378
 20
58.90010174665076
 10
-14.79964388672215
 20
58.90010174665076
 10
-14.79964388672215
 20
55.92380871629643
 42
0.4142135623731133
 10
-13.99964388672242
 20
55.12380871629648
 10
-11.8233508563676
 20
55.12380871629648
 42
0.4142135623730872
 10
-11.02335085636741
 20
55.92380871629643
 10
-11.02335085636741
 20
58.90010174665076
 10
-11.42338477191788
 20
58.90010174665076
 10
-11.42338477191788
 20
55.91567577726095
 42
-0.4131711701795318
 10
-11.82196067063523
 20
55.51567831234956
 10
-14.0141940096214
 20
55.50787335710947
 42
-0.4152567234624407
 10
-14.41561811090378
 20
55.90787082202087
  0
LWPOLYLINE
  5
BE5
102
{ACAD_REACTORS
330
BEC
102
}
330
B9E
100
AcDbEntity
  8
9
100
AcDbPolyline
 90
        6
 70
     1
 43
0.0
 10
-15.80771578768872
 20
55.507868407665
 10
-18.39994912667453
 20
55.507868407665
 42
-0.4142135623731731
 10
-18.79994912667462
 20
55.90786840766487
 10
-18.79994912667462
 20
58.10010174665103
 42
-0.4142135623730744
 10
-18.39994912667453
 20
58.5001017466509
 10
-15.80771578768872
 20
58.5001017466509
  0
LWPOLYLINE
  5
BE6
102
{ACAD_REACTORS
330
BEC
102
}
330
B9E
100
AcDbEntity
  8
9
100
AcDbPolyline
 90
        8
 70
     1
 43
0.0
 10
-15.4236900118708
 20
59.87619128370352
 10
-15.80771578768872
 20
59.87619128370352
 10
-15.80771578768872
 20
58.90010174665076
 10
-18.39176256411201
 20
58.90010174665076
 42
0.4131164467977967
 10
-19.19175694739761
 20
58.1030995310698
 10
-19.1999120763262
 20
55.92680650071542
 42
0.4153115297271718
 10
-18.39991769304061
 20
55.12380871629648
 10
-15.4236900118708
 20
55.12380871629648
  0
LWPOLYLINE
  5
BE7
102
{ACAD_REACTORS
330
BEC
102
}
330
B9E
100
AcDbEntity
  8
9
100
AcDbPolyline
 90
       10
 70
     1
 43
0.0
 10
-20.59201288790928
 20
58.90010174665076
 10
-23.56830591826338
 20
58.90010174665076
 10
-23.56830591826338
 20
55.12380871629648
 10
-23.18424622689509
 20
55.12380871629648
 10
-23.18424622689509
 20
58.5001017466509
 10
-20.59204680345965
 20
58.5001017466509
 42
-0.4142135623730898
 10
-20.19204680345956
 20
58.1001017466508
 10
-20.19204680345956
 20
55.12380871629648
 10
-19.79201288790909
 20
55.12380871629648
 10
-19.79201288790909
 20
58.10010174665103
 42
0.4142135623731132
  0
LWPOLYLINE
  5
BE8
102
{ACAD_REACTORS
330
BEC
102
}
330
B9E
100
AcDbEntity
  8
9
100
AcDbPolyline
 90
        4
 70
     1
 43
0.0
 10
-24.19231812786165
 20
58.90010174665076
 10
-24.57637781922995
 20
58.90010174665076
 10
-24.57637781922995
 20
55.12380871629648
 10
-24.19231812786165
 20
55.12380871629648
  0
LWPOLYLINE
  5
BE9
102
{ACAD_REACTORS
330
BEC
102
}
330
B9E
100
AcDbEntity
  8
9
100
AcDbPolyline
 90
       10
 70
     1
 43
0.0
 10
-28.57661522808212
 20
58.5001017466509
 10
-25.98444972019706
 20
58.5001017466509
 42
-0.4142135623731731
 10
-25.58444972019652
 20
58.1001017466508
 10
-25.58444972019652
 20
55.12380871629648
 10
-25.2004239443786
 20
55.12380871629648
 10
-25.2004239443786
 20
58.10010174665103
 42
0.4142135623730717
 10
-26.00042394437833
 20
58.90010174665076
 10
-28.97664914363259
 20
58.90010174665076
 10
-28.97664914363259
 20
55.12380871629648
 10
-28.57661522808212
 20
55.12380871629648
  0
LWPOLYLINE
  5
BEA
102
{ACAD_REACTORS
330
BEC
102
}
330
B9E
100
AcDbEntity
  8
9
100
AcDbPolyline
 90
       12
 70
     1
 43
0.0
 10
-29.58465321349832
 20
58.10010174665103
 42
0.4142135623730716
 10
-30.3846532134985
 20
58.90010174665076
 10
-33.07296930642724
 20
58.90010174665076
 10
-33.07296930642724
 20
58.5001017466509
 10
-30.38468712904842
 20
58.5001017466509
 42
-0.4142135623730067
 10
-29.98468712904878
 20
58.1001017466508
 10
-29.98468712904878
 20
57.42799728675618
 10
-32.56098015940324
 20
57.42799728675596
 42
0.4142135623731289
 10
-33.36098015940343
 20
56.627997286756
 10
-33.36098015940343
 20
55.92380871629643
 42
0.4142135623731132
 10
-32.56098015940324
 20
55.12380871629648
 10
-29.58465321349832
 20
55.12380871629648
  0
LWPOLYLINE
  5
BEB
102
{ACAD_REACTORS
330
BEC
102
}
330
B9E
100
AcDbEntity
  8
9
100
AcDbPolyline
 90
       20
 70
     1
 43
0.0
 10
-34.7850262845518
 20
57.42799728675596
 10
-36.96125148380543
 20
57.42799728675596
 42
-0.4142135623730898
 10
-37.36125148380552
 20
57.82799728675604
 10
-37.36125148380552
 20
58.10010174665103
 42
-0.4142135623730744
 10
-36.96125148380543
 20
58.5001017466509
 10
-34.27303713752781
 20
58.50010174665067
 10
-34.27303713752781
 20
58.90010174665076
 10
-36.96128539935535
 20
58.90010174665076
 42
0.4142135623731289
 10
-37.76128539935553
 20
58.1001017466508
 10
-37.76128539935553
 20
57.82796337120567
 42
0.4142135623730716
 10
-36.9612853993558
 20
57.02796337120571
 10
-34.76901814481926
 20
57.02796337120571
 42
-0.414213562373168
 10
-34.36901814481962
 20
56.62796337120562
 10
-34.36901814481962
 20
55.90786840766487
 42
-0.4142135623730744
 10
-34.76901814481926
 20
55.507868407665
 10
-37.76128539935553
 20
55.507868407665
 10
-37.76128539935553
 20
55.12380871629648
 10
-34.7850262845518
 20
55.12380871629648
 42
0.4142135623731289
 10
-33.98502628455162
 20
55.92380871629643
 10
-33.98502628455162
 20
56.627997286756
 42
0.4142135623731132
  0
HATCH
  5
BEC
330
B9E
100
AcDbEntity
  8
9
100
AcDbHatch
 10
0.0
 20
0.0
 30
0.0
210
0.0
220
0.0
230
1.0
  2
SOLID
 70
     1
 71
     1
 91
       13
 92
        7
 72
     1
 73
     1
 93
       20
 10
-34.36901814481962
 20
55.90786840766487
 42
-0.414213562372991
 10
-34.76901814481926
 20
55.507868407665
 42
0.0
 10
-37.76128539935553
 20
55.507868407665
 42
0.0
 10
-37.76128539935553
 20
55.12380871629648
 42
0.0
 10
-34.7850262845518
 20
55.12380871629648
 42
0.4142135623731705
 10
-33.98502628455162
 20
55.92380871629666
 42
0.0
 10
-33.98502628455162
 20
56.627997286756
 42
0.4142135623731547
 10
-34.7850262845518
 20
57.42799728675596
 42
0.0
 10
-36.96125148380543
 20
57.42799728675596
 42
-0.4142135623730898
 10
-37.36125148380552
 20
57.82799728675604
 42
0.0
 10
-37.36125148380552
 20
58.1001017466508
 42
-0.4142135623731575
 10
-36.96125148380543
 20
58.5001017466509
 42
0.0
 10
-34.27303713752781
 20
58.50010174665067
 42
0.0
 10
-34.27303713752781
 20
58.90010174665076
 42
0.0
 10
-36.96128539935535
 20
58.90010174665076
 42
0.4142135623731705
 10
-37.76128539935553
 20
58.10010174665058
 42
0.0
 10
-37.76128539935553
 20
57.82796337120544
 42
0.4142135623730299
 10
-36.9612853993558
 20
57.02796337120571
 42
0.0
 10
-34.76901814481926
 20
57.02796337120571
 42
-0.4142135623730015
 10
-34.36901814481962
 20
56.62796337120608
 42
0.0
 97
        1
330
BEB
 92
        7
 72
     1
 73
     1
 93
       12
 10
-33.36098015940343
 20
55.92380871629666
 42
0.4142135623731547
 10
-32.56098015940324
 20
55.12380871629648
 42
0.0
 10
-29.58465321349877
 20
55.12380871629648
 42
0.0
 10
-29.58465321349832
 20
58.10010174665058
 42
0.4142135623731964
 10
-30.3846532134985
 20
58.90010174665076
 42
0.0
 10
-33.07296930642724
 20
58.90010174665076
 42
0.0
 10
-33.07296930642724
 20
58.50010174665067
 42
0.0
 10
-30.38468712904887
 20
58.5001017466509
 42
-0.4142135623732564
 10
-29.98468712904878
 20
58.10010174665103
 42
0.0
 10
-29.98468712904923
 20
57.42799728675596
 42
0.0
 10
-32.56098015940324
 20
57.42799728675596
 42
0.4142135623731705
 10
-33.36098015940343
 20
56.627997286756
 42
0.0
 97
        1
330
BEA
 92
       22
 72
     1
 73
     1
 93
        6
 10
-32.97692046803468
 20
56.62796337120562
 42
-0.4142135623731576
 10
-32.57692046803459
 20
57.02796337120571
 42
0.0
 10
-29.98468712904878
 20
57.02796337120571
 42
0.0
 10
-29.98468712904878
 20
55.507868407665
 42
0.0
 10
-32.57692046803459
 20
55.507868407665
 42
-0.4142135623731731
 10
-32.97692046803468
 20
55.90786840766487
 42
0.0
 97
        1
330
C11
 92
        7
 72
     1
 73
     1
 93
       10
 10
-28.57661522808212
 20
58.5001017466509
 42
0.0
 10
-25.98444972019661
 20
58.5001017466509
 42
-0.4142135623730067
 10
-25.58444972019652
 20
58.10010174665058
 42
0.0
 10
-25.58444972019606
 20
55.12380871629648
 42
0.0
 10
-25.20042394437906
 20
55.12380871629648
 42
0.0
 10
-25.2004239443786
 20
58.1001017466508
 42
0.4142135623731134
 10
-26.00042394437833
 20
58.90010174665076
 42
0.0
 10
-28.97664914363259
 20
58.90010174665076
 42
0.0
 10
-28.97664914363259
 20
55.12380871629648
 42
0.0
 10
-28.57661522808212
 20
55.12380871629648
 42
0.0
 97
        1
330
BE9
 92
        7
 72
     0
 73
     1
 93
        4
 10
-24.57637781922995
 20
55.12380871629648
 10
-24.19231812786165
 20
55.12380871629648
 10
-24.19231812786165
 20
58.90010174665076
 10
-24.57637781922995
 20
58.90010174665076
 97
        1
330
BE8
 92
        7
 72
     0
 73
     1
 93
        4
 10
-24.19231812786165
 20
59.87619128370352
 10
-24.5763778192304
 20
59.87619128370352
 10
-24.5763778192304
 20
59.28412752246913
 10
-24.1923181278612
 20
59.28412752246913
 97
        1
330
C12
 92
        7
 72
     1
 73
     1
 93
       10
 10
-23.18424622689509
 20
58.5001017466509
 42
0.0
 10
-20.59204680345965
 20
58.5001017466509
 42
-0.4142135623730898
 10
-20.19204680345956
 20
58.1001017466508
 42
0.0
 10
-20.19204680345956
 20
55.12380871629648
 42
0.0
 10
-19.79201288790909
 20
55.12380871629648
 42
0.0
 10
-19.79201288790909
 20
58.1001017466508
 42
0.4142135623731547
 10
-20.59201288790928
 20
58.90010174665076
 42
0.0
 10
-23.56830591826338
 20
58.90010174665076
 42
0.0
 10
-23.56830591826338
 20
55.12380871629648
 42
0.0
 10
-23.18424622689463
 20
55.12380871629648
 42
0.0
 97
        1
330
BE7
 92
        7
 72
     1
 73
     1
 93
        8
 10
-19.1999120763262
 20
55.92680650071542
 42
0.4153115297271299
 10
-18.39991769304061
 20
55.12380871629648
 42
0.0
 10
-15.4236900118708
 20
55.12380871629648
 42
0.0
 10
-15.4236900118708
 20
59.87619128370352
 42
0.0
 10
-15.80771578768872
 20
59.87619128370352
 42
0.0
 10
-15.80771578768872
 20
58.90010174665076
 42
0.0
 10
-18.39176256411201
 20
58.90010174665076
 42
0.4131164467977965
 10
-19.19175694739761
 20
58.1030995310698
 42
0.0
 97
        1
330
BE6
 92
       22
 72
     1
 73
     1
 93
        6
 10
-18.79994912667462
 20
58.1001017466508
 42
-0.4142135623731575
 10
-18.39994912667453
 20
58.5001017466509
 42
0.0
 10
-15.80771578768872
 20
58.50010174665067
 42
0.0
 10
-15.80771578768827
 20
55.507868407665
 42
0.0
 10
-18.39994912667453
 20
55.507868407665
 42
-0.4142135623731731
 10
-18.79994912667462
 20
55.90786840766487
 42
0.0
 97
        1
330
BE5
 92
        7
 72
     1
 73
     1
 93
       12
 10
-14.79964388672215
 20
55.92380871629621
 42
0.4142135623729885
 10
-13.99964388672242
 20
55.12380871629648
 42
0.0
 10
-11.8233508563676
 20
55.12380871629648
 42
0.4142135623731289
 10
-11.02335085636741
 20
55.92380871629666
 42
0.0
 10
-11.02335085636741
 20
58.90010174665076
 42
0.0
 10
-11.42338477191788
 20
58.90010174665076
 42
0.0
 10
-11.42338477191788
 20
55.91567577726095
 42
-0.4131711701795319
 10
-11.82196067063523
 20
55.51567831234956
 42
0.0
 10
-14.01419400962095
 20
55.50787335710947
 42
-0.4152567234626918
 10
-14.41561811090378
 20
55.90787082202087
 42
0.0
 10
-14.41561811090378
 20
58.90010174665076
 42
0.0
 10
-14.7996438867226
 20
58.90010174665076
 42
0.0
 97
        1
330
BE4
 92
        7
 72
     1
 73
     1
 93
       20
 10
-7.423079531965413
 20
57.02796337120571
 42
-0.414213562373168
 10
-7.023079531965322
 20
56.62796337120562
 42
0.0
 10
-7.023079531965322
 20
55.90786840766487
 42
-0.4142135623731575
 10
-7.423079531965413
 20
55.507868407665
 42
0.0
 10
-10.41534678650168
 20
55.507868407665
 42
0.0
 10
-10.41534678650168
 20
55.12380871629648
 42
0.0
 10
-7.445787917283723
 20
55.12380871629648
 42
0.4114777732065809
 10
-6.645822882998345
 20
55.91632914939783
 42
0.0
 10
-6.639238813324936
 20
56.62051771985716
 42
0.4169546541682913
 10
-7.439203847610315
 20
57.42799728675596
 42
0.0
 10
-9.615312870951584
 20
57.42799728675596
 42
-0.4142135623729911
 10
-10.01531287095122
 20
57.82799728675581
 42
0.0
 10
-10.01531287095122
 20
58.10010174665103
 42
-0.414213562372991
 10
-9.615312870951584
 20
58.5001017466509
 42
0.0
 10
-6.92703069357276
 20
58.50010174665067
 42
0.0
 10
-6.927030693572305
 20
58.90010174665076
 42
0.0
 10
-9.615346786501959
 20
58.90010174665076
 42
0.4142135623730467
 10
-10.41534678650168
 20
58.10010174665103
 42
0.0
 10
-10.41534678650168
 20
57.82796337120544
 42
0.4142135623730301
 10
-9.615346786501959
 20
57.02796337120571
 42
0.0
 97
        1
330
BE3
 92
        7
 72
     1
 73
     1
 93
       12
 10
-5.21497371544865
 20
57.42799728675596
 42
0.4142135623730871
 10
-6.014973715448377
 20
56.627997286756
 42
0.0
 10
-6.014973715448377
 20
55.92380871629621
 42
0.4142135623730715
 10
-5.21497371544865
 20
55.12380871629648
 42
0.0
 10
-2.23871460064447
 20
55.12380871629648
 42
0.0
 10
-2.23871460064447
 20
58.10010174665058
 42
0.414213562373155
 10
-3.038714600644652
 20
58.90010174665076
 42
0.0
 10
-5.726962862471737
 20
58.90010174665076
 42
0.0
 10
-5.726962862472191
 20
58.5001017466509
 42
0.0
 10
-3.038748516194573
 20
58.5001017466509
 42
-0.4142135623730067
 10
-2.638748516194482
 20
58.10010174665058
 42
0.0
 10
-2.638748516194482
 20
57.42799728675596
 42
0.0
 97
        1
330
BE2
 92
       22
 72
     1
 73
     1
 93
        6
 10
-2.638748516194937
 20
57.02796337120571
 42
0.0
 10
-2.638748516194482
 20
55.50786840766477
 42
0.0
 10
-5.21497371544865
 20
55.507868407665
 42
-0.4142135623731731
 10
-5.614973715448741
 20
55.90786840766509
 42
0.0
 10
-5.614973715448741
 20
56.62796337120562
 42
-0.4142135623731576
 10
-5.21497371544865
 20
57.02796337120571
 42
0.0
 97
        1
330
C0D
 75
     0
 76
     1
 47
0.0407044778999864
 98
       13
 10
-34.18710075113677
 20
56.16907953933765
 10
-33.12851374392494
 20
56.49471602641233
 10
-33.12851374392494
 20
56.49471602641233
 10
-28.77202873835904
 20
57.51232930166111
 10
-24.41554807250941
 20
57.91937341678636
 10
-24.41554807250941
 20
59.384734621186
 10
-23.31624584658039
 20
58.3264175319116
 10
-19.04119127844888
 20
57.75655517324913
 10
-19.04119127844888
 20
57.75655517324913
 10
-14.64399105416578
 20
57.43091868617466
 10
-8.048195057457178
 20
57.22739662861204
 10
-4.017427461911665
 20
57.18669281458665
 10
-4.017427461911665
 20
57.18669281458665
  0
TEXT
  5
BED
330
B9E
100
AcDbEntity
  8
leg fin
100
AcDbText
 10
3.391127401597259
 20
2.107634911895729
 30
0.0
 40
1.5
  1
Este desenho é propriedade da Sanindusa, S.A., e não pode ser copiado nem divulgado sem nossa autorização.
 50
90.0
 41
0.8
  7
SANINDUSA
100
AcDbText
  0
LINE
  5
BEE
330
B9E
100
AcDbEntity
  8
3
100
AcDbLine
 10
-90.0
 20
4.0
 30
0.0
 11
-90.0
 21
12.0
 31
0.0
  0
TEXT
  5
BEF
330
B9E
100
AcDbEntity
  8
1
100
AcDbText
 10
-39.0
 20
9.25
 30
0.0
 40
2.0
  1
Substituido por:
 41
0.8
  7
SANINDUSA
 11
-39.0
 21
10.25
 31
0.0
100
AcDbText
 73
     2
  0
POINT
  5
BF0
330
B9E
100
AcDbEntity
  8
SANINDUSA
100
AcDbPoint
 10
0.0
 20
0.0
 30
0.0
  0
TEXT
  5
BF1
330
B9E
100
AcDbEntity
  8
1
100
AcDbText
 10
-89.0
 20
16.74927010445663
 30
0.0
 40
2.0
  1
Normas:
 41
0.8
  7
SANINDUSA
 11
-89.0
 21
17.74927010445663
 31
0.0
100
AcDbText
 73
     2
  0
LINE
  5
BF2
330
B9E
100
AcDbEntity
  8
3
100
AcDbLine
 10
-90.0
 20
12.0
 30
0.0
 11
-90.0
 21
20.0
 31
0.0
  0
LINE
  5
BF3
330
B9E
100
AcDbEntity
  8
3
100
AcDbLine
 10
-110.546019464768
 20
12.0
 30
0.0
 11
-110.546019464768
 21
20.0
 31
0.0
  0
TEXT
  5
BF4
330
B9E
100
AcDbEntity
  8
1
100
AcDbText
 10
-109.6177520618648
 20
17.25
 30
0.0
 40
2.0
  1
Cor:
 41
0.8
  7
SANINDUSA
 11
-109.6177520618648
 21
18.25
 31
0.0
100
AcDbText
 73
     2
  0
LINE
  5
BF5
330
B9E
100
AcDbEntity
  8
leg fin
100
AcDbLine
 10
-91.42857142857156
 20
20.0
 30
0.0
 11
-91.42857142857156
 21
28.5
 31
0.0
  0
LINE
  5
BF6
330
B9E
100
AcDbEntity
  8
leg fin
100
AcDbLine
 10
-104.2857142857142
 20
20.0
 30
0.0
 11
-104.2857142857142
 21
28.5
 31
0.0
  0
LINE
  5
BF7
330
B9E
100
AcDbEntity
  8
leg fin
100
AcDbLine
 10
-117.1428571428573
 20
20.0
 30
0.0
 11
-117.1428571428573
 21
28.5
 31
0.0
  0
POINT
  5
BF8
330
B9E
100
AcDbEntity
  8
SANINDUSA
100
AcDbPoint
 10
-117.1428571428573
 20
28.5
 30
0.0
  0
POINT
  5
BF9
330
B9E
100
AcDbEntity
  8
SANINDUSA
100
AcDbPoint
 10
-104.2857142857142
 20
28.5
 30
0.0
  0
POINT
  5
BFA
330
B9E
100
AcDbEntity
  8
SANINDUSA
100
AcDbPoint
 10
-91.42857142857156
 20
28.5
 30
0.0
  0
TEXT
  5
BFB
330
B9E
100
AcDbEntity
  8
1
100
AcDbText
 10
-116.200160604496
 20
26.43288406845113
 30
0.0
 40
1.5
  1
Nº Seq.:
 41
0.8
  7
SANINDUSA
 11
-116.200160604496
 21
27.18288406845113
 31
0.0
100
AcDbText
 73
     2
  0
TEXT
  5
BFC
330
B9E
100
AcDbEntity
  8
1
100
AcDbText
 10
-103.2106584078738
 20
26.43288406845113
 30
0.0
 40
1.5
  1
Tipo:
 41
0.8
  7
SANINDUSA
 11
-103.2106584078738
 21
27.18288406845113
 31
0.0
100
AcDbText
 73
     2
  0
TEXT
  5
BFD
330
B9E
100
AcDbEntity
  8
1
100
AcDbText
 10
-90.22114672289353
 20
26.43288406845113
 30
0.0
 40
1.5
  1
Prod.:
 41
0.8
  7
SANINDUSA
 11
-90.22114672289353
 21
27.18288406845113
 31
0.0
100
AcDbText
 73
     2
  0
TEXT
  5
BFE
330
B9E
100
AcDbEntity
  8
1
100
AcDbText
 10
-64.77320576346574
 20
26.43288406845113
 30
0.0
 40
1.5
  1
Rev.:
 41
0.8
  7
SANINDUSA
 11
-64.77320576346574
 21
27.18288406845113
 31
0.0
100
AcDbText
 73
     2
  0
LINE
  5
BFF
330
B9E
100
AcDbEntity
  8
leg fin
100
AcDbLine
 10
-52.85714285714266
 20
20.0
 30
0.0
 11
-52.85714285714266
 21
28.5
 31
0.0
  0
LINE
  5
C00
330
B9E
100
AcDbEntity
  8
leg fin
100
AcDbLine
 10
-65.71428571428578
 20
20.0
 30
0.0
 11
-65.71428571428578
 21
28.5
 31
0.0
  0
LINE
  5
C01
330
B9E
100
AcDbEntity
  8
leg fin
100
AcDbLine
 10
-78.57142857142844
 20
20.0
 30
0.0
 11
-78.57142857142844
 21
28.5
 31
0.0
  0
POINT
  5
C02
330
B9E
100
AcDbEntity
  8
SANINDUSA
100
AcDbPoint
 10
-78.57142857142844
 20
28.5
 30
0.0
  0
POINT
  5
C03
330
B9E
100
AcDbEntity
  8
SANINDUSA
100
AcDbPoint
 10
-65.71428571428578
 20
28.5
 30
0.0
  0
POINT
  5
C04
330
B9E
100
AcDbEntity
  8
SANINDUSA
100
AcDbPoint
 10
-52.85714285714266
 20
28.5
 30
0.0
  0
TEXT
  5
C05
330
B9E
100
AcDbEntity
  8
1
100
AcDbText
 10
-77.61097961686573
 20
26.43288406845113
 30
0.0
 40
1.5
  1
Peça:
 41
0.8
  7
SANINDUSA
 11
-77.61097961686573
 21
27.18288406845113
 31
0.0
100
AcDbText
 73
     2
  0
TEXT
  5
C06
330
B9E
100
AcDbEntity
  8
1
100
AcDbText
 10
-52.06538060077036
 20
26.43288406845113
 30
0.0
 40
1.5
  1
Alt.:
 41
0.8
  7
SANINDUSA
 11
-52.06538060077036
 21
27.18288406845113
 31
0.0
100
AcDbText
 73
     2
  0
LINE
  5
C07
330
B9E
100
AcDbEntity
  8
3
100
AcDbLine
 10
0.0
 20
12.0
 30
0.0
 11
-40.0
 21
12.0
 31
0.0
  0
LINE
  5
C08
330
B9E
100
AcDbEntity
  8
3
100
AcDbLine
 10
-40.0
 20
32.5
 30
0.0
 11
0.0
 21
32.5
 31
0.0
  0
TEXT
  5
C09
330
B9E
100
AcDbEntity
  8
1
100
AcDbText
 10
-19.0
 20
29.75
 30
0.0
 40
2.0
  1
Folha:
 41
0.8
  7
SANINDUSA
 11
-19.0
 21
30.75
 31
0.0
100
AcDbText
 73
     2
  0
LINE
  5
C0A
330
B9E
100
AcDbEntity
  8
3
100
AcDbLine
 10
-20.0
 20
32.5
 30
0.0
 11
-20.0
 21
20.0
 31
0.0
  0
TEXT
  5
C0B
330
B9E
100
AcDbEntity
  8
1
100
AcDbText
 10
-39.0
 20
29.75
 30
0.0
 40
2.0
  1
Escala:
 41
0.8
  7
SANINDUSA
 11
-39.0
 21
30.75
 31
0.0
100
AcDbText
 73
     2
  0
TEXT
  5
C0C
330
B9E
100
AcDbEntity
  8
1
100
AcDbText
 10
-39.0
 20
17.25
 30
0.0
 40
2.0
  1
Substitui:
 41
0.8
  7
SANINDUSA
 11
-39.0
 21
18.25
 31
0.0
100
AcDbText
 73
     2
  0
LWPOLYLINE
  5
C0D
102
{ACAD_REACTORS
330
BEC
102
}
330
B9E
100
AcDbEntity
  8
9
100
AcDbPolyline
 90
        6
 70
     1
 43
0.0
 10
-2.638748516194482
 20
57.02796337120571
 10
-2.638748516194482
 20
55.50786840766477
 10
-5.21497371544865
 20
55.507868407665
 42
-0.4142135623730898
 10
-5.614973715448741
 20
55.90786840766487
 10
-5.614973715448741
 20
56.62796337120562
 42
-0.4142135623731576
 10
-5.21497371544865
 20
57.02796337120571
  0
LINE
  5
C0E
330
B9E
100
AcDbEntity
  8
3
100
AcDbLine
 10
-40.0
 20
50.0
 30
0.0
 11
0.0
 21
50.0
 31
0.0
  0
ATTDEF
  5
C0F
330
B9E
100
AcDbEntity
  8
1
100
AcDbText
 10
-31.30691739422431
 20
40.25
 30
0.0
 40
2.0
  1
XXXXXXXXXXXXXXX
 41
0.8
  7
SANINDUSA
 72
     4
 11
-20.0
 21
41.25
 31
0.0
100
AcDbAttributeDefinition
  3
Observações:
  2
OBS
 70
     0
  0
TEXT
  5
C10
330
B9E
100
AcDbEntity
  8
1
100
AcDbText
 10
-39.0
 20
47.25
 30
0.0
 40
2.0
  1
Observações:
 41
0.8
  7
SANINDUSA
 11
-39.0
 21
48.25
 31
0.0
100
AcDbText
 73
     2
  0
LWPOLYLINE
  5
C11
102
{ACAD_REACTORS
330
BEC
102
}
330
B9E
100
AcDbEntity
  8
9
100
AcDbPolyline
 90
        6
 70
     1
 43
0.0
 10
-29.98468712904878
 20
57.02796337120571
 10
-29.98468712904878
 20
55.507868407665
 10
-32.57692046803459
 20
55.507868407665
 42
-0.4142135623731731
 10
-32.97692046803468
 20
55.90786840766487
 10
-32.97692046803468
 20
56.62796337120562
 42
-0.4142135623731576
 10
-32.57692046803459
 20
57.02796337120571
  0
LWPOLYLINE
  5
C12
102
{ACAD_REACTORS
330
BEC
102
}
330
B9E
100
AcDbEntity
  8
9
100
AcDbPolyline
 90
        4
 70
     1
 43
0.0
 10
-24.19231812786165
 20
59.87619128370352
 10
-24.57637781922995
 20
59.87619128370352
 10
-24.57637781922995
 20
59.28412752246913
 10
-24.19231812786165
 20
59.28412752246913
  0
ENDBLK
  5
C14
330
B9E
100
AcDbEntity
  8
0
100
AcDbBlockEnd
  0
ENDSEC
  0
SECTION
  2
ENTITIES
  0
SPLINE
  5
13BF
330
1F
100
AcDbEntity
  8
SANINDUSA
100
AcDbSpline
210
0.0
220
0.0
230
1.0
 70
     8
 71
     3
 72
    20
 73
    16
 74
     0
 42
0.0000000001
 43
0.0000000001
 40
0.0
 40
0.0
 40
0.0
 40
0.0
 40
0.0315632079706269
 40
0.0902210591887529
 40
0.1574698503484152
 40
0.2330277327212693
 40
0.317168738318497
 40
0.4071673590105892
 40
0.4997137274551747
 40
0.5952136951962272
 40
0.6913807973906966
 40
0.7877421241716631
 40
0.8829070042085561
 40
0.9775753752632919
 40
1.0
 40
1.0
 40
1.0
 40
1.0
 10
4325.147611000293
 20
2663.623046191851
 30
0.0
 10
4325.147609604734
 20
2663.623045160238
 30
0.0
 10
4325.147605615634
 20
2663.623042211451
 30
0.0
 10
4325.147833247597
 20
2663.623203813181
 30
0.0
 10
4325.148319812035
 20
2663.623481844518
 30
0.0
 10
4325.149097988755
 20
2663.623868555109
 30
0.0
 10
4325.150171619722
 20
2663.624334167325
 30
0.0
 10
4325.151544380212
 20
2663.624859847708
 30
0.0
 10
4325.15316816888
 20
2663.625414420847
 30
0.0
 10
4325.155000332726
 20
2663.625971551261
 30
0.0
 10
4325.156995173958
 20
2663.626509119981
 30
0.0
 10
4325.159087497883
 20
2663.627005916055
 30
0.0
 10
4325.161223269336
 20
2663.627434657553
 30
0.0
 10
4325.162829316322
 20
2663.627721153471
 30
0.0
 10
4325.163690753508
 20
2663.627833191093
 30
0.0
 10
4325.163855728411
 20
2663.627854647557
 30
0.0
  0
SPLINE
  5
13C0
330
1F
100
AcDbEntity
  8
SANINDUSA
100
AcDbSpline
210
0.0
220
0.0
230
1.0
 70
     8
 71
     3
 72
    12
 73
     8
 74
     0
 42
0.0000000001
 43
0.0000000001
 40
0.0
 40
0.0
 40
0.0
 40
0.0
 40
0.1140961588258734
 40
0.3282719502345055
 40
0.5522028811568389
 40
0.7889851936760103
 40
1.0
 40
1.0
 40
1.0
 40
1.0
 10
4325.163865861201
 20
2663.627823489229
 30
0.0
 10
4325.166400139535
 20
2663.62819049069
 30
0.0
 10
4325.173691642595
 20
2663.629246409545
 30
0.0
 10
4325.18600236238
 20
2663.630696615512
 30
0.0
 10
4325.201074386168
 20
2663.63222160361
 30
0.0
 10
4325.216098643998
 20
2663.633519685862
 30
0.0
 10
4325.226127276796
 20
2663.634224405476
 30
0.0
 10
4325.230853055322
 20
2663.634556489507
 30
0.0
  0
SPLINE
  5
13C1
330
1F
100
AcDbEntity
  8
SANINDUSA
100
AcDbSpline
210
0.0
220
0.0
230
1.0
 70
     8
 71
     3
 72
    19
 73
    15
 74
     0
 42
0.0000000001
 43
0.0000000001
 40
0.0
 40
0.0
 40
0.0
 40
0.0
 40
0.0310474555710192
 40
0.0946881487452591
 40
0.1598095560315084
 40
0.2262263939438416
 40
0.2965689208688716
 40
0.3714127983280804
 40
0.4520395197875855
 40
0.5400752481164931
 40
0.6380434068960622
 40
0.7495174316847074
 40
0.8794038203360484
 40
1.0
 40
1.0
 40
1.0
 40
1.0
 10
4325.230850075089
 20
2663.634484189073
 30
0.0
 10
4325.231282222619
 20
2663.634515056226
 30
0.0
 10
4325.232600180849
 20
2663.63460919449
 30
0.0
 10
4325.234765661281
 20
2663.634657343464
 30
0.0
 10
4325.23732533884
 20
2663.63462976413
 30
0.0
 10
4325.239846336571
 20
2663.634484074425
 30
0.0
 10
4325.24234884964
 20
2663.634232202134
 30
0.0
 10
4325.244854614986
 20
2663.633864978595
 30
0.0
 10
4325.247379027145
 20
2663.633378082927
 30
0.0
 10
4325.249949817258
 20
2663.632758498119
 30
0.0
 10
4325.252646725033
 20
2663.631993533662
 30
0.0
 10
4325.255518761767
 20
2663.631060962747
 30
0.0
 10
4325.258417292098
 20
2663.630012248209
 30
0.0
 10
4325.260372147792
 20
2663.629262086891
 30
0.0
 10
4325.261576686703
 20
2663.628900917689
 30
0.0
  0
SPLINE
  5
13C2
330
1F
100
AcDbEntity
  8
SANINDUSA
100
AcDbSpline
210
0.0
220
0.0
230
1.0
 70
    24
 71
     1
 72
     4
 73
     2
 74
     0
 42
0.0000000001
 43
0.0000000001
 40
0.0
 40
0.0
 40
1.0
 40
1.0
 10
4325.282806073033
 20
2663.581244366686
 30
0.0
 10
4325.282818232381
 20
2663.580691190879
 30
0.0
  0
SPLINE
  5
13C3
330
1F
100
AcDbEntity
  8
SANINDUSA
100
AcDbSpline
210
0.0
220
0.0
230
1.0
 70
    24
 71
     1
 72
     4
 73
     2
 74
     0
 42
0.0000000001
 43
0.0000000001
 40
0.0
 40
0.0
 40
0.8658830049432925
 40
0.8658830049432925
 10
4325.349952806436
 20
2663.580691190879
 30
0.0
 10
4325.350550315822
 20
2663.607855359215
 30
0.0
  0
ARC
  5
13C4
330
1F
100
AcDbEntity
  8
SANINDUSA
100
AcDbCircle
 10
4325.277807276678
 20
2663.581134417698
 30
0.0
 40
0.0050000000000001
100
AcDbArc
 50
1.234589252405735
 51
86.81273063984308
  0
ARC
  5
13C5
330
1F
100
AcDbEntity
  8
SANINDUSA
100
AcDbCircle
 10
4325.498827329923
 20
2663.755691198031
 30
0.0
 40
0.0050000000000056
100
AcDbArc
 50
344.2286784191235
 51
90.0
  0
SPLINE
  5
13C8
330
1F
100
AcDbEntity
  8
SANINDUSA
100
AcDbSpline
210
0.0
220
0.0
230
1.0
 70
    24
 71
     3
 72
    38
 73
    34
 74
     0
 42
0.0000000001
 43
0.0000000001
 40
0.0
 40
0.0
 40
0.0
 40
0.0
 40
0.0379057207958176
 40
0.0758335833483142
 40
0.113750081441429
 40
0.1516402987601835
 40
0.190675930487381
 40
0.2297701163668169
 40
0.2688394879674612
 40
0.3078411642035938
 40
0.3368960497169772
 40
0.3660857491016666
 40
0.3953174355343845
 40
0.4245164555081207
 40
0.4536306352072318
 40
0.4826350062320174
 40
0.5082108851219384
 40
0.5338801100794028
 40
0.5595783380500871
 40
0.5852425610357334
 40
0.6108142368094761
 40
0.6417953184968721
 40
0.6728775395445366
 40
0.7039718401146474
 40
0.7349694029098555
 40
0.7675937912287158
 40
0.8003032596674904
 40
0.833026007347993
 40
0.8656685934351697
 40
0.8992136648020801
 40
0.9328260681242134
 40
0.9664454235519588
 40
1.0
 40
1.0
 40
1.0
 40
1.0
 10
4325.131385515162
 20
2663.760691198031
 30
0.0
 10
4325.137350816259
 20
2663.760691198031
 30
0.0
 10
4325.149284902948
 20
2663.760691198031
 30
0.0
 10
4325.167444714178
 20
2663.760691198031
 30
0.0
 10
4325.185805600001
 20
2663.760691198031
 30
0.0
 10
4325.204571071909
 20
2663.760691198031
 30
0.0
 10
4325.223742163935
 20
2663.760691198031
 30
0.0
 10
4325.243304080654
 20
2663.760691198031
 30
0.0
 10
4325.263022379243
 20
2663.760691198031
 30
0.0
 10
4325.281150695505
 20
2663.760691198031
 30
0.0
 10
4325.297626271747
 20
2663.760691198031
 30
0.0
 10
4325.312416664462
 20
2663.760691198031
 30
0.0
 10
4325.327147566944
 20
2663.760691198031
 30
0.0
 10
4325.341719224804
 20
2663.760691198031
 30
0.0
 10
4325.356031245256
 20
2663.760691198031
 30
0.0
 10
4325.369451486043
 20
2663.760691198031
 30
0.0
 10
4325.381952636935
 20
2663.760691198031
 30
0.0
 10
4325.393557429568
 20
2663.760691198031
 30
0.0
 10
4325.404741348448
 20
2663.760691198031
 30
0.0
 10
4325.41542168381
 20
2663.760691198031
 30
0.0
 10
4325.426244044326
 20
2663.760691198031
 30
0.0
 10
4325.43700185137
 20
2663.760691198031
 30
0.0
 10
4325.447506226262
 20
2663.760691198031
 30
0.0
 10
4325.457052899017
 20
2663.760691198031
 30
0.0
 10
4325.465747159079
 20
2663.760691198031
 30
0.0
 10
4325.473503569082
 20
2663.760691198031
 30
0.0
 10
4325.480300114788
 20
2663.760691198031
 30
0.0
 10
4325.486016020258
 20
2663.760691198031
 30
0.0
 10
4325.490702732964
 20
2663.760691198031
 30
0.0
 10
4325.494347022939
 20
2663.760691198031
 30
0.0
 10
4325.496929655479
 20
2663.760691198031
 30
0.0
 10
4325.498532272087
 20
2663.760691198031
 30
0.0
 10
4325.498729049011
 20
2663.760691198031
 30
0.0
 10
4325.498827342594
 20
2663.760691198031
 30
0.0
  0
ARC
  5
13CA
330
1F
100
AcDbEntity
  8
SANINDUSA
100
AcDbCircle
 10
4325.474821003445
 20
2663.690691198031
 30
0.0
 40
0.0050000000000005
100
AcDbArc
 50
270.0
 51
335.1360897317978
  0
SPLINE
  5
13CB
330
1F
100
AcDbEntity
  8
SANINDUSA
100
AcDbSpline
210
0.0
220
0.0
230
1.0
 70
    24
 71
     3
 72
    74
 73
    70
 74
     0
 42
0.0000000001
 43
0.0000000001
 40
0.0
 40
0.0
 40
0.0
 40
0.0
 40
0.0624999999999991
 40
0.0624999999999991
 40
0.0781249999999988
 40
0.0781249999999988
 40
0.0937499999999986
 40
0.0937499999999986
 40
0.124999999999998
 40
0.124999999999998
 40
0.1874999999999969
 40
0.1874999999999969
 40
0.2187499999999962
 40
0.2187499999999962
 40
0.2343749999999959
 40
0.2343749999999959
 40
0.2421874999999957
 40
0.2421874999999957
 40
0.2499999999999955
 40
0.2499999999999955
 40
0.3124999999999943
 40
0.3124999999999943
 40
0.3749999999999932
 40
0.3749999999999932
 40
0.4062499999999926
 40
0.4062499999999926
 40
0.4218749999999925
 40
0.4218749999999925
 40
0.4296874999999923
 40
0.4296874999999923
 40
0.4374999999999922
 40
0.4374999999999922
 40
0.4999999999999922
 40
0.4999999999999922
 40
0.5312499999999924
 40
0.5312499999999924
 40
0.5468749999999924
 40
0.5468749999999924
 40
0.5546874999999924
 40
0.5546874999999924
 40
0.5624999999999925
 40
0.5624999999999925
 40
0.5937499999999931
 40
0.5937499999999931
 40
0.6249999999999938
 40
0.6249999999999938
 40
0.6562499999999944
 40
0.6562499999999944
 40
0.6874999999999951
 40
0.6874999999999951
 40
0.7187499999999957
 40
0.7187499999999957
 40
0.7499999999999963
 40
0.7499999999999963
 40
0.8124999999999973
 40
0.8124999999999973
 40
0.8749999999999982
 40
0.8749999999999982
 40
0.9062499999999985
 40
0.9062499999999985
 40
0.9374999999999991
 40
0.9374999999999991
 40
0.9687499999999996
 40
0.9687499999999996
 40
0.9843749999999998
 40
0.9843749999999998
 40
0.9921874999999998
 40
0.9921874999999998
 40
1.0
 40
1.0
 40
1.0
 40
1.0
 10
4325.474821003445
 20
2663.685691198031
 30
0.0
 10
4325.474821002582
 20
2663.685691198031
 30
0.0
 10
4325.47428639136
 20
2663.685691198031
 30
0.0
 10
4325.472884523137
 20
2663.685691198031
 30
0.0
 10
4325.472567876903
 20
2663.685691198031
 30
0.0
 10
4325.471862920114
 20
2663.685691198031
 30
0.0
 10
4325.471474406473
 20
2663.685691198031
 30
0.0
 10
4325.470199801348
 20
2663.685691198031
 30
0.0
 10
4325.469204752297
 20
2663.685691198031
 30
0.0
 10
4325.465772186273
 20
2663.685691198031
 30
0.0
 10
4325.462889374781
 20
2663.685691198031
 30
0.0
 10
4325.45759698091
 20
2663.685691198031
 30
0.0
 10
4325.455670719581
 20
2663.685691198031
 30
0.0
 10
4325.452522986812
 20
2663.685691198031
 30
0.0
 10
4325.451430682142
 20
2663.685691198031
 30
0.0
 10
4325.449725301267
 20
2663.685691198031
 30
0.0
 10
4325.449145682358
 20
2663.685691198031
 30
0.0
 10
4325.447963679546
 20
2663.685691198031
 30
0.0
 10
4325.447360642374
 20
2663.685691198031
 30
0.0
 10
4325.441852869051
 20
2663.685691198031
 30
0.0
 10
4325.436360637016
 20
2663.685691198031
 30
0.0
 10
4325.424159193782
 20
2663.685691198031
 30
0.0
 10
4325.417448730188
 20
2663.685691198031
 30
0.0
 10
4325.406393699902
 20
2663.685691198031
 30
0.0
 10
4325.402580406336
 20
2663.685691198031
 30
0.0
 10
4325.396672814768
 20
2663.685691198031
 30
0.0
 10
4325.394671956512
 20
2663.685691198031
 30
0.0
 10
4325.391623188683
 20
2663.685691198031
 30
0.0
 10
4325.390599016268
 20
2663.685691198031
 30
0.0
 10
4325.38853480009
 20
2663.685691198031
 30
0.0
 10
4325.387493804181
 20
2663.685691198031
 30
0.0
 10
4325.378078901843
 20
2663.685691198031
 30
0.0
 10
4325.369384881043
 20
2663.685691198031
 30
0.0
 10
4325.355882369964
 20
2663.685691198031
 30
0.0
 10
4325.351304680297
 20
2663.685691198031
 30
0.0
 10
4325.344323681363
 20
2663.685691198031
 30
0.0
 10
4325.341977562
 20
2663.685691198031
 30
0.0
 10
4325.338429600307
 20
2663.685691198031
 30
0.0
 10
4325.33724216111
 20
2663.685691198031
 30
0.0
 10
4325.334857725994
 20
2663.685691198031
 30
0.0
 10
4325.333659348062
 20
2663.685691198031
 30
0.0
 10
4325.327663652351
 20
2663.685691198031
 30
0.0
 10
4325.322857164817
 20
2663.685691198031
 30
0.0
 10
4325.313225462396
 20
2663.685691198031
 30
0.0
 10
4325.308400082177
 20
2663.685691198031
 30
0.0
 10
4325.298732971299
 20
2663.685691198031
 30
0.0
 10
4325.293891262865
 20
2663.685691198031
 30
0.0
 10
4325.284194206987
 20
2663.685691198031
 30
0.0
 10
4325.27933885852
 20
2663.685691198031
 30
0.0
 10
4325.269616381591
 20
2663.685691198031
 30
0.0
 10
4325.264747287295
 20
2663.685691198031
 30
0.0
 10
4325.255006988632
 20
2663.685691198031
 30
0.0
 10
4325.250154811918
 20
2663.685691198031
 30
0.0
 10
4325.235644623085
 20
2663.685691198031
 30
0.0
 10
4325.226032633457
 20
2663.685691198031
 30
0.0
 10
4325.206902304295
 20
2663.685691198031
 30
0.0
 10
4325.197384279392
 20
2663.685691198031
 30
0.0
 10
4325.183160997101
 20
2663.685691198031
 30
0.0
 10
4325.17842993607
 20
2663.685691198031
 30
0.0
 10
4325.1689924317
 20
2663.685691198031
 30
0.0
 10
4325.164284810168
 20
2663.685691198031
 30
0.0
 10
4325.154884531726
 20
2663.685691198031
 30
0.0
 10
4325.150192565824
 20
2663.685691198031
 30
0.0
 10
4325.143153303996
 20
2663.685691198031
 30
0.0
 10
4325.140806894816
 20
2663.685691198031
 30
0.0
 10
4325.137281554335
 20
2663.685691198031
 30
0.0
 10
4325.136105364954
 20
2663.685691198031
 30
0.0
 10
4325.133749310458
 20
2663.685691198031
 30
0.0
 10
4325.132569417987
 20
2663.685691198031
 30
0.0
 10
4325.131385514665
 20
2663.685691198031
 30
0.0
  0
SPLINE
  5
13CE
330
1F
100
AcDbEntity
  8
SANINDUSA
100
AcDbSpline
210
0.0
220
0.0
230
1.0
 70
    24
 71
     3
 72
     9
 73
     5
 74
     0
 42
0.0000000001
 43
0.0000000001
 40
0.0
 40
0.0
 40
0.0
 40
0.0
 40
0.5599182416667925
 40
1.0
 40
1.0
 40
1.0
 40
1.0
 10
4325.479357544982
 20
2663.688588874857
 30
0.0
 10
4325.47953886165
 20
2663.688980899394
 30
0.0
 10
4325.479862688693
 20
2663.68968104543
 30
0.0
 10
4325.480183670242
 20
2663.690382500258
 30
0.0
 10
4325.480324928366
 20
2663.690691197733
 30
0.0
  0
SPLINE
  5
13D1
330
1F
100
AcDbEntity
  8
SANINDUSA
100
AcDbSpline
210
0.0
220
0.0
230
1.0
 70
    24
 71
     3
 72
    16
 73
    12
 74
     0
 42
0.0000000001
 43
0.0000000001
 40
0.0
 40
0.0
 40
0.0
 40
0.0
 40
0.125
 40
0.125
 40
0.25
 40
0.25
 40
0.5
 40
0.5
 40
0.75
 40
0.75
 40
1.0
 40
1.0
 40
1.0
 40
1.0
 10
4325.127385514664
 20
2663.755508888164
 30
0.0
 10
4325.127385514664
 20
2663.755583805379
 30
0.0
 10
4325.127385514664
 20
2663.755658986609
 30
0.0
 10
4325.127385514664
 20
2663.755809862971
 30
0.0
 10
4325.127385514664
 20
2663.755885836273
 30
0.0
 10
4325.127385514664
 20
2663.756102426649
 30
0.0
 10
4325.127385514664
 20
2663.75623649221
 30
0.0
 10
4325.127385514664
 20
2663.756457972421
 30
0.0
 10
4325.127385514664
 20
2663.756544897075
 30
0.0
 10
4325.127385514664
 20
2663.756661310172
 30
0.0
 10
4325.127385514664
 20
2663.756691198031
 30
0.0
 10
4325.127385514664
 20
2663.756691198031
 30
0.0
  0
ARC
  5
13D2
330
1F
100
AcDbEntity
  8
SANINDUSA
100
AcDbCircle
 10
4325.131385514665
 20
2663.756691198031
 30
0.0
 40
0.0040000000000002
100
AcDbArc
 50
90.0
 51
180.0
  0
SPLINE
  5
13D3
330
1F
100
AcDbEntity
  8
SANINDUSA
100
AcDbSpline
210
0.0
220
0.0
230
1.0
 70
    24
 71
     3
 72
    10
 73
     6
 74
     0
 42
0.0000000001
 43
0.0000000001
 40
0.0
 40
0.0
 40
0.0
 40
0.0
 40
0.5
 40
0.5
 40
1.0
 40
1.0
 40
1.0
 40
1.0
 10
4325.127385514664
 20
2663.692000645357
 30
0.0
 10
4325.127385514664
 20
2663.702355335332
 30
0.0
 10
4325.127385514664
 20
2663.712833868142
 30
0.0
 10
4325.127385514664
 20
2663.734032849929
 30
0.0
 10
4325.127385514664
 20
2663.744725399902
 30
0.0
 10
4325.127385514664
 20
2663.755508888164
 30
0.0
  0
SPLINE
  5
13D4
330
1F
100
AcDbEntity
  8
SANINDUSA
100
AcDbSpline
210
0.0
220
0.0
230
1.0
 70
     8
 71
     3
 72
    19
 73
    15
 74
     0
 42
0.0000000001
 43
0.0000000001
 40
0.0
 40
0.0
 40
0.0
 40
0.0
 40
0.0692092129935431
 40
0.167992687587627
 40
0.269142272625054
 40
0.370275459813992
 40
0.4567939145435309
 40
0.5433051000492001
 40
0.6322906232665591
 40
0.7212739368055639
 40
0.7903324189504356
 40
0.8593926195108469
 40
0.9296946662622291
 40
0.9680537772725177
 40
0.9680537772725177
 40
0.9680537772725177
 40
0.9680537772725177
 10
4325.45605618199
 20
2663.685691195051
 30
0.0
 10
4325.454526748074
 20
2663.683201148959
 30
0.0
 10
4325.450814327381
 20
2663.677157018172
 30
0.0
 10
4325.444013079294
 20
2663.668035742132
 30
0.0
 10
4325.435724955144
 20
2663.658389078424
 30
0.0
 10
4325.426995941249
 20
2663.649854351635
 30
0.0
 10
4325.418064151814
 20
2663.642478266484
 30
0.0
 10
4325.408987322153
 20
2663.636137123166
 30
0.0
 10
4325.399310852371
 20
2663.63054174391
 30
0.0
 10
4325.38985281339
 20
2663.626119758529
 30
0.0
 10
4325.380871421452
 20
2663.622747682464
 30
0.0
 10
4325.372438806133
 20
2663.620222068588
 30
0.0
 10
4325.365124247703
 20
2663.618520913353
 30
0.0
 10
4325.36060063238
 20
2663.617765573427
 30
0.0
 10
4325.359000813933
 20
2663.617515051906
 30
0.0
  0
SPLINE
  5
13D5
330
1F
100
AcDbEntity
  8
SANINDUSA
100
AcDbSpline
210
0.0
220
0.0
230
1.0
 70
     8
 71
     3
 72
    50
 73
    46
 74
     0
 42
0.0000000001
 43
0.0000000001
 40
0.0
 40
0.0
 40
0.0
 40
0.0
 40
0.0624999999999986
 40
0.0624999999999986
 40
0.1249999999999972
 40
0.1249999999999972
 40
0.1562499999999966
 40
0.1562499999999966
 40
0.187499999999996
 40
0.187499999999996
 40
0.2499999999999947
 40
0.2499999999999947
 40
0.2812499999999945
 40
0.2812499999999945
 40
0.3124999999999944
 40
0.3124999999999944
 40
0.3749999999999951
 40
0.3749999999999951
 40
0.4374999999999958
 40
0.4374999999999958
 40
0.4687499999999956
 40
0.4687499999999956
 40
0.4999999999999955
 40
0.4999999999999955
 40
0.5624999999999952
 40
0.5624999999999952
 40
0.5937499999999955
 40
0.5937499999999955
 40
0.6249999999999957
 40
0.6249999999999957
 40
0.6874999999999963
 40
0.6874999999999963
 40
0.7499999999999969
 40
0.7499999999999969
 40
0.7812499999999978
 40
0.7812499999999978
 40
0.8124999999999985
 40
0.8124999999999985
 40
0.8749999999999994
 40
0.8749999999999994
 40
0.9062499999999996
 40
0.9062499999999996
 40
0.9374999999999996
 40
0.9374999999999996
 40
1.0
 40
1.0
 40
1.0
 40
1.0
 10
4325.292177857288
 20
2663.616188080718
 30
0.0
 10
4325.293617828299
 20
2663.616215229036
 30
0.0
 10
4325.295119061759
 20
2663.616243730447
 30
0.0
 10
4325.298239095654
 20
2663.61629848465
 30
0.0
 10
4325.299857925461
 20
2663.616325210726
 30
0.0
 10
4325.302375730841
 20
2663.616363322631
 30
0.0
 10
4325.303232457124
 20
2663.616375730143
 30
0.0
 10
4325.304965333037
 20
2663.616399584341
 30
0.0
 10
4325.305836869512
 20
2663.616410972731
 30
0.0
 10
4325.30846638978
 20
2663.616443456603
 30
0.0
 10
4325.310239211281
 20
2663.61646284466
 30
0.0
 10
4325.312927972312
 20
2663.616488537797
 30
0.0
 10
4325.313829165223
 20
2663.616496545252
 30
0.0
 10
4325.31564161557
 20
2663.616511502781
 30
0.0
 10
4325.316556486034
 20
2663.616518476013
 30
0.0
 10
4325.319285177813
 20
2663.616537713524
 30
0.0
 10
4325.321081795419
 20
2663.616548341255
 30
0.0
 10
4325.324631275385
 20
2663.616566917899
 30
0.0
 10
4325.326384139031
 20
2663.616574853796
 30
0.0
 10
4325.328979602915
 20
2663.616586225331
 30
0.0
 10
4325.329841703329
 20
2663.616589940995
 30
0.0
 10
4325.331529004949
 20
2663.616597405898
 30
0.0
 10
4325.332356779822
 20
2663.616601159066
 30
0.0
 10
4325.334793414595
 20
2663.616612877479
 30
0.0
 10
4325.336355750024
 20
2663.616621304074
 30
0.0
 10
4325.338605716956
 20
2663.616636268452
 30
0.0
 10
4325.339340072458
 20
2663.61664161999
 30
0.0
 10
4325.340776650601
 20
2663.616653243884
 30
0.0
 10
4325.341478542511
 20
2663.61665956055
 30
0.0
 10
4325.34350244046
 20
2663.616679632363
 30
0.0
 10
4325.344754872412
 20
2663.616694660732
 30
0.0
 10
4325.347070500332
 20
2663.616727498719
 30
0.0
 10
4325.34813375205
 20
2663.616745272074
 30
0.0
 10
4325.349581802804
 20
2663.616772767396
 30
0.0
 10
4325.350036733444
 20
2663.616781997162
 30
0.0
 10
4325.350884971824
 20
2663.616800135966
 30
0.0
 10
4325.351279518954
 20
2663.616809069306
 30
0.0
 10
4325.352375963133
 20
2663.616835021254
 30
0.0
 10
4325.352991079911
 20
2663.61685119794
 30
0.0
 10
4325.35373835473
 20
2663.616871998534
 30
0.0
 10
4325.353958293336
 20
2663.616878362501
 30
0.0
 10
4325.354337130081
 20
2663.616889590616
 30
0.0
 10
4325.354494637513
 20
2663.616894418412
 30
0.0
 10
4325.354872876839
 20
2663.616906339427
 30
0.0
 10
4325.354999790179
 20
2663.616910862814
 30
0.0
 10
4325.359000813933
 20
2663.617515051906
 30
0.0
  0
SPLINE
  5
13D6
330
1F
100
AcDbEntity
  8
SANINDUSA
100
AcDbSpline
210
0.0
220
0.0
230
1.0
 70
     8
 71
     3
 72
     8
 73
     4
 74
     0
 42
0.0000000001
 43
0.0000000001
 40
0.0
 40
0.0
 40
0.0
 40
0.0
 40
1.0
 40
1.0
 40
1.0
 40
1.0
 10
4325.280118764476
 20
2663.616512019392
 30
0.0
 10
4325.284137765676
 20
2663.616378836166
 30
0.0
 10
4325.288157548801
 20
2663.616271409078
 30
0.0
 10
4325.292177857288
 20
2663.616188080718
 30
0.0
  0
SPLINE
  5
13D8
330
1F
100
AcDbEntity
  8
SANINDUSA
100
AcDbSpline
210
0.0
220
0.0
230
1.0
 70
    24
 71
     3
 72
     8
 73
     4
 74
     0
 42
0.0000000001
 43
0.0000000001
 40
0.0
 40
0.0
 40
0.0
 40
0.0
 40
0.0017437991414515
 40
0.0017437991414515
 40
0.0017437991414515
 40
0.0017437991414515
 10
4325.127385514664
 20
2663.690359934043
 30
0.0
 10
4325.127385514664
 20
2663.690906447469
 30
0.0
 10
4325.127385514664
 20
2663.691453353557
 30
0.0
 10
4325.127385514664
 20
2663.692000645357
 30
0.0
  0
ARC
  5
13D9
330
1F
100
AcDbEntity
  8
SANINDUSA
100
AcDbCircle
 10
4325.131385514665
 20
2663.689691198031
 30
0.0
 40
0.0040000000000003
100
AcDbArc
 50
180.0
 51
270.0
  0
SPLINE
  5
13DA
330
1F
100
AcDbEntity
  8
SANINDUSA
100
AcDbSpline
210
0.0
220
0.0
230
1.0
 70
    24
 71
     3
 72
    10
 73
     6
 74
     0
 42
0.0000000001
 43
0.0000000001
 40
0.0
 40
0.0
 40
0.0
 40
0.0
 40
0.5
 40
0.5
 40
1.0
 40
1.0
 40
1.0
 40
1.0
 10
4325.127385514664
 20
2663.689691198031
 30
0.0
 10
4325.127385514664
 20
2663.689691198031
 30
0.0
 10
4325.127385514664
 20
2663.689754542535
 30
0.0
 10
4325.127385514664
 20
2663.689989465016
 30
0.0
 10
4325.127385514664
 20
2663.690161036218
 30
0.0
 10
4325.127385514664
 20
2663.690359934043
 30
0.0
  0
SPLINE
  5
13DB
330
1F
100
AcDbEntity
  8
SANINDUSA
100
AcDbSpline
210
0.0
220
0.0
230
1.0
 70
    24
 71
     3
 72
     8
 73
     4
 74
     0
 42
0.0000000001
 43
0.0000000001
 40
0.0
 40
0.0
 40
0.0
 40
0.0
 40
1.0
 40
1.0
 40
1.0
 40
1.0
 10
4325.127385514664
 20
2663.688582059683
 30
0.0
 10
4325.127385514664
 20
2663.688928569531
 30
0.0
 10
4325.127385514664
 20
2663.689267782947
 30
0.0
 10
4325.127385514664
 20
2663.689599780425
 30
0.0
  0
SPLINE
  5
13DC
330
1F
100
AcDbEntity
  8
SANINDUSA
100
AcDbSpline
210
0.0
220
0.0
230
1.0
 70
    24
 71
     3
 72
    14
 73
    10
 74
     0
 42
0.0000000001
 43
0.0000000001
 40
0.0
 40
0.0
 40
0.0
 40
0.0
 40
0.25
 40
0.25
 40
0.5
 40
0.5
 40
0.75
 40
0.75
 40
1.0
 40
1.0
 40
1.0
 40
1.0
 10
4325.127385514664
 20
2663.625857520764
 30
0.0
 10
4325.127385514664
 20
2663.630992509603
 30
0.0
 10
4325.127385514664
 20
2663.636152469957
 30
0.0
 10
4325.127385514664
 20
2663.646522065152
 30
0.0
 10
4325.127385514664
 20
2663.651731587527
 30
0.0
 10
4325.127385514664
 20
2663.662191752967
 30
0.0
 10
4325.127385514664
 20
2663.667444320736
 30
0.0
 10
4325.127385514664
 20
2663.677985897525
 30
0.0
 10
4325.127385514664
 20
2663.683275003981
 30
0.0
 10
4325.127385514664
 20
2663.688582059683
 30
0.0
  0
SPLINE
  5
13DE
330
1F
100
AcDbEntity
  8
SANINDUSA
100
AcDbSpline
210
0.0
220
0.0
230
1.0
 70
    24
 71
     3
 72
     8
 73
     4
 74
     0
 42
0.0000000001
 43
0.0000000001
 40
0.0
 40
0.0
 40
0.0
 40
0.0
 40
1.0
 40
1.0
 40
1.0
 40
1.0
 10
4325.267769369339
 20
2663.616920903072
 30
0.0
 10
4325.271881284456
 20
2663.616777705988
 30
0.0
 10
4325.275993359661
 20
2663.61663905745
 30
0.0
 10
4325.280105825988
 20
2663.616512449574
 30
0.0
  0
SPLINE
  5
13E4
330
1F
100
AcDbEntity
  8
SANINDUSA
100
AcDbSpline
210
0.0
220
0.0
230
1.0
 70
     8
 71
     3
 72
     8
 73
     4
 74
     0
 42
0.0000000001
 43
0.0000000001
 40
0.0
 40
0.0
 40
0.0
 40
0.0
 40
1.0
 40
1.0
 40
1.0
 40
1.0
 10
4325.132209162854
 20
2663.618758144226
 30
0.0
 10
4325.136511034624
 20
2663.619603780516
 30
0.0
 10
4325.140824557602
 20
2663.620400564489
 30
0.0
 10
4325.145148116049
 20
2663.62115019276
 30
0.0
  0
ARC
  5
13E7
330
1F
100
AcDbEntity
  8
SANINDUSA
100
AcDbCircle
 10
4325.131370669648
 20
2663.622654245934
 30
0.0
 40
0.0039853076778758
100
AcDbArc
 50
180.5012956006133
 51
282.1455525312238
  0
SPLINE
  5
13E8
330
1F
100
AcDbEntity
  8
SANINDUSA
100
AcDbSpline
210
0.0
220
0.0
230
1.0
 70
    24
 71
     3
 72
     8
 73
     4
 74
     0
 42
0.0000000001
 43
0.0000000001
 40
0.0
 40
0.0
 40
0.0
 40
0.0
 40
1.0
 40
1.0
 40
1.0
 40
1.0
 10
4325.127385514664
 20
2663.622619383929
 30
0.0
 10
4325.127385514664
 20
2663.623419642419
 30
0.0
 10
4325.127385514664
 20
2663.624269975993
 30
0.0
 10
4325.127385514664
 20
2663.625171083348
 30
0.0
  0
ARC
  5
13EA
330
1F
100
AcDbEntity
  8
SANINDUSA
100
AcDbCircle
 10
4325.144444617911
 20
2663.625072727034
 30
0.0
 40
0.0039851156567447
100
AcDbArc
 50
280.1678145564461
 51
333.1526278178803
  0
LWPOLYLINE
  5
13EC
330
1F
100
AcDbEntity
  8
SANINDUSA
100
AcDbPolyline
 90
        9
 70
   128
 43
0.0
 10
4325.292177860343
 20
2663.616188081423
 10
4325.292752061688
 20
2663.616052123229
 10
4325.293302644694
 20
2663.615746798436
 10
4325.293810371959
 20
2663.615282746474
 10
4325.294257570707
 20
2663.614676150004
 10
4325.294628609621
 20
2663.613948168675
 10
4325.294910584294
 20
2663.613124194066
 10
4325.295093630159
 20
2663.612232955615
 10
4325.295171384417
 20
2663.611305537144
  0
SPLINE
  5
13ED
330
1F
100
AcDbEntity
  8
SANINDUSA
100
AcDbSpline
210
0.0
220
0.0
230
1.0
 70
     8
 71
     3
 72
    28
 73
    24
 74
     0
 42
0.0000000001
 43
0.0000000001
 40
0.0
 40
0.0
 40
0.0
 40
0.0
 40
0.1250000000000016
 40
0.1250000000000016
 40
0.1875000000000024
 40
0.1875000000000024
 40
0.2500000000000032
 40
0.2500000000000032
 40
0.3750000000000034
 40
0.3750000000000034
 40
0.5000000000000036
 40
0.5000000000000036
 40
0.5625000000000032
 40
0.5625000000000032
 40
0.6250000000000029
 40
0.6250000000000029
 40
0.7500000000000032
 40
0.7500000000000032
 40
0.8125000000000028
 40
0.8125000000000028
 40
0.8750000000000024
 40
0.8750000000000024
 40
1.0
 40
1.0
 40
1.0
 40
1.0
 10
4325.294660423972
 20
2663.589977092958
 30
0.0
 10
4325.294645259882
 20
2663.589309727672
 30
0.0
 10
4325.294561327492
 20
2663.588662380039
 30
0.0
 10
4325.294343242538
 20
2663.587719034702
 30
0.0
 10
4325.294254434452
 20
2663.587407419441
 30
0.0
 10
4325.294051964753
 20
2663.586806124087
 30
0.0
 10
4325.293938323799
 20
2663.586515549858
 30
0.0
 10
4325.293565156832
 20
2663.585671290017
 30
0.0
 10
4325.293270617573
 20
2663.585141115913
 30
0.0
 10
4325.292637512251
 20
2663.584179728441
 30
0.0
 10
4325.292297622064
 20
2663.583744001088
 30
0.0
 10
4325.291762963758
 20
2663.583150676722
 30
0.0
 10
4325.291579835383
 20
2663.582962407729
 30
0.0
 10
4325.291209530568
 20
2663.582609410123
 30
0.0
 10
4325.291023119702
 20
2663.582445290199
 30
0.0
 10
4325.290461520558
 20
2663.581988733927
 30
0.0
 10
4325.290084059575
 20
2663.581731689856
 30
0.0
 10
4325.289516710371
 20
2663.581419656939
 30
0.0
 10
4325.28932679038
 20
2663.58132786176
 30
0.0
 10
4325.288953499589
 20
2663.581173153371
 30
0.0
 10
4325.288769405601
 20
2663.581109765606
 30
0.0
 10
4325.288225081766
 20
2663.580962251768
 30
0.0
 10
4325.287872829432
 20
2663.580920273889
 30
0.0
 10
4325.287531747616
 20
2663.580942091887
 30
0.0
  0
SPLINE
  5
13EE
330
1F
100
AcDbEntity
  8
SANINDUSA
100
AcDbSpline
210
0.0
220
0.0
230
1.0
 70
    24
 71
     3
 72
    11
 73
     7
 74
     0
 42
0.0000000001
 43
0.0000000001
 40
0.0
 40
0.0
 40
0.0
 40
0.0
 40
0.0100000018017895
 40
0.0100000018017895
 40
0.0100000018017895
 40
0.0213589865946122
 40
0.0213589865946122
 40
0.0213589865946122
 40
0.0213589865946122
 10
4325.29517138887
 20
2663.611305531815
 30
0.0
 10
4325.29508743466
 20
2663.607977076464
 30
0.0
 10
4325.295005503167
 20
2663.604648565651
 30
0.0
 10
4325.294925522101
 20
2663.601320004641
 30
0.0
 10
4325.29483467175
 20
2663.597539098085
 30
0.0
 10
4325.294746337812
 20
2663.593758125197
 30
0.0
 10
4325.294660423972
 20
2663.589977092958
 30
0.0
  0
LINE
  5
13EF
330
1F
100
AcDbEntity
  8
SANINDUSA
100
AcDbLine
 10
4325.282818232381
 20
2663.580691190879
 30
0.0
 11
4325.349952806436
 21
2663.580691190879
 31
0.0
  0
LINE
  5
13FB
330
1F
100
AcDbEntity
  8
SANINDUSA
100
AcDbLine
 10
4325.22450820049
 20
2663.623996736924
 30
0.0
 11
4325.223981004858
 21
2663.634056197921
 31
0.0
  0
ARC
  5
1400
330
1F
100
AcDbEntity
  8
SANINDUSA
100
AcDbCircle
 10
4325.263494997811
 20
2663.626039941336
 30
0.0
 40
0.0390403033812036
100
AcDbArc
 50
183.0000000039548
 51
266.8127306398431
  0
LINE
  5
1401
330
1F
100
AcDbEntity
  8
SANINDUSA
100
AcDbLine
 10
4325.283513595068
 20
2663.585824402491
 30
0.0
 11
4325.261324365341
 21
2663.587060021679
 31
0.0
  0
SPLINE
  5
1406
330
1F
100
AcDbEntity
  8
SANINDUSA
100
AcDbSpline
210
0.0
220
0.0
230
1.0
 70
     8
 71
     3
 72
    10
 73
     6
 74
     0
 42
0.0000000001
 43
0.0000000001
 40
0.0
 40
0.0
 40
0.0
 40
0.0
 40
0.0028658189793504
 40
0.7075014686844617
 40
1.0
 40
1.0
 40
1.0
 40
1.0
 10
4325.269309987032
 20
2663.626448439876
 30
0.0
 10
4325.269302337503
 20
2663.626450152992
 30
0.0
 10
4325.267413853557
 20
2663.62687307993
 30
0.0
 10
4325.264813480901
 20
2663.627604619732
 30
0.0
 10
4325.262310816305
 20
2663.62861509919
 30
0.0
 10
4325.261576686703
 20
2663.628900917689
 30
0.0
  0
SPLINE
  5
1408
330
1F
100
AcDbEntity
  8
SANINDUSA
100
AcDbSpline
210
0.0
220
0.0
230
1.0
 70
     8
 71
     3
 72
    15
 73
    11
 74
     0
 42
0.0000000001
 43
0.0000000001
 40
0.0
 40
0.0
 40
0.0
 40
0.0
 40
0.0469981926780283
 40
0.188535299795593
 40
0.330067847614665
 40
0.4710421089109286
 40
0.612011901098895
 40
0.7521725183344882
 40
0.8923299976882018
 40
1.0
 40
1.0
 40
1.0
 40
1.0
 10
4325.245091740691
 20
2663.633798214118
 30
0.0
 10
4325.245224481318
 20
2663.633346519879
 30
0.0
 10
4325.245756976133
 20
2663.631534528739
 30
0.0
 10
4325.2473864266
 20
2663.628619234695
 30
0.0
 10
4325.249901483493
 20
2663.625187757558
 30
0.0
 10
4325.253011970608
 20
2663.622265930861
 30
0.0
 10
4325.256540711913
 20
2663.619895970151
 30
0.0
 10
4325.26042164095
 20
2663.618185175658
 30
0.0
 10
4325.264207981539
 20
2663.617180578989
 30
0.0
 10
4325.266690728086
 20
2663.61699955325
 30
0.0
 10
4325.267769370877
 20
2663.61692090563
 30
0.0
  0
ARC
  5
140C
330
1F
100
AcDbEntity
  8
SANINDUSA
100
AcDbCircle
 10
4324.970078786944
 20
2663.755691198031
 30
0.0
 40
0.0050000000004362
100
AcDbArc
 50
343.9784242148742
 51
90.00000844185368
  0
ARC
  5
140D
330
1F
100
AcDbEntity
  8
SANINDUSA
100
AcDbCircle
 10
4324.519820145626
 20
2663.755691198031
 30
0.0
 40
0.0050000000004365
100
AcDbArc
 50
89.99999155814633
 51
195.9642248461312
  0
ARC
  5
140E
330
1F
100
AcDbEntity
  8
SANINDUSA
100
AcDbCircle
 10
4324.946052906336
 20
2663.690691149504
 30
0.0
 40
0.0049999493292071
100
AcDbArc
 50
271.0667657166867
 51
334.8230423811001
  0
ARC
  5
140F
330
1F
100
AcDbEntity
  8
SANINDUSA
100
AcDbCircle
 10
4324.543846044703
 20
2663.690691197061
 30
0.0
 40
0.004999997311347
100
AcDbArc
 50
205.4248189065912
 51
268.9329784824562
  0
SPLINE
  5
1411
330
1F
100
AcDbEntity
  8
SANINDUSA
100
AcDbSpline
210
0.0
220
0.0
230
1.0
 70
     8
 71
     3
 72
    11
 73
     7
 74
     0
 42
0.0000000001
 43
0.0000000001
 40
0.066991033673965
 40
0.066991033673965
 40
0.066991033673965
 40
0.066991033673965
 40
0.1254706990952174
 40
0.3056811809174755
 40
0.479203213111341
 40
0.5696632831832838
 40
0.5696632831832838
 40
0.5696632831832838
 40
0.5696632831832838
 10
4324.788210110943
 20
2663.616965396149
 30
0.0
 10
4324.789690223335
 20
2663.617097330411
 30
0.0
 10
4324.79573158795
 20
2663.61768222819
 30
0.0
 10
4324.80616685262
 20
2663.619304854266
 30
0.0
 10
4324.817389574493
 20
2663.621597689976
 30
0.0
 10
4324.824041524129
 20
2663.623253919212
 30
0.0
 10
4324.826317543163
 20
2663.623857564212
 30
0.0
  0
SPLINE
  5
1412
330
1F
100
AcDbEntity
  8
SANINDUSA
100
AcDbSpline
210
0.0
220
0.0
230
1.0
 70
     8
 71
     3
 72
    11
 73
     7
 74
     0
 42
0.0000000001
 43
0.0000000001
 40
0.4369673810551052
 40
0.4369673810551052
 40
0.4369673810551052
 40
0.4369673810551052
 40
0.5207968462283729
 40
0.6943188309191156
 40
0.8745293261960419
 40
0.9330089717722399
 40
0.9330089717722399
 40
0.9330089717722399
 40
0.9330089717722399
 10
4324.664081933702
 20
2663.623725405322
 30
0.0
 10
4324.666191584154
 20
2663.623170902809
 30
0.0
 10
4324.672676885377
 20
2663.621563465037
 30
0.0
 10
4324.683732079911
 20
2663.619304853421
 30
0.0
 10
4324.69416734461
 20
2663.617682228348
 30
0.0
 10
4324.700208709173
 20
2663.617097330523
 30
0.0
 10
4324.701688821066
 20
2663.616965396272
 30
0.0
  0
SPLINE
  5
1413
330
1F
100
AcDbEntity
  8
SANINDUSA
100
AcDbSpline
210
0.0
220
0.0
230
1.0
 70
    24
 71
     1
 72
     4
 73
     2
 74
     0
 42
0.0000000001
 43
0.0000000001
 40
0.1427653012304307
 40
0.1427653012304307
 40
1.0
 40
1.0
 10
4324.710798542842
 20
2663.607224797545
 30
0.0
 10
4324.711382180612
 20
2663.580691190879
 30
0.0
  0
SPLINE
  5
1414
330
1F
100
AcDbEntity
  8
SANINDUSA
100
AcDbSpline
210
0.0
220
0.0
230
1.0
 70
    24
 71
     1
 72
     4
 73
     2
 74
     0
 42
0.0000000001
 43
0.0000000001
 40
0.0
 40
0.0
 40
0.8572338716413279
 40
0.8572338716413279
 10
4324.778516750941
 20
2663.580691190879
 30
0.0
 10
4324.779100388947
 20
2663.60722479749
 30
0.0
  0
SPLINE
  5
1415
330
1F
100
AcDbEntity
  8
SANINDUSA
100
AcDbSpline
210
0.0
220
0.0
230
1.0
 70
     8
 71
     3
 72
    37
 73
    33
 74
     0
 42
0.0000000001
 43
0.0000000001
 40
0.0
 40
0.0
 40
0.0
 40
0.0
 40
0.0101245797880065
 40
0.0368949282017743
 40
0.0568966154622885
 40
0.0726320630661928
 40
0.0847807303499443
 40
0.0983940789534944
 40
0.1135111706001383
 40
0.1301305027665625
 40
0.1481342353704755
 40
0.1675020127112121
 40
0.2065301882481773
 40
0.250070646154461
 40
0.2945953600102429
 40
0.351612939313038
 40
0.4055109192558571
 40
0.4525342810379195
 40
0.4912990464969456
 40
0.5363262547001783
 40
0.5881113913588162
 40
0.6466764482182988
 40
0.7080881935392612
 40
0.7331487915128498
 40
0.7584981368359981
 40
0.7841399444529423
 40
0.8116222443403453
 40
0.8437984957496784
 40
0.8810432735186301
 40
0.9236111508947237
 40
0.9717350298681076
 40
0.9844877952690589
 40
0.9844877952690589
 40
0.9844877952690589
 40
0.9844877952690589
 10
4324.88673489954
 20
2663.624545288484
 30
0.0
 10
4324.887267895531
 20
2663.625915780789
 30
0.0
 10
4324.887531026981
 20
2663.626623643861
 30
0.0
 10
4324.887969974036
 20
2663.627746822377
 30
0.0
 10
4324.888472948154
 20
2663.629006967928
 30
0.0
 10
4324.888947072969
 20
2663.630155865881
 30
0.0
 10
4324.88941684362
 20
2663.631265749197
 30
0.0
 10
4324.889823844194
 20
2663.632209042324
 30
0.0
 10
4324.890253684508
 20
2663.633184900787
 30
0.0
 10
4324.890695480363
 20
2663.634166621716
 30
0.0
 10
4324.891185327743
 20
2663.635230953568
 30
0.0
 10
4324.891882531243
 20
2663.636709342183
 30
0.0
 10
4324.89282664441
 20
2663.638638276554
 30
0.0
 10
4324.894023826286
 20
2663.640963747006
 30
0.0
 10
4324.895415327261
 20
2663.643531687371
 30
0.0
 10
4324.896935630145
 20
2663.646184233025
 30
0.0
 10
4324.898507345382
 20
2663.648775700917
 30
0.0
 10
4324.899918495048
 20
2663.650995223674
 30
0.0
 10
4324.901260367533
 20
2663.65302920902
 30
0.0
 10
4324.902673199626
 20
2663.655100259267
 30
0.0
 10
4324.904299423134
 20
2663.657401446829
 30
0.0
 10
4324.906074892497
 20
2663.659831017239
 30
0.0
 10
4324.907701557722
 20
2663.661988551621
 30
0.0
 10
4324.909019279643
 20
2663.663703036406
 30
0.0
 10
4324.90994658359
 20
2663.664898052452
 30
0.0
 10
4324.910903930146
 20
2663.666121988601
 30
0.0
 10
4324.91207382029
 20
2663.667607747973
 30
0.0
 10
4324.913718452489
 20
2663.669691029465
 30
0.0
 10
4324.915792360565
 20
2663.672327235211
 30
0.0
 10
4324.918310471029
 20
2663.675586327731
 30
0.0
 10
4324.920407774502
 20
2663.678353230713
 30
0.0
 10
4324.921646280055
 20
2663.680074871547
 30
0.0
 10
4324.921905831229
 20
2663.680437777881
 30
0.0
  0
SPLINE
  5
1416
330
1F
100
AcDbEntity
  8
SANINDUSA
100
AcDbSpline
210
0.0
220
0.0
230
1.0
 70
     8
 71
     3
 72
    37
 73
    33
 74
     0
 42
0.0000000001
 43
0.0000000001
 40
0.0159552210041295
 40
0.0159552210041295
 40
0.0159552210041295
 40
0.0159552210041295
 40
0.0287312998295581
 40
0.0768320247401715
 40
0.1193794212380444
 40
0.1566062792561214
 40
0.1946115682496308
 40
0.2265155487620186
 40
0.257094991525451
 40
0.2872566784565351
 40
0.3170070404190276
 40
0.3463529744368416
 40
0.3753015699874401
 40
0.4252354380453942
 40
0.4696573016245751
 40
0.5089298077051251
 40
0.5419976510711177
 40
0.5812483386900517
 40
0.6264312857687294
 40
0.6745802245757444
 40
0.7249401313266959
 40
0.7766972706476711
 40
0.8236133781474283
 40
0.8644100420694043
 40
0.8989042812409065
 40
0.9100966171811194
 40
0.9203477096999982
 40
0.9297835956985336
 40
0.9431307695300725
 40
0.9631228232243724
 40
0.9898802914975368
 40
1.0
 40
1.0
 40
1.0
 40
1.0
 10
4324.567991313818
 20
2663.680440066335
 30
0.0
 10
4324.568251461083
 20
2663.680076383887
 30
0.0
 10
4324.569490540574
 20
2663.678354292264
 30
0.0
 10
4324.571588371905
 20
2663.675586351033
 30
0.0
 10
4324.574106840453
 20
2663.672326899757
 30
0.0
 10
4324.576287869078
 20
2663.669554536625
 30
0.0
 10
4324.57809716402
 20
2663.667263292889
 30
0.0
 10
4324.579376170805
 20
2663.665636443296
 30
0.0
 10
4324.580513883613
 20
2663.664176462548
 30
0.0
 10
4324.581591708912
 20
2663.662778366538
 30
0.0
 10
4324.582617797574
 20
2663.66143049988
 30
0.0
 10
4324.583595270492
 20
2663.660128286226
 30
0.0
 10
4324.584742464617
 20
2663.658576694006
 30
0.0
 10
4324.586024699175
 20
2663.656804578999
 30
0.0
 10
4324.587421397887
 20
2663.654814744004
 30
0.0
 10
4324.58863842699
 20
2663.653026714547
 30
0.0
 10
4324.589784752621
 20
2663.651292994244
 30
0.0
 10
4324.590976199773
 20
2663.649434649615
 30
0.0
 10
4324.592303036101
 20
2663.647283740475
 30
0.0
 10
4324.593721356492
 20
2663.644876155075
 30
0.0
 10
4324.595179406627
 20
2663.64226868759
 30
0.0
 10
4324.596596320133
 20
2663.63958385573
 30
0.0
 10
4324.597894350141
 20
2663.636975064347
 30
0.0
 10
4324.599014524222
 20
2663.634593481073
 30
0.0
 10
4324.599778488518
 20
2663.632890306212
 30
0.0
 10
4324.600334872383
 20
2663.631607952579
 30
0.0
 10
4324.600654236141
 20
2663.630860042148
 30
0.0
 10
4324.601038446363
 20
2663.629947195501
 30
0.0
 10
4324.601439599286
 20
2663.628972019179
 30
0.0
 10
4324.601931385843
 20
2663.62774109147
 30
0.0
 10
4324.602367680134
 20
2663.626624163951
 30
0.0
 10
4324.602630984772
 20
2663.625915892779
 30
0.0
 10
4324.60316403303
 20
2663.624545288484
 30
0.0
  0
SPLINE
  5
1417
330
1F
100
AcDbEntity
  8
SANINDUSA
100
AcDbSpline
210
0.0
220
0.0
230
1.0
 70
     8
 71
     3
 72
    10
 73
     6
 74
     0
 42
0.0000000001
 43
0.0000000001
 40
0.0
 40
0.0
 40
0.0
 40
0.0
 40
0.2052754678317993
 40
0.9202224550306219
 40
1.0
 40
1.0
 40
1.0
 40
1.0
 10
4324.82435357214
 20
2663.623431386868
 30
0.0
 10
4324.825206203168
 20
2663.623615019432
 30
0.0
 10
4324.829028433977
 20
2663.624438219643
 30
0.0
 10
4324.833151586009
 20
2663.625480161135
 30
0.0
 10
4324.836389789298
 20
2663.626436970605
 30
0.0
 10
4324.83671485276
 20
2663.626533018867
 30
0.0
  0
SPLINE
  5
1418
330
1F
100
AcDbEntity
  8
SANINDUSA
100
AcDbSpline
210
0.0
220
0.0
230
1.0
 70
     8
 71
     3
 72
     9
 73
     5
 74
     0
 42
0.0000000001
 43
0.0000000001
 40
0.0
 40
0.0
 40
0.0
 40
0.0
 40
0.2310780571957253
 40
0.8444324897682653
 40
0.8444324897682653
 40
0.8444324897682653
 40
0.8444324897682653
 10
4324.653523612926
 20
2663.626448439876
 30
0.0
 10
4324.654779393835
 20
2663.62610084426
 30
0.0
 10
4324.658165291095
 20
2663.625132564698
 30
0.0
 10
4324.661583605809
 20
2663.624275568804
 30
0.0
 10
4324.664081933702
 20
2663.623725405322
 30
0.0
  0
SPLINE
  5
141D
330
1F
100
AcDbEntity
  8
SANINDUSA
100
AcDbSpline
210
0.0
220
0.0
230
1.0
 70
    24
 71
     3
 72
    30
 73
    26
 74
     0
 42
0.0000000001
 43
0.0000000001
 40
0.0
 40
0.0
 40
0.0
 40
0.0
 40
0.0270175862895044
 40
0.0698480747696902
 40
0.1127401632467061
 40
0.1555843332583268
 40
0.1983040077387914
 40
0.2408625582971399
 40
0.2783904306954328
 40
0.3160552711848998
 40
0.3537626682325977
 40
0.3914201692534609
 40
0.4289418743560652
 40
0.4744008822490009
 40
0.5200082934489331
 40
0.5656334119746239
 40
0.6111166209334568
 40
0.6589868584764904
 40
0.7069819542880394
 40
0.754996555134691
 40
0.8028934928055264
 40
0.8521146866350461
 40
0.9014346697453063
 40
0.950764865819163
 40
0.9999999999999998
 40
0.9999999999999998
 40
0.9999999999999998
 40
0.9999999999999998
 10
4324.969980161796
 20
2663.760691198031
 30
0.0
 10
4324.969982712758
 20
2663.760691198031
 30
0.0
 10
4324.969989307714
 20
2663.760691198031
 30
0.0
 10
4324.96905141486
 20
2663.760691198031
 30
0.0
 10
4324.967223483167
 20
2663.760691198031
 30
0.0
 10
4324.964428932629
 20
2663.760691198031
 30
0.0
 10
4324.960667034712
 20
2663.760691198031
 30
0.0
 10
4324.956064845929
 20
2663.760691198031
 30
0.0
 10
4324.950708266061
 20
2663.760691198031
 30
0.0
 10
4324.944760996978
 20
2663.760691198031
 30
0.0
 10
4324.938026681929
 20
2663.760691198031
 30
0.0
 10
4324.930547320955
 20
2663.760691198031
 30
0.0
 10
4324.92176975061
 20
2663.760691198031
 30
0.0
 10
4324.91152015678
 20
2663.760691198031
 30
0.0
 10
4324.899728285042
 20
2663.760691198031
 30
0.0
 10
4324.887145781865
 20
2663.760691198031
 30
0.0
 10
4324.873648677469
 20
2663.760691198031
 30
0.0
 10
4324.859279300578
 20
2663.760691198031
 30
0.0
 10
4324.844113335432
 20
2663.760691198031
 30
0.0
 10
4324.828505562728
 20
2663.760691198031
 30
0.0
 10
4324.812412346386
 20
2663.760691198031
 30
0.0
 10
4324.795896072088
 20
2663.760691198031
 30
0.0
 10
4324.779017806519
 20
2663.760691198031
 30
0.0
 10
4324.76200967421
 20
2663.760691198031
 30
0.0
 10
4324.750632544342
 20
2663.760691198031
 30
0.0
 10
4324.744949465777
 20
2663.760691198031
 30
0.0
  0
SPLINE
  5
141E
330
1F
100
AcDbEntity
  8
SANINDUSA
100
AcDbSpline
210
0.0
220
0.0
230
1.0
 70
    24
 71
     3
 72
    30
 73
    26
 74
     0
 42
0.0000000001
 43
0.0000000001
 40
0.0
 40
0.0
 40
0.0
 40
0.0
 40
0.0270175862282956
 40
0.0698480717840873
 40
0.1127401655678508
 40
0.1555843273643357
 40
0.1983040017480181
 40
0.2408625522099493
 40
0.2783904245232221
 40
0.3160552649273587
 40
0.3537626618896297
 40
0.3914201628251792
 40
0.4289418678427773
 40
0.4744008756327247
 40
0.5200082867293325
 40
0.5656334222911648
 40
0.6111166130588395
 40
0.6589868694202467
 40
0.7069819651230618
 40
0.754996545657273
 40
0.8028935038782215
 40
0.8521146923431519
 40
0.9014346780001197
 40
0.9507648645863632
 40
1.0
 40
1.0
 40
1.0
 40
1.0
 10
4324.519918780933
 20
2663.760691198031
 30
0.0
 10
4324.519916231081
 20
2663.760691198031
 30
0.0
 10
4324.519909638995
 20
2663.760691198031
 30
0.0
 10
4324.520847500547
 20
2663.760691198031
 30
0.0
 10
4324.522675471494
 20
2663.760691198031
 30
0.0
 10
4324.525469988325
 20
2663.760691198031
 30
0.0
 10
4324.529231895019
 20
2663.760691198031
 30
0.0
 10
4324.533834081456
 20
2663.760691198031
 30
0.0
 10
4324.53919066188
 20
2663.760691198031
 30
0.0
 10
4324.545137930821
 20
2663.760691198031
 30
0.0
 10
4324.551872245901
 20
2663.760691198031
 30
0.0
 10
4324.559351606887
 20
2663.760691198031
 30
0.0
 10
4324.568129177149
 20
2663.760691198031
 30
0.0
 10
4324.578378771373
 20
2663.760691198031
 30
0.0
 10
4324.590170643054
 20
2663.760691198031
 30
0.0
 10
4324.602753152015
 20
2663.760691198031
 30
0.0
 10
4324.616250252341
 20
2663.760691198031
 30
0.0
 10
4324.630619633576
 20
2663.760691198031
 30
0.0
 10
4324.645785597819
 20
2663.760691198031
 30
0.0
 10
4324.661393369106
 20
2663.760691198031
 30
0.0
 10
4324.677486586319
 20
2663.760691198031
 30
0.0
 10
4324.694002862101
 20
2663.760691198031
 30
0.0
 10
4324.710881126501
 20
2663.760691198031
 30
0.0
 10
4324.727889258094
 20
2663.760691198031
 30
0.0
 10
4324.73926638705
 20
2663.760691198031
 30
0.0
 10
4324.744949465777
 20
2663.760691198031
 30
0.0
  0
SPLINE
  5
141F
330
1F
100
AcDbEntity
  8
SANINDUSA
100
AcDbSpline
210
0.0
220
0.0
230
1.0
 70
    24
 71
     3
 72
    29
 73
    25
 74
     0
 42
0.0000000001
 43
0.0000000001
 40
0.0
 40
0.0
 40
0.0
 40
0.0
 40
0.0488779511864144
 40
0.0979243945226342
 40
0.1427345194109911
 40
0.1875818328326593
 40
0.2323838450693633
 40
0.2789257564557204
 40
0.3255214159395205
 40
0.3720528465452517
 40
0.4202399762712984
 40
0.4684240062620401
 40
0.51796918346904
 40
0.5675119451990486
 40
0.6126619130841067
 40
0.6581136580264794
 40
0.704824571284692
 40
0.7515361991689086
 40
0.7995948359872055
 40
0.8476560385371517
 40
0.886722348032714
 40
0.9258317418602709
 40
0.9649102262609366
 40
1.0
 40
1.0
 40
1.0
 40
1.0
 10
4324.744949465777
 20
2663.685691195051
 30
0.0
 10
4324.749983360614
 20
2663.685691195051
 30
0.0
 10
4324.760068503138
 20
2663.685691195051
 30
0.0
 10
4324.774719913096
 20
2663.685691195051
 30
0.0
 10
4324.788857086667
 20
2663.685691195051
 30
0.0
 10
4324.802418752009
 20
2663.685691195051
 30
0.0
 10
4324.815953342635
 20
2663.685691195051
 30
0.0
 10
4324.829384680478
 20
2663.685691195051
 30
0.0
 10
4324.84262546183
 20
2663.685691195051
 30
0.0
 10
4324.855577163098
 20
2663.685691195051
 30
0.0
 10
4324.868118534533
 20
2663.685691195051
 30
0.0
 10
4324.880254831549
 20
2663.685691195051
 30
0.0
 10
4324.891705607853
 20
2663.685691195051
 30
0.0
 10
4324.902034080436
 20
2663.685691195051
 30
0.0
 10
4324.911150888493
 20
2663.685691195051
 30
0.0
 10
4324.919156817428
 20
2663.685691195051
 30
0.0
 10
4324.926242682083
 20
2663.685691195051
 30
0.0
 10
4324.932378887767
 20
2663.685691195051
 30
0.0
 10
4324.937420948754
 20
2663.685691195051
 30
0.0
 10
4324.941095134279
 20
2663.685691195051
 30
0.0
 10
4324.943576970468
 20
2663.685691195051
 30
0.0
 10
4324.945110998785
 20
2663.685691195051
 30
0.0
 10
4324.945956221935
 20
2663.685691195051
 30
0.0
 10
4324.946000459923
 20
2663.685691195051
 30
0.0
 10
4324.946145992885
 20
2663.685692066769
 30
0.0
  0
SPLINE
  5
1420
330
1F
100
AcDbEntity
  8
SANINDUSA
100
AcDbSpline
210
0.0
220
0.0
230
1.0
 70
    24
 71
     3
 72
    29
 73
    25
 74
     0
 42
0.0000000001
 43
0.0000000001
 40
0.0
 40
0.0
 40
0.0
 40
0.0
 40
0.048877953676107
 40
0.0979243979882828
 40
0.142734511958841
 40
0.187581824899888
 40
0.2323838599132708
 40
0.2789257480156466
 40
0.3255214291810986
 40
0.3720528378484766
 40
0.4202399670581098
 40
0.4684240159831335
 40
0.5179691744738698
 40
0.5675119524164332
 40
0.6126619198176266
 40
0.6581136642729004
 40
0.7048245770305197
 40
0.7515362044141354
 40
0.7995948407173959
 40
0.847656042752278
 40
0.886722351829173
 40
0.9258317452376012
 40
0.9649102258504218
 40
1.0
 40
1.0
 40
1.0
 40
1.0
 10
4324.744949467639
 20
2663.685691195051
 30
0.0
 10
4324.739915572493
 20
2663.685691195051
 30
0.0
 10
4324.729830429506
 20
2663.685691195051
 30
0.0
 10
4324.715179020141
 20
2663.685691195051
 30
0.0
 10
4324.701041847496
 20
2663.685691195051
 30
0.0
 10
4324.687480181237
 20
2663.685691195051
 30
0.0
 10
4324.673945589096
 20
2663.685691195051
 30
0.0
 10
4324.660514251382
 20
2663.685691195051
 30
0.0
 10
4324.64727346908
 20
2663.685691195051
 30
0.0
 10
4324.634321770642
 20
2663.685691195051
 30
0.0
 10
4324.62178040024
 20
2663.685691195051
 30
0.0
 10
4324.609644096852
 20
2663.685691195051
 30
0.0
 10
4324.59819332768
 20
2663.685691195051
 30
0.0
 10
4324.5878648469
 20
2663.685691195051
 30
0.0
 10
4324.578748039746
 20
2663.685691195051
 30
0.0
 10
4324.570742110284
 20
2663.685691195051
 30
0.0
 10
4324.563656245788
 20
2663.685691195051
 30
0.0
 10
4324.557520040007
 20
2663.685691195051
 30
0.0
 10
4324.552477979251
 20
2663.685691195051
 30
0.0
 10
4324.548803792951
 20
2663.685691195051
 30
0.0
 10
4324.546321959135
 20
2663.685691195051
 30
0.0
 10
4324.544787922416
 20
2663.685691195051
 30
0.0
 10
4324.54394272974
 20
2663.685691195051
 30
0.0
 10
4324.543898475564
 20
2663.685691195051
 30
0.0
 10
4324.543877538452
 20
2663.685691195051
 30
0.0
  0
LINE
  5
1421
330
1F
100
AcDbEntity
  8
SANINDUSA
100
AcDbLine
 10
4324.711382180612
 20
2663.580691190879
 30
0.0
 11
4324.778516750941
 21
2663.580691190879
 31
0.0
  0
SPLINE
  5
1422
330
1F
100
AcDbEntity
  8
SANINDUSA
100
AcDbSpline
210
0.0
220
0.0
230
1.0
 70
     8
 71
     3
 72
     8
 73
     4
 74
     0
 42
0.0000000001
 43
0.0000000001
 40
0.7483188002517501
 40
0.7483188002517501
 40
0.7483188002517501
 40
0.7483188002517501
 40
1.0
 40
1.0
 40
1.0
 40
1.0
 10
4324.921905831229
 20
2663.680437777881
 30
0.0
 10
4324.923240233602
 20
2663.682155183805
 30
0.0
 10
4324.924509704387
 20
2663.683923189428
 30
0.0
 10
4324.925779175172
 20
2663.685691195051
 30
0.0
  0
SPLINE
  5
1423
330
1F
100
AcDbEntity
  8
SANINDUSA
100
AcDbSpline
210
0.0
220
0.0
230
1.0
 70
     8
 71
     3
 72
     8
 73
     4
 74
     0
 42
0.0000000001
 43
0.0000000001
 40
0.7487253213146035
 40
0.7487253213146035
 40
0.7487253213146035
 40
0.7487253213146035
 40
1.0
 40
1.0
 40
1.0
 40
1.0
 10
4324.567991313818
 20
2663.680440066335
 30
0.0
 10
4324.56665755959
 20
2663.682156750182
 30
0.0
 10
4324.565388656123
 20
2663.683923972616
 30
0.0
 10
4324.564119752656
 20
2663.685691195051
 30
0.0
  0
SPLINE
  5
1424
330
1F
100
AcDbEntity
  8
SANINDUSA
100
AcDbSpline
210
0.0
220
0.0
230
1.0
 70
     8
 71
     3
 72
    11
 73
     7
 74
     0
 42
0.0000000001
 43
0.0000000001
 40
0.0
 40
0.0
 40
0.0
 40
0.0
 40
0.2473250056308683
 40
0.6232607493053014
 40
0.9986046651457847
 40
0.9999999999999998
 40
0.9999999999999998
 40
0.9999999999999998
 40
0.9999999999999998
 10
4324.636305567036
 20
2663.630934196036
 30
0.0
 10
4324.637690784045
 20
2663.630565719426
 30
0.0
 10
4324.641181540623
 20
2663.629637155787
 30
0.0
 10
4324.647012102704
 20
2663.628086790308
 30
0.0
 10
4324.651366577644
 20
2663.626976060784
 30
0.0
 10
4324.653515653363
 20
2663.626450386823
 30
0.0
 10
4324.653523612926
 20
2663.626448439876
 30
0.0
  0
SPLINE
  5
1429
330
1F
100
AcDbEntity
  8
SANINDUSA
100
AcDbSpline
210
0.0
220
0.0
230
1.0
 70
     8
 71
     3
 72
     8
 73
     4
 74
     0
 42
0.0000000001
 43
0.0000000001
 40
0.0
 40
0.0
 40
0.0
 40
0.0
 40
1.0
 40
1.0
 40
1.0
 40
1.0
 10
4324.607006521654
 20
2663.621331547396
 30
0.0
 10
4324.611826318147
 20
2663.62042215072
 30
0.0
 10
4324.616655756977
 20
2663.619564601245
 30
0.0
 10
4324.621493857581
 20
2663.618758144226
 30
0.0
  0
SPLINE
  5
142A
330
1F
100
AcDbEntity
  8
SANINDUSA
100
AcDbSpline
210
0.0
220
0.0
230
1.0
 70
     8
 71
     3
 72
     8
 73
     4
 74
     0
 42
0.0000000001
 43
0.0000000001
 40
0.0
 40
0.0
 40
0.0
 40
0.0
 40
1.0
 40
1.0
 40
1.0
 40
1.0
 10
4324.882892410915
 20
2663.621331547396
 30
0.0
 10
4324.878072614422
 20
2663.62042215072
 30
0.0
 10
4324.873243175593
 20
2663.619564601245
 30
0.0
 10
4324.868405074989
 20
2663.618758144226
 30
0.0
  0
SPLINE
  5
142F
330
1F
100
AcDbEntity
  8
SANINDUSA
100
AcDbSpline
210
0.0
220
0.0
230
1.0
 70
     8
 71
     3
 72
    11
 73
     7
 74
     0
 42
0.0000000001
 43
0.0000000001
 40
0.0
 40
0.0
 40
0.0
 40
0.0
 40
0.2315133813472734
 40
0.6153466411180131
 40
0.9985753535437329
 40
0.9999999999999998
 40
0.9999999999999998
 40
0.9999999999999998
 40
0.9999999999999998
 10
4324.853245716701
 20
2663.630841719429
 30
0.0
 10
4324.851975387827
 20
2663.630503806179
 30
0.0
 10
4324.848598941071
 20
2663.629605656009
 30
0.0
 10
4324.84288624911
 20
2663.628086638696
 30
0.0
 10
4324.838532350544
 20
2663.626976060878
 30
0.0
 10
4324.836383274467
 20
2663.626450386823
 30
0.0
 10
4324.836375314901
 20
2663.626448439876
 30
0.0
  0
SPLINE
  5
1430
330
1F
100
AcDbEntity
  8
SANINDUSA
100
AcDbSpline
210
0.0
220
0.0
230
1.0
 70
     8
 71
     3
 72
    18
 73
    14
 74
     0
 42
0.0000000001
 43
0.0000000001
 40
0.0
 40
0.0
 40
0.0
 40
0.0
 40
0.1250000000000047
 40
0.1250000000000047
 40
0.2500000000000095
 40
0.2500000000000095
 40
0.5000000000000067
 40
0.5000000000000067
 40
0.6250000000000053
 40
0.6250000000000053
 40
0.7500000000000036
 40
0.7500000000000036
 40
1.0
 40
1.0
 40
1.0
 40
1.0
 10
4324.88673489954
 20
2663.624545288484
 30
0.0
 10
4324.886663222449
 20
2663.624337330652
 30
0.0
 10
4324.886577221981
 20
2663.62413446071
 30
0.0
 10
4324.886380632885
 20
2663.623746051405
 30
0.0
 10
4324.886269778249
 20
2663.62355957971
 30
0.0
 10
4324.885899859941
 20
2663.623023163065
 30
0.0
 10
4324.885599498188
 20
2663.622693756203
 30
0.0
 10
4324.885097884677
 20
2663.622274397267
 30
0.0
 10
4324.884921450709
 20
2663.622145868035
 30
0.0
 10
4324.884549820347
 20
2663.621911693003
 30
0.0
 10
4324.884353578958
 20
2663.621805780662
 30
0.0
 10
4324.883753222812
 20
2663.621532008737
 30
0.0
 10
4324.883333077212
 20
2663.6214037958
 30
0.0
 10
4324.882892410915
 20
2663.621331547396
 30
0.0
  0
SPLINE
  5
1431
330
1F
100
AcDbEntity
  8
SANINDUSA
100
AcDbSpline
210
0.0
220
0.0
230
1.0
 70
     8
 71
     3
 72
    18
 73
    14
 74
     0
 42
0.0000000001
 43
0.0000000001
 40
0.0
 40
0.0
 40
0.0
 40
0.0
 40
0.1250000000000069
 40
0.1250000000000069
 40
0.2500000000000138
 40
0.2500000000000138
 40
0.5000000000000146
 40
0.5000000000000146
 40
0.625000000000009
 40
0.625000000000009
 40
0.7500000000000035
 40
0.7500000000000035
 40
1.0
 40
1.0
 40
1.0
 40
1.0
 10
4324.60316403303
 20
2663.624545288484
 30
0.0
 10
4324.603235710121
 20
2663.624337330652
 30
0.0
 10
4324.603321710589
 20
2663.62413446071
 30
0.0
 10
4324.603518299684
 20
2663.623746051405
 30
0.0
 10
4324.603629154321
 20
2663.62355957971
 30
0.0
 10
4324.603999072629
 20
2663.623023163065
 30
0.0
 10
4324.604299434382
 20
2663.622693756203
 30
0.0
 10
4324.604801047893
 20
2663.622274397267
 30
0.0
 10
4324.60497748186
 20
2663.622145868035
 30
0.0
 10
4324.605349112221
 20
2663.621911693003
 30
0.0
 10
4324.605545353612
 20
2663.621805780662
 30
0.0
 10
4324.606145709757
 20
2663.621532008737
 30
0.0
 10
4324.606565855358
 20
2663.6214037958
 30
0.0
 10
4324.607006521654
 20
2663.621331547396
 30
0.0
  0
ARC
  5
1439
330
1F
100
AcDbEntity
  8
SANINDUSA
100
AcDbCircle
 10
4324.744949466285
 20
2663.562708290345
 30
0.0
 40
0.1298140436549134
100
AcDbArc
 50
28.77057070830157
 51
31.93242367512029
  0
ARC
  5
143A
330
1F
100
AcDbEntity
  8
SANINDUSA
100
AcDbCircle
 10
4324.744949466285
 20
2663.562708290345
 30
0.0
 40
0.1298140436549135
100
AcDbArc
 50
148.0886922810501
 51
151.2294292916984
  0
SPLINE
  5
1440
330
1F
100
AcDbEntity
  8
SANINDUSA
100
AcDbSpline
210
0.0
220
0.0
230
1.0
 70
     8
 71
     3
 72
    22
 73
    18
 74
     0
 42
0.0000000001
 43
0.0000000001
 40
0.0
 40
0.0
 40
0.0
 40
0.0
 40
0.1250000000000011
 40
0.1250000000000011
 40
0.2500000000000021
 40
0.2500000000000021
 40
0.3750000000000031
 40
0.3750000000000031
 40
0.5000000000000043
 40
0.5000000000000043
 40
0.6250000000000054
 40
0.6250000000000054
 40
0.6875000000000058
 40
0.6875000000000058
 40
0.7500000000000063
 40
0.7500000000000063
 40
1.0
 40
1.0
 40
1.0
 40
1.0
 10
4324.868405074989
 20
2663.618758144226
 30
0.0
 10
4324.867986123222
 20
2663.61868545831
 30
0.0
 10
4324.867565332266
 20
2663.618646645526
 30
0.0
 10
4324.866720137928
 20
2663.618635540116
 30
0.0
 10
4324.866294235479
 20
2663.618663971023
 30
0.0
 10
4324.865463759306
 20
2663.618785533798
 30
0.0
 10
4324.865056111444
 20
2663.618878373161
 30
0.0
 10
4324.864255931869
 20
2663.619127903228
 30
0.0
 10
4324.863860084763
 20
2663.619286522531
 30
0.0
 10
4324.863107346184
 20
2663.619659760026
 30
0.0
 10
4324.862749028369
 20
2663.619874130036
 30
0.0
 10
4324.862238143994
 20
2663.620236569496
 30
0.0
 10
4324.862072301708
 20
2663.620364228156
 30
0.0
 10
4324.861749690402
 20
2663.620633495623
 30
0.0
 10
4324.861592265187
 20
2663.620775790731
 30
0.0
 10
4324.86083970217
 20
2663.621512249781
 30
0.0
 10
4324.860341823817
 20
2663.622181017573
 30
0.0
 10
4324.859949406399
 20
2663.622930376857
 30
0.0
  0
SPLINE
  5
1441
330
1F
100
AcDbEntity
  8
SANINDUSA
100
AcDbSpline
210
0.0
220
0.0
230
1.0
 70
    24
 71
     3
 72
     8
 73
     4
 74
     0
 42
0.0000000001
 43
0.0000000001
 40
0.0
 40
0.0
 40
0.0
 40
0.0
 40
1.0
 40
1.0
 40
1.0
 40
1.0
 10
4324.858738486978
 20
2663.625188244727
 30
0.0
 10
4324.85912631513
 20
2663.624481928823
 30
0.0
 10
4324.859530734071
 20
2663.623729872448
 30
0.0
 10
4324.859949406399
 20
2663.622930376857
 30
0.0
  0
SPLINE
  5
1442
330
1F
100
AcDbEntity
  8
SANINDUSA
100
AcDbSpline
210
0.0
220
0.0
230
1.0
 70
     8
 71
     3
 72
    22
 73
    18
 74
     0
 42
0.0000000001
 43
0.0000000001
 40
0.0
 40
0.0
 40
0.0
 40
0.0
 40
0.1250000000000008
 40
0.1250000000000008
 40
0.2500000000000016
 40
0.2500000000000016
 40
0.3750000000000024
 40
0.3750000000000024
 40
0.5000000000000032
 40
0.5000000000000032
 40
0.625000000000004
 40
0.625000000000004
 40
0.6875000000000035
 40
0.6875000000000035
 40
0.7500000000000028
 40
0.7500000000000028
 40
1.0
 40
1.0
 40
1.0
 40
1.0
 10
4324.621493857581
 20
2663.618758144226
 30
0.0
 10
4324.621912809347
 20
2663.61868545831
 30
0.0
 10
4324.622333600304
 20
2663.618646645526
 30
0.0
 10
4324.623178794642
 20
2663.618635540116
 30
0.0
 10
4324.62360469709
 20
2663.618663971023
 30
0.0
 10
4324.624435173264
 20
2663.618785533798
 30
0.0
 10
4324.624842821125
 20
2663.618878373161
 30
0.0
 10
4324.625643000701
 20
2663.619127903228
 30
0.0
 10
4324.626038847806
 20
2663.619286522531
 30
0.0
 10
4324.626791586385
 20
2663.619659760026
 30
0.0
 10
4324.6271499042
 20
2663.619874130036
 30
0.0
 10
4324.627660788575
 20
2663.620236569496
 30
0.0
 10
4324.627826630861
 20
2663.620364228156
 30
0.0
 10
4324.628149242168
 20
2663.620633495623
 30
0.0
 10
4324.628306667383
 20
2663.620775790731
 30
0.0
 10
4324.6290592304
 20
2663.621512249781
 30
0.0
 10
4324.629557108752
 20
2663.622181017573
 30
0.0
 10
4324.629949526171
 20
2663.622930376857
 30
0.0
  0
SPLINE
  5
1443
330
1F
100
AcDbEntity
  8
SANINDUSA
100
AcDbSpline
210
0.0
220
0.0
230
1.0
 70
    24
 71
     3
 72
     8
 73
     4
 74
     0
 42
0.0000000001
 43
0.0000000001
 40
0.0
 40
0.0
 40
0.0
 40
0.0
 40
1.0
 40
1.0
 40
1.0
 40
1.0
 10
4324.63116044559
 20
2663.625188244727
 30
0.0
 10
4324.63077261744
 20
2663.624481928823
 30
0.0
 10
4324.630368198499
 20
2663.623729872448
 30
0.0
 10
4324.629949526171
 20
2663.622930376857
 30
0.0
  0
SPLINE
  5
1448
330
1F
100
AcDbEntity
  8
SANINDUSA
100
AcDbSpline
210
0.0
220
0.0
230
1.0
 70
     8
 71
     3
 72
    18
 73
    14
 74
     0
 42
0.0000000001
 43
0.0000000001
 40
0.0
 40
0.0
 40
0.0
 40
0.0
 40
0.0363060187819286
 40
0.1389739425345133
 40
0.2446039242414515
 40
0.3469438026101539
 40
0.4522700137621355
 40
0.554484651595819
 40
0.6596821116863503
 40
0.7620468966478912
 40
0.8673542688911176
 40
0.9333001245178984
 40
1.0
 40
1.0
 40
1.0
 40
1.0
 10
4324.788210110943
 20
2663.616965396149
 30
0.0
 10
4324.783935686318
 20
2663.61658454662
 30
0.0
 10
4324.78364798017
 20
2663.616566568137
 30
0.0
 10
4324.783308081977
 20
2663.616559929984
 30
0.0
 10
4324.781689289234
 20
2663.616588311845
 30
0.0
 10
4324.778933667976
 20
2663.616614484274
 30
0.0
 10
4324.775265814497
 20
2663.616650198275
 30
0.0
 10
4324.770695666606
 20
2663.616702004046
 30
0.0
 10
4324.765443022935
 20
2663.616766276524
 30
0.0
 10
4324.759561502085
 20
2663.616833336709
 30
0.0
 10
4324.754054685238
 20
2663.61688042668
 30
0.0
 10
4324.749126572088
 20
2663.6169060957
 30
0.0
 10
4324.746347101148
 20
2663.616909693747
 30
0.0
 10
4324.744949465777
 20
2663.616911502997
 30
0.0
  0
SPLINE
  5
1449
330
1F
100
AcDbEntity
  8
SANINDUSA
100
AcDbSpline
210
0.0
220
0.0
230
1.0
 70
     8
 71
     3
 72
    18
 73
    14
 74
     0
 42
0.0000000001
 43
0.0000000001
 40
0.0
 40
0.0
 40
0.0
 40
0.0
 40
0.0363805131485063
 40
0.1390405055222707
 40
0.244662316618019
 40
0.3469942985739705
 40
0.452312357689478
 40
0.5545191170481775
 40
0.6597084535402144
 40
0.7620653145957601
 40
0.8673645346070184
 40
0.9333053086278184
 40
1.0
 40
1.0
 40
1.0
 40
1.0
 10
4324.701688821066
 20
2663.616965396272
 30
0.0
 10
4324.705902659143
 20
2663.616566308996
 30
0.0
 10
4324.705947244249
 20
2663.616532251758
 30
0.0
 10
4324.706590792481
 20
2663.616559930616
 30
0.0
 10
4324.708209656763
 20
2663.616588311683
 30
0.0
 10
4324.710965262094
 20
2663.616614484313
 30
0.0
 10
4324.71463311819
 20
2663.616650198273
 30
0.0
 10
4324.719203267169
 20
2663.616702004044
 30
0.0
 10
4324.724455911135
 20
2663.616766276516
 30
0.0
 10
4324.730337431282
 20
2663.616833336709
 30
0.0
 10
4324.735844247816
 20
2663.616880426688
 30
0.0
 10
4324.740772360419
 20
2663.616906095694
 30
0.0
 10
4324.743551831033
 20
2663.616909693745
 30
0.0
 10
4324.744949465777
 20
2663.616911502997
 30
0.0
  0
SPLINE
  5
1458
330
1F
100
AcDbEntity
  8
SANINDUSA
100
AcDbSpline
210
0.0
220
0.0
230
1.0
 70
     8
 71
     3
 72
    64
 73
    60
 74
     0
 42
0.0000000001
 43
0.0000000001
 40
0.0
 40
0.0
 40
0.0
 40
0.0
 40
0.0096457514902347
 40
0.028142915090101
 40
0.0464989242197649
 40
0.0647191851333558
 40
0.0828104215360019
 40
0.100780621136802
 40
0.1186389843523137
 40
0.1363958741424686
 40
0.1540641482085637
 40
0.171566276118531
 40
0.1886916135402564
 40
0.2056753203934088
 40
0.2225004087885711
 40
0.2391527455019025
 40
0.2556218115466651
 40
0.2719007714199411
 40
0.2879862122962851
 40
0.3038780692493392
 40
0.3195795024054018
 40
0.3351018337068571
 40
0.350447769215787
 40
0.3657525226316279
 40
0.3810469228716748
 40
0.3962640155873731
 40
0.41135265827912
 40
0.4262598038842113
 40
0.4410841571385687
 40
0.4560308121073014
 40
0.4709960800187682
 40
0.4860080190015136
 40
0.5011030283733793
 40
0.5162936291044183
 40
0.531509921471047
 40
0.5468445054848871
 40
0.5623197087023322
 40
0.5779690750963315
 40
0.5938259407342973
 40
0.6099236720694536
 40
0.6262957006429502
 40
0.6429753546219842
 40
0.6599960933877377
 40
0.6773913432809526
 40
0.6951641526725611
 40
0.7133349832322772
 40
0.7320278358950181
 40
0.7510627426047578
 40
0.7705034926585009
 40
0.7904171857380909
 40
0.8108800610476587
 40
0.8319803805481255
 40
0.8538232801308847
 40
0.8765886210811315
 40
0.8988019525641771
 40
0.9217751971828674
 40
0.9462508823448187
 40
0.9726788397060415
 40
1.0
 40
1.0
 40
1.0
 40
1.0
 10
4324.12092409974
 20
2663.495382934507
 30
0.0
 10
4324.122588028282
 20
2663.495374398344
 30
0.0
 10
4324.127442787363
 20
2663.495349492818
 30
0.0
 10
4324.135460818039
 20
2663.495653436226
 30
0.0
 10
4324.144941584794
 20
2663.496271630386
 30
0.0
 10
4324.154325999034
 20
2663.497218499471
 30
0.0
 10
4324.16360694599
 20
2663.498470936484
 30
0.0
 10
4324.172777969731
 20
2663.500031266274
 30
0.0
 10
4324.181833303891
 20
2663.501894873601
 30
0.0
 10
4324.19076774399
 20
2663.504059943276
 30
0.0
 10
4324.199562656108
 20
2663.506516784772
 30
0.0
 10
4324.208160046126
 20
2663.509254615844
 30
0.0
 10
4324.216541090208
 20
2663.512263096936
 30
0.0
 10
4324.224699132567
 20
2663.515530067201
 30
0.0
 10
4324.23265734402
 20
2663.519060893194
 30
0.0
 10
4324.24039948922
 20
2663.522845273764
 30
0.0
 10
4324.247911299754
 20
2663.526872773442
 30
0.0
 10
4324.255180437483
 20
2663.531133144415
 30
0.0
 10
4324.262196559121
 20
2663.535616188425
 30
0.0
 10
4324.268951096171
 20
2663.540312081254
 30
0.0
 10
4324.275437757594
 20
2663.545212077051
 30
0.0
 10
4324.281651021606
 20
2663.550307259229
 30
0.0
 10
4324.287601195938
 20
2663.555604952717
 30
0.0
 10
4324.293306404634
 20
2663.561109035339
 30
0.0
 10
4324.298771161862
 20
2663.566821254664
 30
0.0
 10
4324.303976258151
 20
2663.572721429888
 30
0.0
 10
4324.308894836859
 20
2663.578776775848
 30
0.0
 10
4324.313517319021
 20
2663.584976696857
 30
0.0
 10
4324.317871752401
 20
2663.591337955753
 30
0.0
 10
4324.321969773547
 20
2663.597879264512
 30
0.0
 10
4324.325814106565
 20
2663.604610086252
 30
0.0
 10
4324.329394218649
 20
2663.611513912326
 30
0.0
 10
4324.332709907834
 20
2663.618591475279
 30
0.0
 10
4324.335754680116
 20
2663.625827956632
 30
0.0
 10
4324.338527482214
 20
2663.633217049951
 30
0.0
 10
4324.341026018547
 20
2663.640755054408
 30
0.0
 10
4324.343253251088
 20
2663.648455391194
 30
0.0
 10
4324.345207884847
 20
2663.65632222688
 30
0.0
 10
4324.346888599169
 20
2663.664361799916
 30
0.0
 10
4324.348293193376
 20
2663.672580635353
 30
0.0
 10
4324.349418748413
 20
2663.680985484433
 30
0.0
 10
4324.350261617403
 20
2663.689583322256
 30
0.0
 10
4324.350817381442
 20
2663.69838129179
 30
0.0
 10
4324.351080871788
 20
2663.707381475691
 30
0.0
 10
4324.351046964876
 20
2663.716583721344
 30
0.0
 10
4324.350718296229
 20
2663.726004065733
 30
0.0
 10
4324.350081750132
 20
2663.735626868815
 30
0.0
 10
4324.349129720413
 20
2663.74544364499
 30
0.0
 10
4324.347858444324
 20
2663.75543648451
 30
0.0
 10
4324.346259643564
 20
2663.765631523
 30
0.0
 10
4324.344323217657
 20
2663.776059105745
 30
0.0
 10
4324.342035275367
 20
2663.786755718065
 30
0.0
 10
4324.339380574134
 20
2663.797776106663
 30
0.0
 10
4324.336394023688
 20
2663.808910460728
 30
0.0
 10
4324.333042272574
 20
2663.820143806724
 30
0.0
 10
4324.329333923926
 20
2663.83157484016
 30
0.0
 10
4324.325132642778
 20
2663.843606710048
 30
0.0
 10
4324.320447899785
 20
2663.856261895201
 30
0.0
 10
4324.317053044576
 20
2663.864889705763
 30
0.0
 10
4324.315387565103
 20
2663.869310551953
 30
0.0
  0
SPLINE
  5
1459
330
1F
100
AcDbEntity
  8
SANINDUSA
100
AcDbSpline
210
0.0
220
0.0
230
1.0
 70
     8
 71
     3
 72
    63
 73
    59
 74
     0
 42
0.0000000001
 43
0.0000000001
 40
0.0
 40
0.0
 40
0.0
 40
0.0
 40
0.028389455032862
 40
0.055371539726576
 40
0.0800197100720514
 40
0.1029479051272963
 40
0.1245555026625225
 40
0.1475039374912382
 40
0.1697782474218475
 40
0.1925990033970368
 40
0.214501938792541
 40
0.2356245030595855
 40
0.2560966457878406
 40
0.2760245189491611
 40
0.2954974429311931
 40
0.3145926757297436
 40
0.3332961576490238
 40
0.3511918391837019
 40
0.3686624238096491
 40
0.3857509035479021
 40
0.4024971111067372
 40
0.4189402239961663
 40
0.4351188252165881
 40
0.4510709997050634
 40
0.4668345159859346
 40
0.4824466153174982
 40
0.4979296735080239
 40
0.5131811502699545
 40
0.5282861132601913
 40
0.5433149136954424
 40
0.5583042949643083
 40
0.5732910887778622
 40
0.5883078577228696
 40
0.6032219400613746
 40
0.6181796356314369
 40
0.6332783170778442
 40
0.6484695218733166
 40
0.6637014140591518
 40
0.6789161186188587
 40
0.6941844546598675
 40
0.7096782566963213
 40
0.725360267885899
 40
0.7412343787306157
 40
0.7573015078285131
 40
0.7735596183081741
 40
0.7900034704988677
 40
0.8066246174939633
 40
0.8234113112267651
 40
0.8403484185184973
 40
0.8574077272154923
 40
0.874658892832744
 40
0.8922351940410665
 40
0.9099126278505019
 40
0.927702653587284
 40
0.9456147168611973
 40
0.9636571870070053
 40
0.9818372445891949
 40
1.0
 40
1.0
 40
1.0
 40
1.0
 10
4323.926453951207
 20
2663.869294145774
 30
0.0
 10
4323.924728194294
 20
2663.864718022304
 30
0.0
 10
4323.921232463579
 20
2663.855829152806
 30
0.0
 10
4323.916452100842
 20
2663.842879150916
 30
0.0
 10
4323.912229685705
 20
2663.830730130855
 30
0.0
 10
4323.908566924795
 20
2663.819371067043
 30
0.0
 10
4323.905256877575
 20
2663.808209574419
 30
0.0
 10
4323.902287387595
 20
2663.797069088766
 30
0.0
 10
4323.899557914799
 20
2663.785652388832
 30
0.0
 10
4323.897177304832
 20
2663.77434171421
 30
0.0
 10
4323.89516641315
 20
2663.763161232493
 30
0.0
 10
4323.893555351699
 20
2663.752325554093
 30
0.0
 10
4323.892322518895
 20
2663.741783262792
 30
0.0
 10
4323.891450629107
 20
2663.731490514034
 30
0.0
 10
4323.890926974033
 20
2663.721411997743
 30
0.0
 10
4323.890739869661
 20
2663.711532837743
 30
0.0
 10
4323.890885211204
 20
2663.701924926469
 30
0.0
 10
4323.891357023893
 20
2663.692608115934
 30
0.0
 10
4323.892137655939
 20
2663.683591665345
 30
0.0
 10
4323.893223105131
 20
2663.6748065219
 30
0.0
 10
4323.894607077463
 20
2663.666242889125
 30
0.0
 10
4323.89628409679
 20
2663.657891784096
 30
0.0
 10
4323.898249634928
 20
2663.649744643206
 30
0.0
 10
4323.900500061138
 20
2663.641793291178
 30
0.0
 10
4323.903032665332
 20
2663.634029966949
 30
0.0
 10
4323.905844875909
 20
2663.626449740882
 30
0.0
 10
4323.908924854303
 20
2663.619069915246
 30
0.0
 10
4323.9122632752
 20
2663.61189973825
 30
0.0
 10
4323.915853962504
 20
2663.6049405634
 30
0.0
 10
4323.919702743598
 20
2663.59817269603
 30
0.0
 10
4323.923814021287
 20
2663.59158500192
 30
0.0
 10
4323.928189936831
 20
2663.585172595428
 30
0.0
 10
4323.932815731364
 20
2663.578954138931
 30
0.0
 10
4323.937691953816
 20
2663.572936577434
 30
0.0
 10
4323.942815141221
 20
2663.567109151466
 30
0.0
 10
4323.948199061655
 20
2663.561455504909
 30
0.0
 10
4323.953837066097
 20
2663.555987061915
 30
0.0
 10
4323.959702584952
 20
2663.550733282287
 30
0.0
 10
4323.965784045136
 20
2663.545710183835
 30
0.0
 10
4323.97209294973
 20
2663.540901172369
 30
0.0
 10
4323.978648249795
 20
2663.536292244135
 30
0.0
 10
4323.985462012884
 20
2663.531879535239
 30
0.0
 10
4323.992521978949
 20
2663.527675804832
 30
0.0
 10
4323.999820659747
 20
2663.523690043061
 30
0.0
 10
4324.007348872693
 20
2663.519931457954
 30
0.0
 10
4324.015095895606
 20
2663.516409857657
 30
0.0
 10
4324.023049079442
 20
2663.513134978773
 30
0.0
 10
4324.031193954136
 20
2663.510116789745
 30
0.0
 10
4324.039512405438
 20
2663.507365261729
 30
0.0
 10
4324.047999600844
 20
2663.504886610783
 30
0.0
 10
4324.056672353605
 20
2663.502668408022
 30
0.0
 10
4324.065519980187
 20
2663.500724585768
 30
0.0
 10
4324.07452010119
 20
2663.499066463372
 30
0.0
 10
4324.083628508168
 20
2663.497706090736
 30
0.0
 10
4324.092840083153
 20
2663.4966442059
 30
0.0
 10
4324.102148986327
 20
2663.495891060871
 30
0.0
 10
4324.111521087735
 20
2663.495422607033
 30
0.0
 10
4324.117790405891
 20
2663.495370480676
 30
0.0
 10
4324.120923572611
 20
2663.495344429906
 30
0.0
  0
ARC
  5
145A
330
1F
100
AcDbEntity
  8
SANINDUSA
100
AcDbCircle
 10
4324.311686965317
 20
2663.867792111917
 30
0.0
 40
0.0040000123657678
100
AcDbArc
 50
22.30945513485238
 51
89.99998978639926
  0
ARC
  5
145B
330
1F
100
AcDbEntity
  8
SANINDUSA
100
AcDbCircle
 10
4323.93016123313
 20
2663.867792122718
 30
0.0
 40
0.0040000015642338
100
AcDbArc
 50
90.00010208389724
 51
157.9444334903526
  0
SPLINE
  5
145C
330
1F
100
AcDbEntity
  8
SANINDUSA
100
AcDbSpline
210
0.0
220
0.0
230
1.0
 70
     8
 71
     3
 72
    56
 73
    52
 74
     0
 42
0.0000000001
 43
0.0000000001
 40
0.0
 40
0.0
 40
0.0
 40
0.0
 40
0.0624999999999994
 40
0.0624999999999994
 40
0.1249999999999987
 40
0.1249999999999987
 40
0.187499999999998
 40
0.187499999999998
 40
0.2499999999999974
 40
0.2499999999999974
 40
0.2656249999999973
 40
0.2656249999999973
 40
0.2812499999999973
 40
0.2812499999999973
 40
0.3124999999999972
 40
0.3124999999999972
 40
0.3749999999999966
 40
0.3749999999999966
 40
0.4062499999999963
 40
0.4062499999999963
 40
0.4218749999999961
 40
0.4218749999999961
 40
0.437499999999996
 40
0.437499999999996
 40
0.4999999999999952
 40
0.4999999999999952
 40
0.5624999999999944
 40
0.5624999999999944
 40
0.5781249999999944
 40
0.5781249999999944
 40
0.5937499999999943
 40
0.5937499999999943
 40
0.6249999999999944
 40
0.6249999999999944
 40
0.6874999999999948
 40
0.6874999999999948
 40
0.7499999999999952
 40
0.7499999999999952
 40
0.7656249999999956
 40
0.7656249999999956
 40
0.781249999999996
 40
0.781249999999996
 40
0.8124999999999964
 40
0.8124999999999964
 40
0.8749999999999976
 40
0.8749999999999976
 40
0.9374999999999989
 40
0.9374999999999989
 40
0.9687499999999994
 40
0.9687499999999994
 40
1.0
 40
1.0
 40
1.0
 40
1.0
 10
4324.320472986103
 20
2663.738197953125
 30
0.0
 10
4324.321165234822
 20
2663.731207404235
 30
0.0
 10
4324.321606963092
 20
2663.724234672559
 30
0.0
 10
4324.321938914045
 20
2663.710328432584
 30
0.0
 10
4324.321829903425
 20
2663.703394869804
 30
0.0
 10
4324.320997116474
 20
2663.689571467148
 30
0.0
 10
4324.320271905246
 20
2663.682681729105
 30
0.0
 10
4324.318119239706
 20
2663.668952196708
 30
0.0
 10
4324.316691933968
 20
2663.662112391845
 30
0.0
 10
4324.31439632502
 20
2663.653599011848
 30
0.0
 10
4324.313911770503
 20
2663.651899424028
 30
0.0
 10
4324.312896845536
 20
2663.648527970903
 30
0.0
 10
4324.312365723493
 20
2663.646853207685
 30
0.0
 10
4324.310700760958
 20
2663.64186209429
 30
0.0
 10
4324.309495373501
 20
2663.638578897457
 30
0.0
 10
4324.305585623216
 20
2663.628865349339
 30
0.0
 10
4324.302588611548
 20
2663.622570605367
 30
0.0
 10
4324.297473743651
 20
2663.613415483172
 30
0.0
 10
4324.295665542677
 20
2663.610411617269
 30
0.0
 10
4324.292793066768
 20
2663.605980039728
 30
0.0
 10
4324.291807844877
 20
2663.604513646457
 30
0.0
 10
4324.289787983457
 20
2663.601612785193
 30
0.0
 10
4324.288756826557
 20
2663.600183202443
 30
0.0
 10
4324.28349630716
 20
2663.593138156861
 30
0.0
 10
4324.278953784225
 20
2663.587830272899
 30
0.0
 10
4324.269234641006
 20
2663.577837295318
 30
0.0
 10
4324.264058857716
 20
2663.573151380142
 30
0.0
 10
4324.25720571789
 20
2663.567670558192
 30
0.0
 10
4324.255815832709
 20
2663.566593307528
 30
0.0
 10
4324.252997751265
 20
2663.564476433882
 30
0.0
 10
4324.251567710935
 20
2663.563435558534
 30
0.0
 10
4324.247245574983
 20
2663.560386385594
 30
0.0
 10
4324.244315550333
 20
2663.558446627988
 30
0.0
 10
4324.235387637222
 20
2663.552891186378
 30
0.0
 10
4324.229252134091
 20
2663.549538903763
 30
0.0
 10
4324.216642844093
 20
2663.543481829387
 30
0.0
 10
4324.210169212349
 20
2663.540776740826
 30
0.0
 10
4324.201876343964
 20
2663.537779775709
 30
0.0
 10
4324.200210904201
 20
2663.53720085913
 30
0.0
 10
4324.196873762302
 20
2663.536085457302
 30
0.0
 10
4324.1952009366
 20
2663.535548564053
 30
0.0
 10
4324.190170011674
 20
2663.533998759825
 30
0.0
 10
4324.186799474981
 20
2663.533046673721
 30
0.0
 10
4324.176640239586
 20
2663.530423325009
 30
0.0
 10
4324.169804098509
 20
2663.528984077381
 30
0.0
 10
4324.156012227263
 20
2663.526690428145
 30
0.0
 10
4324.149056507513
 20
2663.525835975649
 30
0.0
 10
4324.138535555383
 20
2663.524981589056
 30
0.0
 10
4324.135014132173
 20
2663.524768449945
 30
0.0
 10
4324.127972968921
 20
2663.524485384832
 30
0.0
 10
4324.124448644248
 20
2663.524415113506
 30
0.0
 10
4324.120924098386
 20
2663.524415104895
 30
0.0
  0
SPLINE
  5
1461
330
1F
100
AcDbEntity
  8
SANINDUSA
100
AcDbSpline
210
0.0
220
0.0
230
1.0
 70
     8
 71
     3
 72
    56
 73
    52
 74
     0
 42
0.0000000001
 43
0.0000000001
 40
0.0
 40
0.0
 40
0.0
 40
0.0
 40
0.0625000000000008
 40
0.0625000000000008
 40
0.1250000000000015
 40
0.1250000000000015
 40
0.1875000000000023
 40
0.1875000000000023
 40
0.2500000000000031
 40
0.2500000000000031
 40
0.2656250000000031
 40
0.2656250000000031
 40
0.2812500000000033
 40
0.2812500000000033
 40
0.3125000000000029
 40
0.3125000000000029
 40
0.3750000000000022
 40
0.3750000000000022
 40
0.4062500000000019
 40
0.4062500000000019
 40
0.4218750000000016
 40
0.4218750000000016
 40
0.4375000000000015
 40
0.4375000000000015
 40
0.5000000000000006
 40
0.5000000000000006
 40
0.5624999999999997
 40
0.5624999999999997
 40
0.5781249999999995
 40
0.5781249999999995
 40
0.5937499999999992
 40
0.5937499999999992
 40
0.6249999999999991
 40
0.6249999999999991
 40
0.6874999999999988
 40
0.6874999999999988
 40
0.7499999999999987
 40
0.7499999999999987
 40
0.7656249999999988
 40
0.7656249999999988
 40
0.7812499999999988
 40
0.7812499999999988
 40
0.8124999999999991
 40
0.8124999999999991
 40
0.8749999999999994
 40
0.8749999999999994
 40
0.9374999999999998
 40
0.9374999999999998
 40
0.9687499999999998
 40
0.9687499999999998
 40
1.0
 40
1.0
 40
1.0
 40
1.0
 10
4323.921375210669
 20
2663.738197953125
 30
0.0
 10
4323.92068296195
 20
2663.731207404235
 30
0.0
 10
4323.920241233678
 20
2663.724234672559
 30
0.0
 10
4323.919909282727
 20
2663.710328432584
 30
0.0
 10
4323.920018293347
 20
2663.703394869804
 30
0.0
 10
4323.920851080298
 20
2663.689571467148
 30
0.0
 10
4323.921576291527
 20
2663.682681729105
 30
0.0
 10
4323.923728957066
 20
2663.668952196708
 30
0.0
 10
4323.925156262804
 20
2663.662112391845
 30
0.0
 10
4323.927451871752
 20
2663.653599011848
 30
0.0
 10
4323.927936426268
 20
2663.651899424028
 30
0.0
 10
4323.928951351236
 20
2663.648527970903
 30
0.0
 10
4323.929482473278
 20
2663.646853207685
 30
0.0
 10
4323.931147435814
 20
2663.64186209429
 30
0.0
 10
4323.932352823271
 20
2663.638578897457
 30
0.0
 10
4323.936262573556
 20
2663.628865349339
 30
0.0
 10
4323.939259585222
 20
2663.622570605367
 30
0.0
 10
4323.944374453122
 20
2663.613415483172
 30
0.0
 10
4323.946182654095
 20
2663.610411617269
 30
0.0
 10
4323.949055130004
 20
2663.605980039728
 30
0.0
 10
4323.950040351895
 20
2663.604513646457
 30
0.0
 10
4323.952060213315
 20
2663.601612785193
 30
0.0
 10
4323.953091370215
 20
2663.600183202443
 30
0.0
 10
4323.958351889611
 20
2663.593138156861
 30
0.0
 10
4323.962894412548
 20
2663.587830272899
 30
0.0
 10
4323.972613555766
 20
2663.577837295318
 30
0.0
 10
4323.977789339056
 20
2663.573151380142
 30
0.0
 10
4323.984642478881
 20
2663.567670558192
 30
0.0
 10
4323.986032364063
 20
2663.566593307528
 30
0.0
 10
4323.988850445507
 20
2663.564476433882
 30
0.0
 10
4323.990280485837
 20
2663.563435558534
 30
0.0
 10
4323.994602621789
 20
2663.560386385594
 30
0.0
 10
4323.997532646439
 20
2663.558446627988
 30
0.0
 10
4324.00646055955
 20
2663.552891186378
 30
0.0
 10
4324.01259606268
 20
2663.549538903763
 30
0.0
 10
4324.025205352679
 20
2663.543481829387
 30
0.0
 10
4324.031678984423
 20
2663.540776740826
 30
0.0
 10
4324.039971852808
 20
2663.537779775709
 30
0.0
 10
4324.041637292572
 20
2663.53720085913
 30
0.0
 10
4324.04497443447
 20
2663.536085457302
 30
0.0
 10
4324.04664726017
 20
2663.535548564053
 30
0.0
 10
4324.051678185099
 20
2663.533998759825
 30
0.0
 10
4324.055048721791
 20
2663.533046673721
 30
0.0
 10
4324.065207957186
 20
2663.530423325009
 30
0.0
 10
4324.072044098263
 20
2663.528984077381
 30
0.0
 10
4324.085835969508
 20
2663.526690428145
 30
0.0
 10
4324.092791689259
 20
2663.525835975649
 30
0.0
 10
4324.103312641389
 20
2663.524981589056
 30
0.0
 10
4324.106834064599
 20
2663.524768449945
 30
0.0
 10
4324.11387522785
 20
2663.524485384832
 30
0.0
 10
4324.117399552524
 20
2663.524415113506
 30
0.0
 10
4324.120924098386
 20
2663.524415104895
 30
0.0
  0
SPLINE
  5
1465
330
1F
100
AcDbEntity
  8
SANINDUSA
100
AcDbSpline
210
0.0
220
0.0
230
1.0
 70
     8
 71
     3
 72
    28
 73
    24
 74
     0
 42
0.0000000001
 43
0.0000000001
 40
0.0
 40
0.0
 40
0.0
 40
0.0
 40
0.0625000000000017
 40
0.0625000000000017
 40
0.1250000000000035
 40
0.1250000000000035
 40
0.2500000000000063
 40
0.2500000000000063
 40
0.3125000000000071
 40
0.3125000000000071
 40
0.375000000000008
 40
0.375000000000008
 40
0.5000000000000047
 40
0.5000000000000047
 40
0.6250000000000013
 40
0.6250000000000013
 40
0.7499999999999978
 40
0.7499999999999978
 40
0.8124999999999985
 40
0.8124999999999985
 40
0.8749999999999996
 40
0.8749999999999996
 40
1.0
 40
1.0
 40
1.0
 40
1.0
 10
4324.304986832727
 20
2663.751543799284
 30
0.0
 10
4324.305457189807
 20
2663.751545768305
 30
0.0
 10
4324.305926241406
 20
2663.75152787827
 30
0.0
 10
4324.306861730774
 20
2663.751452356458
 30
0.0
 10
4324.307329695756
 20
2663.751394432
 30
0.0
 10
4324.30871647497
 20
2663.751162002921
 30
0.0
 10
4324.30961745922
 20
2663.750930130451
 30
0.0
 10
4324.310933592063
 20
2663.750466836518
 30
0.0
 10
4324.311366378745
 20
2663.750293047604
 30
0.0
 10
4324.312219660492
 20
2663.749905311343
 30
0.0
 10
4324.312640827301
 20
2663.749690731198
 30
0.0
 10
4324.313861140594
 20
2663.748997834365
 30
0.0
 10
4324.314625638026
 20
2663.748467483664
 30
0.0
 10
4324.316054353848
 20
2663.747266900445
 30
0.0
 10
4324.316722330835
 20
2663.746589936253
 30
0.0
 10
4324.317899913195
 20
2663.745142442217
 30
0.0
 10
4324.318416510078
 20
2663.744367777581
 30
0.0
 10
4324.319079038779
 20
2663.743126532036
 30
0.0
 10
4324.319281619039
 20
2663.742697550729
 30
0.0
 10
4324.319639715499
 20
2663.7418307254
 30
0.0
 10
4324.319796382149
 20
2663.741391131106
 30
0.0
 10
4324.320200395624
 20
2663.740054123275
 30
0.0
 10
4324.320382353759
 20
2663.739138649901
 30
0.0
 10
4324.320472986103
 20
2663.738197953125
 30
0.0
  0
SPLINE
  5
1467
330
1F
100
AcDbEntity
  8
SANINDUSA
100
AcDbSpline
210
0.0
220
0.0
230
1.0
 70
     8
 71
     3
 72
    56
 73
    52
 74
     0
 42
0.0000000001
 43
0.0000000001
 40
0.0
 40
0.0
 40
0.0
 40
0.0
 40
0.0312500000000002
 40
0.0312500000000002
 40
0.0625000000000004
 40
0.0625000000000004
 40
0.1250000000000008
 40
0.1250000000000008
 40
0.1875000000000012
 40
0.1875000000000012
 40
0.2187500000000015
 40
0.2187500000000015
 40
0.2343750000000016
 40
0.2343750000000016
 40
0.2500000000000017
 40
0.2500000000000017
 40
0.2812500000000016
 40
0.2812500000000016
 40
0.3125000000000014
 40
0.3125000000000014
 40
0.3437500000000013
 40
0.3437500000000013
 40
0.3750000000000011
 40
0.3750000000000011
 40
0.4375000000000011
 40
0.4375000000000011
 40
0.500000000000001
 40
0.500000000000001
 40
0.5312500000000009
 40
0.5312500000000009
 40
0.5468750000000008
 40
0.5468750000000008
 40
0.5625000000000007
 40
0.5625000000000007
 40
0.6250000000000004
 40
0.6250000000000004
 40
0.6875000000000002
 40
0.6875000000000002
 40
0.75
 40
0.75
 40
0.78125
 40
0.78125
 40
0.8125
 40
0.8125
 40
0.84375
 40
0.84375
 40
0.875
 40
0.875
 40
0.9375
 40
0.9375
 40
1.0
 40
1.0
 40
1.0
 40
1.0
 10
4324.304986832727
 20
2663.751543799284
 30
0.0
 10
4324.304353164363
 20
2663.751417177135
 30
0.0
 10
4324.303708841847
 20
2663.751290704057
 30
0.0
 10
4324.302381068494
 20
2663.751038305373
 30
0.0
 10
4324.301697449038
 20
2663.750912353836
 30
0.0
 10
4324.299562041381
 20
2663.750536410582
 30
0.0
 10
4324.298025665139
 20
2663.750288146671
 30
0.0
 10
4324.294556647508
 20
2663.749799928937
 30
0.0
 10
4324.292623833347
 20
2663.749559978735
 30
0.0
 10
4324.289281208211
 20
2663.749209352068
 30
0.0
 10
4324.288092921016
 20
2663.749094030021
 30
0.0
 10
4324.286180036545
 20
2663.748923782697
 30
0.0
 10
4324.285521500995
 20
2663.748867576199
 30
0.0
 10
4324.284169701517
 20
2663.748757053262
 30
0.0
 10
4324.283475259636
 20
2663.748702630454
 30
0.0
 10
4324.281334848294
 20
2663.748541944017
 30
0.0
 10
4324.279831665463
 20
2663.748438268146
 30
0.0
 10
4324.276668123118
 20
2663.748238025505
 30
0.0
 10
4324.27500805933
 20
2663.748141445359
 30
0.0
 10
4324.271548689034
 20
2663.747954583012
 30
0.0
 10
4324.269749320563
 20
2663.747864303614
 30
0.0
 10
4324.266023636146
 20
2663.747689486652
 30
0.0
 10
4324.264091794936
 20
2663.747604748265
 30
0.0
 10
4324.258193801753
 20
2663.747361475256
 30
0.0
 10
4324.254108467964
 20
2663.747212842203
 30
0.0
 10
4324.245687785779
 20
2663.74693766735
 30
0.0
 10
4324.241351914818
 20
2663.746811171725
 30
0.0
 10
4324.234684127893
 20
2663.746635917578
 30
0.0
 10
4324.232434060724
 20
2663.746579926909
 30
0.0
 10
4324.229019756653
 20
2663.746499404906
 30
0.0
 10
4324.227875115574
 20
2663.746473142087
 30
0.0
 10
4324.225573024522
 20
2663.746421748241
 30
0.0
 10
4324.224415399083
 20
2663.746396615245
 30
0.0
 10
4324.218619463762
 20
2663.746274209923
 30
0.0
 10
4324.213939042121
 20
2663.746186244829
 30
0.0
 10
4324.204500733269
 20
2663.746027979688
 30
0.0
 10
4324.199742780157
 20
2663.745957694668
 30
0.0
 10
4324.190155465006
 20
2663.745833408532
 30
0.0
 10
4324.185326074704
 20
2663.745779413862
 30
0.0
 10
4324.178031305978
 20
2663.745709979537
 30
0.0
 10
4324.175591253053
 20
2663.745688764723
 30
0.0
 10
4324.170694607049
 20
2663.745650106866
 30
0.0
 10
4324.168238165459
 20
2663.74563262928
 30
0.0
 10
4324.163306498685
 20
2663.745601957467
 30
0.0
 10
4324.160831623696
 20
2663.745588683386
 30
0.0
 10
4324.155865247115
 20
2663.745565926707
 30
0.0
 10
4324.153371680683
 20
2663.745556442102
 30
0.0
 10
4324.145890678788
 20
2663.745532881319
 30
0.0
 10
4324.140899905519
 20
2663.745523615999
 30
0.0
 10
4324.130914469004
 20
2663.745512372689
 30
0.0
 10
4324.125919840391
 20
2663.745510329814
 30
0.0
 10
4324.120924098386
 20
2663.745510372725
 30
0.0
  0
SPLINE
  5
1469
330
1F
100
AcDbEntity
  8
SANINDUSA
100
AcDbSpline
210
0.0
220
0.0
230
1.0
 70
     8
 71
     3
 72
    28
 73
    24
 74
     0
 42
0.0000000001
 43
0.0000000001
 40
0.0
 40
0.0
 40
0.0
 40
0.0
 40
0.0625000000000009
 40
0.0625000000000009
 40
0.1250000000000019
 40
0.1250000000000019
 40
0.2500000000000031
 40
0.2500000000000031
 40
0.3125000000000026
 40
0.3125000000000026
 40
0.375000000000002
 40
0.375000000000002
 40
0.4999999999999997
 40
0.4999999999999997
 40
0.6249999999999974
 40
0.6249999999999974
 40
0.7499999999999949
 40
0.7499999999999949
 40
0.8124999999999962
 40
0.8124999999999962
 40
0.8749999999999975
 40
0.8749999999999975
 40
1.0
 40
1.0
 40
1.0
 40
1.0
 10
4323.936861364044
 20
2663.751543799284
 30
0.0
 10
4323.936391006965
 20
2663.751545768305
 30
0.0
 10
4323.935921955366
 20
2663.75152787827
 30
0.0
 10
4323.934986465998
 20
2663.751452356458
 30
0.0
 10
4323.934518501015
 20
2663.751394432
 30
0.0
 10
4323.933131721802
 20
2663.751162002921
 30
0.0
 10
4323.932230737553
 20
2663.750930130451
 30
0.0
 10
4323.930914604709
 20
2663.750466836518
 30
0.0
 10
4323.930481818027
 20
2663.750293047604
 30
0.0
 10
4323.92962853628
 20
2663.749905311343
 30
0.0
 10
4323.929207369471
 20
2663.749690731198
 30
0.0
 10
4323.927987056178
 20
2663.748997834365
 30
0.0
 10
4323.927222558745
 20
2663.748467483664
 30
0.0
 10
4323.925793842924
 20
2663.747266900445
 30
0.0
 10
4323.925125865937
 20
2663.746589936253
 30
0.0
 10
4323.923948283577
 20
2663.745142442217
 30
0.0
 10
4323.923431686693
 20
2663.744367777581
 30
0.0
 10
4323.922769157992
 20
2663.743126532036
 30
0.0
 10
4323.922566577733
 20
2663.742697550729
 30
0.0
 10
4323.922208481273
 20
2663.7418307254
 30
0.0
 10
4323.922051814622
 20
2663.741391131106
 30
0.0
 10
4323.921647801149
 20
2663.740054123275
 30
0.0
 10
4323.921465843013
 20
2663.739138649901
 30
0.0
 10
4323.921375210669
 20
2663.738197953125
 30
0.0
  0
SPLINE
  5
146A
330
1F
100
AcDbEntity
  8
SANINDUSA
100
AcDbSpline
210
0.0
220
0.0
230
1.0
 70
     8
 71
     3
 72
    56
 73
    52
 74
     0
 42
0.0000000001
 43
0.0000000001
 40
0.0
 40
0.0
 40
0.0
 40
0.0
 40
0.0312500000000001
 40
0.0312500000000001
 40
0.0625000000000003
 40
0.0625000000000003
 40
0.1250000000000006
 40
0.1250000000000006
 40
0.1875000000000009
 40
0.1875000000000009
 40
0.218750000000001
 40
0.218750000000001
 40
0.2343750000000011
 40
0.2343750000000011
 40
0.2500000000000012
 40
0.2500000000000012
 40
0.2812500000000015
 40
0.2812500000000015
 40
0.3125000000000018
 40
0.3125000000000018
 40
0.3437500000000021
 40
0.3437500000000021
 40
0.3750000000000024
 40
0.3750000000000024
 40
0.4375000000000027
 40
0.4375000000000027
 40
0.5000000000000029
 40
0.5000000000000029
 40
0.5312500000000029
 40
0.5312500000000029
 40
0.5468750000000031
 40
0.5468750000000031
 40
0.5625000000000031
 40
0.5625000000000031
 40
0.6250000000000027
 40
0.6250000000000027
 40
0.6875000000000023
 40
0.6875000000000023
 40
0.7500000000000018
 40
0.7500000000000018
 40
0.7812500000000017
 40
0.7812500000000017
 40
0.8125000000000014
 40
0.8125000000000014
 40
0.8437500000000012
 40
0.8437500000000012
 40
0.875000000000001
 40
0.875000000000001
 40
0.9375000000000005
 40
0.9375000000000005
 40
1.0
 40
1.0
 40
1.0
 40
1.0
 10
4323.936861364044
 20
2663.751543799284
 30
0.0
 10
4323.937495032409
 20
2663.751417177135
 30
0.0
 10
4323.938139354925
 20
2663.751290704057
 30
0.0
 10
4323.939467128277
 20
2663.751038305373
 30
0.0
 10
4323.940150747733
 20
2663.750912353836
 30
0.0
 10
4323.942286155391
 20
2663.750536410582
 30
0.0
 10
4323.943822531632
 20
2663.750288146671
 30
0.0
 10
4323.947291549263
 20
2663.749799928937
 30
0.0
 10
4323.949224363425
 20
2663.749559978735
 30
0.0
 10
4323.95256698856
 20
2663.749209352068
 30
0.0
 10
4323.953755275755
 20
2663.749094030021
 30
0.0
 10
4323.955668160226
 20
2663.748923782697
 30
0.0
 10
4323.956326695777
 20
2663.748867576199
 30
0.0
 10
4323.957678495255
 20
2663.748757053262
 30
0.0
 10
4323.958372937137
 20
2663.748702630454
 30
0.0
 10
4323.960513348478
 20
2663.748541944017
 30
0.0
 10
4323.962016531308
 20
2663.748438268146
 30
0.0
 10
4323.965180073654
 20
2663.748238025505
 30
0.0
 10
4323.966840137443
 20
2663.748141445359
 30
0.0
 10
4323.970299507737
 20
2663.747954583012
 30
0.0
 10
4323.97209887621
 20
2663.747864303614
 30
0.0
 10
4323.975824560625
 20
2663.747689486652
 30
0.0
 10
4323.977756401835
 20
2663.747604748265
 30
0.0
 10
4323.983654395019
 20
2663.747361475256
 30
0.0
 10
4323.987739728809
 20
2663.747212842203
 30
0.0
 10
4323.996160410993
 20
2663.74693766735
 30
0.0
 10
4324.000496281954
 20
2663.746811171725
 30
0.0
 10
4324.00716406888
 20
2663.746635917578
 30
0.0
 10
4324.009414136049
 20
2663.746579926909
 30
0.0
 10
4324.012828440118
 20
2663.746499404906
 30
0.0
 10
4324.013973081196
 20
2663.746473142087
 30
0.0
 10
4324.01627517225
 20
2663.746421748241
 30
0.0
 10
4324.017432797689
 20
2663.746396615245
 30
0.0
 10
4324.02322873301
 20
2663.746274209923
 30
0.0
 10
4324.027909154651
 20
2663.746186244829
 30
0.0
 10
4324.037347463504
 20
2663.746027979688
 30
0.0
 10
4324.042105416615
 20
2663.745957694668
 30
0.0
 10
4324.051692731765
 20
2663.745833408532
 30
0.0
 10
4324.056522122068
 20
2663.745779413862
 30
0.0
 10
4324.063816890793
 20
2663.745709979537
 30
0.0
 10
4324.066256943718
 20
2663.745688764723
 30
0.0
 10
4324.071153589723
 20
2663.745650106866
 30
0.0
 10
4324.073610031313
 20
2663.74563262928
 30
0.0
 10
4324.078541698086
 20
2663.745601957467
 30
0.0
 10
4324.081016573077
 20
2663.745588683386
 30
0.0
 10
4324.085982949656
 20
2663.745565926707
 30
0.0
 10
4324.088476516089
 20
2663.745556442102
 30
0.0
 10
4324.095957517984
 20
2663.745532881319
 30
0.0
 10
4324.100948291252
 20
2663.745523615999
 30
0.0
 10
4324.110933727769
 20
2663.745512372689
 30
0.0
 10
4324.115928356381
 20
2663.745510329814
 30
0.0
 10
4324.120924098386
 20
2663.745510372725
 30
0.0
  0
LINE
  5
146B
330
1F
100
AcDbEntity
  8
SANINDUSA
100
AcDbLine
 10
4324.304986837712
 20
2663.751543804702
 30
0.0
 11
4323.936861369219
 21
2663.751543804702
 31
0.0
  0
ARC
  5
146C
330
1F
100
AcDbEntity
  8
SANINDUSA
100
AcDbCircle
 10
4324.118279985149
 20
2663.839405134562
 30
0.0
 40
0.08979772079049
100
AcDbArc
 50
263.6227212387356
 51
271.6873301562079
  0
LWPOLYLINE
  5
146D
330
1F
100
AcDbEntity
  8
SANINDUSA
100
AcDbPolyline
 90
       19
 70
   128
 43
0.0
 10
4324.108098748531
 20
2663.75043787032
 10
4324.108321893421
 20
2663.750493734773
 10
4324.109019044247
 20
2663.750600024756
 10
4324.110040932354
 20
2663.750698849257
 10
4324.111359688845
 20
2663.750787511166
 10
4324.112939333004
 20
2663.750863626298
 10
4324.114736781847
 20
2663.750925078686
 10
4324.116703004968
 20
2663.750970214304
 10
4324.118784369361
 20
2663.750997811254
 10
4324.120924097877
 20
2663.751007079776
 10
4324.123063828256
 20
2663.750997811254
 10
4324.125145190787
 20
2663.750970214304
 10
4324.127111413908
 20
2663.750925078686
 10
4324.128908863683
 20
2663.750863626298
 10
4324.130488508773
 20
2663.750787511166
 10
4324.13180726247
 20
2663.750698849257
 10
4324.132829151507
 20
2663.750600024756
 10
4324.133526301404
 20
2663.750493734773
 10
4324.133718491924
 20
2663.75044724315
  0
ARC
  5
146E
330
1F
100
AcDbEntity
  8
SANINDUSA
100
AcDbCircle
 10
4324.123410214788
 20
2663.841649737908
 30
0.0
 40
0.0920369712828048
100
AcDbArc
 50
268.452129274886
 51
276.3709192603061
  0
SPLINE
  5
1470
330
1F
100
AcDbEntity
  8
SANINDUSA
100
AcDbSpline
210
0.0
220
0.0
230
1.0
 70
    24
 71
     3
 72
    13
 73
     9
 74
     0
 42
0.0000000001
 43
0.0000000001
 40
0.0
 40
0.0
 40
0.0
 40
0.0
 40
0.0789817986287329
 40
0.2716946767165012
 40
0.4669886857805305
 40
0.6733779494150993
 40
0.8947623821586791
 40
0.9999999999999998
 40
0.9999999999999998
 40
0.9999999999999998
 40
0.9999999999999998
 10
4323.930174115505
 20
2663.871792124283
 30
0.0
 10
4323.930171072649
 20
2663.871792124283
 30
0.0
 10
4323.930160605321
 20
2663.871792124283
 30
0.0
 10
4323.930254937066
 20
2663.871792124283
 30
0.0
 10
4323.930444883924
 20
2663.871792124283
 30
0.0
 10
4323.930726226516
 20
2663.871792124283
 30
0.0
 10
4323.931006534471
 20
2663.871792124283
 30
0.0
 10
4323.931183532915
 20
2663.871792124283
 30
0.0
 10
4323.93124056181
 20
2663.871792124283
 30
0.0
  0
LINE
  5
1478
330
1F
100
AcDbEntity
  8
SANINDUSA
100
AcDbLine
 10
4323.93124056181
 20
2663.871792124283
 30
0.0
 11
4324.31060763022
 21
2663.871792124283
 31
0.0
  0
CIRCLE
  5
147A
330
1F
100
AcDbEntity
  8
SANINDUSA
100
AcDbCircle
 10
4324.120924098386
 20
2663.812766250159
 30
0.0
 40
0.0174999999999999
  0
SPLINE
  5
147B
330
1F
100
AcDbEntity
  8
SANINDUSA
100
AcDbSpline
210
0.0
220
0.0
230
1.0
 70
     8
 71
     3
 72
    68
 73
    64
 74
     0
 42
0.0000000001
 43
0.0000000001
 40
0.0
 40
0.0
 40
0.0
 40
0.0
 40
0.0624999999999988
 40
0.0624999999999988
 40
0.0781249999999985
 40
0.0781249999999985
 40
0.0937499999999982
 40
0.0937499999999982
 40
0.1249999999999975
 40
0.1249999999999975
 40
0.1874999999999964
 40
0.1874999999999964
 40
0.2031249999999962
 40
0.2031249999999962
 40
0.2187499999999961
 40
0.2187499999999961
 40
0.2499999999999958
 40
0.2499999999999958
 40
0.2812499999999955
 40
0.2812499999999955
 40
0.3124999999999952
 40
0.3124999999999952
 40
0.3749999999999952
 40
0.3749999999999952
 40
0.4062499999999952
 40
0.4062499999999952
 40
0.4218749999999952
 40
0.4218749999999952
 40
0.4374999999999952
 40
0.4374999999999952
 40
0.4999999999999952
 40
0.4999999999999952
 40
0.5312499999999956
 40
0.5312499999999956
 40
0.562499999999996
 40
0.562499999999996
 40
0.5937499999999964
 40
0.5937499999999964
 40
0.6249999999999967
 40
0.6249999999999967
 40
0.6874999999999975
 40
0.6874999999999975
 40
0.7187499999999982
 40
0.7187499999999982
 40
0.7343749999999982
 40
0.7343749999999982
 40
0.7499999999999982
 40
0.7499999999999982
 40
0.8124999999999989
 40
0.8124999999999989
 40
0.8281249999999989
 40
0.8281249999999989
 40
0.8437499999999991
 40
0.8437499999999991
 40
0.8749999999999996
 40
0.8749999999999996
 40
0.9374999999999998
 40
0.9374999999999998
 40
0.953125
 40
0.953125
 40
0.96875
 40
0.96875
 40
1.0
 40
1.0
 40
1.0
 40
1.0
 10
4324.120924098386
 20
2663.647596557569
 30
0.0
 10
4324.123213675295
 20
2663.647597606547
 30
0.0
 10
4324.125474167053
 20
2663.647827492884
 30
0.0
 10
4324.128264198079
 20
2663.648394858062
 30
0.0
 10
4324.12882041014
 20
2663.648522449536
 30
0.0
 10
4324.129929204342
 20
2663.648806199363
 30
0.0
 10
4324.130482811423
 20
2663.648962736738
 30
0.0
 10
4324.132121742358
 20
2663.649470584436
 30
0.0
 10
4324.133189887613
 20
2663.6498610053
 30
0.0
 10
4324.136323424715
 20
2663.651182503364
 30
0.0
 10
4324.138318592062
 20
2663.652262387696
 30
0.0
 10
4324.140693172828
 20
2663.653865284558
 30
0.0
 10
4324.14116115612
 20
2663.654198110028
 30
0.0
 10
4324.142075338911
 20
2663.654882168806
 30
0.0
 10
4324.142522722696
 20
2663.655234189514
 30
0.0
 10
4324.14383624686
 20
2663.656319716229
 30
0.0
 10
4324.144673842065
 20
2663.657082602638
 30
0.0
 10
4324.146273759832
 20
2663.658685853034
 30
0.0
 10
4324.14703604384
 20
2663.659526256175
 30
0.0
 10
4324.148483903588
 20
2663.661286017093
 30
0.0
 10
4324.149172409855
 20
2663.662210278981
 30
0.0
 10
4324.151081158827
 20
2663.665050928495
 30
0.0
 10
4324.152156601821
 20
2663.667043384217
 30
0.0
 10
4324.153475940826
 20
2663.670179206074
 30
0.0
 10
4324.153866420719
 20
2663.671249167782
 30
0.0
 10
4324.154375078562
 20
2663.672892698222
 30
0.0
 10
4324.154530985551
 20
2663.673444666659
 30
0.0
 10
4324.154813939542
 20
2663.674549954968
 30
0.0
 10
4324.154941314083
 20
2663.675104319616
 30
0.0
 10
4324.155508566045
 20
2663.677884635682
 30
0.0
 10
4324.15574152325
 20
2663.68013582829
 30
0.0
 10
4324.155753229112
 20
2663.683553803182
 30
0.0
 10
4324.155699477229
 20
2663.684705783782
 30
0.0
 10
4324.155478849141
 20
2663.686976531002
 30
0.0
 10
4324.155312563152
 20
2663.688099331841
 30
0.0
 10
4324.154870552466
 20
2663.690320351012
 30
0.0
 10
4324.154594822941
 20
2663.691418568256
 30
0.0
 10
4324.153933302457
 20
2663.693590282118
 30
0.0
 10
4324.153546805722
 20
2663.694665499201
 30
0.0
 10
4324.152221066577
 20
2663.69784206704
 30
0.0
 10
4324.151141747227
 20
2663.699837965108
 30
0.0
 10
4324.149242722153
 20
2663.702657346434
 30
0.0
 10
4324.148562696447
 20
2663.703567849036
 30
0.0
 10
4324.147471601928
 20
2663.70488935377
 30
0.0
 10
4324.14709491797
 20
2663.70532358175
 30
0.0
 10
4324.146323616502
 20
2663.706169953643
 30
0.0
 10
4324.145929067565
 20
2663.70658217399
 30
0.0
 10
4324.143912656759
 20
2663.708589464502
 30
0.0
 10
4324.142161097558
 20
2663.71002470578
 30
0.0
 10
4324.139798303527
 20
2663.711605127319
 30
0.0
 10
4324.139316999783
 20
2663.71191043436
 30
0.0
 10
4324.138336582552
 20
2663.712499099406
 30
0.0
 10
4324.13783626413
 20
2663.712783044579
 30
0.0
 10
4324.136323509686
 20
2663.713593109187
 30
0.0
 10
4324.135295884224
 20
2663.714079918321
 30
0.0
 10
4324.132157078344
 20
2663.715384642962
 30
0.0
 10
4324.129990515569
 20
2663.716048379163
 30
0.0
 10
4324.127186710743
 20
2663.716611895961
 30
0.0
 10
4324.126620240478
 20
2663.716711248163
 30
0.0
 10
4324.125487040356
 20
2663.716881110459
 30
0.0
 10
4324.124919320328
 20
2663.716951864562
 30
0.0
 10
4324.123212819251
 20
2663.717121834819
 30
0.0
 10
4324.122070704878
 20
2663.717178856005
 30
0.0
 10
4324.120924098386
 20
2663.717179013289
 30
0.0
  0
SPLINE
  5
147C
330
1F
100
AcDbEntity
  8
SANINDUSA
100
AcDbSpline
210
0.0
220
0.0
230
1.0
 70
     8
 71
     3
 72
    68
 73
    64
 74
     0
 42
0.0000000001
 43
0.0000000001
 40
0.0
 40
0.0
 40
0.0
 40
0.0
 40
0.0625000000000005
 40
0.0625000000000005
 40
0.0781250000000006
 40
0.0781250000000006
 40
0.0937500000000006
 40
0.0937500000000006
 40
0.1250000000000006
 40
0.1250000000000006
 40
0.1875000000000007
 40
0.1875000000000007
 40
0.2031250000000007
 40
0.2031250000000007
 40
0.2187500000000008
 40
0.2187500000000008
 40
0.2500000000000009
 40
0.2500000000000009
 40
0.2812500000000011
 40
0.2812500000000011
 40
0.3125000000000012
 40
0.3125000000000012
 40
0.3750000000000009
 40
0.3750000000000009
 40
0.4062500000000007
 40
0.4062500000000007
 40
0.4218750000000007
 40
0.4218750000000007
 40
0.4375000000000007
 40
0.4375000000000007
 40
0.5000000000000005
 40
0.5000000000000005
 40
0.5312500000000007
 40
0.5312500000000007
 40
0.5625000000000009
 40
0.5625000000000009
 40
0.5937500000000013
 40
0.5937500000000013
 40
0.6250000000000015
 40
0.6250000000000015
 40
0.687500000000002
 40
0.687500000000002
 40
0.718750000000002
 40
0.718750000000002
 40
0.7343750000000017
 40
0.7343750000000017
 40
0.7500000000000014
 40
0.7500000000000014
 40
0.8125000000000007
 40
0.8125000000000007
 40
0.8281250000000007
 40
0.8281250000000007
 40
0.8437500000000005
 40
0.8437500000000005
 40
0.8750000000000007
 40
0.8750000000000007
 40
0.9375000000000007
 40
0.9375000000000007
 40
0.9531250000000005
 40
0.9531250000000005
 40
0.9687500000000003
 40
0.9687500000000003
 40
1.0
 40
1.0
 40
1.0
 40
1.0
 10
4324.120924098386
 20
2663.647596557569
 30
0.0
 10
4324.118634521477
 20
2663.647597606547
 30
0.0
 10
4324.116374029718
 20
2663.647827492884
 30
0.0
 10
4324.113583998694
 20
2663.648394858062
 30
0.0
 10
4324.113027786631
 20
2663.648522449536
 30
0.0
 10
4324.11191899243
 20
2663.648806199363
 30
0.0
 10
4324.111365385348
 20
2663.648962736738
 30
0.0
 10
4324.109726454414
 20
2663.649470584436
 30
0.0
 10
4324.108658309157
 20
2663.6498610053
 30
0.0
 10
4324.105524772057
 20
2663.651182503364
 30
0.0
 10
4324.10352960471
 20
2663.652262387696
 30
0.0
 10
4324.101155023943
 20
2663.653865284558
 30
0.0
 10
4324.10068704065
 20
2663.654198110028
 30
0.0
 10
4324.09977285786
 20
2663.654882168806
 30
0.0
 10
4324.099325474075
 20
2663.655234189514
 30
0.0
 10
4324.098011949912
 20
2663.656319716229
 30
0.0
 10
4324.097174354707
 20
2663.657082602638
 30
0.0
 10
4324.09557443694
 20
2663.658685853034
 30
0.0
 10
4324.094812152932
 20
2663.659526256175
 30
0.0
 10
4324.093364293184
 20
2663.661286017093
 30
0.0
 10
4324.092675786917
 20
2663.662210278981
 30
0.0
 10
4324.090767037945
 20
2663.665050928495
 30
0.0
 10
4324.08969159495
 20
2663.667043384217
 30
0.0
 10
4324.088372255945
 20
2663.670179206074
 30
0.0
 10
4324.087981776052
 20
2663.671249167782
 30
0.0
 10
4324.08747311821
 20
2663.672892698222
 30
0.0
 10
4324.087317211221
 20
2663.673444666659
 30
0.0
 10
4324.08703425723
 20
2663.674549954968
 30
0.0
 10
4324.086906882689
 20
2663.675104319616
 30
0.0
 10
4324.086339630727
 20
2663.677884635682
 30
0.0
 10
4324.086106673522
 20
2663.68013582829
 30
0.0
 10
4324.08609496766
 20
2663.683553803182
 30
0.0
 10
4324.086148719542
 20
2663.684705783782
 30
0.0
 10
4324.086369347631
 20
2663.686976531002
 30
0.0
 10
4324.08653563362
 20
2663.688099331841
 30
0.0
 10
4324.086977644306
 20
2663.690320351012
 30
0.0
 10
4324.087253373831
 20
2663.691418568256
 30
0.0
 10
4324.087914894315
 20
2663.693590282118
 30
0.0
 10
4324.08830139105
 20
2663.694665499201
 30
0.0
 10
4324.089627130194
 20
2663.69784206704
 30
0.0
 10
4324.090706449545
 20
2663.699837965108
 30
0.0
 10
4324.092605474619
 20
2663.702657346434
 30
0.0
 10
4324.093285500325
 20
2663.703567849036
 30
0.0
 10
4324.094376594842
 20
2663.70488935377
 30
0.0
 10
4324.094753278802
 20
2663.70532358175
 30
0.0
 10
4324.095524580269
 20
2663.706169953643
 30
0.0
 10
4324.095919129207
 20
2663.70658217399
 30
0.0
 10
4324.097935540013
 20
2663.708589464502
 30
0.0
 10
4324.099687099213
 20
2663.71002470578
 30
0.0
 10
4324.102049893245
 20
2663.711605127319
 30
0.0
 10
4324.102531196989
 20
2663.71191043436
 30
0.0
 10
4324.10351161422
 20
2663.712499099406
 30
0.0
 10
4324.104011932642
 20
2663.712783044579
 30
0.0
 10
4324.105524687086
 20
2663.713593109187
 30
0.0
 10
4324.106552312548
 20
2663.714079918321
 30
0.0
 10
4324.109691118429
 20
2663.715384642962
 30
0.0
 10
4324.111857681203
 20
2663.716048379163
 30
0.0
 10
4324.114661486029
 20
2663.716611895961
 30
0.0
 10
4324.115227956293
 20
2663.716711248163
 30
0.0
 10
4324.116361156416
 20
2663.716881110459
 30
0.0
 10
4324.116928876444
 20
2663.716951864562
 30
0.0
 10
4324.118635377521
 20
2663.717121834819
 30
0.0
 10
4324.119777491894
 20
2663.717178856005
 30
0.0
 10
4324.120924098386
 20
2663.717179013289
 30
0.0
  0
CIRCLE
  5
147D
330
1F
100
AcDbEntity
  8
SANINDUSA
100
AcDbCircle
 10
4324.120924098386
 20
2663.682792118507
 30
0.0
 40
0.0235
  0
LWPOLYLINE
  5
147F
330
1F
100
AcDbEntity
  8
SANINDUSA
100
AcDbPolyline
 90
        4
 70
   128
 43
0.0
 10
4324.10830571821
 20
2663.750163078006
 10
4324.107968501207
 20
2663.75027053028
 10
4324.107968501207
 20
2663.750382899936
 10
4324.108098748531
 20
2663.75043787032
  0
LWPOLYLINE
  5
1480
330
1F
100
AcDbEntity
  8
SANINDUSA
100
AcDbPolyline
 90
        4
 70
   128
 43
0.0
 10
4324.133718491924
 20
2663.75044724315
 10
4324.13387969641
 20
2663.750382899936
 10
4324.13387969641
 20
2663.75027053028
 10
4324.133623053711
 20
2663.750181153115
  0
ARC
  5
1483
330
1F
100
AcDbEntity
  8
SANINDUSA
100
AcDbCircle
 10
4325.692127674247
 20
2663.624967061468
 30
0.0
 40
0.0039999999045943
100
AcDbArc
 50
279.8377051462765
 51
358.0000029162777
  0
SPLINE
  5
1484
330
1F
100
AcDbEntity
  8
SANINDUSA
100
AcDbSpline
210
0.0
220
0.0
230
1.0
 70
     8
 71
     3
 72
     9
 73
     5
 74
     0
 42
0.0000000001
 43
0.0000000001
 40
0.0
 40
0.0
 40
0.0
 40
0.0
 40
0.5405567181012648
 40
0.9999999999999998
 40
0.9999999999999998
 40
0.9999999999999998
 40
0.9999999999999998
 10
4325.679878307294
 20
2663.618605593446
 30
0.0
 10
4325.682201659036
 20
2663.619073273013
 30
0.0
 10
4325.686499731122
 20
2663.61993845432
 30
0.0
 10
4325.690829028622
 20
2663.620659268651
 30
0.0
 10
4325.692818095275
 20
2663.620990441953
 30
0.0
  0
ARC
  5
1485
330
1F
100
AcDbEntity
  8
SANINDUSA
100
AcDbCircle
 10
4325.679099703616
 20
2663.622565962724
 30
0.0
 40
0.0040000000395181
100
AcDbArc
 50
179.9999984627488
 51
281.1217895123531
  0
SPLINE
  5
1486
330
1F
100
AcDbEntity
  8
SANINDUSA
100
AcDbSpline
210
0.0
220
0.0
230
1.0
 70
     8
 71
     3
 72
    20
 73
    16
 74
     0
 42
0.0000000001
 43
0.0000000001
 40
0.0
 40
0.0
 40
0.0
 40
0.0
 40
0.0315632307414972
 40
0.0902211321477912
 40
0.1574702390941798
 40
0.2330275680541766
 40
0.3171688327654567
 40
0.4071675496806361
 40
0.4997137182034347
 40
0.5952136153400242
 40
0.691380604336043
 40
0.7877421368489931
 40
0.8829068566251626
 40
0.9775753720780681
 40
1.0
 40
1.0
 40
1.0
 40
1.0
 10
4325.695325189879
 20
2663.62304619268
 30
0.0
 10
4325.695323793547
 20
2663.623045158259
 30
0.0
 10
4325.695319802237
 20
2663.623042201445
 30
0.0
 10
4325.695547441664
 20
2663.623203807625
 30
0.0
 10
4325.696033995383
 20
2663.623481846921
 30
0.0
 10
4325.69681218615
 20
2663.623868550029
 30
0.0
 10
4325.697885804365
 20
2663.624334169121
 30
0.0
 10
4325.699258566562
 20
2663.624859849069
 30
0.0
 10
4325.700882358013
 20
2663.625414415427
 30
0.0
 10
4325.702714519904
 20
2663.625971565889
 30
0.0
 10
4325.704709365431
 20
2663.626509102931
 30
0.0
 10
4325.706801681602
 20
2663.627005929849
 30
0.0
 10
4325.708937460656
 20
2663.627434650043
 30
0.0
 10
4325.710543503617
 20
2663.627721164879
 30
0.0
 10
4325.711404945012
 20
2663.627833187927
 30
0.0
 10
4325.711569920537
 20
2663.627854641575
 30
0.0
  0
SPLINE
  5
1487
330
1F
100
AcDbEntity
  8
SANINDUSA
100
AcDbSpline
210
0.0
220
0.0
230
1.0
 70
     8
 71
     3
 72
    12
 73
     8
 74
     0
 42
0.0000000001
 43
0.0000000001
 40
0.0
 40
0.0
 40
0.0
 40
0.0
 40
0.1270988998164482
 40
0.3656828947640147
 40
0.6151335449830649
 40
0.878900242289175
 40
1.0
 40
1.0
 40
1.0
 40
1.0
 10
4325.711580046657
 20
2663.627823488668
 30
0.0
 10
4325.714114327744
 20
2663.628190459177
 30
0.0
 10
4325.721405840457
 20
2663.629246289229
 30
0.0
 10
4325.733716473547
 20
2663.630697560893
 30
0.0
 10
4325.748788876381
 20
2663.632217900003
 30
0.0
 10
4325.7615237311
 20
2663.633333297211
 30
0.0
 10
4325.769260718515
 20
2663.63388317709
 30
0.0
 10
4325.771695192316
 20
2663.634056198977
 30
0.0
  0
SPLINE
  5
1489
330
1F
100
AcDbEntity
  8
SANINDUSA
100
AcDbSpline
210
0.0
220
0.0
230
1.0
 70
     8
 71
     3
 72
    12
 73
     8
 74
     0
 42
0.0000000001
 43
0.0000000001
 40
0.0
 40
0.0
 40
0.0
 40
0.0
 40
0.5000000000000007
 40
0.5000000000000007
 40
0.7500000000000004
 40
0.7500000000000004
 40
1.0
 40
1.0
 40
1.0
 40
1.0
 10
4326.039882490188
 20
2663.750691198031
 30
0.0
 10
4326.037340422291
 20
2663.742178142012
 30
0.0
 10
4326.034545053247
 20
2663.733750173049
 30
0.0
 10
4326.029963719543
 20
2663.72123864781
 30
0.0
 10
4326.028372148763
 20
2663.717090913768
 30
0.0
 10
4326.025062270491
 20
2663.708851136468
 30
0.0
 10
4326.023343476038
 20
2663.704757736935
 30
0.0
 10
4326.021559930693
 20
2663.700691198031
 30
0.0
  0
ARC
  5
148A
330
1F
100
AcDbEntity
  8
SANINDUSA
100
AcDbCircle
 10
4326.01482290473
 20
2663.686691198031
 30
0.0
 40
0.0040000000000053
100
AcDbArc
 50
22.02431283732964
 51
90.0
  0
ARC
  5
148C
330
1F
100
AcDbEntity
  8
SANINDUSA
100
AcDbCircle
 10
4326.022239103219
 20
2663.689691198031
 30
0.0
 40
0.004
100
AcDbArc
 50
202.0243128373296
 51
270.0
  0
ARC
  5
148E
330
1F
100
AcDbEntity
  8
SANINDUSA
100
AcDbCircle
 10
4326.022535192398
 20
2663.690691198031
 30
0.0
 40
0.0050000000000004
100
AcDbArc
 50
270.0
 51
335.1360897317978
  0
SPLINE
  5
1491
330
1F
100
AcDbEntity
  8
SANINDUSA
100
AcDbSpline
210
0.0
220
0.0
230
1.0
 70
     8
 71
     3
 72
    14
 73
    10
 74
     0
 42
0.0000000001
 43
0.0000000001
 40
0.0
 40
0.0
 40
0.0
 40
0.0
 40
0.2500000000000001
 40
0.2500000000000001
 40
0.5000000000000001
 40
0.5000000000000001
 40
0.7500000000000001
 40
0.7500000000000001
 40
1.0
 40
1.0
 40
1.0
 40
1.0
 10
4326.022476722847
 20
2663.756815946125
 30
0.0
 10
4326.022603884339
 20
2663.757366746765
 30
0.0
 10
4326.022818273655
 20
2663.757881122118
 30
0.0
 10
4326.023421380873
 20
2663.75883707531
 30
0.0
 10
4326.023793532885
 20
2663.75925222587
 30
0.0
 10
4326.0246778484
 20
2663.759955756957
 30
0.0
 10
4326.025166289053
 20
2663.76022514984
 30
0.0
 10
4326.026232840448
 20
2663.76059774743
 30
0.0
 10
4326.026783286059
 20
2663.760691198031
 30
0.0
 10
4326.027348574828
 20
2663.760691198031
 30
0.0
  0
SPLINE
  5
1492
330
1F
100
AcDbEntity
  8
SANINDUSA
100
AcDbSpline
210
0.0
220
0.0
230
1.0
 70
    24
 71
     3
 72
    58
 73
    54
 74
     0
 42
0.0000000001
 43
0.0000000001
 40
0.0
 40
0.0
 40
0.0
 40
0.0
 40
0.0312500000000007
 40
0.0312500000000007
 40
0.046875000000001
 40
0.046875000000001
 40
0.0625000000000014
 40
0.0625000000000014
 40
0.1250000000000027
 40
0.1250000000000027
 40
0.1875000000000041
 40
0.1875000000000041
 40
0.2187500000000047
 40
0.2187500000000047
 40
0.2343750000000051
 40
0.2343750000000051
 40
0.2500000000000054
 40
0.2500000000000054
 40
0.3125000000000064
 40
0.3125000000000064
 40
0.3750000000000075
 40
0.3750000000000075
 40
0.4062500000000079
 40
0.4062500000000079
 40
0.4218750000000079
 40
0.4218750000000079
 40
0.437500000000008
 40
0.437500000000008
 40
0.5000000000000081
 40
0.5000000000000081
 40
0.5625000000000082
 40
0.5625000000000082
 40
0.5781250000000079
 40
0.5781250000000079
 40
0.5937500000000076
 40
0.5937500000000076
 40
0.625000000000007
 40
0.625000000000007
 40
0.6875000000000063
 40
0.6875000000000063
 40
0.7187500000000059
 40
0.7187500000000059
 40
0.7343750000000055
 40
0.7343750000000055
 40
0.7500000000000053
 40
0.7500000000000053
 40
0.8125000000000039
 40
0.8125000000000039
 40
0.8750000000000024
 40
0.8750000000000024
 40
0.9375000000000014
 40
0.9375000000000014
 40
1.0
 40
1.0
 40
1.0
 40
1.0
 10
4326.027348574828
 20
2663.760691198031
 30
0.0
 10
4326.027348562922
 20
2663.760691198031
 30
0.0
 10
4326.027276191822
 20
2663.760691198031
 30
0.0
 10
4326.027057550608
 20
2663.760691198031
 30
0.0
 10
4326.02696631495
 20
2663.760691198031
 30
0.0
 10
4326.026746780153
 20
2663.760691198031
 30
0.0
 10
4326.026618452796
 20
2663.760691198031
 30
0.0
 10
4326.025885111681
 20
2663.760691198031
 30
0.0
 10
4326.025005110198
 20
2663.760691198031
 30
0.0
 10
4326.022643277886
 20
2663.760691198031
 30
0.0
 10
4326.021161406734
 20
2663.760691198031
 30
0.0
 10
4326.018460764005
 20
2663.760691198031
 30
0.0
 10
4326.017480678628
 20
2663.760691198031
 30
0.0
 10
4326.015885409362
 20
2663.760691198031
 30
0.0
 10
4326.015332783126
 20
2663.760691198031
 30
0.0
 10
4326.014184736742
 20
2663.760691198031
 30
0.0
 10
4326.013588749454
 20
2663.760691198031
 30
0.0
 10
4326.010505616867
 20
2663.760691198031
 30
0.0
 10
4326.007723376739
 20
2663.760691198031
 30
0.0
 10
4326.001495476695
 20
2663.760691198031
 30
0.0
 10
4325.998049504388
 20
2663.760691198031
 30
0.0
 10
4325.992340972607
 20
2663.760691198031
 30
0.0
 10
4325.990348084762
 20
2663.760691198031
 30
0.0
 10
4325.987216005776
 20
2663.760691198031
 30
0.0
 10
4325.986147267426
 20
2663.760691198031
 30
0.0
 10
4325.983974346153
 20
2663.760691198031
 30
0.0
 10
4325.982868680868
 20
2663.760691198031
 30
0.0
 10
4325.977243914966
 20
2663.760691198031
 30
0.0
 10
4325.972436845843
 20
2663.760691198031
 30
0.0
 10
4325.962190299034
 20
2663.760691198031
 30
0.0
 10
4325.956749976058
 20
2663.760691198031
 30
0.0
 10
4325.949532665195
 20
2663.760691198031
 30
0.0
 10
4325.948068292844
 20
2663.760691198031
 30
0.0
 10
4325.945097174788
 20
2663.760691198031
 30
0.0
 10
4325.943595358399
 20
2663.760691198031
 30
0.0
 10
4325.939057001668
 20
2663.760691198031
 30
0.0
 10
4325.93598112379
 20
2663.760691198031
 30
0.0
 10
4325.926607492978
 20
2663.760691198031
 30
0.0
 10
4325.92016382935
 20
2663.760691198031
 30
0.0
 10
4325.91022186756
 20
2663.760691198031
 30
0.0
 10
4325.906861688182
 20
2663.760691198031
 30
0.0
 10
4325.901753792133
 20
2663.760691198031
 30
0.0
 10
4325.900039884234
 20
2663.760691198031
 30
0.0
 10
4325.896589704384
 20
2663.760691198031
 30
0.0
 10
4325.894850724326
 20
2663.760691198031
 30
0.0
 10
4325.886134136973
 20
2663.760691198031
 30
0.0
 10
4325.879130844074
 20
2663.760691198031
 30
0.0
 10
4325.865072606437
 20
2663.760691198031
 30
0.0
 10
4325.858017654311
 20
2663.760691198031
 30
0.0
 10
4325.843862199053
 20
2663.760691198031
 30
0.0
 10
4325.836761793658
 20
2663.760691198031
 30
0.0
 10
4325.822520347791
 20
2663.760691198031
 30
0.0
 10
4325.815379250722
 20
2663.760691198031
 30
0.0
 10
4325.808219612814
 20
2663.760691198031
 30
0.0
  0
SPLINE
  5
1495
330
1F
100
AcDbEntity
  8
SANINDUSA
100
AcDbSpline
210
0.0
220
0.0
230
1.0
 70
     8
 71
     3
 72
    30
 73
    26
 74
     0
 42
0.0000000001
 43
0.0000000001
 40
0.0
 40
0.0
 40
0.0
 40
0.0
 40
0.1249999999999966
 40
0.1249999999999966
 40
0.1874999999999959
 40
0.1874999999999959
 40
0.2499999999999952
 40
0.2499999999999952
 40
0.3749999999999937
 40
0.3749999999999937
 40
0.4374999999999925
 40
0.4374999999999925
 40
0.4999999999999912
 40
0.4999999999999912
 40
0.6249999999999942
 40
0.6249999999999942
 40
0.6874999999999945
 40
0.6874999999999945
 40
0.7499999999999947
 40
0.7499999999999947
 40
0.8749999999999968
 40
0.8749999999999968
 40
0.9374999999999984
 40
0.9374999999999984
 40
1.0
 40
1.0
 40
1.0
 40
1.0
 10
4325.801381455016
 20
2663.640828240937
 30
0.0
 10
4325.801430252984
 20
2663.639897120225
 30
0.0
 10
4325.801564341282
 20
2663.63898516564
 30
0.0
 10
4325.801888084678
 20
2663.637644786443
 30
0.0
 10
4325.802016570125
 20
2663.637202616012
 30
0.0
 10
4325.802315395613
 20
2663.63632768056
 30
0.0
 10
4325.802486817709
 20
2663.635892695406
 30
0.0
 10
4325.803056827544
 20
2663.634623109203
 30
0.0
 10
4325.803509891466
 20
2663.633822360373
 30
0.0
 10
4325.804296414314
 20
2663.632688038844
 30
0.0
 10
4325.804576523402
 20
2663.632321136286
 30
0.0
 10
4325.805173561645
 20
2663.631610334195
 30
0.0
 10
4325.805490442612
 20
2663.631266941262
 30
0.0
 10
4325.806476649129
 20
2663.630292690837
 30
0.0
 10
4325.80718733246
 20
2663.629709668756
 30
0.0
 10
4325.808332636938
 20
2663.628934179561
 30
0.0
 10
4325.808728199732
 20
2663.628692019384
 30
0.0
 10
4325.809544806796
 20
2663.628243240375
 30
0.0
 10
4325.809960382989
 20
2663.628039565443
 30
0.0
 10
4325.811228218804
 20
2663.627488659936
 30
0.0
 10
4325.812101411526
 20
2663.627201052682
 30
0.0
 10
4325.813453616611
 20
2663.626890454417
 30
0.0
 10
4325.813913135245
 20
2663.626807029095
 30
0.0
 10
4325.814835766898
 20
2663.626683759458
 30
0.0
 10
4325.815299334833
 20
2663.626643629944
 30
0.0
 10
4325.815765166283
 20
2663.626625114629
 30
0.0
  0
SPLINE
  5
1496
330
1F
100
AcDbEntity
  8
SANINDUSA
100
AcDbSpline
210
0.0
220
0.0
230
1.0
 70
     8
 71
     3
 72
    10
 73
     6
 74
     0
 42
0.0000000001
 43
0.0000000001
 40
0.0
 40
0.0
 40
0.0
 40
0.0
 40
0.5
 40
0.5
 40
1.0
 40
1.0
 40
1.0
 40
1.0
 10
4326.031296517661
 20
2663.750691198031
 30
0.0
 10
4326.029151974859
 20
2663.741974693988
 30
0.0
 10
4326.026600805985
 20
2663.733435875535
 30
0.0
 10
4326.020596968359
 20
2663.716752171899
 30
0.0
 10
4326.01714521844
 20
2663.708606885208
 30
0.0
 10
4326.013168039601
 20
2663.700691198031
 30
0.0
  0
SPLINE
  5
1497
330
1F
100
AcDbEntity
  8
SANINDUSA
100
AcDbSpline
210
0.0
220
0.0
230
1.0
 70
     8
 71
     3
 72
    16
 73
    12
 74
     0
 42
0.0000000001
 43
0.0000000001
 40
0.0
 40
0.0
 40
0.0
 40
0.0
 40
0.2500000000000021
 40
0.2500000000000021
 40
0.3750000000000018
 40
0.3750000000000018
 40
0.5000000000000015
 40
0.5000000000000015
 40
0.7500000000000008
 40
0.7500000000000008
 40
1.0
 40
1.0
 40
1.0
 40
1.0
 10
4326.008964358915
 20
2663.690691198031
 30
0.0
 10
4326.008639933073
 20
2663.690691198031
 30
0.0
 10
4326.00832265077
 20
2663.690649251943
 30
0.0
 10
4326.007857122863
 20
2663.690525291305
 30
0.0
 10
4326.007702663001
 20
2663.69047315662
 30
0.0
 10
4326.007405029527
 20
2663.690350424737
 30
0.0
 10
4326.007261316801
 20
2663.690279848921
 30
0.0
 10
4326.006845194594
 20
2663.690041026067
 30
0.0
 10
4326.006584485905
 20
2663.689842259382
 30
0.0
 10
4326.00613043681
 20
2663.689391454657
 30
0.0
 10
4326.005934362149
 20
2663.689139306905
 30
0.0
 10
4326.005770564932
 20
2663.688859266553
 30
0.0
  0
SPLINE
  5
1498
330
1F
100
AcDbEntity
  8
SANINDUSA
100
AcDbSpline
210
0.0
220
0.0
230
1.0
 70
     8
 71
     3
 72
    36
 73
    32
 74
     0
 42
0.0000000001
 43
0.0000000001
 40
0.0
 40
0.0
 40
0.0
 40
0.0
 40
0.0625000000000024
 40
0.0625000000000024
 40
0.0937500000000035
 40
0.0937500000000035
 40
0.1250000000000045
 40
0.1250000000000045
 40
0.2500000000000082
 40
0.2500000000000082
 40
0.3750000000000119
 40
0.3750000000000119
 40
0.3906250000000121
 40
0.3906250000000121
 40
0.4062500000000123
 40
0.4062500000000123
 40
0.4375000000000121
 40
0.4375000000000121
 40
0.5000000000000115
 40
0.5000000000000115
 40
0.6250000000000099
 40
0.6250000000000099
 40
0.7500000000000084
 40
0.7500000000000084
 40
0.8125000000000071
 40
0.8125000000000071
 40
0.843750000000006
 40
0.843750000000006
 40
0.8750000000000051
 40
0.8750000000000051
 40
1.0
 40
1.0
 40
1.0
 40
1.0
 10
4326.022476722847
 20
2663.756815946125
 30
0.0
 10
4326.021575786609
 20
2663.752913536318
 30
0.0
 10
4326.020588156555
 20
2663.749030822509
 30
0.0
 10
4326.018967656835
 20
2663.743238343667
 30
0.0
 10
4326.018403888336
 20
2663.741311569528
 30
0.0
 10
4326.017231845243
 20
2663.737480674031
 30
0.0
 10
4326.01662328572
 20
2663.735575421214
 30
0.0
 10
4326.013464784597
 20
2663.726101494971
 30
0.0
 10
4326.010569755691
 20
2663.718688919898
 30
0.0
 10
4326.003936389277
 20
2663.704245235781
 30
0.0
 10
4326.000199268783
 20
2663.697213576226
 30
0.0
 10
4325.995422694144
 20
2663.689561842367
 30
0.0
 10
4325.994883953661
 20
2663.688715272981
 30
0.0
 10
4325.993789992971
 20
2663.687029588722
 30
0.0
 10
4325.99323436345
 20
2663.686189889304
 30
0.0
 10
4325.991547900097
 20
2663.683690890954
 30
0.0
 10
4325.990396079808
 20
2663.682049409161
 30
0.0
 10
4325.986855746097
 20
2663.677200599238
 30
0.0
 10
4325.984382477327
 20
2663.674068801865
 30
0.0
 10
4325.976600931305
 20
2663.664995778467
 30
0.0
 10
4325.970933607359
 20
2663.659374521248
 30
0.0
 10
4325.958465721736
 20
2663.649141905324
 30
0.0
 10
4325.951850413512
 20
2663.644686705518
 30
0.0
 10
4325.941346858243
 20
2663.639026288825
 30
0.0
 10
4325.937748380915
 20
2663.637309929752
 30
0.0
 10
4325.932201210586
 20
2663.634997220533
 30
0.0
 10
4325.930325991342
 20
2663.634269531224
 30
0.0
 10
4325.926530114219
 20
2663.632904586189
 30
0.0
 10
4325.924622846158
 20
2663.632272067426
 30
0.0
 10
4325.915041409783
 20
2663.629350935422
 30
0.0
 10
4325.907232419009
 20
2663.627784213838
 30
0.0
 10
4325.899295270171
 20
2663.626903700143
 30
0.0
  0
SPLINE
  5
1499
330
1F
100
AcDbEntity
  8
SANINDUSA
100
AcDbSpline
210
0.0
220
0.0
230
1.0
 70
     8
 71
     3
 72
    26
 73
    22
 74
     0
 42
0.0000000001
 43
0.0000000001
 40
0.0
 40
0.0
 40
0.0
 40
0.0
 40
0.007951639399917
 40
0.0528845004127795
 40
0.1067328952504759
 40
0.1620829201229783
 40
0.217051275906709
 40
0.2735569081059357
 40
0.3294852735301212
 40
0.3870648877093177
 40
0.442425098339692
 40
0.499455239354461
 40
0.5537358806101489
 40
0.6096088727384538
 40
0.6636253393760473
 40
0.7191709856456496
 40
0.7739506849609889
 40
0.8302800088314839
 40
0.8856779701706448
 40
0.9427074163312488
 40
1.0
 40
1.0
 40
1.0
 40
1.0
 10
4325.899034140167
 20
2663.626894924263
 30
0.0
 10
4325.899017520709
 20
2663.626894348837
 30
0.0
 10
4325.898906988563
 20
2663.626890521805
 30
0.0
 10
4325.898005380456
 20
2663.626864518294
 30
0.0
 10
4325.89616037267
 20
2663.626818637204
 30
0.0
 10
4325.893253938875
 20
2663.626762110214
 30
0.0
 10
4325.88952656581
 20
2663.626711923964
 30
0.0
 10
4325.885079235582
 20
2663.62667499917
 30
0.0
 10
4325.879971200543
 20
2663.626650578462
 30
0.0
 10
4325.874439085214
 20
2663.626631831285
 30
0.0
 10
4325.8685749453
 20
2663.626608609255
 30
0.0
 10
4325.862697435726
 20
2663.626574022123
 30
0.0
 10
4325.856855204393
 20
2663.626523920936
 30
0.0
 10
4325.851330036964
 20
2663.626461350332
 30
0.0
 10
4325.846137321316
 20
2663.626390956312
 30
0.0
 10
4325.841487118294
 20
2663.626321662111
 30
0.0
 10
4325.837413900987
 20
2663.626269389937
 30
0.0
 10
4325.834095847648
 20
2663.626233653071
 30
0.0
 10
4325.831623657114
 20
2663.626212142008
 30
0.0
 10
4325.830018455361
 20
2663.626201525671
 30
0.0
 10
4325.829814850969
 20
2663.626201000545
 30
0.0
 10
4325.829712814452
 20
2663.626200737378
 30
0.0
  0
SPLINE
  5
149A
330
1F
100
AcDbEntity
  8
SANINDUSA
100
AcDbSpline
210
0.0
220
0.0
230
1.0
 70
     8
 71
     3
 72
     8
 73
     4
 74
     0
 42
0.0000000001
 43
0.0000000001
 40
0.0
 40
0.0
 40
0.0
 40
0.0
 40
1.0
 40
1.0
 40
1.0
 40
1.0
 10
4325.815765166283
 20
2663.626625114629
 30
0.0
 10
4325.820412505475
 20
2663.626440397716
 30
0.0
 10
4325.825062758794
 20
2663.626298454694
 30
0.0
 10
4325.829712814452
 20
2663.626200737378
 30
0.0
  0
SPLINE
  5
149B
330
1F
100
AcDbEntity
  8
SANINDUSA
100
AcDbSpline
210
0.0
220
0.0
230
1.0
 70
    24
 71
     3
 72
     8
 73
     4
 74
     0
 42
0.0000000001
 43
0.0000000001
 40
0.635167203321792
 40
0.635167203321792
 40
0.635167203321792
 40
0.635167203321792
 40
1.0
 40
1.0
 40
1.0
 40
1.0
 10
4325.82092402578
 20
2663.616432405464
 30
0.0
 10
4325.819071801789
 20
2663.616492507769
 30
0.0
 10
4325.817219782102
 20
2663.61655940224
 30
0.0
 10
4325.815368011862
 20
2663.616633004195
 30
0.0
  0
SPLINE
  5
149C
330
1F
100
AcDbEntity
  8
SANINDUSA
100
AcDbSpline
210
0.0
220
0.0
230
1.0
 70
     8
 71
     3
 72
    12
 73
     8
 74
     0
 42
0.0000000001
 43
0.0000000001
 40
0.0
 40
0.0
 40
0.0
 40
0.0
 40
0.25
 40
0.25
 40
0.5
 40
0.5
 40
1.0
 40
1.0
 40
1.0
 40
1.0
 10
4326.051353289666
 20
2663.754332205074
 30
0.0
 10
4326.04981647229
 20
2663.748890813402
 30
0.0
 10
4326.048179028645
 20
2663.743480740519
 30
0.0
 10
4326.044700523712
 20
2663.732723968443
 30
0.0
 10
4326.042858573756
 20
2663.727374872795
 30
0.0
 10
4326.03702842621
 20
2663.711441818493
 30
0.0
 10
4326.032740908258
 20
2663.700982435242
 30
0.0
 10
4326.028039103218
 20
2663.690691198031
 30
0.0
  0
SPLINE
  5
149D
330
1F
100
AcDbEntity
  8
SANINDUSA
100
AcDbSpline
210
0.0
220
0.0
230
1.0
 70
     8
 71
     3
 72
    30
 73
    26
 74
     0
 42
0.0000000001
 43
0.0000000001
 40
0.0
 40
0.0
 40
0.0
 40
0.0
 40
0.1249999999999977
 40
0.1249999999999977
 40
0.2499999999999955
 40
0.2499999999999955
 40
0.3749999999999932
 40
0.3749999999999932
 40
0.406249999999993
 40
0.406249999999993
 40
0.4374999999999928
 40
0.4374999999999928
 40
0.4999999999999933
 40
0.4999999999999933
 40
0.6249999999999955
 40
0.6249999999999955
 40
0.6874999999999965
 40
0.6874999999999965
 40
0.718749999999997
 40
0.718749999999997
 40
0.7499999999999976
 40
0.7499999999999976
 40
0.8749999999999987
 40
0.8749999999999987
 40
0.9691401637169805
 40
0.9691401637169805
 40
0.9691401637169805
 40
0.9691401637169805
 10
4326.005770564932
 20
2663.688859266553
 30
0.0
 10
4326.003012151312
 20
2663.684143269942
 30
0.0
 10
4326.000067417361
 20
2663.679575372733
 30
0.0
 10
4325.993776006761
 20
2663.670759068262
 30
0.0
 10
4325.990429447087
 20
2663.666510568021
 30
0.0
 10
4325.983294174978
 20
2663.658365019038
 30
0.0
 10
4325.979505587935
 20
2663.654467870625
 30
0.0
 10
4325.974458899898
 20
2663.649843601563
 30
0.0
 10
4325.973433025201
 20
2663.648930415424
 30
0.0
 10
4325.971362553513
 20
2663.647141077311
 30
0.0
 10
4325.970316490079
 20
2663.646263530004
 30
0.0
 10
4325.967145665946
 20
2663.643682492197
 30
0.0
 10
4325.964988285321
 20
2663.642030583826
 30
0.0
 10
4325.958383941187
 20
2663.637283911119
 30
0.0
 10
4325.953804793875
 20
2663.634398169999
 30
0.0
 10
4325.946661822679
 20
2663.630503232222
 30
0.0
 10
4325.944235115919
 20
2663.629277211246
 30
0.0
 10
4325.940524850289
 20
2663.627549196243
 30
0.0
 10
4325.93927639034
 20
2663.626991700029
 30
0.0
 10
4325.936755741803
 20
2663.625914229877
 30
0.0
 10
4325.935483474196
 20
2663.625394339262
 30
0.0
 10
4325.929109242825
 20
2663.622907397522
 30
0.0
 10
4325.923931737946
 20
2663.621261460372
 30
0.0
 10
4325.914726796407
 20
2663.618939599697
 30
0.0
 10
4325.910731001775
 20
2663.618124496139
 30
0.0
 10
4325.906695378794
 20
2663.61748458081
 30
0.0
  0
LINE
  5
149E
330
1F
100
AcDbEntity
  8
SANINDUSA
100
AcDbLine
 10
4325.887599709234
 20
2663.616736904128
 30
0.0
 11
4325.840599709233
 21
2663.616736904128
 31
0.0
  0
LINE
  5
149F
330
1F
100
AcDbEntity
  8
SANINDUSA
100
AcDbLine
 10
4325.840599709233
 20
2663.616736904128
 30
0.0
 11
4325.829712814452
 21
2663.626200737378
 31
0.0
  0
LINE
  5
14A0
330
1F
100
AcDbEntity
  8
SANINDUSA
100
AcDbLine
 10
4325.899295270171
 20
2663.626903700143
 30
0.0
 11
4325.887599709234
 21
2663.616736904128
 31
0.0
  0
LINE
  5
14A2
330
1F
100
AcDbEntity
  8
SANINDUSA
100
AcDbLine
 10
4325.830520256489
 20
2663.581244371973
 30
0.0
 11
4325.830532424199
 21
2663.580691198031
 31
0.0
  0
LINE
  5
14A3
330
1F
100
AcDbEntity
  8
SANINDUSA
100
AcDbLine
 10
4325.897666994268
 20
2663.580691198031
 30
0.0
 11
4325.898263897542
 21
2663.607827884206
 31
0.0
  0
LINE
  5
14A4
330
1F
100
AcDbEntity
  8
SANINDUSA
100
AcDbLine
 10
4325.887599709234
 20
2663.580691198031
 30
0.0
 11
4325.897666994268
 21
2663.580691198031
 31
0.0
  0
LINE
  5
14A5
330
1F
100
AcDbEntity
  8
SANINDUSA
100
AcDbLine
 10
4325.887599709234
 20
2663.616736904128
 30
0.0
 11
4325.887599709234
 21
2663.580691198031
 31
0.0
  0
SPLINE
  5
14A6
330
1F
100
AcDbEntity
  8
SANINDUSA
100
AcDbSpline
210
0.0
220
0.0
230
1.0
 70
    24
 71
     3
 72
     8
 73
     4
 74
     0
 42
0.0000000001
 43
0.0000000001
 40
0.9302976484793582
 40
0.9302976484793582
 40
0.9302976484793582
 40
0.9302976484793582
 40
0.9595408436870703
 40
0.9595408436870703
 40
0.9595408436870703
 40
0.9595408436870703
 10
4326.028039103218
 20
2663.690691198031
 30
0.0
 10
4326.027718434332
 20
2663.689989322997
 30
0.0
 10
4326.02739597792
 20
2663.68928854571
 30
0.0
 10
4326.027071737589
 20
2663.688588876047
 30
0.0
  0
LINE
  5
14A7
330
1F
100
AcDbEntity
  8
SANINDUSA
100
AcDbLine
 10
4326.01482290473
 20
2663.690691198031
 30
0.0
 11
4326.008964358915
 21
2663.690691198031
 31
0.0
  0
LINE
  5
14A8
330
1F
100
AcDbEntity
  8
SANINDUSA
100
AcDbLine
 10
4326.021559930693
 20
2663.700691198031
 30
0.0
 11
4326.013168039601
 21
2663.700691198031
 31
0.0
  0
LINE
  5
14A9
330
1F
100
AcDbEntity
  8
SANINDUSA
100
AcDbLine
 10
4326.022239103219
 20
2663.685691198031
 30
0.0
 11
4326.022535192398
 21
2663.685691198031
 31
0.0
  0
LINE
  5
14AA
330
1F
100
AcDbEntity
  8
SANINDUSA
100
AcDbLine
 10
4326.039882490188
 20
2663.750691198031
 30
0.0
 11
4326.031296517661
 21
2663.750691198031
 31
0.0
  0
ARC
  5
14AB
330
1F
100
AcDbEntity
  8
SANINDUSA
100
AcDbCircle
 10
4326.046541518875
 20
2663.755691198031
 30
0.0
 40
0.0050000000000001
100
AcDbArc
 50
344.2286784191235
 51
90.0
  0
LINE
  5
14AC
330
1F
100
AcDbEntity
  8
SANINDUSA
100
AcDbLine
 10
4326.046541518875
 20
2663.760691198031
 30
0.0
 11
4326.027348574828
 21
2663.760691198031
 31
0.0
  0
SPLINE
  5
14AD
330
1F
100
AcDbEntity
  8
SANINDUSA
100
AcDbSpline
210
0.0
220
0.0
230
1.0
 70
     8
 71
     3
 72
    32
 73
    28
 74
     0
 42
0.0000000001
 43
0.0000000001
 40
0.0
 40
0.0
 40
0.0
 40
0.0
 40
0.1250000000000011
 40
0.1250000000000011
 40
0.1875000000000017
 40
0.1875000000000017
 40
0.2500000000000023
 40
0.2500000000000023
 40
0.3750000000000035
 40
0.3750000000000035
 40
0.4375000000000048
 40
0.4375000000000048
 40
0.4687500000000055
 40
0.4687500000000055
 40
0.5000000000000061
 40
0.5000000000000061
 40
0.6250000000000052
 40
0.6250000000000052
 40
0.6875000000000052
 40
0.6875000000000052
 40
0.750000000000005
 40
0.750000000000005
 40
0.8750000000000035
 40
0.8750000000000035
 40
0.9375000000000019
 40
0.9375000000000019
 40
1.0
 40
1.0
 40
1.0
 40
1.0
 10
4325.791395159668
 20
2663.640304881374
 30
0.0
 10
4325.791476489617
 20
2663.638753013518
 30
0.0
 10
4325.791699970113
 20
2663.637233089208
 30
0.0
 10
4325.792239542443
 20
2663.634999123875
 30
0.0
 10
4325.792453684853
 20
2663.634262173154
 30
0.0
 10
4325.792951727338
 20
2663.632803947398
 30
0.0
 10
4325.793237430831
 20
2663.63207897214
 30
0.0
 10
4325.794187447224
 20
2663.629962995131
 30
0.0
 10
4325.794942553765
 20
2663.628628413745
 30
0.0
 10
4325.796253425184
 20
2663.626737877861
 30
0.0
 10
4325.796720273666
 20
2663.626126373597
 30
0.0
 10
4325.797466571474
 20
2663.625237870983
 30
0.0
 10
4325.797723715602
 20
2663.624945782153
 30
0.0
 10
4325.798249059331
 20
2663.624376361702
 30
0.0
 10
4325.798517418612
 20
2663.624098756772
 30
0.0
 10
4325.799887149889
 20
2663.62274563118
 30
0.0
 10
4325.801071622114
 20
2663.621773927712
 30
0.0
 10
4325.802980462919
 20
2663.620481445723
 30
0.0
 10
4325.803639734243
 20
2663.620077845426
 30
0.0
 10
4325.80500074602
 20
2663.619329880413
 30
0.0
 10
4325.805693373013
 20
2663.618990422195
 30
0.0
 10
4325.807806432709
 20
2663.618072246355
 30
0.0
 10
4325.809261753916
 20
2663.617592900932
 30
0.0
 10
4325.811515429065
 20
2663.617075237163
 30
0.0
 10
4325.812281293458
 20
2663.616936194963
 30
0.0
 10
4325.813819012885
 20
2663.616730745572
 30
0.0
 10
4325.814591626112
 20
2663.616663863051
 30
0.0
 10
4325.815368011862
 20
2663.616633004195
 30
0.0
  0
LINE
  5
14AE
330
1F
100
AcDbEntity
  8
SANINDUSA
100
AcDbLine
 10
4325.840599709233
 20
2663.607447975143
 30
0.0
 11
4325.840599709233
 21
2663.616736904128
 31
0.0
  0
ARC
  5
14AF
330
1F
100
AcDbEntity
  8
SANINDUSA
100
AcDbCircle
 10
4325.838599709234
 20
2663.607447975143
 30
0.0
 40
0.002
100
AcDbArc
 50
266.8127306398431
 51
0.0
  0
LINE
  5
14B0
330
1F
100
AcDbEntity
  8
SANINDUSA
100
AcDbLine
 10
4325.830599709234
 20
2663.605890363005
 30
0.0
 11
4325.838488509917
 21
2663.605451068857
 31
0.0
  0
LINE
  5
14B1
330
1F
100
AcDbEntity
  8
SANINDUSA
100
AcDbLine
 10
4325.830599709234
 20
2663.605890363005
 30
0.0
 11
4325.830599709234
 21
2663.606437665908
 31
0.0
  0
LINE
  5
14B2
330
1F
100
AcDbEntity
  8
SANINDUSA
100
AcDbLine
 10
4325.795773701498
 20
2663.719169568404
 30
0.0
 11
4325.787285350453
 21
2663.718724712776
 31
0.0
  0
ARC
  5
14B3
330
1F
100
AcDbEntity
  8
SANINDUSA
100
AcDbCircle
 10
4325.795852205432
 20
2663.717671624102
 30
0.0
 40
0.0015
100
AcDbArc
 50
3.000000003954786
 51
92.99999997657177
  0
LINE
  5
14B4
330
1F
100
AcDbEntity
  8
SANINDUSA
100
AcDbLine
 10
4325.787285350453
 20
2663.718724712776
 30
0.0
 11
4325.791499831581
 21
2663.638307622305
 31
0.0
  0
LINE
  5
14B5
330
1F
100
AcDbEntity
  8
SANINDUSA
100
AcDbLine
 10
4325.797350149734
 20
2663.717750128037
 30
0.0
 11
4325.801381455016
 21
2663.640828240937
 31
0.0
  0
ARC
  5
14B7
330
1F
100
AcDbEntity
  8
SANINDUSA
100
AcDbCircle
 10
4325.794282126746
 20
2663.747630510144
 30
0.0
 40
0.0015
100
AcDbArc
 50
272.9999999765718
 51
3.000000003954786
  0
LINE
  5
14B8
330
1F
100
AcDbEntity
  8
SANINDUSA
100
AcDbLine
 10
4325.795780071047
 20
2663.747709014079
 30
0.0
 11
4325.797350149734
 21
2663.717750128037
 31
0.0
  0
LINE
  5
14B9
330
1F
100
AcDbEntity
  8
SANINDUSA
100
AcDbLine
 10
4325.785872279634
 20
2663.745687710215
 30
0.0
 11
4325.79436063068
 21
2663.746132565843
 31
0.0
  0
LINE
  5
14BA
330
1F
100
AcDbEntity
  8
SANINDUSA
100
AcDbLine
 10
4325.787285350453
 20
2663.718724712776
 30
0.0
 11
4325.785872279634
 21
2663.745687710215
 31
0.0
  0
ARC
  5
14C1
330
1F
100
AcDbEntity
  8
SANINDUSA
100
AcDbCircle
 10
4325.69462643933
 20
2663.696522334
 30
0.0
 40
0.004
100
AcDbArc
 50
270.0
 51
357.9999999962464
  0
LINE
  5
14C2
330
1F
100
AcDbEntity
  8
SANINDUSA
100
AcDbLine
 10
4325.698624002638
 20
2663.696382736013
 30
0.0
 11
4325.696200191305
 21
2663.626973860765
 31
0.0
  0
LINE
  5
14C3
330
1F
100
AcDbEntity
  8
SANINDUSA
100
AcDbLine
 10
4325.679099703616
 20
2663.692522334
 30
0.0
 11
4325.69462643933
 21
2663.692522334
 31
0.0
  0
ARC
  5
14C4
330
1F
100
AcDbEntity
  8
SANINDUSA
100
AcDbCircle
 10
4325.679099703616
 20
2663.696522334
 30
0.0
 40
0.004
100
AcDbArc
 50
180.0
 51
270.0
  0
LINE
  5
14C5
330
1F
100
AcDbEntity
  8
SANINDUSA
100
AcDbLine
 10
4325.675099703616
 20
2663.696522334
 30
0.0
 11
4325.675099703616
 21
2663.756691198031
 31
0.0
  0
ARC
  5
14C6
330
1F
100
AcDbEntity
  8
SANINDUSA
100
AcDbCircle
 10
4325.679099703616
 20
2663.756691198031
 30
0.0
 40
0.004
100
AcDbArc
 50
90.0
 51
180.0
  0
ARC
  5
14C7
330
1F
100
AcDbEntity
  8
SANINDUSA
100
AcDbCircle
 10
4325.715125577582
 20
2663.759191198031
 30
0.0
 40
0.0015
100
AcDbArc
 50
0.0
 51
90.0
  0
LINE
  5
14C8
330
1F
100
AcDbEntity
  8
SANINDUSA
100
AcDbLine
 10
4325.716625577582
 20
2663.748691198031
 30
0.0
 11
4325.716625577582
 21
2663.759191198031
 31
0.0
  0
LINE
  5
14C9
330
1F
100
AcDbEntity
  8
SANINDUSA
100
AcDbLine
 10
4325.705279098256
 20
2663.748691198031
 30
0.0
 11
4325.716625577582
 21
2663.748691198031
 31
0.0
  0
ARC
  5
14CA
330
1F
100
AcDbEntity
  8
SANINDUSA
100
AcDbCircle
 10
4325.705279098256
 20
2663.743691198031
 30
0.0
 40
0.005
100
AcDbArc
 50
90.0
 51
177.9999999962464
  0
LINE
  5
14CB
330
1F
100
AcDbEntity
  8
SANINDUSA
100
AcDbLine
 10
4325.685099703616
 20
2663.702522334
 30
0.0
 11
4325.685099703616
 21
2663.750691198031
 31
0.0
  0
LINE
  5
14CC
330
1F
100
AcDbEntity
  8
SANINDUSA
100
AcDbLine
 10
4325.685099703616
 20
2663.702522334
 30
0.0
 11
4325.688832306681
 21
2663.702522334
 31
0.0
  0
LINE
  5
14CD
330
1F
100
AcDbEntity
  8
SANINDUSA
100
AcDbLine
 10
4325.688832306681
 20
2663.702522334
 30
0.0
 11
4325.690514400479
 21
2663.750691198031
 31
0.0
  0
LINE
  5
14CE
330
1F
100
AcDbEntity
  8
SANINDUSA
100
AcDbLine
 10
4325.698624002638
 20
2663.696382736013
 30
0.0
 11
4325.700282144121
 21
2663.743865695515
 31
0.0
  0
LINE
  5
14CF
330
1F
100
AcDbEntity
  8
SANINDUSA
100
AcDbLine
 10
4325.690514400479
 20
2663.750691198031
 30
0.0
 11
4325.685099703616
 21
2663.750691198031
 31
0.0
  0
LINE
  5
14D0
330
1F
100
AcDbEntity
  8
SANINDUSA
100
AcDbLine
 10
4325.715125577582
 20
2663.760691198031
 30
0.0
 11
4325.679099703616
 21
2663.760691198031
 31
0.0
  0
ARC
  5
14D1
330
1F
100
AcDbEntity
  8
SANINDUSA
100
AcDbCircle
 10
4325.790354880783
 20
2663.755691198031
 30
0.0
 40
0.005
100
AcDbArc
 50
3.000000003954786
 51
90.0
  0
LINE
  5
14D2
330
1F
100
AcDbEntity
  8
SANINDUSA
100
AcDbLine
 10
4325.785610057949
 20
2663.750691198031
 30
0.0
 11
4325.777767113932
 21
2663.750691198031
 31
0.0
  0
LINE
  5
14D3
330
1F
100
AcDbEntity
  8
SANINDUSA
100
AcDbLine
 10
4325.777767113932
 20
2663.750691198031
 30
0.0
 11
4325.778851181273
 21
2663.688585021644
 31
0.0
  0
LINE
  5
14D4
330
1F
100
AcDbEntity
  8
SANINDUSA
100
AcDbLine
 10
4325.782208682108
 20
2663.624520089289
 30
0.0
 11
4325.778851181273
 21
2663.688585021644
 31
0.0
  0
ARC
  5
14D5
330
1F
100
AcDbEntity
  8
SANINDUSA
100
AcDbCircle
 10
4325.811209186762
 20
2663.626039941336
 30
0.0
 40
0.0290403033812035
100
AcDbArc
 50
183.0000000039548
 51
266.8127306398431
  0
LINE
  5
14D6
330
1F
100
AcDbEntity
  8
SANINDUSA
100
AcDbLine
 10
4325.83871090855
 20
2663.595423191873
 30
0.0
 11
4325.809594555815
 21
2663.597044559163
 31
0.0
  0
ARC
  5
14D7
330
1F
100
AcDbEntity
  8
SANINDUSA
100
AcDbCircle
 10
4325.838599709234
 20
2663.593426285589
 30
0.0
 40
0.002
100
AcDbArc
 50
0.0
 51
86.81273063984308
  0
LINE
  5
14D8
330
1F
100
AcDbEntity
  8
SANINDUSA
100
AcDbLine
 10
4325.840599709233
 20
2663.580691198031
 30
0.0
 11
4325.840599709233
 21
2663.593426285589
 31
0.0
  0
LINE
  5
14D9
330
1F
100
AcDbEntity
  8
SANINDUSA
100
AcDbLine
 10
4325.830532424199
 20
2663.580691198031
 30
0.0
 11
4325.840599709233
 21
2663.580691198031
 31
0.0
  0
ARC
  5
14DA
330
1F
100
AcDbEntity
  8
SANINDUSA
100
AcDbCircle
 10
4325.825521465629
 20
2663.581134417698
 30
0.0
 40
0.0050000000000001
100
AcDbArc
 50
1.260084741182602
 51
86.81273063984308
  0
LINE
  5
14DB
330
1F
100
AcDbEntity
  8
SANINDUSA
100
AcDbLine
 10
4325.825799463921
 20
2663.586126683411
 30
0.0
 11
4325.80903855923
 21
2663.587060027737
 31
0.0
  0
ARC
  5
14DC
330
1F
100
AcDbEntity
  8
SANINDUSA
100
AcDbCircle
 10
4325.811209186762
 20
2663.626039941336
 30
0.0
 40
0.0390403033812036
100
AcDbArc
 50
183.0000000039548
 51
266.8127306398431
  0
LINE
  5
14DD
330
1F
100
AcDbEntity
  8
SANINDUSA
100
AcDbLine
 10
4325.77222238676
 20
2663.623996729727
 30
0.0
 11
4325.768874021201
 21
2663.687887350647
 31
0.0
  0
ARC
  5
14DE
330
1F
100
AcDbEntity
  8
SANINDUSA
100
AcDbCircle
 10
4325.788846611896
 20
2663.688934069773
 30
0.0
 40
0.02
100
AcDbArc
 50
181.0000000097201
 51
183.0000000039548
  0
LINE
  5
14DF
330
1F
100
AcDbEntity
  8
SANINDUSA
100
AcDbLine
 10
4325.767886252942
 20
2663.743778460063
 30
0.0
 11
4325.768849657992
 21
2663.688585021644
 31
0.0
  0
ARC
  5
14E0
330
1F
100
AcDbEntity
  8
SANINDUSA
100
AcDbCircle
 10
4325.762887014466
 20
2663.743691198031
 30
0.0
 40
0.005
100
AcDbArc
 50
1.000000009720081
 51
90.0
  0
LINE
  5
14E1
330
1F
100
AcDbEntity
  8
SANINDUSA
100
AcDbLine
 10
4325.751625577582
 20
2663.759191198031
 30
0.0
 11
4325.751625577582
 21
2663.748691198031
 31
0.0
  0
ARC
  5
14E2
330
1F
100
AcDbEntity
  8
SANINDUSA
100
AcDbCircle
 10
4325.753125577582
 20
2663.759191198031
 30
0.0
 40
0.0015
100
AcDbArc
 50
90.0
 51
180.0
  0
LINE
  5
14E3
330
1F
100
AcDbEntity
  8
SANINDUSA
100
AcDbLine
 10
4325.751625577582
 20
2663.748691198031
 30
0.0
 11
4325.762887014466
 21
2663.748691198031
 31
0.0
  0
LINE
  5
14E4
330
1F
100
AcDbEntity
  8
SANINDUSA
100
AcDbLine
 10
4325.785610057949
 20
2663.750691198031
 30
0.0
 11
4325.785872279634
 21
2663.745687710215
 31
0.0
  0
LINE
  5
14E5
330
1F
100
AcDbEntity
  8
SANINDUSA
100
AcDbLine
 10
4325.795348028456
 20
2663.755952877812
 30
0.0
 11
4325.795780071047
 21
2663.747709014079
 31
0.0
  0
LINE
  5
14E6
330
1F
100
AcDbEntity
  8
SANINDUSA
100
AcDbLine
 10
4325.790354880783
 20
2663.760691198031
 30
0.0
 11
4325.753125577582
 21
2663.760691198031
 31
0.0
  0
LINE
  5
14E8
330
1F
100
AcDbEntity
  8
SANINDUSA
100
AcDbLine
 10
4325.751625577582
 20
2663.748691198031
 30
0.0
 11
4325.716625577582
 21
2663.748691198031
 31
0.0
  0
LINE
  5
14ED
330
1F
100
AcDbEntity
  8
SANINDUSA
100
AcDbLine
 10
4325.840599709233
 20
2663.580691198031
 30
0.0
 11
4325.887599709234
 21
2663.580691198031
 31
0.0
  0
LINE
  5
14EE
330
1F
100
AcDbEntity
  8
SANINDUSA
100
AcDbLine
 10
4325.715125577582
 20
2663.760691198031
 30
0.0
 11
4325.753125577582
 21
2663.760691198031
 31
0.0
  0
LINE
  5
14F4
330
1F
100
AcDbEntity
  8
SANINDUSA
100
AcDbLine
 10
4325.675099703616
 20
2663.624786018506
 30
0.0
 11
4325.675099703616
 21
2663.696522334
 31
0.0
  0
SPLINE
  5
14FC
330
1F
100
AcDbEntity
  8
SANINDUSA
100
AcDbSpline
210
0.0
220
0.0
230
1.0
 70
    24
 71
     3
 72
    14
 73
    10
 74
     0
 42
0.0000000001
 43
0.0000000001
 40
0.0
 40
0.0
 40
0.0
 40
0.0
 40
0.1552887494698137
 40
0.3150462138689078
 40
0.4703459053929583
 40
0.6302442383575398
 40
0.7837582022137211
 40
0.9419283748295292
 40
1.0
 40
1.0
 40
1.0
 40
1.0
 10
4325.675099703616
 20
2663.624786018506
 30
0.0
 10
4325.675099703616
 20
2663.624586374423
 30
0.0
 10
4325.675099703616
 20
2663.624181341138
 30
0.0
 10
4325.675099703616
 20
2663.623662090181
 30
0.0
 10
4325.675099703616
 20
2663.623221629708
 30
0.0
 10
4325.675099703616
 20
2663.62288624546
 30
0.0
 10
4325.675099703616
 20
2663.622663559587
 30
0.0
 10
4325.675099703616
 20
2663.622568984914
 30
0.0
 10
4325.675099703616
 20
2663.622571550349
 30
0.0
 10
4325.675099703616
 20
2663.622572239295
 30
0.0
  0
SPLINE
  5
1501
330
1F
100
AcDbEntity
  8
SANINDUSA
100
AcDbSpline
210
0.0
220
0.0
230
1.0
 70
    24
 71
     3
 72
    30
 73
    26
 74
     0
 42
0.0000000001
 43
0.0000000001
 40
0.0
 40
0.0
 40
0.0
 40
0.0
 40
0.1249999999999995
 40
0.1249999999999995
 40
0.1874999999999988
 40
0.1874999999999988
 40
0.2499999999999982
 40
0.2499999999999982
 40
0.3749999999999982
 40
0.3749999999999982
 40
0.4374999999999984
 40
0.4374999999999984
 40
0.4999999999999986
 40
0.4999999999999986
 40
0.6249999999999992
 40
0.6249999999999992
 40
0.6874999999999984
 40
0.6874999999999984
 40
0.7499999999999976
 40
0.7499999999999976
 40
0.8749999999999985
 40
0.8749999999999985
 40
0.9374999999999992
 40
0.9374999999999992
 40
1.0
 40
1.0
 40
1.0
 40
1.0
 10
4325.808219612814
 20
2663.760691198031
 30
0.0
 10
4325.806978931153
 20
2663.760691198031
 30
0.0
 10
4325.805770270774
 20
2663.760691198031
 30
0.0
 10
4325.804003322858
 20
2663.760691198031
 30
0.0
 10
4325.803422065258
 20
2663.760691198031
 30
0.0
 10
4325.802275272979
 20
2663.760691198031
 30
0.0
 10
4325.801707243846
 20
2663.760691198031
 30
0.0
 10
4325.800059961319
 20
2663.760691198031
 30
0.0
 10
4325.799028809909
 20
2663.760691198031
 30
0.0
 10
4325.79757976548
 20
2663.760691198031
 30
0.0
 10
4325.797113135443
 20
2663.760691198031
 30
0.0
 10
4325.796213431677
 20
2663.760691198031
 30
0.0
 10
4325.795785426279
 20
2663.760691198031
 30
0.0
 10
4325.794573031362
 20
2663.760691198031
 30
0.0
 10
4325.793855821413
 20
2663.760691198031
 30
0.0
 10
4325.79291502613
 20
2663.760691198031
 30
0.0
 10
4325.792622833183
 20
2663.760691198031
 30
0.0
 10
4325.792093036384
 20
2663.760691198031
 30
0.0
 10
4325.791854963419
 20
2663.760691198031
 30
0.0
 10
4325.791218662252
 20
2663.760691198031
 30
0.0
 10
4325.790897740849
 20
2663.760691198031
 30
0.0
 10
4325.790572656745
 20
2663.760691198031
 30
0.0
 10
4325.79049075698
 20
2663.760691198031
 30
0.0
 10
4325.790382088558
 20
2663.760691198031
 30
0.0
 10
4325.790354880783
 20
2663.760691198031
 30
0.0
 10
4325.790354880783
 20
2663.760691198031
 30
0.0
  0
ARC
  5
1508
330
1F
100
AcDbEntity
  8
SANINDUSA
100
AcDbCircle
 10
4325.908261479262
 20
2663.607607975658
 30
0.0
 40
0.01
100
AcDbArc
 50
99.01018561461567
 51
178.7399152588174
  0
ARC
  5
1509
330
1F
100
AcDbEntity
  8
SANINDUSA
100
AcDbCircle
 10
4325.820599709234
 20
2663.606437665908
 30
0.0
 40
0.01
100
AcDbArc
 50
0.0
 51
88.14147718695632
  0
LINE
  5
150A
330
1F
100
AcDbEntity
  8
SANINDUSA
100
AcDbLine
 10
4324.311686965317
 20
2663.871792124283
 30
0.0
 11
4324.31060763022
 21
2663.871792124283
 31
0.0
  0
ARC
  5
151B
330
1F
100
AcDbEntity
  8
SANINDUSA
100
AcDbCircle
 10
4325.360547897528
 20
2663.607635450075
 30
0.0
 40
0.01
100
AcDbArc
 50
98.89988244952924
 51
178.739911871327
  0
ARC
  5
151C
330
1F
100
AcDbEntity
  8
SANINDUSA
100
AcDbCircle
 10
4324.789097970664
 20
2663.607004888877
 30
0.0
 40
0.01
100
AcDbArc
 50
95.09376882408371
 51
178.7399148680853
  0
ARC
  5
151D
330
1F
100
AcDbEntity
  8
SANINDUSA
100
AcDbCircle
 10
4324.700800961123
 20
2663.60700488902
 30
0.0
 40
0.01
100
AcDbArc
 50
1.260084610938587
 51
84.9062299186438
  0
ARC
  5
1554
330
1F
100
AcDbEntity
  8
SANINDUSA
100
AcDbCircle
 10
4325.117715525376
 20
2663.85951297327
 30
0.0
 40
0.4
100
AcDbArc
 50
334.6920541486351
 51
344.7680259977407
  0
ARC
  5
1558
330
1F
100
AcDbEntity
  8
SANINDUSA
100
AcDbCircle
 10
4324.588992867246
 20
2663.859608822674
 30
0.0
 40
0.4
100
AcDbArc
 50
334.6803820397124
 51
344.7565727611616
  0
ARC
  5
1559
330
1F
100
AcDbEntity
  8
SANINDUSA
100
AcDbCircle
 10
4324.900906064308
 20
2663.859608822674
 30
0.0
 40
0.4
100
AcDbArc
 50
195.2434272388383
 51
205.3196179602876
  0
ENDSEC
  0
SECTION
  2
OBJECTS
  0
DICTIONARY
  5
C
330
0
100
AcDbDictionary
281
     1
  3
ACAD_2007HEADERVARS_RT
350
180F
  3
ACAD_BACKGROUND
350
17B6
  3
ACAD_COLOR
350
EE6
  3
ACAD_GROUP
350
D
  3
ACAD_LAYOUT
350
1A
  3
ACAD_MATERIAL
350
EE5
  3
ACAD_MLEADERSTYLE
350
10A8
  3
ACAD_MLINESTYLE
350
17
  3
ACAD_PLOTSETTINGS
350
19
  3
ACAD_PLOTSTYLENAME
350
E
  3
ACAD_SCALELIST
350
1096
  3
ACAD_TABLESTYLE
350
EE7
  3
ACAD_VISUALSTYLE
350
1082
  3
ACDB_RECOMPOSE_DATA
350
180D
  3
AcDbVariableDictionary
350
3D
  3
AEC_PROPERTY_SET_DEFS
350
13BB
  3
ASE_INDEX_DICTIONARY
350
1066
  3
Autodesk_PNP
350
10B2
  3
DWGPROPS
350
180E
  0
DICTIONARY
  5
17C7
330
8
100
AcDbDictionary
280
     1
281
     1
  0
DICTIONARY
  5
1051
330
2
100
AcDbDictionary
280
     1
281
     1
  3
ACAD_LAYERFILTERS
360
1065
  3
ACAD_LAYERSTATES
360
11FB
  3
ACLYDICTIONARY
360
1064
  0
DICTIONARY
  5
1754
330
10
100
AcDbDictionary
280
     1
281
     1
  3
ADSK_XREC_LAYER_RECONCILED
360
1755
  0
DICTIONARY
  5
1756
330
2F
100
AcDbDictionary
280
     1
281
     1
  3
ADSK_XREC_LAYER_RECONCILED
360
1757
  0
DICTIONARY
  5
1758
330
30
100
AcDbDictionary
280
     1
281
     1
  3
ADSK_XREC_LAYER_RECONCILED
360
1759
  0
DICTIONARY
  5
175A
330
31
100
AcDbDictionary
280
     1
281
     1
  3
ADSK_XREC_LAYER_RECONCILED
360
175B
  0
DICTIONARY
  5
175C
330
32
100
AcDbDictionary
280
     1
281
     1
  3
ADSK_XREC_LAYER_RECONCILED
360
175D
  0
DICTIONARY
  5
175E
330
33
100
AcDbDictionary
280
     1
281
     1
  3
ADSK_XREC_LAYER_RECONCILED
360
175F
  0
DICTIONARY
  5
1760
330
34
100
AcDbDictionary
280
     1
281
     1
  3
ADSK_XREC_LAYER_RECONCILED
360
1761
  0
DICTIONARY
  5
1762
330
35
100
AcDbDictionary
280
     1
281
     1
  3
ADSK_XREC_LAYER_RECONCILED
360
1763
  0
DICTIONARY
  5
1764
330
36
100
AcDbDictionary
280
     1
281
     1
  3
ADSK_XREC_LAYER_RECONCILED
360
1765
  0
DICTIONARY
  5
1766
330
37
100
AcDbDictionary
280
     1
281
     1
  3
ADSK_XREC_LAYER_RECONCILED
360
1767
  0
DICTIONARY
  5
1768
330
5D6
100
AcDbDictionary
280
     1
281
     1
  3
ADSK_XREC_LAYER_RECONCILED
360
1769
  0
DICTIONARY
  5
176A
330
8AF
100
AcDbDictionary
280
     1
281
     1
  3
ADSK_XREC_LAYER_RECONCILED
360
176B
  0
DICTIONARY
  5
176C
330
8F8
100
AcDbDictionary
280
     1
281
     1
  3
ADSK_XREC_LAYER_RECONCILED
360
176D
  0
DICTIONARY
  5
176E
330
91D
100
AcDbDictionary
280
     1
281
     1
  3
ADSK_XREC_LAYER_RECONCILED
360
176F
  0
DICTIONARY
  5
1770
330
C7B
100
AcDbDictionary
280
     1
281
     1
  3
ADSK_XREC_LAYER_RECONCILED
360
1771
  0
DICTIONARY
  5
1772
330
1060
100
AcDbDictionary
280
     1
281
     1
  3
ADSK_XREC_LAYER_RECONCILED
360
1773
  0
DICTIONARY
  5
180F
102
{ACAD_REACTORS
330
C
102
}
330
C
100
AcDbDictionary
281
     1
  3
DIMJOGANG
350
1810
  0
DICTIONARY
  5
17B6
102
{ACAD_REACTORS
330
C
102
}
330
C
100
AcDbDictionary
281
     1
  0
DICTIONARY
  5
EE6
102
{ACAD_REACTORS
330
C
102
}
330
C
100
AcDbDictionary
281
     1
  0
DICTIONARY
  5
D
102
{ACAD_REACTORS
330
C
102
}
330
C
100
AcDbDictionary
281
     1
  0
DICTIONARY
  5
1A
102
{ACAD_REACTORS
330
C
102
}
330
C
100
AcDbDictionary
281
     1
  3
Layout1
350
1E
  3
Layout2
350
26
  3
Model
350
22
  0
DICTIONARY
  5
EE5
102
{ACAD_REACTORS
330
C
102
}
330
C
100
AcDbDictionary
281
     1
  3
ByBlock
350
1072
  3
ByLayer
350
106A
  3
Global
350
107A
  0
DICTIONARY
  5
10A8
102
{ACAD_REACTORS
330
C
102
}
330
C
100
AcDbDictionary
281
     1
  3
Standard
350
10A9
  0
DICTIONARY
  5
17
102
{ACAD_REACTORS
330
C
102
}
330
C
100
AcDbDictionary
281
     1
  3
Standard
350
18
  0
DICTIONARY
  5
19
102
{ACAD_REACTORS
330
C
102
}
330
C
100
AcDbDictionary
281
     1
  0
ACDBDICTIONARYWDFLT
  5
E
102
{ACAD_REACTORS
330
C
102
}
330
C
100
AcDbDictionary
281
     1
  3
Normal
350
F
100
AcDbDictionaryWithDefault
340
F
  0
DICTIONARY
  5
1096
102
{ACAD_REACTORS
330
C
102
}
330
C
100
AcDbDictionary
281
     1
  3
A0
350
1097
  3
A1
350
1098
  3
A2
350
1099
  3
A3
350
109A
  3
A4
350
109B
  3
A5
350
109C
  3
A6
350
109D
  3
A7
350
109E
  3
A8
350
109F
  3
A9
350
10A0
  3
B0
350
10A1
  3
B1
350
10A2
  3
B2
350
10A3
  3
B3
350
10A4
  3
B4
350
10A5
  3
B5
350
10A6
  3
B6
350
10A7
  0
DICTIONARY
  5
EE7
102
{ACAD_REACTORS
330
C
102
}
330
C
100
AcDbDictionary
281
     1
  3
Standard
350
EE8
  0
DICTIONARY
  5
1082
102
{ACAD_REACTORS
330
C
102
}
330
C
100
AcDbDictionary
281
     1
  3
2dWireframe
350
1088
  3
3D Hidden
350
108A
  3
3dWireframe
350
1089
  3
Basic
350
1087
  3
Brighten
350
108E
  3
ColorChange
350
1092
  3
Conceptual
350
108B
  3
Dim
350
108D
  3
EdgeColorOff
350
1095
  3
Facepattern
350
1091
  3
Flat
350
1083
  3
FlatWithEdges
350
1084
  3
Gouraud
350
1085
  3
GouraudWithEdges
350
1086
  3
JitterOff
350
1093
  3
Linepattern
350
1090
  3
OverhangOff
350
1094
  3
Realistic
350
108C
  3
Thicken
350
108F
  0
XRECORD
  5
180D
102
{ACAD_REACTORS
330
C
102
}
330
C
100
AcDbXrecord
280
     1
 90
        1
330
EE8
  0
DICTIONARY
  5
3D
102
{ACAD_REACTORS
330
C
102
}
330
C
100
AcDbDictionary
281
     1
  3
CANNOSCALE
350
17FF
  3
CMLEADERSTYLE
350
17FE
  3
CTABLESTYLE
350
1049
  3
DIMASSOC
350
3F
  3
HIDETEXT
350
3E
  3
INDEXCTL
350
1801
  3
SORTENTS
350
1800
  3
XCLIPFRAME
350
180B
  0
DICTIONARY
  5
13BB
102
{ACAD_REACTORS
330
C
102
}
330
C
100
AcDbDictionary
281
     1
  0
DICTIONARY
  5
1066
102
{ACAD_REACTORS
330
C
102
}
330
C
100
AcDbDictionary
281
     1
  3
ASEBlockHierarchyIndexRecord
350
1067
1001
DCO15
1040
1602247867.484
  0
DICTIONARY
  5
10B2
102
{ACAD_REACTORS
330
C
102
}
330
C
100
AcDbDictionary
281
     1
  0
XRECORD
  5
180E
102
{ACAD_REACTORS
330
C
102
}
330
C
100
AcDbXrecord
280
     1
  1
DWGPROPS COOKIE
  2

  3

  4

  6

  7

  8
Julio
  9

300
=
301
=
302
=
303
=
304
=
305
=
306
=
307
=
308
=
309
=
 40
0.0050405092592593
 41
2455776.715337454
 42
2456111.487624595
  1

 90
        0
  0
DICTIONARY
  5
1065
102
{ACAD_REACTORS
330
1051
102
}
330
1051
100
AcDbDictionary
281
     1
  0
DICTIONARY
  5
11FB
102
{ACAD_REACTORS
330
1051
102
}
330
1051
100
AcDbDictionary
281
     1
  0
DICTIONARY
  5
1064
102
{ACAD_REACTORS
330
1051
102
}
330
1051
100
AcDbDictionary
281
     1
1001
ACAD
1000
<All
  0
XRECORD
  5
1755
102
{ACAD_REACTORS
330
1754
102
}
330
1754
100
AcDbXrecord
280
     1
290
     1
  0
XRECORD
  5
1757
102
{ACAD_REACTORS
330
1756
102
}
330
1756
100
AcDbXrecord
280
     1
290
     1
  0
XRECORD
  5
1759
102
{ACAD_REACTORS
330
1758
102
}
330
1758
100
AcDbXrecord
280
     1
290
     1
  0
XRECORD
  5
175B
102
{ACAD_REACTORS
330
175A
102
}
330
175A
100
AcDbXrecord
280
     1
290
     1
  0
XRECORD
  5
175D
102
{ACAD_REACTORS
330
175C
102
}
330
175C
100
AcDbXrecord
280
     1
290
     1
  0
XRECORD
  5
175F
102
{ACAD_REACTORS
330
175E
102
}
330
175E
100
AcDbXrecord
280
     1
290
     1
  0
XRECORD
  5
1761
102
{ACAD_REACTORS
330
1760
102
}
330
1760
100
AcDbXrecord
280
     1
290
     1
  0
XRECORD
  5
1763
102
{ACAD_REACTORS
330
1762
102
}
330
1762
100
AcDbXrecord
280
     1
290
     1
  0
XRECORD
  5
1765
102
{ACAD_REACTORS
330
1764
102
}
330
1764
100
AcDbXrecord
280
     1
290
     1
  0
XRECORD
  5
1767
102
{ACAD_REACTORS
330
1766
102
}
330
1766
100
AcDbXrecord
280
     1
290
     1
  0
XRECORD
  5
1769
102
{ACAD_REACTORS
330
1768
102
}
330
1768
100
AcDbXrecord
280
     1
290
     1
  0
XRECORD
  5
176B
102
{ACAD_REACTORS
330
176A
102
}
330
176A
100
AcDbXrecord
280
     1
290
     1
  0
XRECORD
  5
176D
102
{ACAD_REACTORS
330
176C
102
}
330
176C
100
AcDbXrecord
280
     1
290
     1
  0
XRECORD
  5
176F
102
{ACAD_REACTORS
330
176E
102
}
330
176E
100
AcDbXrecord
280
     1
290
     1
  0
XRECORD
  5
1771
102
{ACAD_REACTORS
330
1770
102
}
330
1770
100
AcDbXrecord
280
     1
290
     1
  0
XRECORD
  5
1773
102
{ACAD_REACTORS
330
1772
102
}
330
1772
100
AcDbXrecord
280
     1
290
     1
  0
XRECORD
  5
1810
102
{ACAD_REACTORS
330
180F
102
}
330
180F
100
AcDbXrecord
280
     1
 40
1.570796326794896
  0
LAYOUT
  5
1E
102
{ACAD_XDICTIONARY
360
1811
102
}
102
{ACAD_REACTORS
330
1A
102
}
330
1A
100
AcDbPlotSettings
  1

  2
Ploter HP500
  4

  6

 40
0.0
 41
0.0
 42
0.0
 43
0.0
 44
0.0
 45
0.0
 46
0.0
 47
0.0
 48
0.0
 49
0.0
140
0.0
141
0.0
142
1.0
143
1.0
 70
   688
 72
     0
 73
     0
 74
     5
  7
sanindusa.ctb
 75
    16
147
1.0
148
0.0
149
0.0
100
AcDbLayout
  1
Layout1
 70
     1
 71
     1
 10
0.0
 20
0.0
 11
420.0
 21
297.0
 12
0.0
 22
0.0
 32
0.0
 14
1.000000000000000E+20
 24
1.000000000000000E+20
 34
1.000000000000000E+20
 15
-1.000000000000000E+20
 25
-1.000000000000000E+20
 35
-1.000000000000000E+20
146
0.0
 13
0.0
 23
0.0
 33
0.0
 16
1.0
 26
0.0
 36
0.0
 17
0.0
 27
1.0
 37
0.0
 76
     0
330
1B
  0
LAYOUT
  5
26
102
{ACAD_XDICTIONARY
360
1815
102
}
102
{ACAD_REACTORS
330
1A
102
}
330
1A
100
AcDbPlotSettings
  1

  2
Ploter HP500
  4

  6

 40
0.0
 41
0.0
 42
0.0
 43
0.0
 44
0.0
 45
0.0
 46
0.0
 47
0.0
 48
0.0
 49
0.0
140
0.0
141
0.0
142
1.0
143
1.0
 70
   688
 72
     0
 73
     0
 74
     5
  7
sanindusa.ctb
 75
    16
147
1.0
148
0.0
149
0.0
100
AcDbLayout
  1
Layout2
 70
     1
 71
     2
 10
0.0
 20
0.0
 11
12.0
 21
9.0
 12
0.0
 22
0.0
 32
0.0
 14
0.0
 24
0.0
 34
0.0
 15
0.0
 25
0.0
 35
0.0
146
0.0
 13
0.0
 23
0.0
 33
0.0
 16
1.0
 26
0.0
 36
0.0
 17
0.0
 27
1.0
 37
0.0
 76
     0
330
23
  0
LAYOUT
  5
22
102
{ACAD_XDICTIONARY
360
1813
102
}
102
{ACAD_REACTORS
330
1A
102
}
330
1A
100
AcDbPlotSettings
  1

  2
Ploter HP500
  4
User268
  6

 40
4.995333194732666
 41
16.97565841674804
 42
4.995330810546875
 43
16.97567749023437
 44
209.9733276367187
 45
296.9259948730469
 46
0.0
 47
0.0
 48
0.0
 49
0.0
140
0.0
141
0.0
142
1.0
143
1.0
 70
 11952
 72
     1
 73
     1
 74
     0
  7
sanindusa.ctb
 75
     0
147
1.0
148
-427.5957866592534
149
7.362384574453926
100
AcDbLayout
  1
Model
 70
     1
 71
     0
 10
0.0
 20
0.0
 11
12.0
 21
9.0
 12
0.0
 22
0.0
 32
0.0
 14
0.0
 24
0.0
 34
0.0
 15
0.0
 25
0.0
 35
0.0
146
0.0
 13
0.0
 23
0.0
 33
0.0
 16
1.0
 26
0.0
 36
0.0
 17
0.0
 27
1.0
 37
0.0
 76
     0
330
1F
331
1068
  0
MATERIAL
  5
1072
102
{ACAD_XDICTIONARY
360
1073
102
}
102
{ACAD_REACTORS
330
EE5
102
}
330
EE5
100
AcDbMaterial
  1
ByBlock
 72
     0
 43
0.0008202099737533
 43
0.0
 43
0.0
 43
0.0
 43
0.0
 43
0.0008202099737533
 43
0.0
 43
0.0
 43
0.0
 43
0.0
 43
1.0
 43
0.0
 43
0.0
 43
0.0
 43
0.0
 43
1.0
 77
     0
 47
0.0008202099737533
 47
0.0
 47
0.0
 47
0.0
 47
0.0
 47
0.0008202099737533
 47
0.0
 47
0.0
 47
0.0
 47
0.0
 47
1.0
 47
0.0
 47
0.0
 47
0.0
 47
0.0
 47
1.0
171
     0
 49
0.0008202099737533
 49
0.0
 49
0.0
 49
0.0
 49
0.0
 49
0.0008202099737533
 49
0.0
 49
0.0
 49
0.0
 49
0.0
 49
1.0
 49
0.0
 49
0.0
 49
0.0
 49
0.0
 49
1.0
175
     0
142
0.0008202099737533
142
0.0
142
0.0
142
0.0
142
0.0
142
0.0008202099737533
142
0.0
142
0.0
142
0.0
142
0.0
142
1.0
142
0.0
142
0.0
142
0.0
142
0.0
142
1.0
179
     0
144
0.0008202099737533
144
0.0
144
0.0
144
0.0
144
0.0
144
0.0008202099737533
144
0.0
144
0.0
144
0.0
144
0.0
144
1.0
144
0.0
144
0.0
144
0.0
144
0.0
144
1.0
147
0.0008202099737533
147
0.0
147
0.0
147
0.0
147
0.0
147
0.0008202099737533
147
0.0
147
0.0
147
0.0
147
0.0
147
1.0
147
0.0
147
0.0
147
0.0
147
0.0
147
1.0
  0
MATERIAL
  5
106A
102
{ACAD_XDICTIONARY
360
106B
102
}
102
{ACAD_REACTORS
330
EE5
102
}
330
EE5
100
AcDbMaterial
  1
ByLayer
 72
     0
 43
0.0008202099737533
 43
0.0
 43
0.0
 43
0.0
 43
0.0
 43
0.0008202099737533
 43
0.0
 43
0.0
 43
0.0
 43
0.0
 43
1.0
 43
0.0
 43
0.0
 43
0.0
 43
0.0
 43
1.0
 77
     0
 47
0.0008202099737533
 47
0.0
 47
0.0
 47
0.0
 47
0.0
 47
0.0008202099737533
 47
0.0
 47
0.0
 47
0.0
 47
0.0
 47
1.0
 47
0.0
 47
0.0
 47
0.0
 47
0.0
 47
1.0
171
     0
 49
0.0008202099737533
 49
0.0
 49
0.0
 49
0.0
 49
0.0
 49
0.0008202099737533
 49
0.0
 49
0.0
 49
0.0
 49
0.0
 49
1.0
 49
0.0
 49
0.0
 49
0.0
 49
0.0
 49
1.0
175
     0
142
0.0008202099737533
142
0.0
142
0.0
142
0.0
142
0.0
142
0.0008202099737533
142
0.0
142
0.0
142
0.0
142
0.0
142
1.0
142
0.0
142
0.0
142
0.0
142
0.0
142
1.0
179
     0
144
0.0008202099737533
144
0.0
144
0.0
144
0.0
144
0.0
144
0.0008202099737533
144
0.0
144
0.0
144
0.0
144
0.0
144
1.0
144
0.0
144
0.0
144
0.0
144
0.0
144
1.0
147
0.0008202099737533
147
0.0
147
0.0
147
0.0
147
0.0
147
0.0008202099737533
147
0.0
147
0.0
147
0.0
147
0.0
147
1.0
147
0.0
147
0.0
147
0.0
147
0.0
147
1.0
  0
MATERIAL
  5
107A
102
{ACAD_XDICTIONARY
360
107B
102
}
102
{ACAD_REACTORS
330
EE5
102
}
330
EE5
100
AcDbMaterial
  1
Global
 72
     0
 43
0.0008202099737533
 43
0.0
 43
0.0
 43
0.0
 43
0.0
 43
0.0008202099737533
 43
0.0
 43
0.0
 43
0.0
 43
0.0
 43
1.0
 43
0.0
 43
0.0
 43
0.0
 43
0.0
 43
1.0
 77
     0
 47
0.0008202099737533
 47
0.0
 47
0.0
 47
0.0
 47
0.0
 47
0.0008202099737533
 47
0.0
 47
0.0
 47
0.0
 47
0.0
 47
1.0
 47
0.0
 47
0.0
 47
0.0
 47
0.0
 47
1.0
171
     0
 49
0.0008202099737533
 49
0.0
 49
0.0
 49
0.0
 49
0.0
 49
0.0008202099737533
 49
0.0
 49
0.0
 49
0.0
 49
0.0
 49
1.0
 49
0.0
 49
0.0
 49
0.0
 49
0.0
 49
1.0
175
     0
142
0.0008202099737533
142
0.0
142
0.0
142
0.0
142
0.0
142
0.0008202099737533
142
0.0
142
0.0
142
0.0
142
0.0
142
1.0
142
0.0
142
0.0
142
0.0
142
0.0
142
1.0
179
     0
144
0.0008202099737533
144
0.0
144
0.0
144
0.0
144
0.0
144
0.0008202099737533
144
0.0
144
0.0
144
0.0
144
0.0
144
1.0
144
0.0
144
0.0
144
0.0
144
0.0
144
1.0
147
0.0008202099737533
147
0.0
147
0.0
147
0.0
147
0.0
147
0.0008202099737533
147
0.0
147
0.0
147
0.0
147
0.0
147
1.0
147
0.0
147
0.0
147
0.0
147
0.0
147
1.0
  0
MLEADERSTYLE
  5
10A9
102
{ACAD_REACTORS
330
10A8
102
}
330
10A8
100
AcDbMLeaderStyle
170
     2
171
     1
172
     0
 90
        2
 40
0.0
 41
0.0
173
     1
 91
-1056964608
340
14
 92
       -2
290
     1
 42
2.0
291
     1
 43
0.36
  3
Standard
 44
4.0
300

342
11
174
     1
178
     6
175
     1
176
     0
 93
-1056964608
 45
4.0
292
     0
297
     0
 46
4.0
 94
-1056964608
 47
1.0
 49
1.0
140
1.0
293
     1
141
0.0
294
     1
177
     0
142
1.0
295
     0
296
     0
143
0.125
1001
ACAD_MLEADERVER
1070
     2
  0
MLINESTYLE
  5
18
102
{ACAD_REACTORS
330
17
102
}
330
17
100
AcDbMlineStyle
  2
STANDARD
 70
     0
  3

 62
   256
 51
90.0
 52
90.0
 71
     2
 49
0.5
 62
   256
  6
BYLAYER
 49
-0.5
 62
   256
  6
BYLAYER
  0
ACDBPLACEHOLDER
  5
F
102
{ACAD_REACTORS
330
E
102
}
330
E
  0
SCALE
  5
1097
102
{ACAD_REACTORS
330
1096
102
}
330
1096
100
AcDbScale
 70
     0
300
1:1
140
1.0
141
1.0
290
     1
  0
SCALE
  5
1098
102
{ACAD_REACTORS
330
1096
102
}
330
1096
100
AcDbScale
 70
     0
300
1:2
140
1.0
141
2.0
290
     0
  0
SCALE
  5
1099
102
{ACAD_REACTORS
330
1096
102
}
330
1096
100
AcDbScale
 70
     0
300
1:4
140
1.0
141
4.0
290
     0
  0
SCALE
  5
109A
102
{ACAD_REACTORS
330
1096
102
}
330
1096
100
AcDbScale
 70
     0
300
1:5
140
1.0
141
5.0
290
     0
  0
SCALE
  5
109B
102
{ACAD_REACTORS
330
1096
102
}
330
1096
100
AcDbScale
 70
     0
300
1:8
140
1.0
141
8.0
290
     0
  0
SCALE
  5
109C
102
{ACAD_REACTORS
330
1096
102
}
330
1096
100
AcDbScale
 70
     0
300
1:10
140
1.0
141
10.0
290
     0
  0
SCALE
  5
109D
102
{ACAD_REACTORS
330
1096
102
}
330
1096
100
AcDbScale
 70
     0
300
1:16
140
1.0
141
16.0
290
     0
  0
SCALE
  5
109E
102
{ACAD_REACTORS
330
1096
102
}
330
1096
100
AcDbScale
 70
     0
300
1:20
140
1.0
141
20.0
290
     0
  0
SCALE
  5
109F
102
{ACAD_REACTORS
330
1096
102
}
330
1096
100
AcDbScale
 70
     0
300
1:30
140
1.0
141
30.0
290
     0
  0
SCALE
  5
10A0
102
{ACAD_REACTORS
330
1096
102
}
330
1096
100
AcDbScale
 70
     0
300
1:40
140
1.0
141
40.0
290
     0
  0
SCALE
  5
10A1
102
{ACAD_REACTORS
330
1096
102
}
330
1096
100
AcDbScale
 70
     0
300
1:50
140
1.0
141
50.0
290
     0
  0
SCALE
  5
10A2
102
{ACAD_REACTORS
330
1096
102
}
330
1096
100
AcDbScale
 70
     0
300
1:100
140
1.0
141
100.0
290
     0
  0
SCALE
  5
10A3
102
{ACAD_REACTORS
330
1096
102
}
330
1096
100
AcDbScale
 70
     0
300
2:1
140
2.0
141
1.0
290
     0
  0
SCALE
  5
10A4
102
{ACAD_REACTORS
330
1096
102
}
330
1096
100
AcDbScale
 70
     0
300
4:1
140
4.0
141
1.0
290
     0
  0
SCALE
  5
10A5
102
{ACAD_REACTORS
330
1096
102
}
330
1096
100
AcDbScale
 70
     0
300
8:1
140
8.0
141
1.0
290
     0
  0
SCALE
  5
10A6
102
{ACAD_REACTORS
330
1096
102
}
330
1096
100
AcDbScale
 70
     0
300
10:1
140
10.0
141
1.0
290
     0
  0
SCALE
  5
10A7
102
{ACAD_REACTORS
330
1096
102
}
330
1096
100
AcDbScale
 70
     0
300
100:1
140
100.0
141
1.0
290
     0
  0
TABLESTYLE
  5
EE8
102
{ACAD_XDICTIONARY
360
17C1
102
}
102
{ACAD_REACTORS
330
EE7
102
}
330
EE7
100
AcDbTableStyle
  3
Standard
 70
     0
 71
     0
 40
1.5
 41
1.5
280
     0
281
     0
  7
Standard
140
4.5
170
     2
 62
     0
 63
     7
283
     0
274
    -2
284
     1
 64
     0
275
    -2
285
     1
 65
     0
276
    -2
286
     1
 66
     0
277
    -2
287
     1
 67
     0
278
    -2
288
     1
 68
     0
279
    -2
289
     1
 69
     0
  7
Standard
140
6.0
170
     5
 62
     0
 63
     7
283
     0
274
    -2
284
     1
 64
     0
275
    -2
285
     1
 65
     0
276
    -2
286
     1
 66
     0
277
    -2
287
     1
 67
     0
278
    -2
288
     1
 68
     0
279
    -2
289
     1
 69
     0
  7
Standard
140
4.5
170
     5
 62
     0
 63
     7
283
     0
274
    -2
284
     1
 64
     0
275
    -2
285
     1
 65
     0
276
    -2
286
     1
 66
     0
277
    -2
287
     1
 67
     0
278
    -2
288
     1
 68
     0
279
    -2
289
     1
 69
     0
  0
VISUALSTYLE
  5
1088
102
{ACAD_XDICTIONARY
360
1825
102
}
102
{ACAD_REACTORS
330
1082
102
}
330
1082
100
AcDbVisualStyle
  2
2dWireframe
 70
     4
 71
     0
 72
     2
 73
     0
 90
        0
 40
-0.6
 41
-30.0
 62
     5
 63
     7
 74
     1
 91
        4
 64
     7
 65
   257
 75
     1
175
     1
 42
1.0
 92
        0
 66
   257
 43
1.0
 76
     1
 77
     6
 78
     2
 67
     7
 79
     5
170
     0
171
     0
290
     0
174
     0
 93
        1
 44
0.0
173
     0
291
     0
 45
0.0
1001
ACAD
1000
AcDbSavedByObjectVersion
1070
     0
  0
VISUALSTYLE
  5
108A
102
{ACAD_XDICTIONARY
360
1829
102
}
102
{ACAD_REACTORS
330
1082
102
}
330
1082
100
AcDbVisualStyle
  2
3D Hidden
 70
     6
 71
     1
 72
     2
 73
     2
 90
        0
 40
-0.6
 41
-30.0
 62
     5
 63
     7
 74
     2
 91
        2
 64
     7
 65
   257
 75
     2
175
     1
 42
179.0
 92
        0
 66
   257
 43
1.0
 76
     1
 77
     6
 78
     2
 67
     7
 79
     3
170
     0
171
     0
290
     0
174
     0
 93
        1
 44
0.0
173
     0
291
     0
 45
0.0
1001
ACAD
1000
AcDbSavedByObjectVersion
1070
     0
  0
VISUALSTYLE
  5
1089
102
{ACAD_XDICTIONARY
360
1827
102
}
102
{ACAD_REACTORS
330
1082
102
}
330
1082
100
AcDbVisualStyle
  2
3dWireframe
 70
     5
 71
     0
 72
     2
 73
     0
 90
        0
 40
-0.6
 41
-30.0
 62
     5
 63
     7
 74
     1
 91
        4
 64
     7
 65
   257
 75
     1
175
     1
 42
1.0
 92
        0
 66
   257
 43
1.0
 76
     1
 77
     6
 78
     2
 67
     7
 79
     5
170
     0
171
     0
290
     0
174
     0
 93
        1
 44
0.0
173
     0
291
     0
 45
0.0
1001
ACAD
1000
AcDbSavedByObjectVersion
1070
     0
  0
VISUALSTYLE
  5
1087
102
{ACAD_XDICTIONARY
360
1823
102
}
102
{ACAD_REACTORS
330
1082
102
}
330
1082
100
AcDbVisualStyle
  2
Basic
 70
     7
 71
     1
 72
     0
 73
     1
 90
        0
 40
-0.6
 41
-30.0
 62
     5
 63
     7
 74
     0
 91
        4
 64
     7
 65
   257
 75
     1
175
     1
 42
1.0
 92
        8
 66
     7
 43
1.0
 76
     1
 77
     6
 78
     2
 67
     7
 79
     5
170
     0
171
     0
290
     0
174
     0
 93
        1
 44
0.0
173
     0
291
     1
 45
0.0
1001
ACAD
1000
AcDbSavedByObjectVersion
1070
     0
  0
VISUALSTYLE
  5
108E
102
{ACAD_XDICTIONARY
360
1831
102
}
102
{ACAD_REACTORS
330
1082
102
}
330
1082
100
AcDbVisualStyle
  2
Brighten
 70
    12
 71
     2
 72
     2
 73
     0
 90
        0
 40
-0.6
 41
-30.0
 62
     5
 63
     7
 74
     1
 91
        4
 64
     7
 65
   257
 75
     1
175
     1
 42
1.0
 92
        8
 66
     7
 43
1.0
 76
     1
 77
     6
 78
     2
 67
     7
 79
     5
170
     0
171
     0
290
     0
174
     0
 93
        1
 44
50.0
173
     0
291
     1
 45
0.0
1001
ACAD
1000
AcDbSavedByObjectVersion
1070
     0
  0
VISUALSTYLE
  5
1092
102
{ACAD_XDICTIONARY
360
1839
102
}
102
{ACAD_REACTORS
330
1082
102
}
330
1082
100
AcDbVisualStyle
  2
ColorChange
 70
    16
 71
     2
 72
     2
 73
     3
 90
        0
 40
-0.6
 41
-30.0
 62
     5
 63
     8
 74
     1
 91
        4
 64
     7
 65
   257
 75
     1
175
     1
 42
1.0
 92
        8
 66
     8
 43
1.0
 76
     1
 77
     6
 78
     2
 67
     7
 79
     5
170
     0
171
     0
290
     0
174
     0
 93
        1
 44
0.0
173
     0
291
     1
 45
0.0
1001
ACAD
1000
AcDbSavedByObjectVersion
1070
     0
  0
VISUALSTYLE
  5
108B
102
{ACAD_XDICTIONARY
360
182B
102
}
102
{ACAD_REACTORS
330
1082
102
}
330
1082
100
AcDbVisualStyle
  2
Conceptual
 70
     9
 71
     3
 72
     2
 73
     0
 90
        0
 40
-0.6
 41
-30.0
 62
     5
 63
     7
 74
     2
 91
        2
 64
     7
 65
   257
 75
     1
175
     1
 42
179.0
 92
        8
 66
     7
 43
1.0
 76
     1
 77
     6
 78
     2
 67
     7
 79
     3
170
     0
171
     0
290
     0
174
     0
 93
        1
 44
0.0
173
     0
291
     0
 45
0.0
1001
ACAD
1000
AcDbSavedByObjectVersion
1070
     0
  0
VISUALSTYLE
  5
108D
102
{ACAD_XDICTIONARY
360
182F
102
}
102
{ACAD_REACTORS
330
1082
102
}
330
1082
100
AcDbVisualStyle
  2
Dim
 70
    11
 71
     2
 72
     2
 73
     0
 90
        0
 40
-0.6
 41
-30.0
 62
     5
 63
     7
 74
     1
 91
        4
 64
     7
 65
   257
 75
     1
175
     1
 42
1.0
 92
        8
 66
     7
 43
1.0
 76
     1
 77
     6
 78
     2
 67
     7
 79
     5
170
     0
171
     0
290
     0
174
     0
 93
        1
 44
-50.0
173
     0
291
     1
 45
0.0
1001
ACAD
1000
AcDbSavedByObjectVersion
1070
     0
  0
VISUALSTYLE
  5
1095
102
{ACAD_XDICTIONARY
360
183F
102
}
102
{ACAD_REACTORS
330
1082
102
}
330
1082
100
AcDbVisualStyle
  2
EdgeColorOff
 70
    22
 71
     2
 72
     2
 73
     0
 90
        0
 40
-0.6
 41
-30.0
 62
     5
 63
     7
 74
     1
 91
        4
 64
     7
 65
   257
 75
     1
175
     1
 42
1.0
 92
        8
 66
     7
 43
1.0
 76
     1
 77
     6
 78
     2
 67
     7
 79
     5
170
     0
171
     0
290
     0
174
     0
 93
        1
 44
0.0
173
     0
291
     1
 45
0.0
1001
ACAD
1000
AcDbSavedByObjectVersion
1070
     0
  0
VISUALSTYLE
  5
1091
102
{ACAD_XDICTIONARY
360
1837
102
}
102
{ACAD_REACTORS
330
1082
102
}
330
1082
100
AcDbVisualStyle
  2
Facepattern
 70
    15
 71
     2
 72
     2
 73
     0
 90
        0
 40
-0.6
 41
-30.0
 62
     5
 63
     7
 74
     1
 91
        4
 64
     7
 65
   257
 75
     1
175
     1
 42
1.0
 92
        8
 66
     7
 43
1.0
 76
     1
 77
     6
 78
     2
 67
     7
 79
     5
170
     0
171
     0
290
     0
174
     0
 93
        1
 44
0.0
173
     0
291
     1
 45
0.0
1001
ACAD
1000
AcDbSavedByObjectVersion
1070
     0
  0
VISUALSTYLE
  5
1083
102
{ACAD_XDICTIONARY
360
181B
102
}
102
{ACAD_REACTORS
330
1082
102
}
330
1082
100
AcDbVisualStyle
  2
Flat
 70
     0
 71
     2
 72
     1
 73
     1
 90
        2
 40
-0.6
 41
30.0
 62
     5
 63
     7
 74
     0
 91
        4
 64
     7
 65
   257
 75
     1
175
     1
 42
1.0
 92
        8
 66
     7
 43
1.0
 76
     1
 77
     6
 78
     2
 67
     7
 79
     5
170
     0
171
     0
290
     0
174
     0
 93
       13
 44
0.0
173
     0
291
     1
 45
0.0
1001
ACAD
1000
AcDbSavedByObjectVersion
1070
     0
  0
VISUALSTYLE
  5
1084
102
{ACAD_XDICTIONARY
360
181D
102
}
102
{ACAD_REACTORS
330
1082
102
}
330
1082
100
AcDbVisualStyle
  2
FlatWithEdges
 70
     1
 71
     2
 72
     1
 73
     1
 90
        2
 40
-0.6
 41
30.0
 62
     5
 63
     7
 74
     1
 91
        4
 64
     7
 65
   257
 75
     1
175
     1
 42
1.0
 92
        0
 66
   257
 43
1.0
 76
     1
 77
     6
 78
     2
 67
     7
 79
     5
170
     0
171
     0
290
     0
174
     0
 93
       13
 44
0.0
173
     0
291
     1
 45
0.0
1001
ACAD
1000
AcDbSavedByObjectVersion
1070
     0
  0
VISUALSTYLE
  5
1085
102
{ACAD_XDICTIONARY
360
181F
102
}
102
{ACAD_REACTORS
330
1082
102
}
330
1082
100
AcDbVisualStyle
  2
Gouraud
 70
     2
 71
     2
 72
     2
 73
     1
 90
        2
 40
-0.6
 41
30.0
 62
     5
 63
     7
 74
     0
 91
        4
 64
     7
 65
   257
 75
     1
175
     1
 42
1.0
 92
        0
 66
     7
 43
1.0
 76
     1
 77
     6
 78
     2
 67
     7
 79
     5
170
     0
171
     0
290
     0
174
     0
 93
       13
 44
0.0
173
     0
291
     1
 45
0.0
1001
ACAD
1000
AcDbSavedByObjectVersion
1070
     0
  0
VISUALSTYLE
  5
1086
102
{ACAD_XDICTIONARY
360
1821
102
}
102
{ACAD_REACTORS
330
1082
102
}
330
1082
100
AcDbVisualStyle
  2
GouraudWithEdges
 70
     3
 71
     2
 72
     2
 73
     1
 90
        2
 40
-0.6
 41
30.0
 62
     5
 63
     7
 74
     1
 91
        4
 64
     7
 65
   257
 75
     1
175
     1
 42
1.0
 92
        0
 66
   257
 43
1.0
 76
     1
 77
     6
 78
     2
 67
     7
 79
     5
170
     0
171
     0
290
     0
174
     0
 93
       13
 44
0.0
173
     0
291
     1
 45
0.0
1001
ACAD
1000
AcDbSavedByObjectVersion
1070
     0
  0
VISUALSTYLE
  5
1093
102
{ACAD_XDICTIONARY
360
183B
102
}
102
{ACAD_REACTORS
330
1082
102
}
330
1082
100
AcDbVisualStyle
  2
JitterOff
 70
    20
 71
     2
 72
     2
 73
     0
 90
        0
 40
-0.6
 41
-30.0
 62
     5
 63
     7
 74
     1
 91
        4
 64
     7
 65
   257
 75
     1
175
     1
 42
1.0
 92
       10
 66
     7
 43
1.0
 76
     1
 77
     6
 78
     2
 67
     7
 79
     5
170
     0
171
     0
290
     0
174
     0
 93
        1
 44
0.0
173
     0
291
     1
 45
0.0
1001
ACAD
1000
AcDbSavedByObjectVersion
1070
     0
  0
VISUALSTYLE
  5
1090
102
{ACAD_XDICTIONARY
360
1835
102
}
102
{ACAD_REACTORS
330
1082
102
}
330
1082
100
AcDbVisualStyle
  2
Linepattern
 70
    14
 71
     2
 72
     2
 73
     0
 90
        0
 40
-0.6
 41
-30.0
 62
     5
 63
     7
 74
     1
 91
        4
 64
     7
 65
   257
 75
     7
175
     7
 42
1.0
 92
        8
 66
     7
 43
1.0
 76
     1
 77
     6
 78
     2
 67
     7
 79
     5
170
     0
171
     0
290
     0
174
     0
 93
        1
 44
0.0
173
     0
291
     1
 45
0.0
1001
ACAD
1000
AcDbSavedByObjectVersion
1070
     0
  0
VISUALSTYLE
  5
1094
102
{ACAD_XDICTIONARY
360
183D
102
}
102
{ACAD_REACTORS
330
1082
102
}
330
1082
100
AcDbVisualStyle
  2
OverhangOff
 70
    21
 71
     2
 72
     2
 73
     0
 90
        0
 40
-0.6
 41
-30.0
 62
     5
 63
     7
 74
     1
 91
        4
 64
     7
 65
   257
 75
     1
175
     1
 42
1.0
 92
        9
 66
     7
 43
1.0
 76
     1
 77
     6
 78
     2
 67
     7
 79
     5
170
     0
171
     0
290
     0
174
     0
 93
        1
 44
0.0
173
     0
291
     1
 45
0.0
1001
ACAD
1000
AcDbSavedByObjectVersion
1070
     0
  0
VISUALSTYLE
  5
108C
102
{ACAD_XDICTIONARY
360
182D
102
}
102
{ACAD_REACTORS
330
1082
102
}
330
1082
100
AcDbVisualStyle
  2
Realistic
 70
     8
 71
     2
 72
     2
 73
     0
 90
        0
 40
-0.6
 41
-30.0
 62
     5
 63
     7
 74
     1
 91
        0
 64
     7
 65
   257
 75
     1
175
     1
 42
1.0
 92
        8
 66
     8
 43
1.0
 76
     1
 77
     6
 78
     2
 67
     7
 79
     5
170
     0
171
     0
290
     0
174
     0
 93
       13
 44
0.0
173
     0
291
     0
 45
0.0
1001
ACAD
1000
AcDbSavedByObjectVersion
1070
     0
  0
VISUALSTYLE
  5
108F
102
{ACAD_XDICTIONARY
360
1833
102
}
102
{ACAD_REACTORS
330
1082
102
}
330
1082
100
AcDbVisualStyle
  2
Thicken
 70
    13
 71
     2
 72
     2
 73
     0
 90
        0
 40
-0.6
 41
-30.0
 62
     5
 63
     7
 74
     1
 91
        4
 64
     7
 65
   257
 75
     1
175
     1
 42
1.0
 92
       12
 66
     7
 43
1.0
 76
     1
 77
     6
 78
     2
 67
     7
 79
     5
170
     0
171
     0
290
     0
174
     0
 93
        1
 44
0.0
173
     0
291
     1
 45
0.0
1001
ACAD
1000
AcDbSavedByObjectVersion
1070
     0
  0
DICTIONARYVAR
  5
17FF
102
{ACAD_REACTORS
330
3D
102
}
330
3D
100
DictionaryVariables
280
     0
  1
1:1
  0
DICTIONARYVAR
  5
17FE
102
{ACAD_REACTORS
330
3D
102
}
330
3D
100
DictionaryVariables
280
     0
  1
STANDARD
  0
DICTIONARYVAR
  5
1049
102
{ACAD_REACTORS
330
3D
102
}
330
3D
100
DictionaryVariables
280
     0
  1
STANDARD
  0
DICTIONARYVAR
  5
3F
102
{ACAD_REACTORS
330
3D
102
}
330
3D
100
DictionaryVariables
280
     0
  1
2
  0
DICTIONARYVAR
  5
3E
102
{ACAD_REACTORS
330
3D
102
}
330
3D
100
DictionaryVariables
280
     0
  1
1
  0
DICTIONARYVAR
  5
1801
102
{ACAD_REACTORS
330
3D
102
}
330
3D
100
DictionaryVariables
280
     0
  1
0
  0
DICTIONARYVAR
  5
1800
102
{ACAD_REACTORS
330
3D
102
}
330
3D
100
DictionaryVariables
280
     0
  1
127
  0
DICTIONARYVAR
  5
180B
102
{ACAD_REACTORS
330
3D
102
}
330
3D
100
DictionaryVariables
280
     0
  1
2
  0
XRECORD
  5
1067
102
{ACAD_REACTORS
330
1066
102
}
330
1066
100
AcDbXrecord
280
     1
  0
DICTIONARY
  5
1811
330
1E
100
AcDbDictionary
280
     1
281
     1
  3
ACAD_XREC_ROUNDTRIP
360
1812
  0
DICTIONARY
  5
1815
330
26
100
AcDbDictionary
280
     1
281
     1
  3
ACAD_XREC_ROUNDTRIP
360
1816
  0
DICTIONARY
  5
1813
330
22
100
AcDbDictionary
280
     1
281
     1
  3
ACAD_XREC_ROUNDTRIP
360
1814
  0
DICTIONARY
  5
1073
330
1072
100
AcDbDictionary
280
     1
281
     1
  3
ACAD_XREC_ROUNDTRIP
360
1819
  3
BUMPTILE
360
1075
  3
DIFFUSETILE
360
1074
  3
OPACITYTILE
360
1078
  3
REFLECTIONTILE
360
1077
  3
REFRACTIONTILE
360
1079
  3
SPECULARTILE
360
1076
  0
DICTIONARY
  5
106B
330
106A
100
AcDbDictionary
280
     1
281
     1
  3
ACAD_XREC_ROUNDTRIP
360
1818
  3
BUMPTILE
360
106D
  3
DIFFUSETILE
360
106C
  3
OPACITYTILE
360
1070
  3
REFLECTIONTILE
360
106F
  3
REFRACTIONTILE
360
1071
  3
SPECULARTILE
360
106E
  0
DICTIONARY
  5
107B
330
107A
100
AcDbDictionary
280
     1
281
     1
  3
ACAD_XREC_ROUNDTRIP
360
181A
  3
BUMPTILE
360
107D
  3
DIFFUSETILE
360
107C
  3
OPACITYTILE
360
1080
  3
REFLECTIONTILE
360
107F
  3
REFRACTIONTILE
360
1081
  3
SPECULARTILE
360
107E
  0
DICTIONARY
  5
17C1
330
EE8
100
AcDbDictionary
280
     1
281
     1
  3
ACAD_ROUNDTRIP_2008_TABLESTYLE_CELLSTYLEMAP
360
180C
  3
ACAD_XREC_ROUNDTRIP
360
1817
  0
DICTIONARY
  5
1825
330
1088
100
AcDbDictionary
280
     1
281
     1
  3
ACAD_XREC_ROUNDTRIP
360
1826
  0
DICTIONARY
  5
1829
330
108A
100
AcDbDictionary
280
     1
281
     1
  3
ACAD_XREC_ROUNDTRIP
360
182A
  0
DICTIONARY
  5
1827
330
1089
100
AcDbDictionary
280
     1
281
     1
  3
ACAD_XREC_ROUNDTRIP
360
1828
  0
DICTIONARY
  5
1823
330
1087
100
AcDbDictionary
280
     1
281
     1
  3
ACAD_XREC_ROUNDTRIP
360
1824
  0
DICTIONARY
  5
1831
330
108E
100
AcDbDictionary
280
     1
281
     1
  3
ACAD_XREC_ROUNDTRIP
360
1832
  0
DICTIONARY
  5
1839
330
1092
100
AcDbDictionary
280
     1
281
     1
  3
ACAD_XREC_ROUNDTRIP
360
183A
  0
DICTIONARY
  5
182B
330
108B
100
AcDbDictionary
280
     1
281
     1
  3
ACAD_XREC_ROUNDTRIP
360
182C
  0
DICTIONARY
  5
182F
330
108D
100
AcDbDictionary
280
     1
281
     1
  3
ACAD_XREC_ROUNDTRIP
360
1830
  0
DICTIONARY
  5
183F
330
1095
100
AcDbDictionary
280
     1
281
     1
  3
ACAD_XREC_ROUNDTRIP
360
1840
  0
DICTIONARY
  5
1837
330
1091
100
AcDbDictionary
280
     1
281
     1
  3
ACAD_XREC_ROUNDTRIP
360
1838
  0
DICTIONARY
  5
181B
330
1083
100
AcDbDictionary
280
     1
281
     1
  3
ACAD_XREC_ROUNDTRIP
360
181C
  0
DICTIONARY
  5
181D
330
1084
100
AcDbDictionary
280
     1
281
     1
  3
ACAD_XREC_ROUNDTRIP
360
181E
  0
DICTIONARY
  5
181F
330
1085
100
AcDbDictionary
280
     1
281
     1
  3
ACAD_XREC_ROUNDTRIP
360
1820
  0
DICTIONARY
  5
1821
330
1086
100
AcDbDictionary
280
     1
281
     1
  3
ACAD_XREC_ROUNDTRIP
360
1822
  0
DICTIONARY
  5
183B
330
1093
100
AcDbDictionary
280
     1
281
     1
  3
ACAD_XREC_ROUNDTRIP
360
183C
  0
DICTIONARY
  5
1835
330
1090
100
AcDbDictionary
280
     1
281
     1
  3
ACAD_XREC_ROUNDTRIP
360
1836
  0
DICTIONARY
  5
183D
330
1094
100
AcDbDictionary
280
     1
281
     1
  3
ACAD_XREC_ROUNDTRIP
360
183E
  0
DICTIONARY
  5
182D
330
108C
100
AcDbDictionary
280
     1
281
     1
  3
ACAD_XREC_ROUNDTRIP
360
182E
  0
DICTIONARY
  5
1833
330
108F
100
AcDbDictionary
280
     1
281
     1
  3
ACAD_XREC_ROUNDTRIP
360
1834
  0
XRECORD
  5
1812
102
{ACAD_REACTORS
330
1811
102
}
330
1811
100
AcDbXrecord
280
     1
102
SHADEPLOT
 70
     0
102
SHADEPLOTRESLEVEL
 70
     2
102
SHADEPLOTCUSTOMDPI
 70
   300
  0
XRECORD
  5
1816
102
{ACAD_REACTORS
330
1815
102
}
330
1815
100
AcDbXrecord
280
     1
102
SHADEPLOT
 70
     0
102
SHADEPLOTRESLEVEL
 70
     2
102
SHADEPLOTCUSTOMDPI
 70
   300
  0
XRECORD
  5
1814
102
{ACAD_REACTORS
330
1813
102
}
330
1813
100
AcDbXrecord
280
     1
102
SHADEPLOT
 70
     0
102
SHADEPLOTRESLEVEL
 70
     2
102
SHADEPLOTCUSTOMDPI
 70
   300
  0
XRECORD
  5
1819
102
{ACAD_REACTORS
330
1073
102
}
330
1073
100
AcDbXrecord
280
     1
102
MATERIAL
148
0.0
149
0.0
149
0.0
 93
        0
 94
      127
282
     0
 72
     0
 77
     0
171
     0
175
     0
179
     0
273
     0
  0
XRECORD
  5
1075
102
{ACAD_REACTORS
330
1073
102
}
330
1073
100
AcDbXrecord
280
     1
270
     1
271
     1
  0
XRECORD
  5
1074
102
{ACAD_REACTORS
330
1073
102
}
330
1073
100
AcDbXrecord
280
     1
270
     1
271
     1
  0
XRECORD
  5
1078
102
{ACAD_REACTORS
330
1073
102
}
330
1073
100
AcDbXrecord
280
     1
270
     1
271
     1
  0
XRECORD
  5
1077
102
{ACAD_REACTORS
330
1073
102
}
330
1073
100
AcDbXrecord
280
     1
270
     1
271
     1
  0
XRECORD
  5
1079
102
{ACAD_REACTORS
330
1073
102
}
330
1073
100
AcDbXrecord
280
     1
270
     1
271
     1
  0
XRECORD
  5
1076
102
{ACAD_REACTORS
330
1073
102
}
330
1073
100
AcDbXrecord
280
     1
270
     1
271
     1
  0
XRECORD
  5
1818
102
{ACAD_REACTORS
330
106B
102
}
330
106B
100
AcDbXrecord
280
     1
102
MATERIAL
148
0.0
149
0.0
149
0.0
 93
        0
 94
      127
282
     0
 72
     0
 77
     0
171
     0
175
     0
179
     0
273
     0
  0
XRECORD
  5
106D
102
{ACAD_REACTORS
330
106B
102
}
330
106B
100
AcDbXrecord
280
     1
270
     1
271
     1
  0
XRECORD
  5
106C
102
{ACAD_REACTORS
330
106B
102
}
330
106B
100
AcDbXrecord
280
     1
270
     1
271
     1
  0
XRECORD
  5
1070
102
{ACAD_REACTORS
330
106B
102
}
330
106B
100
AcDbXrecord
280
     1
270
     1
271
     1
  0
XRECORD
  5
106F
102
{ACAD_REACTORS
330
106B
102
}
330
106B
100
AcDbXrecord
280
     1
270
     1
271
     1
  0
XRECORD
  5
1071
102
{ACAD_REACTORS
330
106B
102
}
330
106B
100
AcDbXrecord
280
     1
270
     1
271
     1
  0
XRECORD
  5
106E
102
{ACAD_REACTORS
330
106B
102
}
330
106B
100
AcDbXrecord
280
     1
270
     1
271
     1
  0
XRECORD
  5
181A
102
{ACAD_REACTORS
330
107B
102
}
330
107B
100
AcDbXrecord
280
     1
102
MATERIAL
148
0.0
149
0.0
149
0.0
 93
        0
 94
      127
282
     0
 72
     0
 77
     0
171
     0
175
     0
179
     0
273
     0
  0
XRECORD
  5
107D
102
{ACAD_REACTORS
330
107B
102
}
330
107B
100
AcDbXrecord
280
     1
270
     1
271
     1
  0
XRECORD
  5
107C
102
{ACAD_REACTORS
330
107B
102
}
330
107B
100
AcDbXrecord
280
     1
270
     1
271
     1
  0
XRECORD
  5
1080
102
{ACAD_REACTORS
330
107B
102
}
330
107B
100
AcDbXrecord
280
     1
270
     1
271
     1
  0
XRECORD
  5
107F
102
{ACAD_REACTORS
330
107B
102
}
330
107B
100
AcDbXrecord
280
     1
270
     1
271
     1
  0
XRECORD
  5
1081
102
{ACAD_REACTORS
330
107B
102
}
330
107B
100
AcDbXrecord
280
     1
270
     1
271
     1
  0
XRECORD
  5
107E
102
{ACAD_REACTORS
330
107B
102
}
330
107B
100
AcDbXrecord
280
     1
270
     1
271
     1
  0
CELLSTYLEMAP
  5
180C
102
{ACAD_REACTORS
330
17C1
102
}
330
17C1
100
AcDbCellStyleMap
 90
        3
300
CELLSTYLE
  1
TABLEFORMAT_BEGIN
 90
        5
170
     1
 91
        0
 92
    32768
 62
   257
 93
        1
300
CONTENTFORMAT
  1
CONTENTFORMAT_BEGIN
 90
        0
 91
        0
 92
        4
 93
        0
300

 40
0.0
140
1.0
 94
        5
 62
     0
340
11
144
6.0
309
CONTENTFORMAT_END
171
     1
301
MARGIN
  1
CELLMARGIN_BEGIN
 40
1.5
 40
1.5
 40
1.5
 40
1.5
 40
0.18
 40
0.18
309
CELLMARGIN_END
 94
        6
 95
        1
302
GRIDFORMAT
  1
GRIDFORMAT_BEGIN
 90
        0
 91
        1
 62
     0
 92
       -2
340
0
 93
        0
 40
0.045
309
GRIDFORMAT_END
 95
        2
302
GRIDFORMAT
  1
GRIDFORMAT_BEGIN
 90
        0
 91
        1
 62
     0
 92
       -2
340
0
 93
        0
 40
0.045
309
GRIDFORMAT_END
 95
        4
302
GRIDFORMAT
  1
GRIDFORMAT_BEGIN
 90
        0
 91
        1
 62
     0
 92
       -2
340
0
 93
        0
 40
0.045
309
GRIDFORMAT_END
 95
        8
302
GRIDFORMAT
  1
GRIDFORMAT_BEGIN
 90
        0
 91
        1
 62
     0
 92
       -2
340
0
 93
        0
 40
0.045
309
GRIDFORMAT_END
 95
       16
302
GRIDFORMAT
  1
GRIDFORMAT_BEGIN
 90
        0
 91
        1
 62
     0
 92
       -2
340
0
 93
        0
 40
0.045
309
GRIDFORMAT_END
 95
       32
302
GRIDFORMAT
  1
GRIDFORMAT_BEGIN
 90
        0
 91
        1
 62
     0
 92
       -2
340
0
 93
        0
 40
0.045
309
GRIDFORMAT_END
309
TABLEFORMAT_END
  1
CELLSTYLE_BEGIN
 90
        1
 91
        1
300
_TITLE
309
CELLSTYLE_END
300
CELLSTYLE
  1
TABLEFORMAT_BEGIN
 90
        5
170
     1
 91
        0
 92
        0
 62
   257
 93
        1
300
CONTENTFORMAT
  1
CONTENTFORMAT_BEGIN
 90
        0
 91
        0
 92
        4
 93
        0
300

 40
0.0
140
1.0
 94
        5
 62
     0
340
11
144
4.5
309
CONTENTFORMAT_END
171
     1
301
MARGIN
  1
CELLMARGIN_BEGIN
 40
1.5
 40
1.5
 40
1.5
 40
1.5
 40
0.18
 40
0.18
309
CELLMARGIN_END
 94
        6
 95
        1
302
GRIDFORMAT
  1
GRIDFORMAT_BEGIN
 90
        0
 91
        1
 62
     0
 92
       -2
340
0
 93
        0
 40
0.045
309
GRIDFORMAT_END
 95
        2
302
GRIDFORMAT
  1
GRIDFORMAT_BEGIN
 90
        0
 91
        1
 62
     0
 92
       -2
340
0
 93
        0
 40
0.045
309
GRIDFORMAT_END
 95
        4
302
GRIDFORMAT
  1
GRIDFORMAT_BEGIN
 90
        0
 91
        1
 62
     0
 92
       -2
340
0
 93
        0
 40
0.045
309
GRIDFORMAT_END
 95
        8
302
GRIDFORMAT
  1
GRIDFORMAT_BEGIN
 90
        0
 91
        1
 62
     0
 92
       -2
340
0
 93
        0
 40
0.045
309
GRIDFORMAT_END
 95
       16
302
GRIDFORMAT
  1
GRIDFORMAT_BEGIN
 90
        0
 91
        1
 62
     0
 92
       -2
340
0
 93
        0
 40
0.045
309
GRIDFORMAT_END
 95
       32
302
GRIDFORMAT
  1
GRIDFORMAT_BEGIN
 90
        0
 91
        1
 62
     0
 92
       -2
340
0
 93
        0
 40
0.045
309
GRIDFORMAT_END
309
TABLEFORMAT_END
  1
CELLSTYLE_BEGIN
 90
        2
 91
        1
300
_HEADER
309
CELLSTYLE_END
300
CELLSTYLE
  1
TABLEFORMAT_BEGIN
 90
        5
170
     1
 91
        0
 92
        0
 62
   257
 93
        1
300
CONTENTFORMAT
  1
CONTENTFORMAT_BEGIN
 90
        0
 91
        0
 92
        4
 93
        0
300

 40
0.0
140
1.0
 94
        2
 62
     0
340
11
144
4.5
309
CONTENTFORMAT_END
171
     1
301
MARGIN
  1
CELLMARGIN_BEGIN
 40
1.5
 40
1.5
 40
1.5
 40
1.5
 40
0.18
 40
0.18
309
CELLMARGIN_END
 94
        6
 95
        1
302
GRIDFORMAT
  1
GRIDFORMAT_BEGIN
 90
        0
 91
        1
 62
     0
 92
       -2
340
0
 93
        0
 40
0.045
309
GRIDFORMAT_END
 95
        2
302
GRIDFORMAT
  1
GRIDFORMAT_BEGIN
 90
        0
 91
        1
 62
     0
 92
       -2
340
0
 93
        0
 40
0.045
309
GRIDFORMAT_END
 95
        4
302
GRIDFORMAT
  1
GRIDFORMAT_BEGIN
 90
        0
 91
        1
 62
     0
 92
       -2
340
0
 93
        0
 40
0.045
309
GRIDFORMAT_END
 95
        8
302
GRIDFORMAT
  1
GRIDFORMAT_BEGIN
 90
        0
 91
        1
 62
     0
 92
       -2
340
0
 93
        0
 40
0.045
309
GRIDFORMAT_END
 95
       16
302
GRIDFORMAT
  1
GRIDFORMAT_BEGIN
 90
        0
 91
        1
 62
     0
 92
       -2
340
0
 93
        0
 40
0.045
309
GRIDFORMAT_END
 95
       32
302
GRIDFORMAT
  1
GRIDFORMAT_BEGIN
 90
        0
 91
        1
 62
     0
 92
       -2
340
0
 93
        0
 40
0.045
309
GRIDFORMAT_END
309
TABLEFORMAT_END
  1
CELLSTYLE_BEGIN
 90
        3
 91
        2
300
_DATA
309
CELLSTYLE_END
  0
XRECORD
  5
1817
102
{ACAD_REACTORS
330
17C1
102
}
330
17C1
100
AcDbXrecord
280
     1
102
ACAD_ROUNDTRIP_PRE2007_TABLESTYLE
 90
        4
 91
        0
  1

 92
        4
 93
        0
  2

 94
        4
 95
        0
  3

  0
XRECORD
  5
1826
102
{ACAD_REACTORS
330
1825
102
}
330
1825
100
AcDbXrecord
280
     1
102
RTVSPropertyOp0
 70
     1
102
RTVSPropertyOp1
 70
     1
102
RTVSPropertyOp2
 70
     1
102
RTVSPropertyOp3
 70
     1
102
RTVSPropertyOp4
 70
     1
102
RTVSPropertyOp5
 70
     1
102
RTVSPropertyOp6
 70
     1
102
RTVSPropertyOp7
 70
     1
102
RTVSPropertyOp8
 70
     1
102
RTVSPropertyOp9
 70
     1
102
RTVSPropertyOp10
 70
     1
102
RTVSPropertyOp11
 70
     1
102
RTVSPropertyOp12
 70
     1
102
RTVSPropertyOp13
 70
     1
102
RTVSPropertyOp14
 70
     1
102
RTVSPropertyOp15
 70
     1
102
RTVSPropertyOp16
 70
     1
102
RTVSPropertyOp17
 70
     1
102
RTVSPropertyOp18
 70
     1
102
RTVSPropertyOp19
 70
     1
102
RTVSPropertyOp20
 70
     1
102
RTVSPropertyOp21
 70
     1
102
RTVSPropertyOp22
 70
     1
102
RTVSPropertyOp23
 70
     1
102
RTVSPropertyOp24
 70
     1
102
RTVSPropertyOp25
 70
     1
102
RTVSPropertyOp26
 70
     1
102
RTVSPropertyOp27
 70
     1
  0
XRECORD
  5
182A
102
{ACAD_REACTORS
330
1829
102
}
330
1829
100
AcDbXrecord
280
     1
102
RTVSPropertyOp0
 70
     1
102
RTVSPropertyOp1
 70
     1
102
RTVSPropertyOp2
 70
     1
102
RTVSPropertyOp3
 70
     1
102
RTVSPropertyOp4
 70
     1
102
RTVSPropertyOp5
 70
     1
102
RTVSPropertyOp6
 70
     1
102
RTVSPropertyOp7
 70
     1
102
RTVSPropertyOp8
 70
     1
102
RTVSPropertyOp9
 70
     1
102
RTVSPropertyOp10
 70
     1
102
RTVSPropertyOp11
 70
     1
102
RTVSPropertyOp12
 70
     1
102
RTVSPropertyOp13
 70
     1
102
RTVSPropertyOp14
 70
     1
102
RTVSPropertyOp15
 70
     1
102
RTVSPropertyOp16
 70
     1
102
RTVSPropertyOp17
 70
     1
102
RTVSPropertyOp18
 70
     1
102
RTVSPropertyOp19
 70
     1
102
RTVSPropertyOp20
 70
     1
102
RTVSPropertyOp21
 70
     1
102
RTVSPropertyOp22
 70
     1
102
RTVSPropertyOp23
 70
     1
102
RTVSPropertyOp24
 70
     1
102
RTVSPropertyOp25
 70
     1
102
RTVSPropertyOp26
 70
     1
102
RTVSPropertyOp27
 70
     1
  0
XRECORD
  5
1828
102
{ACAD_REACTORS
330
1827
102
}
330
1827
100
AcDbXrecord
280
     1
102
RTVSPropertyOp0
 70
     1
102
RTVSPropertyOp1
 70
     1
102
RTVSPropertyOp2
 70
     1
102
RTVSPropertyOp3
 70
     1
102
RTVSPropertyOp4
 70
     1
102
RTVSPropertyOp5
 70
     1
102
RTVSPropertyOp6
 70
     1
102
RTVSPropertyOp7
 70
     1
102
RTVSPropertyOp8
 70
     1
102
RTVSPropertyOp9
 70
     1
102
RTVSPropertyOp10
 70
     1
102
RTVSPropertyOp11
 70
     1
102
RTVSPropertyOp12
 70
     1
102
RTVSPropertyOp13
 70
     1
102
RTVSPropertyOp14
 70
     1
102
RTVSPropertyOp15
 70
     1
102
RTVSPropertyOp16
 70
     1
102
RTVSPropertyOp17
 70
     1
102
RTVSPropertyOp18
 70
     1
102
RTVSPropertyOp19
 70
     1
102
RTVSPropertyOp20
 70
     1
102
RTVSPropertyOp21
 70
     1
102
RTVSPropertyOp22
 70
     1
102
RTVSPropertyOp23
 70
     1
102
RTVSPropertyOp24
 70
     1
102
RTVSPropertyOp25
 70
     1
102
RTVSPropertyOp26
 70
     1
102
RTVSPropertyOp27
 70
     1
  0
XRECORD
  5
1824
102
{ACAD_REACTORS
330
1823
102
}
330
1823
100
AcDbXrecord
280
     1
102
RTVSPropertyOp0
 70
     1
102
RTVSPropertyOp1
 70
     1
102
RTVSPropertyOp2
 70
     1
102
RTVSPropertyOp3
 70
     1
102
RTVSPropertyOp4
 70
     1
102
RTVSPropertyOp5
 70
     1
102
RTVSPropertyOp6
 70
     1
102
RTVSPropertyOp7
 70
     1
102
RTVSPropertyOp8
 70
     1
102
RTVSPropertyOp9
 70
     1
102
RTVSPropertyOp10
 70
     1
102
RTVSPropertyOp11
 70
     1
102
RTVSPropertyOp12
 70
     1
102
RTVSPropertyOp13
 70
     1
102
RTVSPropertyOp14
 70
     1
102
RTVSPropertyOp15
 70
     1
102
RTVSPropertyOp16
 70
     1
102
RTVSPropertyOp17
 70
     1
102
RTVSPropertyOp18
 70
     1
102
RTVSPropertyOp19
 70
     1
102
RTVSPropertyOp20
 70
     1
102
RTVSPropertyOp21
 70
     1
102
RTVSPropertyOp22
 70
     1
102
RTVSPropertyOp23
 70
     1
102
RTVSPropertyOp24
 70
     1
102
RTVSPropertyOp25
 70
     1
102
RTVSPropertyOp26
 70
     1
102
RTVSPropertyOp27
 70
     1
  0
XRECORD
  5
1832
102
{ACAD_REACTORS
330
1831
102
}
330
1831
100
AcDbXrecord
280
     1
102
RTVSPropertyOp0
 70
     1
102
RTVSPropertyOp1
 70
     1
102
RTVSPropertyOp2
 70
     1
102
RTVSPropertyOp3
 70
     1
102
RTVSPropertyOp4
 70
     1
102
RTVSPropertyOp5
 70
     1
102
RTVSPropertyOp6
 70
     1
102
RTVSPropertyOp7
 70
     1
102
RTVSPropertyOp8
 70
     1
102
RTVSPropertyOp9
 70
     1
102
RTVSPropertyOp10
 70
     1
102
RTVSPropertyOp11
 70
     1
102
RTVSPropertyOp12
 70
     1
102
RTVSPropertyOp13
 70
     1
102
RTVSPropertyOp14
 70
     1
102
RTVSPropertyOp15
 70
     1
102
RTVSPropertyOp16
 70
     1
102
RTVSPropertyOp17
 70
     1
102
RTVSPropertyOp18
 70
     1
102
RTVSPropertyOp19
 70
     1
102
RTVSPropertyOp20
 70
     1
102
RTVSPropertyOp21
 70
     1
102
RTVSPropertyOp22
 70
     1
102
RTVSPropertyOp23
 70
     1
102
RTVSPropertyOp24
 70
     1
102
RTVSPropertyOp25
 70
     1
102
RTVSPropertyOp26
 70
     1
102
RTVSPropertyOp27
 70
     1
  0
XRECORD
  5
183A
102
{ACAD_REACTORS
330
1839
102
}
330
1839
100
AcDbXrecord
280
     1
102
RTVSPropertyOp0
 70
     1
102
RTVSPropertyOp1
 70
     1
102
RTVSPropertyOp2
 70
     1
102
RTVSPropertyOp3
 70
     1
102
RTVSPropertyOp4
 70
     1
102
RTVSPropertyOp5
 70
     1
102
RTVSPropertyOp6
 70
     1
102
RTVSPropertyOp7
 70
     1
102
RTVSPropertyOp8
 70
     1
102
RTVSPropertyOp9
 70
     1
102
RTVSPropertyOp10
 70
     1
102
RTVSPropertyOp11
 70
     1
102
RTVSPropertyOp12
 70
     1
102
RTVSPropertyOp13
 70
     1
102
RTVSPropertyOp14
 70
     1
102
RTVSPropertyOp15
 70
     1
102
RTVSPropertyOp16
 70
     1
102
RTVSPropertyOp17
 70
     1
102
RTVSPropertyOp18
 70
     1
102
RTVSPropertyOp19
 70
     1
102
RTVSPropertyOp20
 70
     1
102
RTVSPropertyOp21
 70
     1
102
RTVSPropertyOp22
 70
     1
102
RTVSPropertyOp23
 70
     1
102
RTVSPropertyOp24
 70
     1
102
RTVSPropertyOp25
 70
     1
102
RTVSPropertyOp26
 70
     1
102
RTVSPropertyOp27
 70
     1
  0
XRECORD
  5
182C
102
{ACAD_REACTORS
330
182B
102
}
330
182B
100
AcDbXrecord
280
     1
102
RTVSPropertyOp0
 70
     1
102
RTVSPropertyOp1
 70
     1
102
RTVSPropertyOp2
 70
     1
102
RTVSPropertyOp3
 70
     1
102
RTVSPropertyOp4
 70
     1
102
RTVSPropertyOp5
 70
     1
102
RTVSPropertyOp6
 70
     1
102
RTVSPropertyOp7
 70
     1
102
RTVSPropertyOp8
 70
     1
102
RTVSPropertyOp9
 70
     1
102
RTVSPropertyOp10
 70
     1
102
RTVSPropertyOp11
 70
     1
102
RTVSPropertyOp12
 70
     1
102
RTVSPropertyOp13
 70
     1
102
RTVSPropertyOp14
 70
     1
102
RTVSPropertyOp15
 70
     1
102
RTVSPropertyOp16
 70
     1
102
RTVSPropertyOp17
 70
     1
102
RTVSPropertyOp18
 70
     1
102
RTVSPropertyOp19
 70
     1
102
RTVSPropertyOp20
 70
     1
102
RTVSPropertyOp21
 70
     1
102
RTVSPropertyOp22
 70
     1
102
RTVSPropertyOp23
 70
     1
102
RTVSPropertyOp24
 70
     1
102
RTVSPropertyOp25
 70
     1
102
RTVSPropertyOp26
 70
     1
102
RTVSPropertyOp27
 70
     1
  0
XRECORD
  5
1830
102
{ACAD_REACTORS
330
182F
102
}
330
182F
100
AcDbXrecord
280
     1
102
RTVSPropertyOp0
 70
     1
102
RTVSPropertyOp1
 70
     1
102
RTVSPropertyOp2
 70
     1
102
RTVSPropertyOp3
 70
     1
102
RTVSPropertyOp4
 70
     1
102
RTVSPropertyOp5
 70
     1
102
RTVSPropertyOp6
 70
     1
102
RTVSPropertyOp7
 70
     1
102
RTVSPropertyOp8
 70
     1
102
RTVSPropertyOp9
 70
     1
102
RTVSPropertyOp10
 70
     1
102
RTVSPropertyOp11
 70
     1
102
RTVSPropertyOp12
 70
     1
102
RTVSPropertyOp13
 70
     1
102
RTVSPropertyOp14
 70
     1
102
RTVSPropertyOp15
 70
     1
102
RTVSPropertyOp16
 70
     1
102
RTVSPropertyOp17
 70
     1
102
RTVSPropertyOp18
 70
     1
102
RTVSPropertyOp19
 70
     1
102
RTVSPropertyOp20
 70
     1
102
RTVSPropertyOp21
 70
     1
102
RTVSPropertyOp22
 70
     1
102
RTVSPropertyOp23
 70
     1
102
RTVSPropertyOp24
 70
     1
102
RTVSPropertyOp25
 70
     1
102
RTVSPropertyOp26
 70
     1
102
RTVSPropertyOp27
 70
     1
  0
XRECORD
  5
1840
102
{ACAD_REACTORS
330
183F
102
}
330
183F
100
AcDbXrecord
280
     1
102
RTVSPropertyOp0
 70
     0
102
RTVSPropertyOp1
 70
     0
102
RTVSPropertyOp2
 70
     0
102
RTVSPropertyOp3
 70
     0
102
RTVSPropertyOp4
 70
     0
102
RTVSPropertyOp5
 70
     0
102
RTVSPropertyOp6
 70
     0
102
RTVSPropertyOp7
 70
     0
102
RTVSPropertyOp8
 70
     0
102
RTVSPropertyOp9
 70
     0
102
RTVSPropertyOp10
 70
     0
102
RTVSPropertyOp11
 70
     0
102
RTVSPropertyOp12
 70
     0
102
RTVSPropertyOp13
 70
     0
102
RTVSPropertyOp14
 70
     2
102
RTVSPropertyOp15
 70
     0
102
RTVSPropertyOp16
 70
     0
102
RTVSPropertyOp17
 70
     0
102
RTVSPropertyOp18
 70
     0
102
RTVSPropertyOp19
 70
     0
102
RTVSPropertyOp20
 70
     0
102
RTVSPropertyOp21
 70
     0
102
RTVSPropertyOp22
 70
     0
102
RTVSPropertyOp23
 70
     0
102
RTVSPropertyOp24
 70
     0
102
RTVSPropertyOp25
 70
     0
102
RTVSPropertyOp26
 70
     0
102
RTVSPropertyOp27
 70
     0
  0
XRECORD
  5
1838
102
{ACAD_REACTORS
330
1837
102
}
330
1837
100
AcDbXrecord
280
     1
102
RTVSPropertyOp0
 70
     1
102
RTVSPropertyOp1
 70
     1
102
RTVSPropertyOp2
 70
     1
102
RTVSPropertyOp3
 70
     1
102
RTVSPropertyOp4
 70
     1
102
RTVSPropertyOp5
 70
     1
102
RTVSPropertyOp6
 70
     1
102
RTVSPropertyOp7
 70
     1
102
RTVSPropertyOp8
 70
     1
102
RTVSPropertyOp9
 70
     1
102
RTVSPropertyOp10
 70
     1
102
RTVSPropertyOp11
 70
     1
102
RTVSPropertyOp12
 70
     1
102
RTVSPropertyOp13
 70
     1
102
RTVSPropertyOp14
 70
     1
102
RTVSPropertyOp15
 70
     1
102
RTVSPropertyOp16
 70
     1
102
RTVSPropertyOp17
 70
     1
102
RTVSPropertyOp18
 70
     1
102
RTVSPropertyOp19
 70
     1
102
RTVSPropertyOp20
 70
     1
102
RTVSPropertyOp21
 70
     1
102
RTVSPropertyOp22
 70
     1
102
RTVSPropertyOp23
 70
     1
102
RTVSPropertyOp24
 70
     1
102
RTVSPropertyOp25
 70
     1
102
RTVSPropertyOp26
 70
     1
102
RTVSPropertyOp27
 70
     1
  0
XRECORD
  5
181C
102
{ACAD_REACTORS
330
181B
102
}
330
181B
100
AcDbXrecord
280
     1
102
RTVSPropertyOp0
 70
     1
102
RTVSPropertyOp1
 70
     1
102
RTVSPropertyOp2
 70
     1
102
RTVSPropertyOp3
 70
     1
102
RTVSPropertyOp4
 70
     1
102
RTVSPropertyOp5
 70
     1
102
RTVSPropertyOp6
 70
     1
102
RTVSPropertyOp7
 70
     1
102
RTVSPropertyOp8
 70
     1
102
RTVSPropertyOp9
 70
     1
102
RTVSPropertyOp10
 70
     1
102
RTVSPropertyOp11
 70
     1
102
RTVSPropertyOp12
 70
     1
102
RTVSPropertyOp13
 70
     1
102
RTVSPropertyOp14
 70
     1
102
RTVSPropertyOp15
 70
     1
102
RTVSPropertyOp16
 70
     1
102
RTVSPropertyOp17
 70
     1
102
RTVSPropertyOp18
 70
     1
102
RTVSPropertyOp19
 70
     1
102
RTVSPropertyOp20
 70
     1
102
RTVSPropertyOp21
 70
     1
102
RTVSPropertyOp22
 70
     1
102
RTVSPropertyOp23
 70
     1
102
RTVSPropertyOp24
 70
     1
102
RTVSPropertyOp25
 70
     1
102
RTVSPropertyOp26
 70
     1
102
RTVSPropertyOp27
 70
     1
  0
XRECORD
  5
181E
102
{ACAD_REACTORS
330
181D
102
}
330
181D
100
AcDbXrecord
280
     1
102
RTVSPropertyOp0
 70
     1
102
RTVSPropertyOp1
 70
     1
102
RTVSPropertyOp2
 70
     1
102
RTVSPropertyOp3
 70
     1
102
RTVSPropertyOp4
 70
     1
102
RTVSPropertyOp5
 70
     1
102
RTVSPropertyOp6
 70
     1
102
RTVSPropertyOp7
 70
     1
102
RTVSPropertyOp8
 70
     1
102
RTVSPropertyOp9
 70
     1
102
RTVSPropertyOp10
 70
     1
102
RTVSPropertyOp11
 70
     1
102
RTVSPropertyOp12
 70
     1
102
RTVSPropertyOp13
 70
     1
102
RTVSPropertyOp14
 70
     1
102
RTVSPropertyOp15
 70
     1
102
RTVSPropertyOp16
 70
     1
102
RTVSPropertyOp17
 70
     1
102
RTVSPropertyOp18
 70
     1
102
RTVSPropertyOp19
 70
     1
102
RTVSPropertyOp20
 70
     1
102
RTVSPropertyOp21
 70
     1
102
RTVSPropertyOp22
 70
     1
102
RTVSPropertyOp23
 70
     1
102
RTVSPropertyOp24
 70
     1
102
RTVSPropertyOp25
 70
     1
102
RTVSPropertyOp26
 70
     1
102
RTVSPropertyOp27
 70
     1
  0
XRECORD
  5
1820
102
{ACAD_REACTORS
330
181F
102
}
330
181F
100
AcDbXrecord
280
     1
102
RTVSPropertyOp0
 70
     1
102
RTVSPropertyOp1
 70
     1
102
RTVSPropertyOp2
 70
     1
102
RTVSPropertyOp3
 70
     1
102
RTVSPropertyOp4
 70
     1
102
RTVSPropertyOp5
 70
     1
102
RTVSPropertyOp6
 70
     1
102
RTVSPropertyOp7
 70
     1
102
RTVSPropertyOp8
 70
     1
102
RTVSPropertyOp9
 70
     1
102
RTVSPropertyOp10
 70
     1
102
RTVSPropertyOp11
 70
     1
102
RTVSPropertyOp12
 70
     1
102
RTVSPropertyOp13
 70
     1
102
RTVSPropertyOp14
 70
     1
102
RTVSPropertyOp15
 70
     1
102
RTVSPropertyOp16
 70
     1
102
RTVSPropertyOp17
 70
     1
102
RTVSPropertyOp18
 70
     1
102
RTVSPropertyOp19
 70
     1
102
RTVSPropertyOp20
 70
     1
102
RTVSPropertyOp21
 70
     1
102
RTVSPropertyOp22
 70
     1
102
RTVSPropertyOp23
 70
     1
102
RTVSPropertyOp24
 70
     1
102
RTVSPropertyOp25
 70
     1
102
RTVSPropertyOp26
 70
     1
102
RTVSPropertyOp27
 70
     1
  0
XRECORD
  5
1822
102
{ACAD_REACTORS
330
1821
102
}
330
1821
100
AcDbXrecord
280
     1
102
RTVSPropertyOp0
 70
     1
102
RTVSPropertyOp1
 70
     1
102
RTVSPropertyOp2
 70
     1
102
RTVSPropertyOp3
 70
     1
102
RTVSPropertyOp4
 70
     1
102
RTVSPropertyOp5
 70
     1
102
RTVSPropertyOp6
 70
     1
102
RTVSPropertyOp7
 70
     1
102
RTVSPropertyOp8
 70
     1
102
RTVSPropertyOp9
 70
     1
102
RTVSPropertyOp10
 70
     1
102
RTVSPropertyOp11
 70
     1
102
RTVSPropertyOp12
 70
     1
102
RTVSPropertyOp13
 70
     1
102
RTVSPropertyOp14
 70
     1
102
RTVSPropertyOp15
 70
     1
102
RTVSPropertyOp16
 70
     1
102
RTVSPropertyOp17
 70
     1
102
RTVSPropertyOp18
 70
     1
102
RTVSPropertyOp19
 70
     1
102
RTVSPropertyOp20
 70
     1
102
RTVSPropertyOp21
 70
     1
102
RTVSPropertyOp22
 70
     1
102
RTVSPropertyOp23
 70
     1
102
RTVSPropertyOp24
 70
     1
102
RTVSPropertyOp25
 70
     1
102
RTVSPropertyOp26
 70
     1
102
RTVSPropertyOp27
 70
     1
  0
XRECORD
  5
183C
102
{ACAD_REACTORS
330
183B
102
}
330
183B
100
AcDbXrecord
280
     1
102
RTVSPropertyOp0
 70
     0
102
RTVSPropertyOp1
 70
     0
102
RTVSPropertyOp2
 70
     0
102
RTVSPropertyOp3
 70
     0
102
RTVSPropertyOp4
 70
     0
102
RTVSPropertyOp5
 70
     0
102
RTVSPropertyOp6
 70
     0
102
RTVSPropertyOp7
 70
     0
102
RTVSPropertyOp8
 70
     0
102
RTVSPropertyOp9
 70
     0
102
RTVSPropertyOp10
 70
     0
102
RTVSPropertyOp11
 70
     0
102
RTVSPropertyOp12
 70
     0
102
RTVSPropertyOp13
 70
     0
102
RTVSPropertyOp14
 70
     2
102
RTVSPropertyOp15
 70
     0
102
RTVSPropertyOp16
 70
     0
102
RTVSPropertyOp17
 70
     0
102
RTVSPropertyOp18
 70
     0
102
RTVSPropertyOp19
 70
     0
102
RTVSPropertyOp20
 70
     0
102
RTVSPropertyOp21
 70
     0
102
RTVSPropertyOp22
 70
     0
102
RTVSPropertyOp23
 70
     0
102
RTVSPropertyOp24
 70
     0
102
RTVSPropertyOp25
 70
     0
102
RTVSPropertyOp26
 70
     0
102
RTVSPropertyOp27
 70
     0
  0
XRECORD
  5
1836
102
{ACAD_REACTORS
330
1835
102
}
330
1835
100
AcDbXrecord
280
     1
102
RTVSPropertyOp0
 70
     1
102
RTVSPropertyOp1
 70
     1
102
RTVSPropertyOp2
 70
     1
102
RTVSPropertyOp3
 70
     1
102
RTVSPropertyOp4
 70
     1
102
RTVSPropertyOp5
 70
     1
102
RTVSPropertyOp6
 70
     1
102
RTVSPropertyOp7
 70
     1
102
RTVSPropertyOp8
 70
     1
102
RTVSPropertyOp9
 70
     1
102
RTVSPropertyOp10
 70
     1
102
RTVSPropertyOp11
 70
     1
102
RTVSPropertyOp12
 70
     1
102
RTVSPropertyOp13
 70
     1
102
RTVSPropertyOp14
 70
     1
102
RTVSPropertyOp15
 70
     1
102
RTVSPropertyOp16
 70
     1
102
RTVSPropertyOp17
 70
     1
102
RTVSPropertyOp18
 70
     1
102
RTVSPropertyOp19
 70
     1
102
RTVSPropertyOp20
 70
     1
102
RTVSPropertyOp21
 70
     1
102
RTVSPropertyOp22
 70
     1
102
RTVSPropertyOp23
 70
     1
102
RTVSPropertyOp24
 70
     1
102
RTVSPropertyOp25
 70
     1
102
RTVSPropertyOp26
 70
     1
102
RTVSPropertyOp27
 70
     1
  0
XRECORD
  5
183E
102
{ACAD_REACTORS
330
183D
102
}
330
183D
100
AcDbXrecord
280
     1
102
RTVSPropertyOp0
 70
     0
102
RTVSPropertyOp1
 70
     0
102
RTVSPropertyOp2
 70
     0
102
RTVSPropertyOp3
 70
     0
102
RTVSPropertyOp4
 70
     0
102
RTVSPropertyOp5
 70
     0
102
RTVSPropertyOp6
 70
     0
102
RTVSPropertyOp7
 70
     0
102
RTVSPropertyOp8
 70
     0
102
RTVSPropertyOp9
 70
     0
102
RTVSPropertyOp10
 70
     0
102
RTVSPropertyOp11
 70
     0
102
RTVSPropertyOp12
 70
     0
102
RTVSPropertyOp13
 70
     0
102
RTVSPropertyOp14
 70
     2
102
RTVSPropertyOp15
 70
     0
102
RTVSPropertyOp16
 70
     0
102
RTVSPropertyOp17
 70
     0
102
RTVSPropertyOp18
 70
     0
102
RTVSPropertyOp19
 70
     0
102
RTVSPropertyOp20
 70
     0
102
RTVSPropertyOp21
 70
     0
102
RTVSPropertyOp22
 70
     0
102
RTVSPropertyOp23
 70
     0
102
RTVSPropertyOp24
 70
     0
102
RTVSPropertyOp25
 70
     0
102
RTVSPropertyOp26
 70
     0
102
RTVSPropertyOp27
 70
     0
  0
XRECORD
  5
182E
102
{ACAD_REACTORS
330
182D
102
}
330
182D
100
AcDbXrecord
280
     1
102
RTVSPropertyOp0
 70
     1
102
RTVSPropertyOp1
 70
     1
102
RTVSPropertyOp2
 70
     1
102
RTVSPropertyOp3
 70
     1
102
RTVSPropertyOp4
 70
     1
102
RTVSPropertyOp5
 70
     1
102
RTVSPropertyOp6
 70
     1
102
RTVSPropertyOp7
 70
     1
102
RTVSPropertyOp8
 70
     1
102
RTVSPropertyOp9
 70
     1
102
RTVSPropertyOp10
 70
     1
102
RTVSPropertyOp11
 70
     1
102
RTVSPropertyOp12
 70
     1
102
RTVSPropertyOp13
 70
     1
102
RTVSPropertyOp14
 70
     1
102
RTVSPropertyOp15
 70
     1
102
RTVSPropertyOp16
 70
     1
102
RTVSPropertyOp17
 70
     1
102
RTVSPropertyOp18
 70
     1
102
RTVSPropertyOp19
 70
     1
102
RTVSPropertyOp20
 70
     1
102
RTVSPropertyOp21
 70
     1
102
RTVSPropertyOp22
 70
     1
102
RTVSPropertyOp23
 70
     1
102
RTVSPropertyOp24
 70
     1
102
RTVSPropertyOp25
 70
     1
102
RTVSPropertyOp26
 70
     1
102
RTVSPropertyOp27
 70
     1
  0
XRECORD
  5
1834
102
{ACAD_REACTORS
330
1833
102
}
330
1833
100
AcDbXrecord
280
     1
102
RTVSPropertyOp0
 70
     1
102
RTVSPropertyOp1
 70
     1
102
RTVSPropertyOp2
 70
     1
102
RTVSPropertyOp3
 70
     1
102
RTVSPropertyOp4
 70
     1
102
RTVSPropertyOp5
 70
     1
102
RTVSPropertyOp6
 70
     1
102
RTVSPropertyOp7
 70
     1
102
RTVSPropertyOp8
 70
     1
102
RTVSPropertyOp9
 70
     1
102
RTVSPropertyOp10
 70
     1
102
RTVSPropertyOp11
 70
     1
102
RTVSPropertyOp12
 70
     1
102
RTVSPropertyOp13
 70
     1
102
RTVSPropertyOp14
 70
     1
102
RTVSPropertyOp15
 70
     1
102
RTVSPropertyOp16
 70
     1
102
RTVSPropertyOp17
 70
     1
102
RTVSPropertyOp18
 70
     1
102
RTVSPropertyOp19
 70
     1
102
RTVSPropertyOp20
 70
     1
102
RTVSPropertyOp21
 70
     1
102
RTVSPropertyOp22
 70
     1
102
RTVSPropertyOp23
 70
     1
102
RTVSPropertyOp24
 70
     1
102
RTVSPropertyOp25
 70
     1
102
RTVSPropertyOp26
 70
     1
102
RTVSPropertyOp27
 70
     1
  0
ENDSEC
  0
EOF
