  0
SECTION
  2
HEADER
  9
$ACADVER
  1
AC1015
  9
$ACADMAINTVER
 70
    20
  9
$DWGCODEPAGE
  3
ANSI_1252
  9
$INSBASE
 10
0.0
 20
0.0
 30
0.0
  9
$EXTMIN
 10
4766.032559971321
 20
2545.464577119129
 30
0.0
  9
$EXTMAX
 10
4768.399373948351
 20
2546.22757750637
 30
0.0
  9
$LIMMIN
 10
0.0
 20
0.0
  9
$LIMMAX
 10
420.0
 20
297.0
  9
$ORTHOMODE
 70
     1
  9
$REGENMODE
 70
     1
  9
$FILLMODE
 70
     1
  9
$QTEXTMODE
 70
     0
  9
$MIRRTEXT
 70
     1
  9
$LTSCALE
 40
1.0
  9
$ATTMODE
 70
     1
  9
$TEXTSIZE
 40
2.5
  9
$TRACEWID
 40
1.0
  9
$TEXTSTYLE
  7
SANINDUSA
  9
$CLAYER
  8
0
  9
$CELTYPE
  6
ByLayer
  9
$CECOLOR
 62
   256
  9
$CELTSCALE
 40
1.0
  9
$DISPSILH
 70
     0
  9
$DIMSCALE
 40
1.0
  9
$DIMASZ
 40
2.0
  9
$DIMEXO
 40
1.0
  9
$DIMDLI
 40
1.0
  9
$DIMRND
 40
0.0
  9
$DIMDLE
 40
0.0
  9
$DIMEXE
 40
1.0
  9
$DIMTP
 40
0.0
  9
$DIMTM
 40
0.0
  9
$DIMTXT
 40
2.0
  9
$DIMCEN
 40
0.0
  9
$DIMTSZ
 40
0.0
  9
$DIMTOL
 70
     0
  9
$DIMLIM
 70
     0
  9
$DIMTIH
 70
     0
  9
$DIMTOH
 70
     0
  9
$DIMSE1
 70
     0
  9
$DIMSE2
 70
     0
  9
$DIMTAD
 70
     1
  9
$DIMZIN
 70
     8
  9
$DIMBLK
  1

  9
$DIMASO
 70
     1
  9
$DIMSHO
 70
     1
  9
$DIMPOST
  1

  9
$DIMAPOST
  1

  9
$DIMALT
 70
     0
  9
$DIMALTD
 70
     3
  9
$DIMALTF
 40
0.03937007874016
  9
$DIMLFAC
 40
1.0
  9
$DIMTOFL
 70
     1
  9
$DIMTVP
 40
0.0
  9
$DIMTIX
 70
     0
  9
$DIMSOXD
 70
     0
  9
$DIMSAH
 70
     0
  9
$DIMBLK1
  1

  9
$DIMBLK2
  1

  9
$DIMSTYLE
  2
SANINDUSA
  9
$DIMCLRD
 70
   256
  9
$DIMCLRE
 70
   256
  9
$DIMCLRT
 70
   256
  9
$DIMTFAC
 40
1.0
  9
$DIMGAP
 40
1.0
  9
$DIMJUST
 70
     0
  9
$DIMSD1
 70
     0
  9
$DIMSD2
 70
     0
  9
$DIMTOLJ
 70
     0
  9
$DIMTZIN
 70
     8
  9
$DIMALTZ
 70
     0
  9
$DIMALTTZ
 70
     0
  9
$DIMUPT
 70
     0
  9
$DIMDEC
 70
     1
  9
$DIMTDEC
 70
     1
  9
$DIMALTU
 70
     2
  9
$DIMALTTD
 70
     3
  9
$DIMTXSTY
  7
SANINDUSA
  9
$DIMAUNIT
 70
     0
  9
$DIMADEC
 70
     1
  9
$DIMALTRND
 40
0.0
  9
$DIMAZIN
 70
     0
  9
$DIMDSEP
 70
    44
  9
$DIMATFIT
 70
     3
  9
$DIMFRAC
 70
     0
  9
$DIMLDRBLK
  1

  9
$DIMLUNIT
 70
     2
  9
$DIMLWD
 70
    -1
  9
$DIMLWE
 70
    -1
  9
$DIMTMOVE
 70
     0
  9
$LUNITS
 70
     2
  9
$LUPREC
 70
     4
  9
$SKETCHINC
 40
1.0
  9
$FILLETRAD
 40
0.0
  9
$AUNITS
 70
     0
  9
$AUPREC
 70
     0
  9
$MENU
  1
.
  9
$ELEVATION
 40
0.0
  9
$PELEVATION
 40
0.0
  9
$THICKNESS
 40
0.0
  9
$LIMCHECK
 70
     0
  9
$CHAMFERA
 40
10.0
  9
$CHAMFERB
 40
10.0
  9
$CHAMFERC
 40
20.0
  9
$CHAMFERD
 40
0.0
  9
$SKPOLY
 70
     0
  9
$TDCREATE
 40
2455776.701374236
  9
$TDUCREATE
 40
2455776.659707570
  9
$TDUPDATE
 40
2456111.467291481
  9
$TDUUPDATE
 40
2456111.425624815
  9
$TDINDWG
 40
0.0159192361
  9
$TDUSRTIMER
 40
0.0159183333
  9
$USRTIMER
 70
     1
  9
$ANGBASE
 50
0.0
  9
$ANGDIR
 70
     0
  9
$PDMODE
 70
     0
  9
$PDSIZE
 40
0.0
  9
$PLINEWID
 40
0.0
  9
$SPLFRAME
 70
     0
  9
$SPLINETYPE
 70
     6
  9
$SPLINESEGS
 70
     8
  9
$HANDSEED
  5
1F2D
  9
$SURFTAB1
 70
     6
  9
$SURFTAB2
 70
     6
  9
$SURFTYPE
 70
     6
  9
$SURFU
 70
     6
  9
$SURFV
 70
     6
  9
$UCSBASE
  2

  9
$UCSNAME
  2

  9
$UCSORG
 10
0.0
 20
0.0
 30
0.0
  9
$UCSXDIR
 10
1.0
 20
0.0
 30
0.0
  9
$UCSYDIR
 10
0.0
 20
1.0
 30
0.0
  9
$UCSORTHOREF
  2

  9
$UCSORTHOVIEW
 70
     0
  9
$UCSORGTOP
 10
0.0
 20
0.0
 30
0.0
  9
$UCSORGBOTTOM
 10
0.0
 20
0.0
 30
0.0
  9
$UCSORGLEFT
 10
0.0
 20
0.0
 30
0.0
  9
$UCSORGRIGHT
 10
0.0
 20
0.0
 30
0.0
  9
$UCSORGFRONT
 10
0.0
 20
0.0
 30
0.0
  9
$UCSORGBACK
 10
0.0
 20
0.0
 30
0.0
  9
$PUCSBASE
  2

  9
$PUCSNAME
  2

  9
$PUCSORG
 10
0.0
 20
0.0
 30
0.0
  9
$PUCSXDIR
 10
1.0
 20
0.0
 30
0.0
  9
$PUCSYDIR
 10
0.0
 20
1.0
 30
0.0
  9
$PUCSORTHOREF
  2

  9
$PUCSORTHOVIEW
 70
     0
  9
$PUCSORGTOP
 10
0.0
 20
0.0
 30
0.0
  9
$PUCSORGBOTTOM
 10
0.0
 20
0.0
 30
0.0
  9
$PUCSORGLEFT
 10
0.0
 20
0.0
 30
0.0
  9
$PUCSORGRIGHT
 10
0.0
 20
0.0
 30
0.0
  9
$PUCSORGFRONT
 10
0.0
 20
0.0
 30
0.0
  9
$PUCSORGBACK
 10
0.0
 20
0.0
 30
0.0
  9
$USERI1
 70
     0
  9
$USERI2
 70
     0
  9
$USERI3
 70
     0
  9
$USERI4
 70
     0
  9
$USERI5
 70
     0
  9
$USERR1
 40
0.0
  9
$USERR2
 40
0.0
  9
$USERR3
 40
0.0
  9
$USERR4
 40
0.0
  9
$USERR5
 40
0.0
  9
$WORLDVIEW
 70
     1
  9
$SHADEDGE
 70
     3
  9
$SHADEDIF
 70
    70
  9
$TILEMODE
 70
     1
  9
$MAXACTVP
 70
    64
  9
$PINSBASE
 10
0.0
 20
0.0
 30
0.0
  9
$PLIMCHECK
 70
     0
  9
$PEXTMIN
 10
1.000000000000000E+20
 20
1.000000000000000E+20
 30
1.000000000000000E+20
  9
$PEXTMAX
 10
-1.000000000000000E+20
 20
-1.000000000000000E+20
 30
-1.000000000000000E+20
  9
$PLIMMIN
 10
0.0
 20
0.0
  9
$PLIMMAX
 10
420.0
 20
297.0
  9
$UNITMODE
 70
     0
  9
$VISRETAIN
 70
     1
  9
$PLINEGEN
 70
     0
  9
$PSLTSCALE
 70
     1
  9
$TREEDEPTH
 70
  3020
  9
$CMLSTYLE
  2
Standard
  9
$CMLJUST
 70
     0
  9
$CMLSCALE
 40
20.0
  9
$PROXYGRAPHICS
 70
     1
  9
$MEASUREMENT
 70
     1
  9
$CELWEIGHT
370
    -1
  9
$ENDCAPS
280
     0
  9
$JOINSTYLE
280
     0
  9
$LWDISPLAY
290
     0
  9
$INSUNITS
 70
     4
  9
$HYPERLINKBASE
  1

  9
$STYLESHEET
  1
sanindusa.ctb
  9
$XEDIT
290
     1
  9
$CEPSNTYPE
380
     0
  9
$PSTYLEMODE
290
     1
  9
$FINGERPRINTGUID
  2
{B0FDBDD6-C10E-47BD-B503-37C1E0A776A2}
  9
$VERSIONGUID
  2
{8A87EC2B-73D9-4516-8767-C9541E1C525C}
  9
$EXTNAMES
290
     1
  9
$PSVPSCALE
 40
0.0
  9
$OLESTARTUP
290
     0
  0
ENDSEC
  0
SECTION
  2
CLASSES
  0
CLASS
  1
ACDBDICTIONARYWDFLT
  2
AcDbDictionaryWithDefault
  3
ObjectDBX Classes
 90
        0
280
     0
281
     0
  0
CLASS
  1
ACDBPLACEHOLDER
  2
AcDbPlaceHolder
  3
ObjectDBX Classes
 90
        0
280
     0
281
     0
  0
CLASS
  1
LAYOUT
  2
AcDbLayout
  3
ObjectDBX Classes
 90
        0
280
     0
281
     0
  0
CLASS
  1
DICTIONARYVAR
  2
AcDbDictionaryVar
  3
ObjectDBX Classes
 90
        0
280
     0
281
     0
  0
CLASS
  1
DIMASSOC
  2
AcDbDimAssoc
  3
"AcDbDimAssoc|Product Desc:     AcDim ARX App For Dimension|Company:          Autodesk, Inc.|WEB Address:      www.autodesk.com"
 90
    32768
280
     0
281
     0
  0
CLASS
  1
TABLESTYLE
  2
AcDbTableStyle
  3
ObjectDBX Classes
 90
     4095
280
     0
281
     0
  0
CLASS
  1
MATERIAL
  2
AcDbMaterial
  3
ObjectDBX Classes
 90
     1153
280
     0
281
     0
  0
CLASS
  1
VISUALSTYLE
  2
AcDbVisualStyle
  3
ObjectDBX Classes
 90
     4095
280
     0
281
     0
  0
CLASS
  1
SCALE
  2
AcDbScale
  3
ObjectDBX Classes
 90
     1153
280
     0
281
     0
  0
CLASS
  1
MLEADERSTYLE
  2
AcDbMLeaderStyle
  3
ACDB_MLEADERSTYLE_CLASS
 90
     4095
280
     0
281
     0
  0
CLASS
  1
SORTENTSTABLE
  2
AcDbSortentsTable
  3
ObjectDBX Classes
 90
    32768
280
     0
281
     0
  0
CLASS
  1
AEC_REFEDIT_STATUS_TRACKER
  2
AecDbRefEditStatusTracker
  3
AecArchBase60|Product Desc: Autodesk Architectural Desktop 2007 |Company: Autodesk,Inc. |WEB Address: www.autodesk.com
 90
      129
280
     0
281
     0
  0
CLASS
  1
NPOCOLLECTION
  2
AcDbImpNonPersistentObjectsCollection
  3
ObjectDBX Classes
 90
     1153
280
     0
281
     0
  0
CLASS
  1
CELLSTYLEMAP
  2
AcDbCellStyleMap
  3
ObjectDBX Classes
 90
     1152
280
     0
281
     0
  0
CLASS
  1
SOLID_BACKGROUND
  2
AcDbSolidBackground
  3
SCENEOE
 90
     4095
280
     0
281
     0
  0
ENDSEC
  0
SECTION
  2
TABLES
  0
TABLE
  2
VPORT
  5
8
102
{ACAD_XDICTIONARY
360
1BA7
102
}
330
0
100
AcDbSymbolTable
 70
     1
  0
VPORT
  5
1068
330
8
100
AcDbSymbolTableRecord
100
AcDbViewportTableRecord
  2
*Active
 70
     0
 10
0.0
 20
0.0
 11
1.0
 21
1.0
 12
4767.215966959837
 22
2545.846077312749
 13
0.0
 23
0.0
 14
10.0
 24
10.0
 15
10.0
 25
10.0
 16
0.0
 26
0.0
 36
1.0
 17
0.0
 27
0.0
 37
0.0
 40
1.443850402878857
 41
1.645464025026068
 42
50.0
 43
0.0
 44
0.0
 50
0.0
 51
0.0
 71
     0
 72
   100
 73
     1
 74
     2
 75
     0
 76
     0
 77
     0
 78
     0
281
     0
 65
     1
110
0.0
120
0.0
130
0.0
111
1.0
121
0.0
131
0.0
112
0.0
122
1.0
132
0.0
 79
     0
146
0.0
  0
ENDTAB
  0
TABLE
  2
LTYPE
  5
5
330
0
100
AcDbSymbolTable
 70
     6
  0
LTYPE
  5
14
330
5
100
AcDbSymbolTableRecord
100
AcDbLinetypeTableRecord
  2
ByBlock
 70
     0
  3

 72
    65
 73
     0
 40
0.0
  0
LTYPE
  5
15
330
5
100
AcDbSymbolTableRecord
100
AcDbLinetypeTableRecord
  2
ByLayer
 70
     0
  3

 72
    65
 73
     0
 40
0.0
  0
LTYPE
  5
16
330
5
100
AcDbSymbolTableRecord
100
AcDbLinetypeTableRecord
  2
Continuous
 70
     0
  3
Solid line
 72
    65
 73
     0
 40
0.0
  0
LTYPE
  5
2D
330
5
100
AcDbSymbolTableRecord
100
AcDbLinetypeTableRecord
  2
DASHDOT
 70
     0
  3
Dash dot __ . __ . __ . __ . __ . __ . __ . __
 72
    65
 73
     4
 40
25.4
 49
12.7
 74
     0
 49
-6.349999999999999
 74
     0
 49
0.0
 74
     0
 49
-6.349999999999999
 74
     0
  0
LTYPE
  5
2E
330
5
100
AcDbSymbolTableRecord
100
AcDbLinetypeTableRecord
  2
HIDDEN
 70
     0
  3
Hidden __ __ __ __ __ __ __ __ __ __ __ __ __ _
 72
    65
 73
     2
 40
9.524999999999998
 49
6.349999999999999
 74
     0
 49
-3.174999999999999
 74
     0
  0
LTYPE
  5
C75
330
5
100
AcDbSymbolTableRecord
100
AcDbLinetypeTableRecord
  2
AM_ISO02W050
 70
     0
  3
__ __ __ __ __ __ __ __ __ __ __ __ __ __ __
 72
    65
 73
     2
 40
7.5
 49
6.0
 74
     0
 49
-1.5
 74
     0
  0
LTYPE
  5
C76
330
5
100
AcDbSymbolTableRecord
100
AcDbLinetypeTableRecord
  2
AM_ISO08W050
 70
     0
  3
____ . ____ . ____ . ____ . ____ . ____ . ____
 72
    65
 73
     4
 40
18.0
 49
12.0
 74
     0
 49
-1.5
 74
     0
 49
3.0
 74
     0
 49
-1.5
 74
     0
  0
ENDTAB
  0
TABLE
  2
LAYER
  5
2
102
{ACAD_XDICTIONARY
360
1051
102
}
330
0
100
AcDbSymbolTable
 70
    17
  0
LAYER
  5
10
102
{ACAD_XDICTIONARY
360
1B39
102
}
330
2
100
AcDbSymbolTableRecord
100
AcDbLayerTableRecord
  2
0
 70
     0
 62
     7
  6
Continuous
370
    -3
390
F
  0
LAYER
  5
2F
102
{ACAD_XDICTIONARY
360
1B3B
102
}
330
2
100
AcDbSymbolTableRecord
100
AcDbLayerTableRecord
  2
1
 70
     0
 62
     1
  6
Continuous
370
    -3
390
F
  0
LAYER
  5
30
102
{ACAD_XDICTIONARY
360
1B3D
102
}
330
2
100
AcDbSymbolTableRecord
100
AcDbLayerTableRecord
  2
2
 70
     0
 62
     2
  6
Continuous
370
    -3
390
F
  0
LAYER
  5
31
102
{ACAD_XDICTIONARY
360
1B3F
102
}
330
2
100
AcDbSymbolTableRecord
100
AcDbLayerTableRecord
  2
3
 70
     0
 62
     3
  6
Continuous
370
    -3
390
F
  0
LAYER
  5
32
102
{ACAD_XDICTIONARY
360
1B41
102
}
330
2
100
AcDbSymbolTableRecord
100
AcDbLayerTableRecord
  2
4
 70
     0
 62
     4
  6
Continuous
370
    -3
390
F
  0
LAYER
  5
33
102
{ACAD_XDICTIONARY
360
1B43
102
}
330
2
100
AcDbSymbolTableRecord
100
AcDbLayerTableRecord
  2
5
 70
     0
 62
     5
  6
Continuous
370
    -3
390
F
  0
LAYER
  5
34
102
{ACAD_XDICTIONARY
360
1B45
102
}
330
2
100
AcDbSymbolTableRecord
100
AcDbLayerTableRecord
  2
6
 70
     0
 62
     6
  6
Continuous
370
    -3
390
F
  0
LAYER
  5
35
102
{ACAD_XDICTIONARY
360
1B47
102
}
330
2
100
AcDbSymbolTableRecord
100
AcDbLayerTableRecord
  2
7
 70
     0
 62
     7
  6
Continuous
370
    -3
390
F
  0
LAYER
  5
36
102
{ACAD_XDICTIONARY
360
1B49
102
}
330
2
100
AcDbSymbolTableRecord
100
AcDbLayerTableRecord
  2
cen
 70
     0
 62
     7
  6
DASHDOT
370
    -3
390
F
  0
LAYER
  5
37
102
{ACAD_XDICTIONARY
360
1B4B
102
}
330
2
100
AcDbSymbolTableRecord
100
AcDbLayerTableRecord
  2
hid
 70
     0
 62
     7
  6
HIDDEN
370
    -3
390
F
  0
LAYER
  5
5D6
102
{ACAD_XDICTIONARY
360
1B4D
102
}
330
2
100
AcDbSymbolTableRecord
100
AcDbLayerTableRecord
  2
hatch
 70
     0
 62
     9
  6
Continuous
370
    -3
390
F
  0
LAYER
  5
8AF
102
{ACAD_XDICTIONARY
360
1B4F
102
}
330
2
100
AcDbSymbolTableRecord
100
AcDbLayerTableRecord
  2
9
 70
     0
 62
     9
  6
Continuous
370
    -3
390
F
  0
LAYER
  5
8F8
102
{ACAD_XDICTIONARY
360
1B51
102
}
330
2
100
AcDbSymbolTableRecord
100
AcDbLayerTableRecord
  2
leg fin
 70
     0
 62
     9
  6
Continuous
370
    -3
390
F
  0
LAYER
  5
91D
102
{ACAD_XDICTIONARY
360
1B53
102
}
330
2
100
AcDbSymbolTableRecord
100
AcDbLayerTableRecord
  2
cotas
 70
     0
 62
     1
  6
Continuous
370
    -3
390
F
  0
LAYER
  5
92F
330
2
100
AcDbSymbolTableRecord
100
AcDbLayerTableRecord
  2
Defpoints
 70
     0
 62
     7
  6
Continuous
290
     0
370
    -3
390
F
  0
LAYER
  5
C7B
102
{ACAD_XDICTIONARY
360
1B55
102
}
330
2
100
AcDbSymbolTableRecord
100
AcDbLayerTableRecord
  2
SANINDUSA
 70
     0
 62
     3
  6
Continuous
370
    -3
390
F
  0
LAYER
  5
1060
102
{ACAD_XDICTIONARY
360
1B57
102
}
330
2
100
AcDbSymbolTableRecord
100
AcDbLayerTableRecord
  2
hid1
 70
     0
 62
     9
  6
HIDDEN
370
    -3
390
F
1001
AcAecLayerStandard
1000

1000

  0
ENDTAB
  0
TABLE
  2
STYLE
  5
3
330
0
100
AcDbSymbolTable
 70
     4
  0
STYLE
  5
11
330
3
100
AcDbSymbolTableRecord
100
AcDbTextStyleTableRecord
  2
Standard
 70
     0
 40
0.0
 41
1.0
 50
0.0
 71
     0
 42
2.5
  3
Avgardn.ttf
  4

1001
ACAD
1000
AvantGarde Bk BT
1071
       34
  0
STYLE
  5
2C
330
3
100
AcDbSymbolTableRecord
100
AcDbTextStyleTableRecord
  2

 70
     1
 40
0.0
 41
1.0
 50
0.0
 71
     0
 42
2.5
  3
ltypeshp.shx
  4

  0
STYLE
  5
91F
330
3
100
AcDbSymbolTableRecord
100
AcDbTextStyleTableRecord
  2
SANINDUSA
 70
     0
 40
0.0
 41
1.0
 50
0.0
 71
     0
 42
2.5
  3
verdana.TTF
  4

1001
ACAD
1000
Verdana
1071
       34
  0
STYLE
  5
C7C
330
3
100
AcDbSymbolTableRecord
100
AcDbTextStyleTableRecord
  2
futura
 70
     0
 40
0.0
 41
1.0
 50
0.0
 71
     0
 42
2.5
  3
ZURCHN.TTF
  4

1001
ACAD
1000
Zurich BT
1071
       34
  0
ENDTAB
  0
TABLE
  2
VIEW
  5
6
330
0
100
AcDbSymbolTable
 70
     0
  0
ENDTAB
  0
TABLE
  2
UCS
  5
7
330
0
100
AcDbSymbolTable
 70
     0
  0
ENDTAB
  0
TABLE
  2
APPID
  5
9
330
0
100
AcDbSymbolTable
 70
    15
  0
APPID
  5
12
330
9
100
AcDbSymbolTableRecord
100
AcDbRegAppTableRecord
  2
ACAD
 70
     0
  0
APPID
  5
3A
330
9
100
AcDbSymbolTableRecord
100
AcDbRegAppTableRecord
  2
DCO15
 70
     0
  0
APPID
  5
EEE
330
9
100
AcDbSymbolTableRecord
100
AcDbRegAppTableRecord
  2
ACAD_DSTYLE_DIMTEXT_FILL
 70
     0
  0
APPID
  5
EEF
330
9
100
AcDbSymbolTableRecord
100
AcDbRegAppTableRecord
  2
ACAD_DSTYLE_DIMEXT_LENGTH
 70
     0
  0
APPID
  5
EF0
330
9
100
AcDbSymbolTableRecord
100
AcDbRegAppTableRecord
  2
ACAD_DSTYLE_DIMEXT_ENABLED
 70
     0
  0
APPID
  5
EF1
330
9
100
AcDbSymbolTableRecord
100
AcDbRegAppTableRecord
  2
ACAD_DSTYLE_DIM_LINETYPE
 70
     0
  0
APPID
  5
EF2
330
9
100
AcDbSymbolTableRecord
100
AcDbRegAppTableRecord
  2
ACAD_DSTYLE_DIM_EXT1_LINETYPE
 70
     0
  0
APPID
  5
EF3
330
9
100
AcDbSymbolTableRecord
100
AcDbRegAppTableRecord
  2
ACAD_DSTYLE_DIM_EXT2_LINETYPE
 70
     0
  0
APPID
  5
FAF
330
9
100
AcDbSymbolTableRecord
100
AcDbRegAppTableRecord
  2
ACAD_DSTYLE_DIMJOGGED_JOGANGLE_SYMBOL
 70
     0
  0
APPID
  5
1013
330
9
100
AcDbSymbolTableRecord
100
AcDbRegAppTableRecord
  2
ACAD_DSTYLE_DIMARC_LENGTH_SYMBOL
 70
     0
  0
APPID
  5
1061
330
9
100
AcDbSymbolTableRecord
100
AcDbRegAppTableRecord
  2
AcAecLayerStandard
 70
     0
  0
APPID
  5
12CB
330
9
100
AcDbSymbolTableRecord
100
AcDbRegAppTableRecord
  2
ACAD_DSTYLE_DIMRADIAL_EXTENSION
 70
     0
  0
APPID
  5
12CC
330
9
100
AcDbSymbolTableRecord
100
AcDbRegAppTableRecord
  2
ACAD_DSTYLE_DIMJAG
 70
     0
  0
APPID
  5
12CD
330
9
100
AcDbSymbolTableRecord
100
AcDbRegAppTableRecord
  2
ACAD_DSTYLE_DIMTALN
 70
     0
  0
APPID
  5
1BD9
330
9
100
AcDbSymbolTableRecord
100
AcDbRegAppTableRecord
  2
ACAD_MLEADERVER
 70
     0
  0
ENDTAB
  0
TABLE
  2
DIMSTYLE
  5
A
330
0
100
AcDbSymbolTable
 70
     4
100
AcDbDimStyleTable
 71
     1
340
921
  0
DIMSTYLE
105
45
330
A
100
AcDbSymbolTableRecord
100
AcDbDimStyleTableRecord
  2
STANDARD
 70
     0
289
     0
340
11
  0
DIMSTYLE
105
921
330
A
100
AcDbSymbolTableRecord
100
AcDbDimStyleTableRecord
  2
SANINDUSA
 70
     0
 41
2.0
 42
1.0
 43
1.0
 44
1.0
 73
     0
 74
     0
 77
     1
 78
     8
140
2.0
141
0.0
143
0.03937007874016
147
1.0
171
     3
172
     1
176
   256
177
   256
178
   256
179
     1
271
     1
272
     1
274
     3
278
    44
283
     0
284
     8
340
91F
371
    -1
372
    -1
1001
ACAD_DSTYLE_DIMJOGGED_JOGANGLE_SYMBOL
1070
   384
1040
1.570796326794896
  0
DIMSTYLE
105
C7D
330
A
100
AcDbSymbolTableRecord
100
AcDbDimStyleTableRecord
  2
AM_ISO
 70
     0
  4
"
 41
2.5
 42
1.0
 43
10.0
 44
1.0
 47
0.1
 48
0.1
 73
     0
 74
     0
 77
     1
 78
     8
 79
     2
140
3.5
141
0.0
143
0.0393701
146
0.71
147
1.5
172
     1
176
   256
177
   256
178
     2
271
     2
272
     3
274
     4
283
     0
284
     8
340
11
371
    -1
372
    -1
  0
ENDTAB
  0
TABLE
  2
BLOCK_RECORD
  5
1
330
0
100
AcDbSymbolTable
 70
   101
  0
BLOCK_RECORD
  5
1F
330
1
100
AcDbSymbolTableRecord
100
AcDbBlockTableRecord
  2
*Model_Space
340
22
  0
BLOCK_RECORD
  5
1B
330
1
100
AcDbSymbolTableRecord
100
AcDbBlockTableRecord
  2
*Paper_Space
340
1E
  0
BLOCK_RECORD
  5
23
330
1
100
AcDbSymbolTableRecord
100
AcDbBlockTableRecord
  2
*Paper_Space0
340
26
  0
BLOCK_RECORD
  5
919
330
1
100
AcDbSymbolTableRecord
100
AcDbBlockTableRecord
  2
_DotSmall
340
0
  0
BLOCK_RECORD
  5
922
330
1
100
AcDbSymbolTableRecord
100
AcDbBlockTableRecord
  2
base para cotas
340
0
310
2800000020000000200000000100080000000000000400000000000000000000000000000000000000000000000080000080000000808000800000008000800080800000C0C0C000C0DCC000F0CAA6000020400000206000002080000020A0000020C0000020E00000400000004020000040400000406000004080000040A0
310
000040C0000040E00000600000006020000060400000606000006080000060A0000060C0000060E00000800000008020000080400000806000008080000080A0000080C0000080E00000A0000000A0200000A0400000A0600000A0800000A0A00000A0C00000A0E00000C0000000C0200000C0400000C0600000C0800000C0
310
A00000C0C00000C0E00000E0000000E0200000E0400000E0600000E0800000E0A00000E0C00000E0E00040000000400020004000400040006000400080004000A0004000C0004000E00040200000402020004020400040206000402080004020A0004020C0004020E000404000004040200040404000404060004040800040
310
40A0004040C0004040E00040600000406020004060400040606000406080004060A0004060C0004060E00040800000408020004080400040806000408080004080A0004080C0004080E00040A0000040A0200040A0400040A0600040A0800040A0A00040A0C00040A0E00040C0000040C0200040C0400040C0600040C08000
310
40C0A00040C0C00040C0E00040E0000040E0200040E0400040E0600040E0800040E0A00040E0C00040E0E00080000000800020008000400080006000800080008000A0008000C0008000E00080200000802020008020400080206000802080008020A0008020C0008020E00080400000804020008040400080406000804080
310
008040A0008040C0008040E00080600000806020008060400080606000806080008060A0008060C0008060E00080800000808020008080400080806000808080008080A0008080C0008080E00080A0000080A0200080A0400080A0600080A0800080A0A00080A0C00080A0E00080C0000080C0200080C0400080C0600080C0
310
800080C0A00080C0C00080C0E00080E0000080E0200080E0400080E0600080E0800080E0A00080E0C00080E0E000C0000000C0002000C0004000C0006000C0008000C000A000C000C000C000E000C0200000C0202000C0204000C0206000C0208000C020A000C020C000C020E000C0400000C0402000C0404000C0406000C0
310
408000C040A000C040C000C040E000C0600000C0602000C0604000C0606000C0608000C060A000C060C000C060E000C0800000C0802000C0804000C0806000C0808000C080A000C080C000C080E000C0A00000C0A02000C0A04000C0A06000C0A08000C0A0A000C0A0C000C0A0E000C0C00000C0C02000C0C04000C0C06000
310
C0C08000C0C0A000F0FBFF00A4A0A000808080000000FF0000FF000000FFFF00FF000000FF00FF00FFFF0000FFFFFF00A4A4A4A4A4A4A4A4A4A4A4A4A4A4A4A4A4A4A4A4A4A4A4A4A4A4A4A4A4A4A4A4A4A4A4A4A4A4A4A4A4A4A4A4A4A4A4A4A4A4A4A4A4A4A4A4A4A4A4A4A4A4A4A4A4A4A4A4A4A4A4A4A4A4A4A4A4A4A4
310
A4A4A4A4A4A4A4A4A4A4A4A4A4A4A4A4A4A4A4A4A4A4A4A4A4A4A4A4A4A4A4A4A4A4A4A4A4A4A4A4A4A4A4A4A4A4A4A4A4A4A4A4A4A4A4A4A4A4A4A4A4A4A4A4A4A4A4A4A4A4A4A4A4A4A4A4A4A4A4A4A4A4A4A4A4A4A4A4A4A4A4A4A4A4A4A4A4A4A4A4A4A4A4A4A4A4A4A4A4A4A4A4A4A4A4A4A4A4A4A4A4A4A4A4A4A4A4
310
A4A4A4A4A4A4A4A4A4A4A4A4A4A4A4A4A4A4A4A4A4A4A4A4A4A4A4A4A4A4A4A4A4A4A4A4A4A4A4A4A4A4A4A4A4A4A4A4A4A4A4A4A4A4A4A4A4A4A4A4A4A4A4A4A4A4A4A4A4A4A4A4A4A4A4A4A4A4A4A4A4A4A4A4A4A4A4A4A4A4A4A4A4A4A4A4A4A4A4A4A4A4A4A4A4A4A4A4A4A4A4A4A4A4A4A4A4A4A4A4A4A4A4A4A4A4A4
310
A4A4A4A4A4A4A4A4A4A4A4A4A4A4A4A4A4A4A4A4A4A4A4A4A4A4A4A4A4A4A4A4A4A4A4A4A4A4A4A4A4A4A4A4A4A4A4A4A4A4A4A4A4A4A4A4A4A4A4A4A4A4A4A4A4A4A4A4A4A4A4A4A4A4A4A4A4A4A4A4A4A4A4A4A4A4A4A4A4A4A4A4A4A4A4A4A4A4A4A4A4A4A4A4A4A4A4A4A4A4A4A4A4A4A4A4F9F9F9F9F9F9F9F9F9F9F9
310
F9F9F9F9F9F9F9F9F9F9F9F9F9F9F9F9F9F9F9A4A4F9F9F9F9F9F9F9F9F9F9F9F9F9F9F9F9F9F9F9F9F9F9F9F9F9F9F9F9F9F9A4A4F9F9F9F9F9F9F9F9F9F9F9F9F9F9F9F9F9F9F9F9F9F9F9F9F9F9F9F9F9F9A4A4F9A4A4A4A4A4A4A4A4A4A4A4A4A4A4A4A4A4A4A4A4A4A4A4A4A4A4A4A4F9A4A4A4A4A4A4A4A4A4A4A4A4
310
A4A4A4A4A4A4A4A4A4A4A4A4A4A4A4A4A4A4A4A4A4A4A4A4A4A4A4A4A4A4A4A4A4A4A4A4A4A4A4A4A4A4A4A4A4A4A4A4A4A4A4A4A4A4A4A4A4A4A4A4A4A4A4A4A4A4A4A4A4A4A4A4A4A4A4A4A4A4A4A4A4A4A4A4A4A4A4A4A4A4A4A4A4A4A4A4A4A4A4A4A4A4A4A4A4A4A4A4A4A4A4A4A4A4A4A4A4A4A4A4A4A4A4A4A4A4A4
310
A4A4A4A4A4A4A4A4A4A4A4A4A4A4A4A4A4A4A4A4A4A4A4A4A4A4A4A4A4A4A4A4A4A4A4A4A4A4A4A4A4A4A4A4A4A4A4A4A4A4A4A4A4A4A4A4A4A4A4A4A4A4A4A4A4A4A4A4A4A4A4A4A4A4A4A4A4A4A4A4A4A4A4A4A4A4A4A4A4A4A4A4A4A4A4A4A4A4A4A4A4A4A4A4A4A4A4A4A4A4A4A4A4A4A4A4A4A4A4A4A4A4A4A4A4A4A4
310
A4A4A4A4A4A4A4A4A4A4A4A4A4A4A4A4A4A4A4A4A4A4A4A4A4A4A4A4A4A4A4A4A4A4A4A4A4A4A4A4A4A4A4A4A4A4A4A4A4A4A4A4A4A4A4A4A4A4A4A4A4A4A4A4A4A4A4A4A4A4A4A4A4A4A4A4A4A4A4A4A4A4A4A4A4A4A4A4A4A4A4A4A4A4A4A4A4A4A4A4A4A4A4A4A4A4A4A4A4A4A4A4A4A4A4A4A4A4A4A4A4A4A4A4A4A4A4
310
A4A4A4A4A4A4A4A4A4A4A4A4A4A4A4A4A4A4A4A4A4A4A4A4A4A4A4A4A4A4A4A4A4A4A4A4A4A4A4A4A4A4A4A4A4A4A4A4A4A4A4A4A4A4A4A4
1001
ACAD
1000
DesignCenter Data
1002
{
1070
     1
1070
     4
1002
}
  0
BLOCK_RECORD
  5
AA8
330
1
100
AcDbSymbolTableRecord
100
AcDbBlockTableRecord
  2
_CLOSED
340
0
  0
BLOCK_RECORD
  5
B79
330
1
100
AcDbSymbolTableRecord
100
AcDbBlockTableRecord
  2
nota revisoes
340
0
1001
ACAD
1000
DesignCenter Data
1002
{
1070
     1
1070
     4
1002
}
  0
BLOCK_RECORD
  5
B8E
330
1
100
AcDbSymbolTableRecord
100
AcDbBlockTableRecord
  2
a3l
340
0
1001
ACAD
1000
DesignCenter Data
1002
{
1070
     1
1070
     4
1002
}
  0
BLOCK_RECORD
  5
B9E
330
1
100
AcDbSymbolTableRecord
100
AcDbBlockTableRecord
  2
legenda desenvolvimento
340
0
1001
ACAD
1000
DesignCenter Data
1002
{
1070
     1
1070
     4
1002
}
  0
ENDTAB
  0
ENDSEC
  0
SECTION
  2
BLOCKS
  0
BLOCK
  5
20
330
1F
100
AcDbEntity
  8
0
100
AcDbBlockBegin
  2
*Model_Space
 70
     0
 10
0.0
 20
0.0
 30
0.0
  3
*Model_Space
  1

  0
ENDBLK
  5
21
330
1F
100
AcDbEntity
  8
0
100
AcDbBlockEnd
  0
BLOCK
  5
1C
330
1B
100
AcDbEntity
 67
     1
  8
0
100
AcDbBlockBegin
  2
*Paper_Space
 70
     0
 10
0.0
 20
0.0
 30
0.0
  3
*Paper_Space
  1

  0
ENDBLK
  5
1D
330
1B
100
AcDbEntity
 67
     1
  8
0
100
AcDbBlockEnd
  0
BLOCK
  5
24
330
23
100
AcDbEntity
 67
     1
  8
0
100
AcDbBlockBegin
  2
*Paper_Space0
 70
     0
 10
0.0
 20
0.0
 30
0.0
  3
*Paper_Space0
  1

  0
ENDBLK
  5
25
330
23
100
AcDbEntity
 67
     1
  8
0
100
AcDbBlockEnd
  0
BLOCK
  5
91B
330
919
100
AcDbEntity
  8
0
100
AcDbBlockBegin
  2
_DotSmall
 70
     0
 10
0.0
 20
0.0
 30
0.0
  3
_DotSmall
  1

  0
LWPOLYLINE
  5
91A
330
919
100
AcDbEntity
  8
0
  6
ByBlock
 62
     0
100
AcDbPolyline
 90
        2
 70
     1
 43
0.5
 10
-0.0625
 20
0.0
 42
1.0
 10
0.0625
 20
0.0
 42
1.0
  0
ENDBLK
  5
91C
330
919
100
AcDbEntity
  8
0
100
AcDbBlockEnd
  0
BLOCK
  5
92A
330
922
100
AcDbEntity
  8
0
100
AcDbBlockBegin
  2
base para cotas
 70
     0
 10
0.0
 20
0.0
 30
0.0
  3
base para cotas
  1

  0
LINE
  5
B36
330
922
100
AcDbEntity
  8
cotas
100
AcDbLine
 10
0.0
 20
-30.0
 30
0.0
 11
327.1260136525398
 21
-30.0
 31
0.0
  0
LINE
  5
B37
330
922
100
AcDbEntity
  8
cotas
100
AcDbLine
 10
0.0
 20
-25.0
 30
0.0
 11
327.1260136525398
 21
-25.0
 31
0.0
  0
LINE
  5
B38
330
922
100
AcDbEntity
  8
cotas
100
AcDbLine
 10
0.0
 20
-20.0
 30
0.0
 11
327.1260136525398
 21
-20.0
 31
0.0
  0
LINE
  5
B39
330
922
100
AcDbEntity
  8
cotas
100
AcDbLine
 10
0.0
 20
-15.0
 30
0.0
 11
327.1260136525398
 21
-15.0
 31
0.0
  0
LINE
  5
B3A
330
922
100
AcDbEntity
  8
cotas
100
AcDbLine
 10
0.0
 20
-10.0
 30
0.0
 11
327.1260136525398
 21
-10.0
 31
0.0
  0
LINE
  5
B3B
330
922
100
AcDbEntity
  8
cotas
100
AcDbLine
 10
0.0
 20
0.0
 30
0.0
 11
0.0
 21
-30.0
 31
0.0
  0
LINE
  5
B3C
330
922
100
AcDbEntity
  8
cotas
100
AcDbLine
 10
327.1260136525398
 20
-30.0
 30
0.0
 11
327.1260136525398
 21
0.0
 31
0.0
  0
ENDBLK
  5
92B
330
922
100
AcDbEntity
  8
0
100
AcDbBlockEnd
  0
BLOCK
  5
AAD
330
AA8
100
AcDbEntity
  8
0
100
AcDbBlockBegin
  2
_CLOSED
 70
     0
 10
0.0
 20
0.0
 30
0.0
  3
_CLOSED
  1

  0
LINE
  5
AA9
330
AA8
100
AcDbEntity
  8
0
100
AcDbLine
 10
-1.0
 20
0.166667
 30
0.0
 11
0.0
 21
0.0
 31
0.0
  0
LINE
  5
AAA
330
AA8
100
AcDbEntity
  8
0
100
AcDbLine
 10
0.0
 20
0.0
 30
0.0
 11
-1.0
 21
-0.166667
 31
0.0
  0
LINE
  5
AAB
330
AA8
100
AcDbEntity
  8
0
100
AcDbLine
 10
-1.0
 20
0.166667
 30
0.0
 11
-1.0
 21
-0.166667
 31
0.0
  0
LINE
  5
AAC
330
AA8
100
AcDbEntity
  8
0
100
AcDbLine
 10
0.0
 20
0.0
 30
0.0
 11
-1.0
 21
0.0
 31
0.0
  0
ENDBLK
  5
AAE
330
AA8
100
AcDbEntity
  8
0
100
AcDbBlockEnd
  0
BLOCK
  5
B7C
330
B79
100
AcDbEntity
  8
0
100
AcDbBlockBegin
  2
nota revisoes
 70
     0
 10
0.0
 20
0.0
 30
0.0
  3
nota revisoes
  1

  0
CIRCLE
  5
B7A
330
B79
100
AcDbEntity
  8
4
100
AcDbCircle
 10
0.0
 20
0.0
 30
0.0
 40
13.69426055101189
  0
TEXT
  5
B7B
330
B79
100
AcDbEntity
  8
4
100
AcDbText
 10
-5.496248358154345
 20
-5.354545554066362
 30
0.0
 40
12.0
  1
1
  7
SANINDUSA
 72
     1
 11
-0.249774214433728
 21
-5.354545554066362
 31
0.0
100
AcDbText
  0
ENDBLK
  5
B7D
330
B79
100
AcDbEntity
  8
0
100
AcDbBlockEnd
  0
BLOCK
  5
B9C
330
B8E
100
AcDbEntity
  8
0
100
AcDbBlockBegin
  2
a3l
 70
     0
 10
0.0
 20
0.0
 30
0.0
  3
a3l
  1

  0
LINE
  5
B8F
330
B8E
100
AcDbEntity
  8
1
100
AcDbLine
 10
-364.2925296599447
 20
-362.1188951399395
 30
0.0
 11
-364.2925296599447
 21
-65.11889513993946
 31
0.0
  0
LINE
  5
B90
330
B8E
100
AcDbEntity
  8
4
100
AcDbLine
 10
-369.2925296599447
 20
-357.1188951399395
 30
0.0
 11
-369.2925296599447
 21
-70.11889513993946
 31
0.0
  0
LINE
  5
B91
330
B8E
100
AcDbEntity
  8
1
100
AcDbLine
 10
-784.2925296599446
 20
-65.11889513993946
 30
0.0
 11
-784.2925296599446
 21
-362.1188951399395
 31
0.0
  0
LINE
  5
B92
330
B8E
100
AcDbEntity
  8
4
100
AcDbLine
 10
-759.2925296599446
 20
-357.1188951399395
 30
0.0
 11
-759.2925296599446
 21
-70.11889513993946
 31
0.0
  0
LINE
  5
B93
330
B8E
100
AcDbEntity
  8
1
100
AcDbLine
 10
-784.2925296599446
 20
-362.1188951399395
 30
0.0
 11
-364.2925296599447
 21
-362.1188951399395
 31
0.0
  0
LINE
  5
B94
330
B8E
100
AcDbEntity
  8
4
100
AcDbLine
 10
-759.2925296599446
 20
-357.1188951399395
 30
0.0
 11
-369.2925296599447
 21
-357.1188951399395
 31
0.0
  0
LINE
  5
B95
330
B8E
100
AcDbEntity
  8
1
100
AcDbLine
 10
-654.2925296599446
 20
-357.1188951399395
 30
0.0
 11
-654.2925296599446
 21
-362.1188951399395
 31
0.0
  0
LINE
  5
B96
330
B8E
100
AcDbEntity
  8
1
100
AcDbLine
 10
-364.2925296599447
 20
-65.11889513993946
 30
0.0
 11
-784.2925296599446
 21
-65.11889513993946
 31
0.0
  0
LINE
  5
B97
330
B8E
100
AcDbEntity
  8
4
100
AcDbLine
 10
-369.2925296599447
 20
-70.11889513993946
 30
0.0
 11
-759.2925296599446
 21
-70.11889513993946
 31
0.0
  0
LINE
  5
B98
330
B8E
100
AcDbEntity
  8
1
100
AcDbLine
 10
-654.2925296599446
 20
-65.11889513993946
 30
0.0
 11
-654.2925296599446
 21
-70.11889513993946
 31
0.0
  0
LINE
  5
B99
330
B8E
100
AcDbEntity
  8
1
100
AcDbLine
 10
-549.2925296599446
 20
-70.11889513993946
 30
0.0
 11
-549.2925296599446
 21
-65.11889513993946
 31
0.0
  0
LINE
  5
B9A
330
B8E
100
AcDbEntity
  8
1
100
AcDbLine
 10
-369.2925296599447
 20
-65.11889513993946
 30
0.0
 11
-364.2925296599447
 21
-65.11889513993946
 31
0.0
  0
LINE
  5
B9B
330
B8E
100
AcDbEntity
  8
1
100
AcDbLine
 10
-549.2925296599446
 20
-357.1188951399395
 30
0.0
 11
-549.2925296599446
 21
-362.1188951399395
 31
0.0
  0
ENDBLK
  5
B9D
330
B8E
100
AcDbEntity
  8
0
100
AcDbBlockEnd
  0
BLOCK
  5
C13
330
B9E
100
AcDbEntity
  8
0
100
AcDbBlockBegin
  2
legenda desenvolvimento
 70
     2
 10
0.0
 20
0.0
 30
0.0
  3
legenda desenvolvimento
  1

  0
ATTDEF
  5
B9F
330
B9E
100
AcDbEntity
  8
1
100
AcDbText
 10
-108.606245802552
 20
55.5
 30
0.0
 40
4.0
  1
XXXXXXXXXXXXXX
 41
0.8
  7
SANINDUSA
 72
     4
 11
-87.5
 21
57.5
 31
0.0
100
AcDbAttributeDefinition
  3
Nome do Produto:
  2
PRODUTO
 70
     0
  0
ATTDEF
  5
BA0
330
B9E
100
AcDbEntity
  8
1
100
AcDbText
 10
-97.9997966101695
 20
41.25
 30
0.0
 40
3.0
  1
XXXXXXXXX
 41
0.8
  7
futura
 72
     4
 11
-87.5
 21
42.75
 31
0.0
100
AcDbAttributeDefinition
  3
Nome da Peça:
  2
PECA
 70
     0
  0
ATTDEF
  5
BA1
330
B9E
100
AcDbEntity
  8
1
100
AcDbText
 10
-133.4422431161853
 20
21.11745296763252
 30
0.0
 40
2.5
  1
X
 41
0.8
  7
SANINDUSA
 72
     4
 11
-132.5
 21
22.36745296763252
 31
0.0
100
AcDbAttributeDefinition
  3
Cod. TESTE:
  2
TESTE
 70
     0
  0
ATTDEF
  5
BA2
330
B9E
100
AcDbEntity
  8
1
100
AcDbText
 10
-124.3844862323707
 20
21.11745296763252
 30
0.0
 40
2.5
  1
XX
 41
0.8
  7
SANINDUSA
 72
     4
 11
-122.5
 21
22.36745296763252
 31
0.0
100
AcDbAttributeDefinition
  3
Cod. Ano:
  2
ANO
 70
     0
  0
ATTDEF
  5
BA3
330
B9E
100
AcDbEntity
  8
1
100
AcDbText
 10
-112.526889953052
 20
21.11745296763252
 30
0.0
 40
2.5
  1
XXX
 41
0.8
  7
SANINDUSA
 72
     4
 11
-109.700160604496
 21
22.36745296763252
 31
0.0
100
AcDbAttributeDefinition
  3
Cod. Sequência:
  2
SEQUENCIA
 70
     0
  0
ATTDEF
  5
BA4
330
B9E
100
AcDbEntity
  8
1
100
AcDbText
 10
-99.35382430979316
 20
21.11745296763252
 30
0.0
 40
2.5
  1
XX
 41
0.8
  7
SANINDUSA
 72
     4
 11
-97.46933807742244
 21
22.36745296763252
 31
0.0
100
AcDbAttributeDefinition
  3
Cod. Tipo:
  2
TIPO
 70
     0
  0
ATTDEF
  5
BA5
330
B9E
100
AcDbEntity
  8
1
100
AcDbText
 10
-87.42035911468438
 20
21.11745296763252
 30
0.0
 40
2.5
  1
XXX
 41
0.8
  7
SANINDUSA
 72
     4
 11
-84.59362976612828
 21
22.36745296763252
 31
0.0
100
AcDbAttributeDefinition
  3
Cod. Produto:
  2
PRODUTO
 70
     0
  0
ATTDEF
  5
BA6
330
B9E
100
AcDbEntity
  8
1
100
AcDbText
 10
-74.62051971917853
 20
21.11745296763252
 30
0.0
 40
2.5
  1
XXX
 41
0.8
  7
SANINDUSA
 72
     4
 11
-71.79379037062244
 21
22.36745296763252
 31
0.0
100
AcDbAttributeDefinition
  3
Cod. Peça:
  2
PECA
 70
     0
  0
ATTDEF
  5
BA7
330
B9E
100
AcDbEntity
  8
1
100
AcDbText
 10
-61.10603446650329
 20
21.11745296763252
 30
0.0
 40
2.5
  1
XX
 41
0.8
  7
SANINDUSA
 72
     4
 11
-59.22154823413257
 21
22.36745296763252
 31
0.0
100
AcDbAttributeDefinition
  3
Cod. Revisão:
  2
REV
 70
     0
  0
ATTDEF
  5
BA8
330
B9E
100
AcDbEntity
  8
1
100
AcDbText
 10
-48.43615325006194
 20
21.11745296763252
 30
0.0
 40
2.5
  1
XX
 41
0.8
  7
SANINDUSA
 72
     4
 11
-46.55166701769121
 21
22.36745296763252
 31
0.0
100
AcDbAttributeDefinition
  3
Cod. Alteração:
  2
ALT
 70
     0
  0
ATTDEF
  5
BA9
330
B9E
100
AcDbEntity
  8
1
100
AcDbText
 10
-35.19086635325722
 20
23.98875083948959
 30
0.0
 40
3.0
  1
1/XXX
 41
0.8
  7
SANINDUSA
 72
     4
 11
-30.0
 21
25.25
 31
0.0
100
AcDbAttributeDefinition
  3
Escala geral:
  2
ESCALA
 70
     0
  0
ATTDEF
  5
BAA
330
B9E
100
AcDbEntity
  8
1
100
AcDbText
 10
-15.65345869711215
 20
23.75
 30
0.0
 40
3.0
  1
XXXXX
 41
0.8
  7
SANINDUSA
 72
     4
 11
-10.0
 21
25.25
 31
0.0
100
AcDbAttributeDefinition
  3
Folha:
  2
FOLHA
 70
     0
  0
ATTDEF
  5
BAB
330
B9E
100
AcDbEntity
  8
1
100
AcDbText
 10
-178.5146998822042
 20
56.9531347542807
 30
0.0
 40
2.0
  1
xx
 41
0.8
  7
SANINDUSA
 72
     4
 11
-177.2123493113513
 21
57.70330265219877
 31
0.0
100
AcDbAttributeDefinition
  3
revisão
  2
REV.
 70
     0
  0
ATTDEF
  5
BAC
330
B9E
100
AcDbEntity
  8
1
100
AcDbText
 10
-172.7849640077129
 20
56.9531347542807
 30
0.0
 40
2.0
  1
xx
 41
0.8
  7
SANINDUSA
 72
     4
 11
-171.48261343686
 21
57.70330265219877
 31
0.0
100
AcDbAttributeDefinition
  3
alteração
  2
ALT.
 70
     0
  0
ATTDEF
  5
BAD
330
B9E
100
AcDbEntity
  8
1
100
AcDbText
 10
-168.007199951307
 20
56.70330265219877
 30
0.0
 40
2.0
  1
xx/xx/xxxx
 41
0.8
  7
SANINDUSA
 11
-168.007199951307
 21
57.70330265219877
 31
0.0
100
AcDbAttributeDefinition
  3
data
  2
DATA
 70
     0
 74
     2
  0
ATTDEF
  5
BAE
330
B9E
100
AcDbEntity
  8
1
100
AcDbText
 10
-168.5396372253371
 20
13.15916722632639
 30
0.0
 40
2.0
  1
XX/XX/XXXX
 41
0.8
  7
SANINDUSA
 72
     4
 11
-161.5099528734231
 21
14.0
 31
0.0
100
AcDbAttributeDefinition
  3
Data projecto
  2
DATA_PROJ
 70
     0
  0
ATTDEF
  5
BAF
330
B9E
100
AcDbEntity
  8
1
100
AcDbText
 10
-150.8658110728766
 20
13.24983210208193
 30
0.0
 40
2.0
  1
xxxxxxxx
 41
0.8
  7
SANINDUSA
 72
     4
 11
-145.6564087894649
 21
14.0
 31
0.0
100
AcDbAttributeDefinition
  3
nome de quem projectou
  2
NOME
 70
     0
  0
ATTDEF
  5
BB0
330
B9E
100
AcDbEntity
  8
1
100
AcDbText
 10
-168.5396372253371
 20
9.159167226326394
 30
0.0
 40
2.0
  1
XX/XX/XXXX
 41
0.8
  7
SANINDUSA
 72
     4
 11
-161.5099528734231
 21
10.0
 31
0.0
100
AcDbAttributeDefinition
  3
Data desenhou
  2
DATA_DES
 70
     0
  0
ATTDEF
  5
BB1
330
B9E
100
AcDbEntity
  8
1
100
AcDbText
 10
-151.516986358303
 20
9.249832102081933
 30
0.0
 40
2.0
  1
xxxxxxxxx
 41
0.8
  7
SANINDUSA
 72
     4
 11
-145.6564087894649
 21
10.0
 31
0.0
100
AcDbAttributeDefinition
  3
nome
  2
NOME
 70
     0
  0
ATTDEF
  5
BB2
330
B9E
100
AcDbEntity
  8
1
100
AcDbText
 10
-127.2924214135946
 20
14.1979876583216
 30
0.0
 40
2.0
  1
Vitreous China
 41
0.8
  7
SANINDUSA
 72
     4
 11
-119.231709526422
 21
15.22216495852308
 31
0.0
100
AcDbAttributeDefinition
  3
Nome do Material:
  2
MATERIAL
 70
     0
  0
ATTDEF
  5
BB3
330
B9E
100
AcDbEntity
  8
1
100
AcDbText
 10
-103.1563452122093
 20
14.38019043949261
 30
0.0
 40
2.0
  1
Branco
 41
0.8
  7
SANINDUSA
 72
     4
 11
-99.33418268702462
 21
15.35937109765245
 31
0.0
100
AcDbAttributeDefinition
  3
cor da peça
  2
COR
 70
     0
  0
ATTDEF
  5
BB4
330
B9E
100
AcDbEntity
  8
1
100
AcDbText
 10
-116.7235057085292
 20
5.975822699798522
 30
0.0
 40
2.0
  1
Vidrado
 41
0.8
  7
SANINDUSA
 72
     4
 11
-112.5
 21
7.0
 31
0.0
100
AcDbAttributeDefinition
  3
Tipo de acabamento:
  2
ACABAMENTO
 70
     0
  0
ATTDEF
  5
BB5
330
B9E
100
AcDbEntity
  8
1
100
AcDbText
 10
-79.18527869967246
 20
16.65066409850533
 30
0.0
 40
2.0
  1
XXXXXXX
 41
0.8
  7
SANINDUSA
 72
     4
 11
-73.90871724903445
 21
17.65066409850533
 31
0.0
100
AcDbAttributeDefinition
  3
Normas
  2
NORMAS
 70
     0
  0
ATTDEF
  5
BB6
330
B9E
100
AcDbEntity
  8
1
100
AcDbText
 10
-30.55312290127603
 20
14.0
 30
0.0
 40
2.0
  1
XXXXXXXXXXXXXX
 41
0.8
  7
SANINDUSA
 72
     4
 11
-20.0
 21
15.0
 31
0.0
100
AcDbAttributeDefinition
  3
Substitui o desenho:
  2
SUBSTITUI
 70
     0
  0
ATTDEF
  5
BB7
330
B9E
100
AcDbEntity
  8
1
100
AcDbText
 10
-31.30691739422431
 20
6.0
 30
0.0
 40
2.0
  1
XXXXXXXXXXXXXXX
 41
0.8
  7
SANINDUSA
 72
     4
 11
-20.0
 21
7.0
 31
0.0
100
AcDbAttributeDefinition
  3
Substituido por:
  2
SUBSTITUIDO
 70
     0
  0
ATTDEF
  5
BB8
330
B9E
100
AcDbEntity
  8
1
100
AcDbText
 10
-110.0220608548302
 20
1.478208457928303
 30
0.0
 40
2.0
  1
XXXXXXXXXXXXXXXXXXXXXXXXXXXXXXXXXX
 41
0.8
  7
SANINDUSA
 11
-110.0220608548302
 21
2.478208457928303
 31
0.0
100
AcDbAttributeDefinition
  3
Localização do desenho:
  2
LOC-DWG
 70
     0
 74
     2
  0
LINE
  5
BB9
330
B9E
100
AcDbEntity
  8
3
100
AcDbLine
 10
-135.0
 20
4.0
 30
0.0
 11
0.0000000000004547
 21
4.0
 31
0.0
  0
LINE
  5
BBA
330
B9E
100
AcDbEntity
  8
3
100
AcDbLine
 10
-90.00000000000046
 20
12.0
 30
0.0
 11
-135.0
 21
12.0
 31
0.0
  0
LINE
  5
BBB
330
B9E
100
AcDbEntity
  8
3
100
AcDbLine
 10
-135.0
 20
32.5
 30
0.0
 11
-40.0
 21
32.5
 31
0.0
  0
TEXT
  5
BBC
330
B9E
100
AcDbEntity
  8
1
100
AcDbText
 10
-134.0
 20
1.25
 30
0.0
 40
2.0
  1
Localização do des.:
 41
0.8
  7
SANINDUSA
 11
-134.0
 21
2.25
 31
0.0
100
AcDbText
 73
     2
  0
LINE
  5
BBD
330
B9E
100
AcDbEntity
  8
3
100
AcDbLine
 10
-180.0
 20
65.0
 30
0.0
 11
0.0
 21
65.0
 31
0.0
  0
LINE
  5
BBE
330
B9E
100
AcDbEntity
  8
leg fin
100
AcDbLine
 10
-40.0
 20
25.05956924886846
 30
0.0
 11
-135.0
 21
25.05956924886846
 31
0.0
  0
LINE
  5
BBF
330
B9E
100
AcDbEntity
  8
leg fin
100
AcDbLine
 10
-40.0
 20
28.5
 30
0.0
 11
-135.0
 21
28.5
 31
0.0
  0
LINE
  5
BC0
330
B9E
100
AcDbEntity
  8
3
100
AcDbLine
 10
-135.0
 20
50.0
 30
0.0
 11
-40.0
 21
50.0
 31
0.0
  0
TEXT
  5
BC1
330
B9E
100
AcDbEntity
  8
1
100
AcDbText
 10
-134.0
 20
29.75
 30
0.0
 40
2.0
  1
Desenho nº:
 41
0.8
  7
SANINDUSA
 11
-134.0
 21
30.75
 31
0.0
100
AcDbText
 73
     2
  0
TEXT
  5
BC2
330
B9E
100
AcDbEntity
  8
1
100
AcDbText
 10
-134.0
 20
9.25
 30
0.0
 40
2.0
  1
Acabamento:
 41
0.8
  7
SANINDUSA
 11
-134.0
 21
10.25
 31
0.0
100
AcDbText
 73
     2
  0
LINE
  5
BC3
330
B9E
100
AcDbEntity
  8
3
100
AcDbLine
 10
-180.0
 20
20.0
 30
0.0
 11
0.0
 21
20.0
 31
0.0
  0
LINE
  5
BC4
330
B9E
100
AcDbEntity
  8
1
100
AcDbLine
 10
-174.5810776056337
 20
55.5
 30
0.0
 11
-174.5810776056337
 21
65.0
 31
0.0
  0
LINE
  5
BC5
330
B9E
100
AcDbEntity
  8
1
100
AcDbLine
 10
-168.9210461879161
 20
55.5
 30
0.0
 11
-168.9210461879161
 21
65.0
 31
0.0
  0
LINE
  5
BC6
330
B9E
100
AcDbEntity
  8
1
100
AcDbLine
 10
-154.0988595589306
 20
55.5
 30
0.0
 11
-154.0988595589306
 21
65.0
 31
0.0
  0
LINE
  5
BC7
330
B9E
100
AcDbEntity
  8
3
100
AcDbLine
 10
-180.0
 20
65.0
 30
0.0
 11
-180.0
 21
0.0
 31
0.0
  0
LINE
  5
BC8
330
B9E
100
AcDbEntity
  8
3
100
AcDbLine
 10
-135.0
 20
0.0
 30
0.0
 11
-135.0
 21
65.0
 31
0.0
  0
TEXT
  5
BC9
330
B9E
100
AcDbEntity
  8
1
100
AcDbText
 10
-179.0
 20
9.75
 30
0.0
 40
1.5
  1
Des.
 41
0.8
  7
SANINDUSA
 11
-179.0
 21
10.5
 31
0.0
100
AcDbText
 73
     2
  0
LINE
  5
BCA
330
B9E
100
AcDbEntity
  8
1
100
AcDbLine
 10
-168.9210461879161
 20
20.0
 30
0.0
 11
-168.9210461879161
 21
0.0
 31
0.0
  0
LINE
  5
BCB
330
B9E
100
AcDbEntity
  8
1
100
AcDbLine
 10
-154.0988595589306
 20
20.0
 30
0.0
 11
-154.0988595589306
 21
0.0
 31
0.0
  0
LINE
  5
BCC
330
B9E
100
AcDbEntity
  8
1
100
AcDbLine
 10
-180.0
 20
4.0
 30
0.0
 11
-135.0
 21
4.0
 31
0.0
  0
LINE
  5
BCD
330
B9E
100
AcDbEntity
  8
1
100
AcDbLine
 10
-180.0
 20
8.0
 30
0.0
 11
-135.0
 21
8.0
 31
0.0
  0
TEXT
  5
BCE
330
B9E
100
AcDbEntity
  8
1
100
AcDbText
 10
-179.0
 20
1.73257823687436
 30
0.0
 40
1.5
  1
Aprov.
 41
0.8
  7
SANINDUSA
 11
-179.0
 21
2.48257823687436
 31
0.0
100
AcDbText
 73
     2
  0
TEXT
  5
BCF
330
B9E
100
AcDbEntity
  8
1
100
AcDbText
 10
-179.0
 20
5.75
 30
0.0
 40
1.5
  1
Ver.
 41
0.8
  7
SANINDUSA
 11
-179.0
 21
6.5
 31
0.0
100
AcDbText
 73
     2
  0
LINE
  5
BD0
330
B9E
100
AcDbEntity
  8
1
100
AcDbLine
 10
-180.0
 20
16.0
 30
0.0
 11
-135.0
 21
16.0
 31
0.0
  0
LINE
  5
BD1
330
B9E
100
AcDbEntity
  8
1
100
AcDbLine
 10
-180.0
 20
12.0
 30
0.0
 11
-135.0
 21
12.0
 31
0.0
  0
TEXT
  5
BD2
330
B9E
100
AcDbEntity
  8
1
100
AcDbText
 10
-179.0
 20
13.75
 30
0.0
 40
1.5
  1
Proj.
 41
0.8
  7
SANINDUSA
 11
-179.0
 21
14.5
 31
0.0
100
AcDbText
 73
     2
  0
TEXT
  5
BD3
330
B9E
100
AcDbEntity
  8
1
100
AcDbText
 10
-167.9210461879161
 20
17.75
 30
0.0
 40
1.5
  1
Data
 41
0.8
  7
SANINDUSA
 11
-167.9210461879161
 21
18.5
 31
0.0
100
AcDbText
 73
     2
  0
TEXT
  5
BD4
330
B9E
100
AcDbEntity
  8
1
100
AcDbText
 10
-153.0988595589306
 20
17.75
 30
0.0
 40
1.5
  1
Nome
 41
0.8
  7
SANINDUSA
 11
-153.0988595589306
 21
18.5
 31
0.0
100
AcDbText
 73
     2
  0
LINE
  5
BD5
330
B9E
100
AcDbEntity
  8
leg fin
100
AcDbLine
 10
-130.0
 20
20.0
 30
0.0
 11
-130.0
 21
28.5
 31
0.0
  0
TEXT
  5
BD6
330
B9E
100
AcDbEntity
  8
1
100
AcDbText
 10
-134.0
 20
17.25
 30
0.0
 40
2.0
  1
Material:
 41
0.8
  7
SANINDUSA
 11
-134.0
 21
18.25
 31
0.0
100
AcDbText
 73
     2
  0
TEXT
  5
BD7
330
B9E
100
AcDbEntity
  8
1
100
AcDbText
 10
-129.0
 20
26.43288406845113
 30
0.0
 40
1.5
  1
Ano:
 41
0.8
  7
SANINDUSA
 11
-129.0
 21
27.18288406845113
 31
0.0
100
AcDbText
 73
     2
  0
LINE
  5
BD8
330
B9E
100
AcDbEntity
  8
1
100
AcDbLine
 10
-180.0
 20
55.5
 30
0.0
 11
-135.0
 21
55.5
 31
0.0
  0
TEXT
  5
BD9
330
B9E
100
AcDbEntity
  8
1
100
AcDbText
 10
-179.0
 20
52.67772246885193
 30
0.0
 40
1.5
  1
descrição
 41
0.8
  7
SANINDUSA
 11
-179.0
 21
53.42772246885193
 31
0.0
100
AcDbText
 73
     2
  0
TEXT
  5
BDA
330
B9E
100
AcDbEntity
  8
1
100
AcDbText
 10
-134.0
 20
47.25
 30
0.0
 40
2.0
  1
Peça:
 41
0.8
  7
SANINDUSA
 11
-134.0
 21
48.25
 31
0.0
100
AcDbText
 73
     2
  0
LINE
  5
BDB
330
B9E
100
AcDbEntity
  8
1
100
AcDbLine
 10
-180.0
 20
59.5
 30
0.0
 11
-135.0
 21
59.5
 31
0.0
  0
TEXT
  5
BDC
330
B9E
100
AcDbEntity
  8
1
100
AcDbText
 10
-173.5810776056337
 20
62.75
 30
0.0
 40
1.5
  1
Alt.
 41
0.8
  7
SANINDUSA
 11
-173.5810776056337
 21
63.5
 31
0.0
100
AcDbText
 73
     2
  0
TEXT
  5
BDD
330
B9E
100
AcDbEntity
  8
1
100
AcDbText
 10
-179.0
 20
62.75
 30
0.0
 40
1.5
  1
Rev.
 41
0.8
  7
SANINDUSA
 11
-179.0
 21
63.5
 31
0.0
100
AcDbText
 73
     2
  0
TEXT
  5
BDE
330
B9E
100
AcDbEntity
  8
1
100
AcDbText
 10
-167.9210461879161
 20
62.75
 30
0.0
 40
1.5
  1
Data
 41
0.8
  7
SANINDUSA
 11
-167.9210461879161
 21
63.5
 31
0.0
100
AcDbText
 73
     2
  0
TEXT
  5
BDF
330
B9E
100
AcDbEntity
  8
1
100
AcDbText
 10
-153.0988595589306
 20
62.75
 30
0.0
 40
1.5
  1
Nome
 41
0.8
  7
SANINDUSA
 11
-153.0988595589306
 21
63.5
 31
0.0
100
AcDbText
 73
     2
  0
TEXT
  5
BE0
330
B9E
100
AcDbEntity
  8
1
100
AcDbText
 10
-134.0
 20
62.25
 30
0.0
 40
2.0
  1
Produto:
 41
0.8
  7
SANINDUSA
 11
-134.0
 21
63.25
 31
0.0
100
AcDbText
 73
     2
  0
LINE
  5
BE1
330
B9E
100
AcDbEntity
  8
3
100
AcDbLine
 10
-40.0
 20
4.0
 30
0.0
 11
-40.0
 21
65.0
 31
0.0
  0
LWPOLYLINE
  5
BE2
102
{ACAD_REACTORS
330
BEC
102
}
330
B9E
100
AcDbEntity
  8
9
100
AcDbPolyline
 90
       12
 70
     1
 43
0.0
 10
-3.038714600644652
 20
58.90010174665076
 10
-5.726962862472191
 20
58.90010174665076
 10
-5.726962862472191
 20
58.5001017466509
 10
-3.038748516195028
 20
58.5001017466509
 42
-0.4142135623731731
 10
-2.638748516194482
 20
58.1001017466508
 10
-2.638748516194482
 20
57.42799728675596
 10
-5.21497371544865
 20
57.42799728675596
 42
0.4142135623731289
 10
-6.014973715448377
 20
56.627997286756
 10
-6.014973715448377
 20
55.92380871629643
 42
0.4142135623731132
 10
-5.21497371544865
 20
55.12380871629648
 10
-2.23871460064447
 20
55.12380871629648
 10
-2.23871460064447
 20
58.10010174665103
 42
0.4142135623730717
  0
LWPOLYLINE
  5
BE3
102
{ACAD_REACTORS
330
BEC
102
}
330
B9E
100
AcDbEntity
  8
9
100
AcDbPolyline
 90
       20
 70
     1
 43
0.0
 10
-10.01531287095122
 20
57.82799728675581
 10
-10.01531287095122
 20
58.10010174665103
 42
-0.4142135623730744
 10
-9.615312870951584
 20
58.5001017466509
 10
-6.92703069357276
 20
58.5001017466509
 10
-6.92703069357276
 20
58.90010174665076
 10
-9.615346786501959
 20
58.90010174665076
 42
0.4142135623730883
 10
-10.41534678650168
 20
58.1001017466508
 10
-10.41534678650168
 20
57.82796337120567
 42
0.4142135623730717
 10
-9.615346786501959
 20
57.02796337120571
 10
-7.423079531965413
 20
57.02796337120571
 42
-0.4142135623730847
 10
-7.023079531965322
 20
56.62796337120562
 10
-7.023079531965322
 20
55.90786840766487
 42
-0.4142135623730744
 10
-7.423079531965413
 20
55.507868407665
 10
-10.41534678650168
 20
55.507868407665
 10
-10.41534678650168
 20
55.12380871629648
 10
-7.445787917283723
 20
55.12380871629648
 42
0.4114777732064574
 10
-6.645822882998345
 20
55.9163291493976
 10
-6.639238813324936
 20
56.62051771985716
 42
0.4169546541682913
 10
-7.439203847610315
 20
57.42799728675596
 10
-9.615312870951584
 20
57.42799728675596
 42
-0.4142135623731576
  0
LWPOLYLINE
  5
BE4
102
{ACAD_REACTORS
330
BEC
102
}
330
B9E
100
AcDbEntity
  8
9
100
AcDbPolyline
 90
       12
 70
     1
 43
0.0
 10
-14.41561811090378
 20
58.90010174665076
 10
-14.79964388672215
 20
58.90010174665076
 10
-14.79964388672215
 20
55.92380871629643
 42
0.4142135623731133
 10
-13.99964388672242
 20
55.12380871629648
 10
-11.8233508563676
 20
55.12380871629648
 42
0.4142135623730872
 10
-11.02335085636741
 20
55.92380871629643
 10
-11.02335085636741
 20
58.90010174665076
 10
-11.42338477191788
 20
58.90010174665076
 10
-11.42338477191788
 20
55.91567577726095
 42
-0.4131711701795318
 10
-11.82196067063523
 20
55.51567831234956
 10
-14.0141940096214
 20
55.50787335710947
 42
-0.4152567234624407
 10
-14.41561811090378
 20
55.90787082202087
  0
LWPOLYLINE
  5
BE5
102
{ACAD_REACTORS
330
BEC
102
}
330
B9E
100
AcDbEntity
  8
9
100
AcDbPolyline
 90
        6
 70
     1
 43
0.0
 10
-15.80771578768872
 20
55.507868407665
 10
-18.39994912667453
 20
55.507868407665
 42
-0.4142135623731731
 10
-18.79994912667462
 20
55.90786840766487
 10
-18.79994912667462
 20
58.10010174665103
 42
-0.4142135623730744
 10
-18.39994912667453
 20
58.5001017466509
 10
-15.80771578768872
 20
58.5001017466509
  0
LWPOLYLINE
  5
BE6
102
{ACAD_REACTORS
330
BEC
102
}
330
B9E
100
AcDbEntity
  8
9
100
AcDbPolyline
 90
        8
 70
     1
 43
0.0
 10
-15.4236900118708
 20
59.87619128370352
 10
-15.80771578768872
 20
59.87619128370352
 10
-15.80771578768872
 20
58.90010174665076
 10
-18.39176256411201
 20
58.90010174665076
 42
0.4131164467977967
 10
-19.19175694739761
 20
58.1030995310698
 10
-19.1999120763262
 20
55.92680650071542
 42
0.4153115297271718
 10
-18.39991769304061
 20
55.12380871629648
 10
-15.4236900118708
 20
55.12380871629648
  0
LWPOLYLINE
  5
BE7
102
{ACAD_REACTORS
330
BEC
102
}
330
B9E
100
AcDbEntity
  8
9
100
AcDbPolyline
 90
       10
 70
     1
 43
0.0
 10
-20.59201288790928
 20
58.90010174665076
 10
-23.56830591826338
 20
58.90010174665076
 10
-23.56830591826338
 20
55.12380871629648
 10
-23.18424622689509
 20
55.12380871629648
 10
-23.18424622689509
 20
58.5001017466509
 10
-20.59204680345965
 20
58.5001017466509
 42
-0.4142135623730898
 10
-20.19204680345956
 20
58.1001017466508
 10
-20.19204680345956
 20
55.12380871629648
 10
-19.79201288790909
 20
55.12380871629648
 10
-19.79201288790909
 20
58.10010174665103
 42
0.4142135623731132
  0
LWPOLYLINE
  5
BE8
102
{ACAD_REACTORS
330
BEC
102
}
330
B9E
100
AcDbEntity
  8
9
100
AcDbPolyline
 90
        4
 70
     1
 43
0.0
 10
-24.19231812786165
 20
58.90010174665076
 10
-24.57637781922995
 20
58.90010174665076
 10
-24.57637781922995
 20
55.12380871629648
 10
-24.19231812786165
 20
55.12380871629648
  0
LWPOLYLINE
  5
BE9
102
{ACAD_REACTORS
330
BEC
102
}
330
B9E
100
AcDbEntity
  8
9
100
AcDbPolyline
 90
       10
 70
     1
 43
0.0
 10
-28.57661522808212
 20
58.5001017466509
 10
-25.98444972019706
 20
58.5001017466509
 42
-0.4142135623731731
 10
-25.58444972019652
 20
58.1001017466508
 10
-25.58444972019652
 20
55.12380871629648
 10
-25.2004239443786
 20
55.12380871629648
 10
-25.2004239443786
 20
58.10010174665103
 42
0.4142135623730717
 10
-26.00042394437833
 20
58.90010174665076
 10
-28.97664914363259
 20
58.90010174665076
 10
-28.97664914363259
 20
55.12380871629648
 10
-28.57661522808212
 20
55.12380871629648
  0
LWPOLYLINE
  5
BEA
102
{ACAD_REACTORS
330
BEC
102
}
330
B9E
100
AcDbEntity
  8
9
100
AcDbPolyline
 90
       12
 70
     1
 43
0.0
 10
-29.58465321349832
 20
58.10010174665103
 42
0.4142135623730716
 10
-30.3846532134985
 20
58.90010174665076
 10
-33.07296930642724
 20
58.90010174665076
 10
-33.07296930642724
 20
58.5001017466509
 10
-30.38468712904842
 20
58.5001017466509
 42
-0.4142135623730067
 10
-29.98468712904878
 20
58.1001017466508
 10
-29.98468712904878
 20
57.42799728675618
 10
-32.56098015940324
 20
57.42799728675596
 42
0.4142135623731289
 10
-33.36098015940343
 20
56.627997286756
 10
-33.36098015940343
 20
55.92380871629643
 42
0.4142135623731132
 10
-32.56098015940324
 20
55.12380871629648
 10
-29.58465321349832
 20
55.12380871629648
  0
LWPOLYLINE
  5
BEB
102
{ACAD_REACTORS
330
BEC
102
}
330
B9E
100
AcDbEntity
  8
9
100
AcDbPolyline
 90
       20
 70
     1
 43
0.0
 10
-34.7850262845518
 20
57.42799728675596
 10
-36.96125148380543
 20
57.42799728675596
 42
-0.4142135623730898
 10
-37.36125148380552
 20
57.82799728675604
 10
-37.36125148380552
 20
58.10010174665103
 42
-0.4142135623730744
 10
-36.96125148380543
 20
58.5001017466509
 10
-34.27303713752781
 20
58.50010174665067
 10
-34.27303713752781
 20
58.90010174665076
 10
-36.96128539935535
 20
58.90010174665076
 42
0.4142135623731289
 10
-37.76128539935553
 20
58.1001017466508
 10
-37.76128539935553
 20
57.82796337120567
 42
0.4142135623730716
 10
-36.9612853993558
 20
57.02796337120571
 10
-34.76901814481926
 20
57.02796337120571
 42
-0.414213562373168
 10
-34.36901814481962
 20
56.62796337120562
 10
-34.36901814481962
 20
55.90786840766487
 42
-0.4142135623730744
 10
-34.76901814481926
 20
55.507868407665
 10
-37.76128539935553
 20
55.507868407665
 10
-37.76128539935553
 20
55.12380871629648
 10
-34.7850262845518
 20
55.12380871629648
 42
0.4142135623731289
 10
-33.98502628455162
 20
55.92380871629643
 10
-33.98502628455162
 20
56.627997286756
 42
0.4142135623731132
  0
HATCH
  5
BEC
330
B9E
100
AcDbEntity
  8
9
100
AcDbHatch
 10
0.0
 20
0.0
 30
0.0
210
0.0
220
0.0
230
1.0
  2
SOLID
 70
     1
 71
     1
 91
       13
 92
        7
 72
     1
 73
     1
 93
       20
 10
-34.36901814481962
 20
55.90786840766487
 42
-0.414213562372991
 10
-34.76901814481926
 20
55.507868407665
 42
0.0
 10
-37.76128539935553
 20
55.507868407665
 42
0.0
 10
-37.76128539935553
 20
55.12380871629648
 42
0.0
 10
-34.7850262845518
 20
55.12380871629648
 42
0.4142135623731705
 10
-33.98502628455162
 20
55.92380871629666
 42
0.0
 10
-33.98502628455162
 20
56.627997286756
 42
0.4142135623731547
 10
-34.7850262845518
 20
57.42799728675596
 42
0.0
 10
-36.96125148380543
 20
57.42799728675596
 42
-0.4142135623730898
 10
-37.36125148380552
 20
57.82799728675604
 42
0.0
 10
-37.36125148380552
 20
58.1001017466508
 42
-0.4142135623731575
 10
-36.96125148380543
 20
58.5001017466509
 42
0.0
 10
-34.27303713752781
 20
58.50010174665067
 42
0.0
 10
-34.27303713752781
 20
58.90010174665076
 42
0.0
 10
-36.96128539935535
 20
58.90010174665076
 42
0.4142135623731705
 10
-37.76128539935553
 20
58.10010174665058
 42
0.0
 10
-37.76128539935553
 20
57.82796337120544
 42
0.4142135623730299
 10
-36.9612853993558
 20
57.02796337120571
 42
0.0
 10
-34.76901814481926
 20
57.02796337120571
 42
-0.4142135623730015
 10
-34.36901814481962
 20
56.62796337120608
 42
0.0
 97
        1
330
BEB
 92
        7
 72
     1
 73
     1
 93
       12
 10
-33.36098015940343
 20
55.92380871629666
 42
0.4142135623731547
 10
-32.56098015940324
 20
55.12380871629648
 42
0.0
 10
-29.58465321349877
 20
55.12380871629648
 42
0.0
 10
-29.58465321349832
 20
58.10010174665058
 42
0.4142135623731964
 10
-30.3846532134985
 20
58.90010174665076
 42
0.0
 10
-33.07296930642724
 20
58.90010174665076
 42
0.0
 10
-33.07296930642724
 20
58.50010174665067
 42
0.0
 10
-30.38468712904887
 20
58.5001017466509
 42
-0.4142135623732564
 10
-29.98468712904878
 20
58.10010174665103
 42
0.0
 10
-29.98468712904923
 20
57.42799728675596
 42
0.0
 10
-32.56098015940324
 20
57.42799728675596
 42
0.4142135623731705
 10
-33.36098015940343
 20
56.627997286756
 42
0.0
 97
        1
330
BEA
 92
       22
 72
     1
 73
     1
 93
        6
 10
-32.97692046803468
 20
56.62796337120562
 42
-0.4142135623731576
 10
-32.57692046803459
 20
57.02796337120571
 42
0.0
 10
-29.98468712904878
 20
57.02796337120571
 42
0.0
 10
-29.98468712904878
 20
55.507868407665
 42
0.0
 10
-32.57692046803459
 20
55.507868407665
 42
-0.4142135623731731
 10
-32.97692046803468
 20
55.90786840766487
 42
0.0
 97
        1
330
C11
 92
        7
 72
     1
 73
     1
 93
       10
 10
-28.57661522808212
 20
58.5001017466509
 42
0.0
 10
-25.98444972019661
 20
58.5001017466509
 42
-0.4142135623730067
 10
-25.58444972019652
 20
58.10010174665058
 42
0.0
 10
-25.58444972019606
 20
55.12380871629648
 42
0.0
 10
-25.20042394437906
 20
55.12380871629648
 42
0.0
 10
-25.2004239443786
 20
58.1001017466508
 42
0.4142135623731134
 10
-26.00042394437833
 20
58.90010174665076
 42
0.0
 10
-28.97664914363259
 20
58.90010174665076
 42
0.0
 10
-28.97664914363259
 20
55.12380871629648
 42
0.0
 10
-28.57661522808212
 20
55.12380871629648
 42
0.0
 97
        1
330
BE9
 92
        7
 72
     0
 73
     1
 93
        4
 10
-24.57637781922995
 20
55.12380871629648
 10
-24.19231812786165
 20
55.12380871629648
 10
-24.19231812786165
 20
58.90010174665076
 10
-24.57637781922995
 20
58.90010174665076
 97
        1
330
BE8
 92
        7
 72
     0
 73
     1
 93
        4
 10
-24.19231812786165
 20
59.87619128370352
 10
-24.5763778192304
 20
59.87619128370352
 10
-24.5763778192304
 20
59.28412752246913
 10
-24.1923181278612
 20
59.28412752246913
 97
        1
330
C12
 92
        7
 72
     1
 73
     1
 93
       10
 10
-23.18424622689509
 20
58.5001017466509
 42
0.0
 10
-20.59204680345965
 20
58.5001017466509
 42
-0.4142135623730898
 10
-20.19204680345956
 20
58.1001017466508
 42
0.0
 10
-20.19204680345956
 20
55.12380871629648
 42
0.0
 10
-19.79201288790909
 20
55.12380871629648
 42
0.0
 10
-19.79201288790909
 20
58.1001017466508
 42
0.4142135623731547
 10
-20.59201288790928
 20
58.90010174665076
 42
0.0
 10
-23.56830591826338
 20
58.90010174665076
 42
0.0
 10
-23.56830591826338
 20
55.12380871629648
 42
0.0
 10
-23.18424622689463
 20
55.12380871629648
 42
0.0
 97
        1
330
BE7
 92
        7
 72
     1
 73
     1
 93
        8
 10
-19.1999120763262
 20
55.92680650071542
 42
0.4153115297271299
 10
-18.39991769304061
 20
55.12380871629648
 42
0.0
 10
-15.4236900118708
 20
55.12380871629648
 42
0.0
 10
-15.4236900118708
 20
59.87619128370352
 42
0.0
 10
-15.80771578768872
 20
59.87619128370352
 42
0.0
 10
-15.80771578768872
 20
58.90010174665076
 42
0.0
 10
-18.39176256411201
 20
58.90010174665076
 42
0.4131164467977965
 10
-19.19175694739761
 20
58.1030995310698
 42
0.0
 97
        1
330
BE6
 92
       22
 72
     1
 73
     1
 93
        6
 10
-18.79994912667462
 20
58.1001017466508
 42
-0.4142135623731575
 10
-18.39994912667453
 20
58.5001017466509
 42
0.0
 10
-15.80771578768872
 20
58.50010174665067
 42
0.0
 10
-15.80771578768827
 20
55.507868407665
 42
0.0
 10
-18.39994912667453
 20
55.507868407665
 42
-0.4142135623731731
 10
-18.79994912667462
 20
55.90786840766487
 42
0.0
 97
        1
330
BE5
 92
        7
 72
     1
 73
     1
 93
       12
 10
-14.79964388672215
 20
55.92380871629621
 42
0.4142135623729885
 10
-13.99964388672242
 20
55.12380871629648
 42
0.0
 10
-11.8233508563676
 20
55.12380871629648
 42
0.4142135623731289
 10
-11.02335085636741
 20
55.92380871629666
 42
0.0
 10
-11.02335085636741
 20
58.90010174665076
 42
0.0
 10
-11.42338477191788
 20
58.90010174665076
 42
0.0
 10
-11.42338477191788
 20
55.91567577726095
 42
-0.4131711701795319
 10
-11.82196067063523
 20
55.51567831234956
 42
0.0
 10
-14.01419400962095
 20
55.50787335710947
 42
-0.4152567234626918
 10
-14.41561811090378
 20
55.90787082202087
 42
0.0
 10
-14.41561811090378
 20
58.90010174665076
 42
0.0
 10
-14.7996438867226
 20
58.90010174665076
 42
0.0
 97
        1
330
BE4
 92
        7
 72
     1
 73
     1
 93
       20
 10
-7.423079531965413
 20
57.02796337120571
 42
-0.414213562373168
 10
-7.023079531965322
 20
56.62796337120562
 42
0.0
 10
-7.023079531965322
 20
55.90786840766487
 42
-0.4142135623731575
 10
-7.423079531965413
 20
55.507868407665
 42
0.0
 10
-10.41534678650168
 20
55.507868407665
 42
0.0
 10
-10.41534678650168
 20
55.12380871629648
 42
0.0
 10
-7.445787917283723
 20
55.12380871629648
 42
0.4114777732065809
 10
-6.645822882998345
 20
55.91632914939783
 42
0.0
 10
-6.639238813324936
 20
56.62051771985716
 42
0.4169546541682913
 10
-7.439203847610315
 20
57.42799728675596
 42
0.0
 10
-9.615312870951584
 20
57.42799728675596
 42
-0.4142135623729911
 10
-10.01531287095122
 20
57.82799728675581
 42
0.0
 10
-10.01531287095122
 20
58.10010174665103
 42
-0.414213562372991
 10
-9.615312870951584
 20
58.5001017466509
 42
0.0
 10
-6.92703069357276
 20
58.50010174665067
 42
0.0
 10
-6.927030693572305
 20
58.90010174665076
 42
0.0
 10
-9.615346786501959
 20
58.90010174665076
 42
0.4142135623730467
 10
-10.41534678650168
 20
58.10010174665103
 42
0.0
 10
-10.41534678650168
 20
57.82796337120544
 42
0.4142135623730301
 10
-9.615346786501959
 20
57.02796337120571
 42
0.0
 97
        1
330
BE3
 92
        7
 72
     1
 73
     1
 93
       12
 10
-5.21497371544865
 20
57.42799728675596
 42
0.4142135623730871
 10
-6.014973715448377
 20
56.627997286756
 42
0.0
 10
-6.014973715448377
 20
55.92380871629621
 42
0.4142135623730715
 10
-5.21497371544865
 20
55.12380871629648
 42
0.0
 10
-2.23871460064447
 20
55.12380871629648
 42
0.0
 10
-2.23871460064447
 20
58.10010174665058
 42
0.414213562373155
 10
-3.038714600644652
 20
58.90010174665076
 42
0.0
 10
-5.726962862471737
 20
58.90010174665076
 42
0.0
 10
-5.726962862472191
 20
58.5001017466509
 42
0.0
 10
-3.038748516194573
 20
58.5001017466509
 42
-0.4142135623730067
 10
-2.638748516194482
 20
58.10010174665058
 42
0.0
 10
-2.638748516194482
 20
57.42799728675596
 42
0.0
 97
        1
330
BE2
 92
       22
 72
     1
 73
     1
 93
        6
 10
-2.638748516194937
 20
57.02796337120571
 42
0.0
 10
-2.638748516194482
 20
55.50786840766477
 42
0.0
 10
-5.21497371544865
 20
55.507868407665
 42
-0.4142135623731731
 10
-5.614973715448741
 20
55.90786840766509
 42
0.0
 10
-5.614973715448741
 20
56.62796337120562
 42
-0.4142135623731576
 10
-5.21497371544865
 20
57.02796337120571
 42
0.0
 97
        1
330
C0D
 75
     0
 76
     1
 47
0.0407044778999864
 98
       13
 10
-34.18710075113677
 20
56.16907953933765
 10
-33.12851374392494
 20
56.49471602641233
 10
-33.12851374392494
 20
56.49471602641233
 10
-28.77202873835904
 20
57.51232930166111
 10
-24.41554807250941
 20
57.91937341678636
 10
-24.41554807250941
 20
59.384734621186
 10
-23.31624584658039
 20
58.3264175319116
 10
-19.04119127844888
 20
57.75655517324913
 10
-19.04119127844888
 20
57.75655517324913
 10
-14.64399105416578
 20
57.43091868617466
 10
-8.048195057457178
 20
57.22739662861204
 10
-4.017427461911665
 20
57.18669281458665
 10
-4.017427461911665
 20
57.18669281458665
  0
TEXT
  5
BED
330
B9E
100
AcDbEntity
  8
leg fin
100
AcDbText
 10
3.391127401597259
 20
2.107634911895729
 30
0.0
 40
1.5
  1
Este desenho é propriedade da Sanindusa, S.A., e não pode ser copiado nem divulgado sem nossa autorização.
 50
90.0
 41
0.8
  7
SANINDUSA
100
AcDbText
  0
LINE
  5
BEE
330
B9E
100
AcDbEntity
  8
3
100
AcDbLine
 10
-90.0
 20
4.0
 30
0.0
 11
-90.0
 21
12.0
 31
0.0
  0
TEXT
  5
BEF
330
B9E
100
AcDbEntity
  8
1
100
AcDbText
 10
-39.0
 20
9.25
 30
0.0
 40
2.0
  1
Substituido por:
 41
0.8
  7
SANINDUSA
 11
-39.0
 21
10.25
 31
0.0
100
AcDbText
 73
     2
  0
POINT
  5
BF0
330
B9E
100
AcDbEntity
  8
SANINDUSA
100
AcDbPoint
 10
0.0
 20
0.0
 30
0.0
  0
TEXT
  5
BF1
330
B9E
100
AcDbEntity
  8
1
100
AcDbText
 10
-89.0
 20
16.74927010445663
 30
0.0
 40
2.0
  1
Normas:
 41
0.8
  7
SANINDUSA
 11
-89.0
 21
17.74927010445663
 31
0.0
100
AcDbText
 73
     2
  0
LINE
  5
BF2
330
B9E
100
AcDbEntity
  8
3
100
AcDbLine
 10
-90.0
 20
12.0
 30
0.0
 11
-90.0
 21
20.0
 31
0.0
  0
LINE
  5
BF3
330
B9E
100
AcDbEntity
  8
3
100
AcDbLine
 10
-110.546019464768
 20
12.0
 30
0.0
 11
-110.546019464768
 21
20.0
 31
0.0
  0
TEXT
  5
BF4
330
B9E
100
AcDbEntity
  8
1
100
AcDbText
 10
-109.6177520618648
 20
17.25
 30
0.0
 40
2.0
  1
Cor:
 41
0.8
  7
SANINDUSA
 11
-109.6177520618648
 21
18.25
 31
0.0
100
AcDbText
 73
     2
  0
LINE
  5
BF5
330
B9E
100
AcDbEntity
  8
leg fin
100
AcDbLine
 10
-91.42857142857156
 20
20.0
 30
0.0
 11
-91.42857142857156
 21
28.5
 31
0.0
  0
LINE
  5
BF6
330
B9E
100
AcDbEntity
  8
leg fin
100
AcDbLine
 10
-104.2857142857142
 20
20.0
 30
0.0
 11
-104.2857142857142
 21
28.5
 31
0.0
  0
LINE
  5
BF7
330
B9E
100
AcDbEntity
  8
leg fin
100
AcDbLine
 10
-117.1428571428573
 20
20.0
 30
0.0
 11
-117.1428571428573
 21
28.5
 31
0.0
  0
POINT
  5
BF8
330
B9E
100
AcDbEntity
  8
SANINDUSA
100
AcDbPoint
 10
-117.1428571428573
 20
28.5
 30
0.0
  0
POINT
  5
BF9
330
B9E
100
AcDbEntity
  8
SANINDUSA
100
AcDbPoint
 10
-104.2857142857142
 20
28.5
 30
0.0
  0
POINT
  5
BFA
330
B9E
100
AcDbEntity
  8
SANINDUSA
100
AcDbPoint
 10
-91.42857142857156
 20
28.5
 30
0.0
  0
TEXT
  5
BFB
330
B9E
100
AcDbEntity
  8
1
100
AcDbText
 10
-116.200160604496
 20
26.43288406845113
 30
0.0
 40
1.5
  1
Nº Seq.:
 41
0.8
  7
SANINDUSA
 11
-116.200160604496
 21
27.18288406845113
 31
0.0
100
AcDbText
 73
     2
  0
TEXT
  5
BFC
330
B9E
100
AcDbEntity
  8
1
100
AcDbText
 10
-103.2106584078738
 20
26.43288406845113
 30
0.0
 40
1.5
  1
Tipo:
 41
0.8
  7
SANINDUSA
 11
-103.2106584078738
 21
27.18288406845113
 31
0.0
100
AcDbText
 73
     2
  0
TEXT
  5
BFD
330
B9E
100
AcDbEntity
  8
1
100
AcDbText
 10
-90.22114672289353
 20
26.43288406845113
 30
0.0
 40
1.5
  1
Prod.:
 41
0.8
  7
SANINDUSA
 11
-90.22114672289353
 21
27.18288406845113
 31
0.0
100
AcDbText
 73
     2
  0
TEXT
  5
BFE
330
B9E
100
AcDbEntity
  8
1
100
AcDbText
 10
-64.77320576346574
 20
26.43288406845113
 30
0.0
 40
1.5
  1
Rev.:
 41
0.8
  7
SANINDUSA
 11
-64.77320576346574
 21
27.18288406845113
 31
0.0
100
AcDbText
 73
     2
  0
LINE
  5
BFF
330
B9E
100
AcDbEntity
  8
leg fin
100
AcDbLine
 10
-52.85714285714266
 20
20.0
 30
0.0
 11
-52.85714285714266
 21
28.5
 31
0.0
  0
LINE
  5
C00
330
B9E
100
AcDbEntity
  8
leg fin
100
AcDbLine
 10
-65.71428571428578
 20
20.0
 30
0.0
 11
-65.71428571428578
 21
28.5
 31
0.0
  0
LINE
  5
C01
330
B9E
100
AcDbEntity
  8
leg fin
100
AcDbLine
 10
-78.57142857142844
 20
20.0
 30
0.0
 11
-78.57142857142844
 21
28.5
 31
0.0
  0
POINT
  5
C02
330
B9E
100
AcDbEntity
  8
SANINDUSA
100
AcDbPoint
 10
-78.57142857142844
 20
28.5
 30
0.0
  0
POINT
  5
C03
330
B9E
100
AcDbEntity
  8
SANINDUSA
100
AcDbPoint
 10
-65.71428571428578
 20
28.5
 30
0.0
  0
POINT
  5
C04
330
B9E
100
AcDbEntity
  8
SANINDUSA
100
AcDbPoint
 10
-52.85714285714266
 20
28.5
 30
0.0
  0
TEXT
  5
C05
330
B9E
100
AcDbEntity
  8
1
100
AcDbText
 10
-77.61097961686573
 20
26.43288406845113
 30
0.0
 40
1.5
  1
Peça:
 41
0.8
  7
SANINDUSA
 11
-77.61097961686573
 21
27.18288406845113
 31
0.0
100
AcDbText
 73
     2
  0
TEXT
  5
C06
330
B9E
100
AcDbEntity
  8
1
100
AcDbText
 10
-52.06538060077036
 20
26.43288406845113
 30
0.0
 40
1.5
  1
Alt.:
 41
0.8
  7
SANINDUSA
 11
-52.06538060077036
 21
27.18288406845113
 31
0.0
100
AcDbText
 73
     2
  0
LINE
  5
C07
330
B9E
100
AcDbEntity
  8
3
100
AcDbLine
 10
0.0
 20
12.0
 30
0.0
 11
-40.0
 21
12.0
 31
0.0
  0
LINE
  5
C08
330
B9E
100
AcDbEntity
  8
3
100
AcDbLine
 10
-40.0
 20
32.5
 30
0.0
 11
0.0
 21
32.5
 31
0.0
  0
TEXT
  5
C09
330
B9E
100
AcDbEntity
  8
1
100
AcDbText
 10
-19.0
 20
29.75
 30
0.0
 40
2.0
  1
Folha:
 41
0.8
  7
SANINDUSA
 11
-19.0
 21
30.75
 31
0.0
100
AcDbText
 73
     2
  0
LINE
  5
C0A
330
B9E
100
AcDbEntity
  8
3
100
AcDbLine
 10
-20.0
 20
32.5
 30
0.0
 11
-20.0
 21
20.0
 31
0.0
  0
TEXT
  5
C0B
330
B9E
100
AcDbEntity
  8
1
100
AcDbText
 10
-39.0
 20
29.75
 30
0.0
 40
2.0
  1
Escala:
 41
0.8
  7
SANINDUSA
 11
-39.0
 21
30.75
 31
0.0
100
AcDbText
 73
     2
  0
TEXT
  5
C0C
330
B9E
100
AcDbEntity
  8
1
100
AcDbText
 10
-39.0
 20
17.25
 30
0.0
 40
2.0
  1
Substitui:
 41
0.8
  7
SANINDUSA
 11
-39.0
 21
18.25
 31
0.0
100
AcDbText
 73
     2
  0
LWPOLYLINE
  5
C0D
102
{ACAD_REACTORS
330
BEC
102
}
330
B9E
100
AcDbEntity
  8
9
100
AcDbPolyline
 90
        6
 70
     1
 43
0.0
 10
-2.638748516194482
 20
57.02796337120571
 10
-2.638748516194482
 20
55.50786840766477
 10
-5.21497371544865
 20
55.507868407665
 42
-0.4142135623730898
 10
-5.614973715448741
 20
55.90786840766487
 10
-5.614973715448741
 20
56.62796337120562
 42
-0.4142135623731576
 10
-5.21497371544865
 20
57.02796337120571
  0
LINE
  5
C0E
330
B9E
100
AcDbEntity
  8
3
100
AcDbLine
 10
-40.0
 20
50.0
 30
0.0
 11
0.0
 21
50.0
 31
0.0
  0
ATTDEF
  5
C0F
330
B9E
100
AcDbEntity
  8
1
100
AcDbText
 10
-31.30691739422431
 20
40.25
 30
0.0
 40
2.0
  1
XXXXXXXXXXXXXXX
 41
0.8
  7
SANINDUSA
 72
     4
 11
-20.0
 21
41.25
 31
0.0
100
AcDbAttributeDefinition
  3
Observações:
  2
OBS
 70
     0
  0
TEXT
  5
C10
330
B9E
100
AcDbEntity
  8
1
100
AcDbText
 10
-39.0
 20
47.25
 30
0.0
 40
2.0
  1
Observações:
 41
0.8
  7
SANINDUSA
 11
-39.0
 21
48.25
 31
0.0
100
AcDbText
 73
     2
  0
LWPOLYLINE
  5
C11
102
{ACAD_REACTORS
330
BEC
102
}
330
B9E
100
AcDbEntity
  8
9
100
AcDbPolyline
 90
        6
 70
     1
 43
0.0
 10
-29.98468712904878
 20
57.02796337120571
 10
-29.98468712904878
 20
55.507868407665
 10
-32.57692046803459
 20
55.507868407665
 42
-0.4142135623731731
 10
-32.97692046803468
 20
55.90786840766487
 10
-32.97692046803468
 20
56.62796337120562
 42
-0.4142135623731576
 10
-32.57692046803459
 20
57.02796337120571
  0
LWPOLYLINE
  5
C12
102
{ACAD_REACTORS
330
BEC
102
}
330
B9E
100
AcDbEntity
  8
9
100
AcDbPolyline
 90
        4
 70
     1
 43
0.0
 10
-24.19231812786165
 20
59.87619128370352
 10
-24.57637781922995
 20
59.87619128370352
 10
-24.57637781922995
 20
59.28412752246913
 10
-24.19231812786165
 20
59.28412752246913
  0
ENDBLK
  5
C14
330
B9E
100
AcDbEntity
  8
0
100
AcDbBlockEnd
  0
ENDSEC
  0
SECTION
  2
ENTITIES
  0
ARC
  5
15D1
330
1F
100
AcDbEntity
  8
SANINDUSA
100
AcDbCircle
 10
4767.023252191551
 20
2545.849577119129
 30
0.0
 40
0.0050000000136305
100
AcDbArc
 50
90.00000229284914
 51
179.9806103123752
  0
SPLINE
  5
15D2
330
1F
100
AcDbEntity
  8
SANINDUSA
100
AcDbSpline
210
0.0
220
0.0
230
1.0
 70
    24
 71
     1
 72
     4
 73
     2
 74
     0
 42
0.0000000001
 43
0.0000000001
 40
0.0
 40
0.0
 40
1.0
 40
1.0
 10
4767.018252191155
 20
2545.849577119517
 30
0.0
 10
4767.018252191155
 20
2545.847577119189
 30
0.0
  0
ARC
  5
15D3
330
1F
100
AcDbEntity
  8
SANINDUSA
100
AcDbCircle
 10
4767.023252191551
 20
2545.84757711913
 30
0.0
 40
0.0050000000136305
100
AcDbArc
 50
179.9806103123752
 51
269.9999977071509
  0
SPLINE
  5
15D4
330
1F
100
AcDbEntity
  8
SANINDUSA
100
AcDbSpline
210
0.0
220
0.0
230
1.0
 70
     8
 71
     3
 72
    20
 73
    16
 74
     0
 42
0.0000000001
 43
0.0000000001
 40
0.0
 40
0.0
 40
0.0
 40
0.0
 40
0.0192012210453351
 40
0.1582147947828862
 40
0.2286716350522081
 40
0.2996469448975527
 40
0.3708283627492174
 40
0.4412030215607291
 40
0.5097645346514784
 40
0.5762029046618761
 40
0.6412650728955704
 40
0.705554668129871
 40
0.832963384059948
 40
0.9604881265521566
 40
1.0
 40
1.0
 40
1.0
 40
1.0
 10
4767.028673760614
 20
2545.838445797505
 30
0.0
 10
4767.028694370193
 20
2545.838216587295
 30
0.0
 10
4767.028864189624
 20
2545.836327934154
 30
0.0
 10
4767.029887450217
 20
2545.83369105029
 30
0.0
 10
4767.031422897641
 20
2545.8306257319
 30
0.0
 10
4767.032894708062
 20
2545.828427424543
 30
0.0
 10
4767.034608748895
 20
2545.826405926238
 30
0.0
 10
4767.036521163248
 20
2545.824622368372
 30
0.0
 10
4767.038552569023
 20
2545.823119207476
 30
0.0
 10
4767.040615632322
 20
2545.821918907388
 30
0.0
 10
4767.042596976216
 20
2545.821029434808
 30
0.0
 10
4767.04507527675
 20
2545.820199652899
 30
0.0
 10
4767.047865747608
 20
2545.819694141499
 30
0.0
 10
4767.050134690528
 20
2545.819578191208
 30
0.0
 10
4767.051332909555
 20
2545.819581450904
 30
0.0
 10
4767.051616343691
 20
2545.819582221972
 30
0.0
  0
SPLINE
  5
15D5
330
1F
100
AcDbEntity
  8
SANINDUSA
100
AcDbSpline
210
0.0
220
0.0
230
1.0
 70
    24
 71
     1
 72
     4
 73
     2
 74
     0
 42
0.0000000001
 43
0.0000000001
 40
0.0
 40
0.0
 40
1.0
 40
1.0
 10
4767.162186673863
 20
2545.701355786937
 30
0.0
 10
4767.111252195223
 20
2545.699577124732
 30
0.0
  0
SPLINE
  5
15D6
330
1F
100
AcDbEntity
  8
SANINDUSA
100
AcDbSpline
210
0.0
220
0.0
230
1.0
 70
    24
 71
     1
 72
     4
 73
     2
 74
     0
 42
0.0000000001
 43
0.0000000001
 40
0.0
 40
0.0
 40
1.0
 40
1.0
 10
4767.111252195223
 20
2545.599577115792
 30
0.0
 10
4767.15839472322
 20
2545.597930865305
 30
0.0
  0
SPLINE
  5
15D7
330
1F
100
AcDbEntity
  8
SANINDUSA
100
AcDbSpline
210
0.0
220
0.0
230
1.0
 70
    24
 71
     1
 72
     4
 73
     2
 74
     0
 42
0.0000000001
 43
0.0000000001
 40
0.0
 40
0.0
 40
1.0
 40
1.0
 10
4767.163217118961
 20
2545.592767493742
 30
0.0
 10
4767.158931194825
 20
2545.464577512758
 30
0.0
  0
SPLINE
  5
15D8
330
1F
100
AcDbEntity
  8
SANINDUSA
100
AcDbSpline
210
0.0
220
0.0
230
1.0
 70
     8
 71
     3
 72
    16
 73
    12
 74
     0
 42
0.0000000001
 43
0.0000000001
 40
0.0
 40
0.0
 40
0.0
 40
0.0
 40
0.0371856620153816
 40
0.1858304826527563
 40
0.3376970802772727
 40
0.4968325004557048
 40
0.6385982165227292
 40
0.7670048691284212
 40
0.8839196902623687
 40
0.9896710113216414
 40
1.0
 40
1.0
 40
1.0
 40
1.0
 10
4767.158394939286
 20
2545.597907381075
 30
0.0
 10
4767.158492060775
 20
2545.597910919719
 30
0.0
 10
4767.158977412717
 20
2545.597928603626
 30
0.0
 10
4767.159847143444
 20
2545.597698064651
 30
0.0
 10
4767.160939667714
 20
2545.597192689263
 30
0.0
 10
4767.161861098621
 20
2545.596427933153
 30
0.0
 10
4767.162538770683
 20
2545.595526224267
 30
0.0
 10
4767.162968857752
 20
2545.594602447093
 30
0.0
 10
4767.163176884477
 20
2545.593708485047
 30
0.0
 10
4767.163243863127
 20
2545.593097027207
 30
0.0
 10
4767.163214597095
 20
2545.592795460095
 30
0.0
 10
4767.163211992962
 20
2545.59276862623
 30
0.0
  0
SPLINE
  5
15D9
330
1F
100
AcDbEntity
  8
SANINDUSA
100
AcDbSpline
210
0.0
220
0.0
230
1.0
 70
     8
 71
     3
 72
    14
 73
    10
 74
     0
 42
0.0000000001
 43
0.0000000001
 40
0.0
 40
0.0
 40
0.0
 40
0.0
 40
0.1712926625162765
 40
0.3104821203124208
 40
0.4626317891806044
 40
0.6201248509710148
 40
0.7959567184248292
 40
0.9512767922043813
 40
1.0
 40
1.0
 40
1.0
 40
1.0
 10
4767.167005426271
 20
2545.706185059565
 30
0.0
 10
4767.166960987533
 20
2545.705757013304
 30
0.0
 10
4767.166880438646
 20
2545.704981144048
 30
0.0
 10
4767.166416079833
 20
2545.703907941389
 30
0.0
 10
4767.16576858365
 20
2545.702984342999
 30
0.0
 10
4767.164850685005
 20
2545.702170018426
 30
0.0
 10
4767.163751478109
 20
2545.701621859871
 30
0.0
 10
4767.162818720342
 20
2545.701368353905
 30
0.0
 10
4767.162308338586
 20
2545.701378321524
 30
0.0
 10
4767.162186465247
 20
2545.701380701678
 30
0.0
  0
SPLINE
  5
15DA
330
1F
100
AcDbEntity
  8
SANINDUSA
100
AcDbSpline
210
0.0
220
0.0
230
1.0
 70
    24
 71
     1
 72
     4
 73
     2
 74
     0
 42
0.0000000001
 43
0.0000000001
 40
0.0
 40
0.0
 40
1.0
 40
1.0
 10
4767.167534663363
 20
2545.72190354945
 30
0.0
 10
4767.167009129209
 20
2545.706185163873
 30
0.0
  0
ARC
  5
15DB
330
1F
100
AcDbEntity
  8
SANINDUSA
100
AcDbCircle
 10
4767.162539338216
 20
2545.722126223284
 30
0.0
 40
0.004999983136231
100
AcDbArc
 50
357.5425237621421
 51
46.59787031705113
  0
ARC
  5
15DE
330
1F
100
AcDbEntity
  8
SANINDUSA
100
AcDbCircle
 10
4767.626930896065
 20
2545.849577119129
 30
0.0
 40
0.0050000000000002
100
AcDbArc
 50
343.7038839043232
 51
90.0
  0
SPLINE
  5
15DF
330
1F
100
AcDbEntity
  8
SANINDUSA
100
AcDbSpline
210
0.0
220
0.0
230
1.0
 70
    24
 71
     3
 72
    30
 73
    26
 74
     0
 42
0.0000000001
 43
0.0000000001
 40
0.0
 40
0.0
 40
0.0
 40
0.0
 40
0.0374891960329169
 40
0.0749783449979199
 40
0.1298929246919239
 40
0.1849840722540508
 40
0.2401108522517704
 40
0.295155743902236
 40
0.3500314955787133
 40
0.3911290447838593
 40
0.4322553285552177
 40
0.4733479908161005
 40
0.5178381467271694
 40
0.5625034230913421
 40
0.6071972023512588
 40
0.6518030832738745
 40
0.6962432072290267
 40
0.7372557771894736
 40
0.7784037758025657
 40
0.8195287707379343
 40
0.8605098960692762
 40
0.8953320616145148
 40
0.9302634006348776
 40
0.9651875682169869
 40
1.0
 40
1.0
 40
1.0
 40
1.0
 10
4767.41056343077
 20
2545.85457711894
 30
0.0
 10
4767.414354143609
 20
2545.85457711894
 30
0.0
 10
4767.421935564528
 20
2545.85457711894
 30
0.0
 10
4767.435049289828
 20
2545.85457711894
 30
0.0
 10
4767.449884315348
 20
2545.85457711894
 30
0.0
 10
4767.466352038584
 20
2545.85457711894
 30
0.0
 10
4767.482624775815
 20
2545.85457711894
 30
0.0
 10
4767.498592405792
 20
2545.85457711894
 30
0.0
 10
4767.512862772171
 20
2545.85457711894
 30
0.0
 10
4767.525477137399
 20
2545.85457711894
 30
0.0
 10
4767.536528770629
 20
2545.85457711894
 30
0.0
 10
4767.547535760447
 20
2545.85457711894
 30
0.0
 10
4767.558417820687
 20
2545.85457711894
 30
0.0
 10
4767.569073381457
 20
2545.85457711894
 30
0.0
 10
4767.57914136
 20
2545.85457711894
 30
0.0
 10
4767.588512770294
 20
2545.85457711894
 30
0.0
 10
4767.596873250862
 20
2545.85457711894
 30
0.0
 10
4767.604198566359
 20
2545.85457711894
 30
0.0
 10
4767.610511157996
 20
2545.85457711894
 30
0.0
 10
4767.615930062502
 20
2545.85457711894
 30
0.0
 10
4767.620140575727
 20
2545.85457711894
 30
0.0
 10
4767.623227514383
 20
2545.85457711894
 30
0.0
 10
4767.625329003776
 20
2545.85457711894
 30
0.0
 10
4767.626674251213
 20
2545.85457711894
 30
0.0
 10
4767.626845451111
 20
2545.85457711894
 30
0.0
 10
4767.626930913908
 20
2545.85457711894
 30
0.0
  0
SPLINE
  5
15E2
330
1F
100
AcDbEntity
  8
SANINDUSA
100
AcDbSpline
210
0.0
220
0.0
230
1.0
 70
    24
 71
     3
 72
    18
 73
    14
 74
     0
 42
0.0000000001
 43
0.0000000001
 40
0.0
 40
0.0
 40
0.0
 40
0.0
 40
0.2499999999999996
 40
0.2499999999999996
 40
0.4999999999999992
 40
0.4999999999999992
 40
0.5624999999999992
 40
0.5624999999999992
 40
0.6249999999999992
 40
0.6249999999999992
 40
0.7499999999999992
 40
0.7499999999999992
 40
1.0
 40
1.0
 40
1.0
 40
1.0
 10
4767.142019222517
 20
2545.854577119129
 30
0.0
 10
4767.163844246684
 20
2545.854577119129
 30
0.0
 10
4767.185829634941
 20
2545.854577119129
 30
0.0
 10
4767.230113458373
 20
2545.854577119129
 30
0.0
 10
4767.25241226003
 20
2545.854577119129
 30
0.0
 10
4767.280479932384
 20
2545.854577119129
 30
0.0
 10
4767.286103180056
 20
2545.854577119129
 30
0.0
 10
4767.297369204277
 20
2545.854577119129
 30
0.0
 10
4767.303013017321
 20
2545.854577119129
 30
0.0
 10
4767.319946489823
 20
2545.854577119129
 30
0.0
 10
4767.331246820771
 20
2545.854577119129
 30
0.0
 10
4767.365181584533
 20
2545.854577119129
 30
0.0
 10
4767.38784974667
 20
2545.854577119129
 30
0.0
 10
4767.410563434491
 20
2545.854577119129
 30
0.0
  0
SPLINE
  5
15E9
330
1F
100
AcDbEntity
  8
SANINDUSA
100
AcDbSpline
210
0.0
220
0.0
230
1.0
 70
     8
 71
     3
 72
    18
 73
    14
 74
     0
 42
0.0000000001
 43
0.0000000001
 40
0.0
 40
0.0
 40
0.0
 40
0.0
 40
0.1250000000000022
 40
0.1250000000000022
 40
0.2500000000000043
 40
0.2500000000000043
 40
0.3750000000000065
 40
0.3750000000000065
 40
0.5000000000000087
 40
0.5000000000000087
 40
0.7500000000000044
 40
0.7500000000000044
 40
1.0
 40
1.0
 40
1.0
 40
1.0
 10
4767.250060966895
 20
2545.816659745485
 30
0.0
 10
4767.249972445489
 20
2545.816893490432
 30
0.0
 10
4767.249861272245
 20
2545.817119709528
 30
0.0
 10
4767.249591024248
 20
2545.817556279777
 30
0.0
 10
4767.249429751691
 20
2545.817768491368
 30
0.0
 10
4767.249070294681
 20
2545.818157898713
 30
0.0
 10
4767.248875026648
 20
2545.818333278666
 30
0.0
 10
4767.248456904147
 20
2545.818649732555
 30
0.0
 10
4767.248231870303
 20
2545.818791617103
 30
0.0
 10
4767.24754326441
 20
2545.819155853312
 30
0.0
 10
4767.247072191636
 20
2545.819318744285
 30
0.0
 10
4767.246112899075
 20
2545.819531561996
 30
0.0
 10
4767.245641133347
 20
2545.819577119129
 30
0.0
 10
4767.245176142959
 20
2545.819577119129
 30
0.0
  0
SPLINE
  5
15EC
330
1F
100
AcDbEntity
  8
SANINDUSA
100
AcDbSpline
210
0.0
220
0.0
230
1.0
 70
    24
 71
     3
 72
    10
 73
     6
 74
     0
 42
0.0000000001
 43
0.0000000001
 40
0.0
 40
0.0
 40
0.0
 40
0.0
 40
0.5
 40
0.5
 40
1.0
 40
1.0
 40
1.0
 40
1.0
 10
4767.245176142959
 20
2545.819577119129
 30
0.0
 10
4767.227862309776
 20
2545.819577119129
 30
0.0
 10
4767.210641733004
 20
2545.819577119129
 30
0.0
 10
4767.176394720453
 20
2545.819577119129
 30
0.0
 10
4767.159368849251
 20
2545.819577119129
 30
0.0
 10
4767.142445629903
 20
2545.819577119129
 30
0.0
  0
SPLINE
  5
15EF
330
1F
100
AcDbEntity
  8
SANINDUSA
100
AcDbSpline
210
0.0
220
0.0
230
1.0
 70
     8
 71
     3
 72
    12
 73
     8
 74
     0
 42
0.0000000001
 43
0.0000000001
 40
0.0
 40
0.0
 40
0.0
 40
0.0
 40
0.2500000000000027
 40
0.2500000000000027
 40
0.5000000000000054
 40
0.5000000000000054
 40
1.0
 40
1.0
 40
1.0
 40
1.0
 10
4767.297052220952
 20
2545.704117043332
 30
0.0
 10
4767.297323072217
 20
2545.703702502521
 30
0.0
 10
4767.297611175377
 20
2545.703291373263
 30
0.0
 10
4767.29821153415
 20
2545.702474963676
 30
0.0
 10
4767.298521086952
 20
2545.702073601582
 30
0.0
 10
4767.299473146574
 20
2545.700887142976
 30
0.0
 10
4767.300137617356
 20
2545.700118397813
 30
0.0
 10
4767.300836204058
 20
2545.69937659215
 30
0.0
  0
SPLINE
  5
15F0
330
1F
100
AcDbEntity
  8
SANINDUSA
100
AcDbSpline
210
0.0
220
0.0
230
1.0
 70
     8
 71
     3
 72
    16
 73
    12
 74
     0
 42
0.0000000001
 43
0.0000000001
 40
0.0
 40
0.0
 40
0.0
 40
0.0
 40
0.25
 40
0.25
 40
0.5
 40
0.5
 40
0.625
 40
0.625
 40
0.7499999999999999
 40
0.7499999999999999
 40
1.0
 40
1.0
 40
1.0
 40
1.0
 10
4767.297052218006
 20
2545.704117045299
 30
0.0
 10
4767.293237121023
 20
2545.713177037698
 30
0.0
 10
4767.289399079362
 20
2545.722327454784
 30
0.0
 10
4767.281665607089
 20
2545.740803343775
 30
0.0
 10
4767.277768639841
 20
2545.750133293776
 30
0.0
 10
4767.271888813737
 20
2545.764227505635
 30
0.0
 10
4767.269922935058
 20
2545.768942963454
 30
0.0
 10
4767.265979023729
 20
2545.778407893023
 30
0.0
 10
4767.264000614571
 20
2545.783158228094
 30
0.0
 10
4767.258051525792
 20
2545.797447869198
 30
0.0
 10
4767.254065814976
 20
2545.807028426439
 30
0.0
 10
4767.250060966895
 20
2545.816659745485
 30
0.0
  0
SPLINE
  5
15F3
330
1F
100
AcDbEntity
  8
SANINDUSA
100
AcDbSpline
210
0.0
220
0.0
230
1.0
 70
    24
 71
     3
 72
    14
 73
    10
 74
     0
 42
0.0000000001
 43
0.0000000001
 40
0.0000002064183523
 40
0.0000002064183523
 40
0.0000002064183523
 40
0.0000002064183523
 40
0.0120000000012214
 40
0.0120000000012214
 40
0.0120000000012214
 40
0.0600000002453421
 40
0.0600000002453421
 40
0.0600000002453421
 40
0.0834126744997493
 40
0.0834126744997493
 40
0.0834126744997493
 40
0.0834126744997493
 10
4767.232498830726
 20
2545.81655400413
 30
0.0
 10
4767.234080776343
 20
2545.812880191795
 30
0.0
 10
4767.235662745192
 20
2545.809206389453
 30
0.0
 10
4767.237244737802
 20
2545.805532597334
 30
0.0
 10
4767.243572817108
 20
2545.790837176035
 30
0.0
 10
4767.249901254412
 20
2545.776141908669
 30
0.0
 10
4767.256230225187
 20
2545.761446871063
 30
0.0
 10
4767.259317269576
 20
2545.754279160072
 30
0.0
 10
4767.262404443314
 20
2545.747111504763
 30
0.0
 10
4767.265491813111
 20
2545.739943933976
 30
0.0
  0
SPLINE
  5
15F5
330
1F
100
AcDbEntity
  8
SANINDUSA
100
AcDbSpline
210
0.0
220
0.0
230
1.0
 70
     8
 71
     3
 72
    18
 73
    14
 74
     0
 42
0.0000000001
 43
0.0000000001
 40
0.0
 40
0.0
 40
0.0
 40
0.0
 40
0.2499999999999984
 40
0.2499999999999984
 40
0.3749999999999993
 40
0.3749999999999993
 40
0.5000000000000002
 40
0.5000000000000002
 40
0.6250000000000011
 40
0.6250000000000011
 40
0.750000000000002
 40
0.750000000000002
 40
1.0
 40
1.0
 40
1.0
 40
1.0
 10
4767.292302033063
 20
2545.708969943925
 30
0.0
 10
4767.292633686095
 20
2545.708728006367
 30
0.0
 10
4767.292986144918
 20
2545.708437666157
 30
0.0
 10
4767.293544338961
 20
2545.707935317578
 30
0.0
 10
4767.293735783673
 20
2545.707756220394
 30
0.0
 10
4767.294124199682
 20
2545.707380284668
 30
0.0
 10
4767.294321566114
 20
2545.70718311863
 30
0.0
 10
4767.294722364318
 20
2545.706771351439
 30
0.0
 10
4767.294925796636
 20
2545.706556748272
 30
0.0
 10
4767.295338561857
 20
2545.706110753032
 30
0.0
 10
4767.295547000057
 20
2545.705881823549
 30
0.0
 10
4767.296179758174
 20
2545.70516768319
 30
0.0
 10
4767.296611094404
 20
2545.704658799654
 30
0.0
 10
4767.297052214995
 20
2545.704117052448
 30
0.0
  0
SPLINE
  5
15F6
330
1F
100
AcDbEntity
  8
SANINDUSA
100
AcDbSpline
210
0.0
220
0.0
230
1.0
 70
     8
 71
     3
 72
    16
 73
    12
 74
     0
 42
0.0000000001
 43
0.0000000001
 40
0.0
 40
0.0
 40
0.0
 40
0.0
 40
0.2500000000000003
 40
0.2500000000000003
 40
0.3750000000000002
 40
0.3750000000000002
 40
0.5000000000000001
 40
0.5000000000000001
 40
0.75
 40
0.75
 40
1.0
 40
1.0
 40
1.0
 40
1.0
 10
4767.265491813111
 20
2545.739943933976
 30
0.0
 10
4767.266808818186
 20
2545.737253009041
 30
0.0
 10
4767.268318197809
 20
2545.734580210694
 30
0.0
 10
4767.270910528899
 20
2545.730604179328
 30
0.0
 10
4767.271829450399
 20
2545.729284374069
 30
0.0
 10
4767.273784941208
 20
2545.726656964683
 30
0.0
 10
4767.274821235036
 20
2545.725349849957
 30
0.0
 10
4767.278111579832
 20
2545.721457952963
 30
0.0
 10
4767.280548589398
 20
2545.718899730562
 30
0.0
 10
4767.285982363741
 20
2545.713867990735
 30
0.0
 10
4767.288979117697
 20
2545.711393977342
 30
0.0
 10
4767.292302033063
 20
2545.708969943925
 30
0.0
  0
ARC
  5
15F8
330
1F
100
AcDbEntity
  8
SANINDUSA
100
AcDbCircle
 10
4767.134745296135
 20
2545.849577119129
 30
0.0
 40
0.0050000000000003
100
AcDbArc
 50
90.0
 51
180.0
  0
SPLINE
  5
15F9
330
1F
100
AcDbEntity
  8
SANINDUSA
100
AcDbSpline
210
0.0
220
0.0
230
1.0
 70
    24
 71
     3
 72
    24
 73
    20
 74
     0
 42
0.0000000001
 43
0.0000000001
 40
0.0
 40
0.0
 40
0.0
 40
0.0
 40
0.1249999999999992
 40
0.1249999999999992
 40
0.1875000000000004
 40
0.1875000000000004
 40
0.2500000000000016
 40
0.2500000000000016
 40
0.375000000000003
 40
0.375000000000003
 40
0.4375000000000059
 40
0.4375000000000059
 40
0.5000000000000087
 40
0.5000000000000087
 40
0.6250000000000075
 40
0.6250000000000075
 40
0.7500000000000063
 40
0.7500000000000063
 40
1.0
 40
1.0
 40
1.0
 40
1.0
 10
4767.134745296135
 20
2545.854577119129
 30
0.0
 10
4767.134745296135
 20
2545.854577119129
 30
0.0
 10
4767.134788786286
 20
2545.854577119129
 30
0.0
 10
4767.134917388791
 20
2545.854577119129
 30
0.0
 10
4767.13497086995
 20
2545.854577119129
 30
0.0
 10
4767.13509937324
 20
2545.854577119129
 30
0.0
 10
4767.135174779906
 20
2545.854577119129
 30
0.0
 10
4767.135430719526
 20
2545.854577119129
 30
0.0
 10
4767.135640687397
 20
2545.854577119129
 30
0.0
 10
4767.136013465087
 20
2545.854577119129
 30
0.0
 10
4767.136147408843
 20
2545.854577119129
 30
0.0
 10
4767.136435037378
 20
2545.854577119129
 30
0.0
 10
4767.136589392785
 20
2545.854577119129
 30
0.0
 10
4767.137078217756
 20
2545.854577119129
 30
0.0
 10
4767.137435676899
 20
2545.854577119129
 30
0.0
 10
4767.13821224513
 20
2545.854577119129
 30
0.0
 10
4767.138632654836
 20
2545.854577119129
 30
0.0
 10
4767.139983328248
 20
2545.854577119129
 30
0.0
 10
4767.140961624646
 20
2545.854577119129
 30
0.0
 10
4767.142019222517
 20
2545.854577119129
 30
0.0
  0
SPLINE
  5
15FB
330
1F
100
AcDbEntity
  8
SANINDUSA
100
AcDbSpline
210
0.0
220
0.0
230
1.0
 70
    24
 71
     3
 72
     8
 73
     4
 74
     0
 42
0.0000000001
 43
0.0000000001
 40
0.0
 40
0.0
 40
0.0
 40
0.0
 40
1.0
 40
1.0
 40
1.0
 40
1.0
 10
4767.129745296135
 20
2545.825577119129
 30
0.0
 10
4767.129745296135
 20
2545.833572128886
 30
0.0
 10
4767.129745296135
 20
2545.841572365144
 30
0.0
 10
4767.129745296135
 20
2545.849577119129
 30
0.0
  0
ARC
  5
15FC
330
1F
100
AcDbEntity
  8
SANINDUSA
100
AcDbCircle
 10
4767.135745296136
 20
2545.825577119129
 30
0.0
 40
0.0059999999999999
100
AcDbArc
 50
180.0
 51
270.0
  0
SPLINE
  5
15FD
330
1F
100
AcDbEntity
  8
SANINDUSA
100
AcDbSpline
210
0.0
220
0.0
230
1.0
 70
    24
 71
     3
 72
    24
 73
    20
 74
     0
 42
0.0000000001
 43
0.0000000001
 40
0.0
 40
0.0
 40
0.0
 40
0.0
 40
0.125000000000002
 40
0.125000000000002
 40
0.250000000000004
 40
0.250000000000004
 40
0.375000000000006
 40
0.375000000000006
 40
0.500000000000008
 40
0.500000000000008
 40
0.5625000000000077
 40
0.5625000000000077
 40
0.6250000000000073
 40
0.6250000000000073
 40
0.7500000000000049
 40
0.7500000000000049
 40
0.8750000000000024
 40
0.8750000000000024
 40
1.0
 40
1.0
 40
1.0
 40
1.0
 10
4767.142445629903
 20
2545.819577119129
 30
0.0
 10
4767.141961511632
 20
2545.819577119129
 30
0.0
 10
4767.141492073531
 20
2545.819577119129
 30
0.0
 10
4767.140582293609
 20
2545.819577119129
 30
0.0
 10
4767.14014939032
 20
2545.819577119129
 30
0.0
 10
4767.139332399983
 20
2545.819577119129
 30
0.0
 10
4767.138947116807
 20
2545.819577119129
 30
0.0
 10
4767.138224198371
 20
2545.819577119129
 30
0.0
 10
4767.137892429516
 20
2545.819577119129
 30
0.0
 10
4767.137443162573
 20
2545.819577119129
 30
0.0
 10
4767.137300840383
 20
2545.819577119129
 30
0.0
 10
4767.13703548607
 20
2545.819577119129
 30
0.0
 10
4767.136912095788
 20
2545.819577119129
 30
0.0
 10
4767.136569048662
 20
2545.819577119129
 30
0.0
 10
4767.136376341244
 20
2545.819577119129
 30
0.0
 10
4767.136063359116
 20
2545.819577119129
 30
0.0
 10
4767.135943580043
 20
2545.819577119129
 30
0.0
 10
4767.135785304026
 20
2545.819577119129
 30
0.0
 10
4767.135745296136
 20
2545.819577119129
 30
0.0
 10
4767.135745296136
 20
2545.819577119129
 30
0.0
  0
SPLINE
  5
15FF
330
1F
100
AcDbEntity
  8
SANINDUSA
100
AcDbSpline
210
0.0
220
0.0
230
1.0
 70
     8
 71
     3
 72
    20
 73
    16
 74
     0
 42
0.0000000001
 43
0.0000000001
 40
0.0
 40
0.0
 40
0.0
 40
0.0
 40
0.0312500000000001
 40
0.0312500000000001
 40
0.0625000000000001
 40
0.0625000000000001
 40
0.1250000000000003
 40
0.1250000000000003
 40
0.2500000000000005
 40
0.2500000000000005
 40
0.3750000000000008
 40
0.3750000000000008
 40
0.5000000000000011
 40
0.5000000000000011
 40
1.0
 40
1.0
 40
1.0
 40
1.0
 10
4767.465228280978
 20
2545.687674237112
 30
0.0
 10
4767.463625646291
 20
2545.687655917938
 30
0.0
 10
4767.462022959755
 20
2545.687644822278
 30
0.0
 10
4767.458817450234
 20
2545.687623208811
 30
0.0
 10
4767.457214631671
 20
2545.6876145627
 30
0.0
 10
4767.452405980209
 20
2545.687593241709
 30
0.0
 10
4767.44919995115
 20
2545.687585021135
 30
0.0
 10
4767.439581061318
 20
2545.687570458451
 30
0.0
 10
4767.43316739903
 20
2545.687574688442
 30
0.0
 10
4767.42033791374
 20
2545.687601123227
 30
0.0
 10
4767.413922101681
 20
2545.687627952228
 30
0.0
 10
4767.401088322066
 20
2545.687701639517
 30
0.0
 10
4767.394670337217
 20
2545.687741194337
 30
0.0
 10
4767.362574934297
 20
2545.687951270627
 30
0.0
 10
4767.336876649529
 20
2545.688159595569
 30
0.0
 10
4767.311180076511
 20
2545.688411752645
 30
0.0
  0
SPLINE
  5
1601
330
1F
100
AcDbEntity
  8
SANINDUSA
100
AcDbSpline
210
0.0
220
0.0
230
1.0
 70
     8
 71
     3
 72
     9
 73
     5
 74
     0
 42
0.0000000001
 43
0.0000000001
 40
0.0
 40
0.0
 40
0.0
 40
0.0
 40
0.0056156150781706
 40
0.9999999999999998
 40
0.9999999999999998
 40
0.9999999999999998
 40
0.9999999999999998
 10
4767.311180076583
 20
2545.688411759155
 30
0.0
 10
4767.311169754694
 20
2545.688417068273
 30
0.0
 10
4767.309331685561
 20
2545.68936248891
 30
0.0
 10
4767.30752701575
 20
2545.69037089244
 30
0.0
 10
4767.305732480271
 20
2545.691373633164
 30
0.0
  0
LINE
  5
1603
330
1F
100
AcDbEntity
  8
SANINDUSA
100
AcDbLine
 10
4767.46564220546
 20
2545.464577125328
 30
0.0
 11
4767.180862030967
 21
2545.464577125328
 31
0.0
  0
SPLINE
  5
1605
330
1F
100
AcDbEntity
  8
SANINDUSA
100
AcDbSpline
210
0.0
220
0.0
230
1.0
 70
     8
 71
     3
 72
    14
 73
    10
 74
     0
 42
0.0000000001
 43
0.0000000001
 40
0.0
 40
0.0
 40
0.0
 40
0.0
 40
0.1250000000000007
 40
0.1250000000000007
 40
0.2500000000000007
 40
0.2500000000000007
 40
0.5000000000000008
 40
0.5000000000000008
 40
1.0
 40
1.0
 40
1.0
 40
1.0
 10
4767.305732480264
 20
2545.69137363103
 30
0.0
 10
4767.300799115939
 20
2545.691359858971
 30
0.0
 10
4767.295866107363
 20
2545.691351548067
 30
0.0
 10
4767.286000801547
 20
2545.691345908821
 30
0.0
 10
4767.281068504588
 20
2545.691348973463
 30
0.0
 10
4767.266272666372
 20
2545.691354614276
 30
0.0
 10
4767.256410182399
 20
2545.691360222118
 30
0.0
 10
4767.226826955243
 20
2545.691382443298
 30
0.0
 10
4767.207109979134
 20
2545.691404358553
 30
0.0
 10
4767.187408112898
 20
2545.691434088146
 30
0.0
  0
SPLINE
  5
1606
330
1F
100
AcDbEntity
  8
SANINDUSA
100
AcDbSpline
210
0.0
220
0.0
230
1.0
 70
     8
 71
     3
 72
    21
 73
    17
 74
     0
 42
0.0000000001
 43
0.0000000001
 40
0.0
 40
0.0
 40
0.0
 40
0.0
 40
0.0513724647685939
 40
0.1027450847839552
 40
0.1774535343749916
 40
0.2524014941837125
 40
0.3271111620182234
 40
0.4017975460314948
 40
0.4767216449748323
 40
0.5514077003454885
 40
0.6260952597790128
 40
0.7010213516134005
 40
0.7757091117258396
 40
0.8503934018541826
 40
0.9253157635999182
 40
1.0
 40
1.0
 40
1.0
 40
1.0
 10
4767.562350294574
 20
2545.687009649294
 30
0.0
 10
4767.562289894281
 20
2545.687014679274
 30
0.0
 10
4767.562169093515
 20
2545.687024739248
 30
0.0
 10
4767.561061147594
 20
2545.687107724113
 30
0.0
 10
4767.55886313334
 20
2545.687254921308
 30
0.0
 10
4767.555130493665
 20
2545.687467601336
 30
0.0
 10
4767.550194638357
 20
2545.687697646216
 30
0.0
 10
4767.54406924661
 20
2545.687911535843
 30
0.0
 10
4767.536876725801
 20
2545.688087539895
 30
0.0
 10
4767.528702235348
 20
2545.688211475302
 30
0.0
 10
4767.519617893035
 20
2545.688258069185
 30
0.0
 10
4767.509770834457
 20
2545.68823306246
 30
0.0
 10
4767.499280447982
 20
2545.688148368915
 30
0.0
 10
4767.488259039123
 20
2545.688011223212
 30
0.0
 10
4767.476873032324
 20
2545.687843129247
 30
0.0
 10
4767.469105743773
 20
2545.68773047737
 30
0.0
 10
4767.465228281005
 20
2545.687674241083
 30
0.0
  0
ARC
  5
1607
330
1F
100
AcDbEntity
  8
SANINDUSA
100
AcDbCircle
 10
4767.587340550335
 20
2545.68770768825
 30
0.0
 40
0.0249999999999998
100
AcDbArc
 50
148.2561676036065
 51
181.6000000025688
  0
SPLINE
  5
1608
330
1F
100
AcDbEntity
  8
SANINDUSA
100
AcDbSpline
210
0.0
220
0.0
230
1.0
 70
     8
 71
     3
 72
    11
 73
     7
 74
     0
 42
0.0000000001
 43
0.0000000001
 40
0.0
 40
0.0
 40
0.0
 40
0.0
 40
0.8502830089429311
 40
0.9721645030594906
 40
0.9940382441112472
 40
1.0
 40
1.0
 40
1.0
 40
1.0
 10
4767.306702247842
 20
2545.693054856676
 30
0.0
 10
4767.307953416276
 20
2545.691722136074
 30
0.0
 10
4767.30938393003
 20
2545.690198380281
 30
0.0
 10
4767.310899621509
 20
2545.6886895382
 30
0.0
 10
4767.311128373378
 20
2545.68846286159
 30
0.0
 10
4767.311170956259
 20
2545.688420773505
 30
0.0
 10
4767.311180076583
 20
2545.688411759155
 30
0.0
  0
SPLINE
  5
1609
330
1F
100
AcDbEntity
  8
SANINDUSA
100
AcDbSpline
210
0.0
220
0.0
230
1.0
 70
    24
 71
     1
 72
     4
 73
     2
 74
     0
 42
0.0000000001
 43
0.0000000001
 40
0.0
 40
0.0
 40
1.0
 40
1.0
 10
4767.300836197121
 20
2545.699376584905
 30
0.0
 10
4767.306702247842
 20
2545.693054856676
 30
0.0
  0
SPLINE
  5
160A
330
1F
100
AcDbEntity
  8
SANINDUSA
100
AcDbSpline
210
0.0
220
0.0
230
1.0
 70
    24
 71
     3
 72
    11
 73
     7
 74
     0
 42
0.0000000001
 43
0.0000000001
 40
0.0000000000000002
 40
0.0000000000000002
 40
0.0000000000000002
 40
0.0000000000000002
 40
0.1135272033418359
 40
0.1135272033418359
 40
0.1135272033418359
 40
0.2270544068496939
 40
0.2270544068496939
 40
0.2270544068496939
 40
0.2270544068496939
 10
4767.176236573375
 20
2545.464577119129
 30
0.0
 10
4767.177325682324
 20
2545.502390799592
 30
0.0
 10
4767.178414665538
 20
2545.540204465026
 30
0.0
 10
4767.179503522609
 20
2545.578018115341
 30
0.0
 10
4767.180592379683
 20
2545.615831765711
 30
0.0
 10
4767.181681110614
 20
2545.653645400976
 30
0.0
 10
4767.182769714992
 20
2545.691459021045
 30
0.0
  0
ARC
  5
160B
330
1F
100
AcDbEntity
  8
SANINDUSA
100
AcDbCircle
 10
4767.184746645152
 20
2545.627763789627
 30
0.0
 40
0.0637258989005887
100
AcDbArc
 50
87.60638716999091
 51
91.77773106120856
  0
SPLINE
  5
160C
330
1F
100
AcDbEntity
  8
SANINDUSA
100
AcDbSpline
210
0.0
220
0.0
230
1.0
 70
    24
 71
     3
 72
    14
 73
    10
 74
     0
 42
0.0000000001
 43
0.0000000001
 40
0.0
 40
0.0
 40
0.0
 40
0.0
 40
0.25
 40
0.25
 40
0.5
 40
0.5
 40
0.75
 40
0.75
 40
1.0
 40
1.0
 40
1.0
 40
1.0
 10
4767.18086203189
 20
2545.464577119129
 30
0.0
 10
4767.1803009882
 20
2545.464577119129
 30
0.0
 10
4767.179761066852
 20
2545.464577119129
 30
0.0
 10
4767.178723428318
 20
2545.464577119129
 30
0.0
 10
4767.178253629228
 20
2545.464577119129
 30
0.0
 10
4767.177415096317
 20
2545.464577119129
 30
0.0
 10
4767.17706764916
 20
2545.464577119129
 30
0.0
 10
4767.176520767566
 20
2545.464577119129
 30
0.0
 10
4767.176334170092
 20
2545.464577119129
 30
0.0
 10
4767.176236573375
 20
2545.464577119129
 30
0.0
  0
LINE
  5
1614
330
1F
100
AcDbEntity
  8
SANINDUSA
100
AcDbLine
 10
4767.56856342314
 20
2545.464577125328
 30
0.0
 11
4767.46564220546
 21
2545.464577125328
 31
0.0
  0
SPLINE
  5
1618
330
1F
100
AcDbEntity
  8
SANINDUSA
100
AcDbSpline
210
0.0
220
0.0
230
1.0
 70
    24
 71
     3
 72
    22
 73
    18
 74
     0
 42
0.0000000001
 43
0.0000000001
 40
0.0
 40
0.0
 40
0.0
 40
0.0
 40
0.0000087728561922
 40
0.0825890060852176
 40
0.1653895503454889
 40
0.2481568744581583
 40
0.330691688560882
 40
0.4195525790540798
 40
0.5085925341697641
 40
0.5972988597236788
 40
0.6563099123575046
 40
0.7154410900770307
 40
0.7743461407673995
 40
0.8306128103193287
 40
0.8868310390045744
 40
0.9434321542523594
 40
0.9999999999999998
 40
0.9999999999999998
 40
0.9999999999999998
 40
0.9999999999999998
 10
4767.0232522106
 20
2545.85457711894
 30
0.0
 10
4767.023252204391
 20
2545.85457711894
 30
0.0
 10
4767.023193745941
 20
2545.85457711894
 30
0.0
 10
4767.023512106878
 20
2545.85457711894
 30
0.0
 10
4767.024535993619
 20
2545.85457711894
 30
0.0
 10
4767.026332174508
 20
2545.85457711894
 30
0.0
 10
4767.028932234167
 20
2545.85457711894
 30
0.0
 10
4767.032453877711
 20
2545.85457711894
 30
0.0
 10
4767.037041651952
 20
2545.85457711894
 30
0.0
 10
4767.042069455583
 20
2545.85457711894
 30
0.0
 10
4767.047208362684
 20
2545.85457711894
 30
0.0
 10
4767.052149911561
 20
2545.85457711894
 30
0.0
 10
4767.057568136933
 20
2545.85457711894
 30
0.0
 10
4767.063432922816
 20
2545.85457711894
 30
0.0
 10
4767.069690656784
 20
2545.85457711894
 30
0.0
 10
4767.07635556136
 20
2545.85457711894
 30
0.0
 10
4767.080953764803
 20
2545.85457711894
 30
0.0
 10
4767.083252190633
 20
2545.85457711894
 30
0.0
  0
SPLINE
  5
161B
330
1F
100
AcDbEntity
  8
SANINDUSA
100
AcDbSpline
210
0.0
220
0.0
230
1.0
 70
     8
 71
     3
 72
     8
 73
     4
 74
     0
 42
0.0000000001
 43
0.0000000001
 40
0.0
 40
0.0
 40
0.0
 40
0.0
 40
1.0
 40
1.0
 40
1.0
 40
1.0
 10
4767.182327965597
 20
2545.696038545449
 30
0.0
 10
4767.178031010653
 20
2545.705096979378
 30
0.0
 10
4767.17373925772
 20
2545.714211886218
 30
0.0
 10
4767.169453666283
 20
2545.723393225217
 30
0.0
  0
SPLINE
  5
161C
330
1F
100
AcDbEntity
  8
SANINDUSA
100
AcDbSpline
210
0.0
220
0.0
230
1.0
 70
     8
 71
     3
 72
    20
 73
    16
 74
     0
 42
0.0000000001
 43
0.0000000001
 40
0.0
 40
0.0
 40
0.0
 40
0.0
 40
0.1250000000000001
 40
0.1250000000000001
 40
0.2500000000000002
 40
0.2500000000000002
 40
0.3750000000000003
 40
0.3750000000000003
 40
0.5000000000000005
 40
0.5000000000000005
 40
0.6250000000000006
 40
0.6250000000000006
 40
0.7500000000000007
 40
0.7500000000000007
 40
1.0
 40
1.0
 40
1.0
 40
1.0
 10
4767.182769714992
 20
2545.691459021045
 30
0.0
 10
4767.182777063722
 20
2545.691714285569
 30
0.0
 10
4767.182780872794
 20
2545.691967174021
 30
0.0
 10
4767.182781469883
 20
2545.692468237886
 30
0.0
 10
4767.182778201982
 20
2545.692715264602
 30
0.0
 10
4767.182764922711
 20
2545.693191196241
 30
0.0
 10
4767.182754920131
 20
2545.693421790265
 30
0.0
 10
4767.182728163372
 20
2545.693868178363
 30
0.0
 10
4767.182711245108
 20
2545.694085010622
 30
0.0
 10
4767.182671735986
 20
2545.694489185595
 30
0.0
 10
4767.182649077176
 20
2545.694678365805
 30
0.0
 10
4767.18259805624
 20
2545.69503137917
 30
0.0
 10
4767.182569427928
 20
2545.695196400053
 30
0.0
 10
4767.182476666578
 20
2545.695641965695
 30
0.0
 10
4767.182406470228
 20
2545.695873049413
 30
0.0
 10
4767.182327965597
 20
2545.696038545449
 30
0.0
  0
SPLINE
  5
161E
330
1F
100
AcDbEntity
  8
SANINDUSA
100
AcDbSpline
210
0.0
220
0.0
230
1.0
 70
     8
 71
     3
 72
    64
 73
    60
 74
     0
 42
0.0000000001
 43
0.0000000001
 40
0.0
 40
0.0
 40
0.0
 40
0.0
 40
0.0312499999999998
 40
0.0312499999999998
 40
0.0468749999999999
 40
0.0468749999999999
 40
0.0624999999999999
 40
0.0624999999999999
 40
0.1249999999999997
 40
0.1249999999999997
 40
0.1874999999999994
 40
0.1874999999999994
 40
0.2031249999999992
 40
0.2031249999999992
 40
0.2187499999999989
 40
0.2187499999999989
 40
0.249999999999998
 40
0.249999999999998
 40
0.3124999999999964
 40
0.3124999999999964
 40
0.3281249999999962
 40
0.3281249999999962
 40
0.343749999999996
 40
0.343749999999996
 40
0.3749999999999954
 40
0.3749999999999954
 40
0.4374999999999948
 40
0.4374999999999948
 40
0.4687499999999949
 40
0.4687499999999949
 40
0.4999999999999949
 40
0.4999999999999949
 40
0.5624999999999951
 40
0.5624999999999951
 40
0.5781249999999949
 40
0.5781249999999949
 40
0.5937499999999948
 40
0.5937499999999948
 40
0.6249999999999946
 40
0.6249999999999946
 40
0.6874999999999942
 40
0.6874999999999942
 40
0.7187499999999936
 40
0.7187499999999936
 40
0.7343749999999931
 40
0.7343749999999931
 40
0.7499999999999928
 40
0.7499999999999928
 40
0.8124999999999916
 40
0.8124999999999916
 40
0.8437499999999914
 40
0.8437499999999914
 40
0.8593749999999918
 40
0.8593749999999918
 40
0.8749999999999923
 40
0.8749999999999923
 40
0.9374999999999962
 40
0.9374999999999962
 40
1.0
 40
1.0
 40
1.0
 40
1.0
 10
4767.168429051233
 20
2545.703239347396
 30
0.0
 10
4767.168661035329
 20
2545.70277251669
 30
0.0
 10
4767.168887448479
 20
2545.702251794353
 30
0.0
 10
4767.169218746068
 20
2545.701390205014
 30
0.0
 10
4767.169327789981
 20
2545.701089575523
 30
0.0
 10
4767.169543087094
 20
2545.700461320013
 30
0.0
 10
4767.169649498589
 20
2545.700133155959
 30
0.0
 10
4767.170171934585
 20
2545.698432823492
 30
0.0
 10
4767.170559916816
 20
2545.696882364794
 30
0.0
 10
4767.171277552614
 20
2545.693411245212
 30
0.0
 10
4767.171607213033
 20
2545.691490627806
 30
0.0
 10
4767.171981119495
 20
2545.688847603453
 30
0.0
 10
4767.172053736805
 20
2545.688308451847
 30
0.0
 10
4767.172193962244
 20
2545.687214678113
 30
0.0
 10
4767.17226168624
 20
2545.686659243959
 30
0.0
 10
4767.172457776566
 20
2545.684967602044
 30
0.0
 10
4767.172579071945
 20
2545.68380609314
 30
0.0
 10
4767.172914940075
 20
2545.680221312945
 30
0.0
 10
4767.173101672873
 20
2545.677698425292
 30
0.0
 10
4767.173286930032
 20
2545.674372494721
 30
0.0
 10
4767.173321624262
 20
2545.673697133176
 30
0.0
 10
4767.173385600277
 20
2545.672339134553
 30
0.0
 10
4767.173414923873
 20
2545.671656007064
 30
0.0
 10
4767.17349502242
 20
2545.66959442754
 30
0.0
 10
4767.173537937231
 20
2545.668203797189
 30
0.0
 10
4767.173635738835
 20
2545.663983964058
 30
0.0
 10
4767.173659874005
 20
2545.66110711545
 30
0.0
 10
4767.17363306087
 20
2545.656694207243
 30
0.0
 10
4767.173613391992
 20
2545.655200920006
 30
0.0
 10
4767.17355335098
 20
2545.652230273125
 30
0.0
 10
4767.173513038063
 20
2545.650748789395
 30
0.0
 10
4767.173361947113
 20
2545.646315586849
 30
0.0
 10
4767.173221197747
 20
2545.643375049204
 30
0.0
 10
4767.172994832436
 20
2545.639718190153
 30
0.0
 10
4767.172947023487
 20
2545.638987764386
 30
0.0
 10
4767.172846264337
 20
2545.637528830858
 30
0.0
 10
4767.172793182775
 20
2545.636798655998
 30
0.0
 10
4767.172627253118
 20
2545.634626061252
 30
0.0
 10
4767.172507791658
 20
2545.633201474219
 30
0.0
 10
4767.172123703503
 20
2545.628996929876
 30
0.0
 10
4767.171833523404
 20
2545.626285784404
 30
0.0
 10
4767.171347444019
 20
2545.622355888515
 30
0.0
 10
4767.171176911436
 20
2545.621068829041
 30
0.0
 10
4767.170908045162
 20
2545.619173428545
 30
0.0
 10
4767.170816168098
 20
2545.618547112568
 30
0.0
 10
4767.17062969331
 20
2545.617317404269
 30
0.0
 10
4767.170534901224
 20
2545.616712598385
 30
0.0
 10
4767.170053297354
 20
2545.613737969974
 30
0.0
 10
4767.169643693214
 20
2545.611515458713
 30
0.0
 10
4767.168993576381
 20
2545.608412496291
 30
0.0
 10
4767.168770891935
 20
2545.607416817812
 30
0.0
 10
4767.168427748297
 20
2545.605982224773
 30
0.0
 10
4767.168311845873
 20
2545.605513858975
 30
0.0
 10
4767.168076952127
 20
2545.604597091503
 30
0.0
 10
4767.167958211503
 20
2545.604149735306
 30
0.0
 10
4767.167361809518
 20
2545.601981349694
 30
0.0
 10
4767.166872664811
 20
2545.600450721414
 30
0.0
 10
4767.165871107805
 20
2545.597784408661
 30
0.0
 10
4767.165358696397
 20
2545.596648709091
 30
0.0
 10
4767.164834186831
 20
2545.595718363541
 30
0.0
  0
SPLINE
  5
1620
330
1F
100
AcDbEntity
  8
SANINDUSA
100
AcDbSpline
210
0.0
220
0.0
230
1.0
 70
    24
 71
     3
 72
     8
 73
     4
 74
     0
 42
0.0000000001
 43
0.0000000001
 40
0.03505499278621
 40
0.03505499278621
 40
0.03505499278621
 40
0.03505499278621
 40
0.8433214966212164
 40
0.8433214966212164
 40
0.8433214966212164
 40
0.8433214966212164
 10
4767.176236573375
 20
2545.464577119129
 30
0.0
 10
4767.170974248887
 20
2545.464577119129
 30
0.0
 10
4767.165711924399
 20
2545.464577119129
 30
0.0
 10
4767.160449599911
 20
2545.464577119129
 30
0.0
  0
SPLINE
  5
1623
330
1F
100
AcDbEntity
  8
SANINDUSA
100
AcDbSpline
210
0.0
220
0.0
230
1.0
 70
    24
 71
     3
 72
    24
 73
    20
 74
     0
 42
0.0000000001
 43
0.0000000001
 40
0.0
 40
0.0
 40
0.0
 40
0.0
 40
0.0556934569736386
 40
0.113167982833654
 40
0.1688045931106754
 40
0.225644735705614
 40
0.2693020958392292
 40
0.3129710688615797
 40
0.3578382898546396
 40
0.4027132839904409
 40
0.4684710381918381
 40
0.5342476407196383
 40
0.6017913047185371
 40
0.6693450137497284
 40
0.7510820248185467
 40
0.8328285669754759
 40
0.9164084561311122
 40
0.9999912280241913
 40
1.0
 40
1.0
 40
1.0
 40
1.0
 10
4767.083252190633
 20
2545.842577118369
 30
0.0
 10
4767.080988677444
 20
2545.842577118369
 30
0.0
 10
4767.076389264237
 20
2545.842577118369
 30
0.0
 10
4767.069746900167
 20
2545.842577118369
 30
0.0
 10
4767.063451659333
 20
2545.842577118369
 30
0.0
 10
4767.058108035125
 20
2545.842577118369
 30
0.0
 10
4767.053567309181
 20
2545.842577118369
 30
0.0
 10
4767.049714580037
 20
2545.842577118369
 30
0.0
 10
4767.046139973754
 20
2545.842577118369
 30
0.0
 10
4767.042331454754
 20
2545.842577118369
 30
0.0
 10
4767.038488916483
 20
2545.842577118369
 30
0.0
 10
4767.034757363719
 20
2545.842577118369
 30
0.0
 10
4767.031569259489
 20
2545.842577118369
 30
0.0
 10
4767.028724048981
 20
2545.842577118369
 30
0.0
 10
4767.026359181675
 20
2545.842577118369
 30
0.0
 10
4767.024560795653
 20
2545.842577118369
 30
0.0
 10
4767.023518977436
 20
2545.842577118369
 30
0.0
 10
4767.023193030405
 20
2545.842577118369
 30
0.0
 10
4767.023252204391
 20
2545.842577118369
 30
0.0
 10
4767.0232522106
 20
2545.842577118369
 30
0.0
  0
ARC
  5
1627
330
1F
100
AcDbEntity
  8
SANINDUSA
100
AcDbCircle
 10
4767.124745296135
 20
2545.837577119129
 30
0.0
 40
0.005
100
AcDbArc
 50
0.0
 51
90.0
  0
LINE
  5
162A
330
1F
100
AcDbEntity
  8
SANINDUSA
100
AcDbLine
 10
4767.124745293541
 20
2545.85457711894
 30
0.0
 11
4767.134745298906
 21
2545.85457711894
 31
0.0
  0
SPLINE
  5
162F
330
1F
100
AcDbEntity
  8
SANINDUSA
100
AcDbSpline
210
0.0
220
0.0
230
1.0
 70
    24
 71
     3
 72
    11
 73
     7
 74
     0
 42
0.0000000001
 43
0.0000000001
 40
0.0089436859262596
 40
0.0089436859262596
 40
0.0089436859262596
 40
0.0089436859262596
 40
0.0448596032959391
 40
0.0448596032959391
 40
0.0448596032959391
 40
0.0853002670523269
 40
0.0853002670523269
 40
0.0853002670523269
 40
0.0853002670523269
 10
4767.259983603349
 20
2545.731890368351
 30
0.0
 10
4767.248011631984
 20
2545.731889182157
 30
0.0
 10
4767.236039661209
 20
2545.731887621242
 30
0.0
 10
4767.224067691819
 20
2545.73188570312
 30
0.0
 10
4767.210587474031
 20
2545.731883543349
 30
0.0
 10
4767.197107257627
 20
2545.731880929559
 30
0.0
 10
4767.183627044023
 20
2545.73187791029
 30
0.0
  0
ARC
  5
1630
330
1F
100
AcDbEntity
  8
SANINDUSA
100
AcDbCircle
 10
4767.259855802064
 20
2545.73788822458
 30
0.0
 40
0.0059992187724716
100
AcDbArc
 50
271.2206863141094
 51
20.03916045441683
  0
LINE
  5
1636
330
1F
100
AcDbEntity
  8
SANINDUSA
100
AcDbLine
 10
4767.124745293541
 20
2545.842577118369
 30
0.0
 11
4767.083252190633
 21
2545.842577118369
 31
0.0
  0
LINE
  5
1637
330
1F
100
AcDbEntity
  8
SANINDUSA
100
AcDbLine
 10
4767.083252190633
 20
2545.85457711894
 30
0.0
 11
4767.124745293541
 21
2545.85457711894
 31
0.0
  0
SPLINE
  5
1645
330
1F
100
AcDbEntity
  8
SANINDUSA
100
AcDbSpline
210
0.0
220
0.0
230
1.0
 70
    24
 71
     3
 72
    24
 73
    20
 74
     0
 42
0.0000000001
 43
0.0000000001
 40
0.0
 40
0.0
 40
0.0
 40
0.0
 40
0.1250000000000023
 40
0.1250000000000023
 40
0.1875000000000027
 40
0.1875000000000027
 40
0.2500000000000031
 40
0.2500000000000031
 40
0.3750000000000036
 40
0.3750000000000036
 40
0.4375000000000035
 40
0.4375000000000035
 40
0.5000000000000032
 40
0.5000000000000032
 40
0.6250000000000022
 40
0.6250000000000022
 40
0.750000000000001
 40
0.750000000000001
 40
1.0
 40
1.0
 40
1.0
 40
1.0
 10
4767.135745296136
 20
2545.819577119129
 30
0.0
 10
4767.135745296136
 20
2545.819577119129
 30
0.0
 10
4767.135669701522
 20
2545.819577119129
 30
0.0
 10
4767.135450478678
 20
2545.819577119129
 30
0.0
 10
4767.135359281763
 20
2545.819577119129
 30
0.0
 10
4767.135145798773
 20
2545.819577119129
 30
0.0
 10
4767.135023270452
 20
2545.819577119129
 30
0.0
 10
4767.134611150063
 20
2545.819577119129
 30
0.0
 10
4767.134277163204
 20
2545.819577119129
 30
0.0
 10
4767.133694312484
 20
2545.819577119129
 30
0.0
 10
4767.133487036007
 20
2545.819577119129
 30
0.0
 10
4767.133053311678
 20
2545.819577119129
 30
0.0
 10
4767.132826192273
 20
2545.819577119129
 30
0.0
 10
4767.132117004851
 20
2545.819577119129
 30
0.0
 10
4767.13160707133
 20
2545.819577119129
 30
0.0
 10
4767.130527898578
 20
2545.819577119129
 30
0.0
 10
4767.129958311707
 20
2545.819577119129
 30
0.0
 10
4767.128207144495
 20
2545.819577119129
 30
0.0
 10
4767.126976233199
 20
2545.819577119129
 30
0.0
 10
4767.125745296135
 20
2545.819577119129
 30
0.0
  0
SPLINE
  5
164B
330
1F
100
AcDbEntity
  8
SANINDUSA
100
AcDbSpline
210
0.0
220
0.0
230
1.0
 70
    24
 71
     3
 72
    19
 73
    15
 74
     0
 42
0.0000000001
 43
0.0000000001
 40
0.0
 40
0.0
 40
0.0
 40
0.0
 40
0.093155631364199
 40
0.1871547767107373
 40
0.280206918093064
 40
0.3729512372963977
 40
0.4642351883305415
 40
0.5561411889702005
 40
0.6461612429396149
 40
0.7357579624308636
 40
0.823003079874779
 40
0.9105782793651094
 40
0.995477573739037
 40
1.0
 40
1.0
 40
1.0
 40
1.0
 10
4767.083252190633
 20
2545.819577118324
 30
0.0
 10
4767.081935933656
 20
2545.819577118324
 30
0.0
 10
4767.079291501143
 20
2545.819577118324
 30
0.0
 10
4767.075392677487
 20
2545.819577118324
 30
0.0
 10
4767.071611627442
 20
2545.819577118324
 30
0.0
 10
4767.068032898897
 20
2545.819577118324
 30
0.0
 10
4767.064682416269
 20
2545.819577118324
 30
0.0
 10
4767.061623790481
 20
2545.819577118324
 30
0.0
 10
4767.058867553333
 20
2545.819577118324
 30
0.0
 10
4767.056481030606
 20
2545.819577118324
 30
0.0
 10
4767.054448598195
 20
2545.819577118324
 30
0.0
 10
4767.052864196858
 20
2545.819577118324
 30
0.0
 10
4767.051923946225
 20
2545.819577118324
 30
0.0
 10
4767.051631138231
 20
2545.819577118324
 30
0.0
 10
4767.05161632972
 20
2545.819577118324
 30
0.0
  0
SPLINE
  5
164C
330
1F
100
AcDbEntity
  8
SANINDUSA
100
AcDbSpline
210
0.0
220
0.0
230
1.0
 70
    24
 71
     3
 72
     8
 73
     4
 74
     0
 42
0.0000000001
 43
0.0000000001
 40
0.0
 40
0.0
 40
0.0
 40
0.0
 40
1.0
 40
1.0
 40
1.0
 40
1.0
 10
4767.125745296135
 20
2545.819577119129
 30
0.0
 10
4767.111580927939
 20
2545.819577119129
 30
0.0
 10
4767.097416559742
 20
2545.819577119129
 30
0.0
 10
4767.083252191546
 20
2545.819577119129
 30
0.0
  0
LINE
  5
164D
330
1F
100
AcDbEntity
  8
SANINDUSA
100
AcDbLine
 10
4767.111252195223
 20
2545.699577124732
 30
0.0
 11
4767.111252195223
 21
2545.599577115792
 31
0.0
  0
ARC
  5
1651
330
1F
100
AcDbEntity
  8
SANINDUSA
100
AcDbCircle
 10
4767.101150577945
 20
2545.814577119129
 30
0.0
 40
0.005
100
AcDbArc
 50
90.0
 51
226.6036848341
  0
SPLINE
  5
1656
330
1F
100
AcDbEntity
  8
SANINDUSA
100
AcDbSpline
210
0.0
220
0.0
230
1.0
 70
     8
 71
     3
 72
    30
 73
    26
 74
     0
 42
0.0000000001
 43
0.0000000001
 40
0.0
 40
0.0
 40
0.0
 40
0.0
 40
0.1249999999999965
 40
0.1249999999999965
 40
0.249999999999993
 40
0.249999999999993
 40
0.3749999999999895
 40
0.3749999999999895
 40
0.4374999999999909
 40
0.4374999999999909
 40
0.4999999999999922
 40
0.4999999999999922
 40
0.5624999999999936
 40
0.5624999999999936
 40
0.6249999999999949
 40
0.6249999999999949
 40
0.6874999999999964
 40
0.6874999999999964
 40
0.7499999999999977
 40
0.7499999999999977
 40
0.8124999999999989
 40
0.8124999999999989
 40
0.8750000000000003
 40
0.8750000000000003
 40
1.0
 40
1.0
 40
1.0
 40
1.0
 10
4767.174158644755
 20
2545.730906316071
 30
0.0
 10
4767.174661990779
 20
2545.730801219102
 30
0.0
 10
4767.175164016903
 20
2545.730704014159
 30
0.0
 10
4767.176164790735
 20
2545.730529122132
 30
0.0
 10
4767.176664374371
 20
2545.730451330829
 30
0.0
 10
4767.177645534898
 20
2545.730323464503
 30
0.0
 10
4767.17812861489
 20
2545.730272927145
 30
0.0
 10
4767.178836923832
 20
2545.730226238504
 30
0.0
 10
4767.179071509792
 20
2545.73021559052
 30
0.0
 10
4767.179525221425
 20
2545.730207028672
 30
0.0
 10
4767.179744708504
 20
2545.730209017913
 30
0.0
 10
4767.180165538787
 20
2545.730228440848
 30
0.0
 10
4767.180366932357
 20
2545.730245831491
 30
0.0
 10
4767.18074605804
 20
2545.730300765555
 30
0.0
 10
4767.180923589318
 20
2545.730338699029
 30
0.0
 10
4767.181231004406
 20
2545.730436523474
 30
0.0
 10
4767.181363978012
 20
2545.730497228458
 30
0.0
 10
4767.181573553895
 20
2545.730642930912
 30
0.0
 10
4767.181648892037
 20
2545.730727648923
 30
0.0
 10
4767.181736650584
 20
2545.730911494663
 30
0.0
 10
4767.181750593487
 20
2545.731011350644
 30
0.0
 10
4767.181724191692
 20
2545.731225478585
 30
0.0
 10
4767.181683401079
 20
2545.731338574898
 30
0.0
 10
4767.181501343562
 20
2545.731678406197
 30
0.0
 10
4767.181302151442
 20
2545.731910121011
 30
0.0
 10
4767.181053559251
 20
2545.73214517268
 30
0.0
  0
SPLINE
  5
1659
330
1F
100
AcDbEntity
  8
SANINDUSA
100
AcDbSpline
210
0.0
220
0.0
230
1.0
 70
     8
 71
     3
 72
    24
 73
    20
 74
     0
 42
0.0000000001
 43
0.0000000001
 40
0.0
 40
0.0
 40
0.0
 40
0.0
 40
0.1249999999999932
 40
0.1249999999999932
 40
0.2499999999999864
 40
0.2499999999999864
 40
0.3749999999999796
 40
0.3749999999999796
 40
0.4374999999999803
 40
0.4374999999999803
 40
0.499999999999981
 40
0.499999999999981
 40
0.6249999999999858
 40
0.6249999999999858
 40
0.7499999999999904
 40
0.7499999999999904
 40
0.8749999999999952
 40
0.8749999999999952
 40
1.0
 40
1.0
 40
1.0
 40
1.0
 10
4767.167277753251
 20
2545.72646138234
 30
0.0
 10
4767.167274061134
 20
2545.726670890837
 30
0.0
 10
4767.167285469846
 20
2545.726883488189
 30
0.0
 10
4767.167344033686
 20
2545.727314632252
 30
0.0
 10
4767.167391727364
 20
2545.727534569115
 30
0.0
 10
4767.167527541121
 20
2545.727969285163
 30
0.0
 10
4767.167615505309
 20
2545.728184864946
 30
0.0
 10
4767.167782667542
 20
2545.728504170011
 30
0.0
 10
4767.167844283322
 20
2545.728609923025
 30
0.0
 10
4767.167980589571
 20
2545.72881974499
 30
0.0
 10
4767.168055566144
 20
2545.728924042576
 30
0.0
 10
4767.168295927848
 20
2545.729226134231
 30
0.0
 10
4767.168478145033
 20
2545.729415739131
 30
0.0
 10
4767.168889336594
 20
2545.729768454896
 30
0.0
 10
4767.169120843839
 20
2545.729932393388
 30
0.0
 10
4767.169608783549
 20
2545.730215399081
 30
0.0
 10
4767.169864925932
 20
2545.730335462633
 30
0.0
 10
4767.17039908204
 20
2545.730536011232
 30
0.0
 10
4767.170678640685
 20
2545.730616633256
 30
0.0
 10
4767.170962336297
 20
2545.730676839892
 30
0.0
  0
SPLINE
  5
165C
330
1F
100
AcDbEntity
  8
SANINDUSA
100
AcDbSpline
210
0.0
220
0.0
230
1.0
 70
     8
 71
     3
 72
     8
 73
     4
 74
     0
 42
0.0000000001
 43
0.0000000001
 40
0.0
 40
0.0
 40
0.0
 40
0.0
 40
1.0
 40
1.0
 40
1.0
 40
1.0
 10
4767.171993435361
 20
2545.731078140918
 30
0.0
 10
4767.172725908978
 20
2545.731121371332
 30
0.0
 10
4767.173446091272
 20
2545.731055094859
 30
0.0
 10
4767.174158644755
 20
2545.730906316071
 30
0.0
  0
SPLINE
  5
165D
330
1F
100
AcDbEntity
  8
SANINDUSA
100
AcDbSpline
210
0.0
220
0.0
230
1.0
 70
     8
 71
     3
 72
     8
 73
     4
 74
     0
 42
0.0000000001
 43
0.0000000001
 40
0.0
 40
0.0
 40
0.0
 40
0.0
 40
1.0
 40
1.0
 40
1.0
 40
1.0
 10
4767.170962336297
 20
2545.730676839892
 30
0.0
 10
4767.171297871408
 20
2545.730830933368
 30
0.0
 10
4767.171642018861
 20
2545.730964850624
 30
0.0
 10
4767.171993435361
 20
2545.731078140918
 30
0.0
  0
SPLINE
  5
165E
330
1F
100
AcDbEntity
  8
SANINDUSA
100
AcDbSpline
210
0.0
220
0.0
230
1.0
 70
     8
 71
     3
 72
     8
 73
     4
 74
     0
 42
0.0000000001
 43
0.0000000001
 40
0.0
 40
0.0
 40
0.0
 40
0.0
 40
1.0
 40
1.0
 40
1.0
 40
1.0
 10
4767.167230873587
 20
2545.725531834853
 30
0.0
 10
4767.167271064695
 20
2545.725782237158
 30
0.0
 10
4767.167284153014
 20
2545.726098228914
 30
0.0
 10
4767.167277753251
 20
2545.72646138234
 30
0.0
  0
SPLINE
  5
165F
330
1F
100
AcDbEntity
  8
SANINDUSA
100
AcDbSpline
210
0.0
220
0.0
230
1.0
 70
     8
 71
     3
 72
    12
 73
     8
 74
     0
 42
0.0000000001
 43
0.0000000001
 40
0.0
 40
0.0
 40
0.0
 40
0.0
 40
0.5000000000000002
 40
0.5000000000000002
 40
0.7500000000000001
 40
0.7500000000000001
 40
1.0
 40
1.0
 40
1.0
 40
1.0
 10
4767.166758067842
 20
2545.725018445438
 30
0.0
 10
4767.166865345319
 20
2545.724917011239
 30
0.0
 10
4767.166961559678
 20
2545.724904305328
 30
0.0
 10
4767.16708438966
 20
2545.725036491925
 30
0.0
 10
4767.167121011863
 20
2545.725105784012
 30
0.0
 10
4767.167183468701
 20
2545.725287216941
 30
0.0
 10
4767.167209638561
 20
2545.725399534457
 30
0.0
 10
4767.167230873587
 20
2545.725531834853
 30
0.0
  0
LINE
  5
1660
330
1F
100
AcDbEntity
  8
SANINDUSA
100
AcDbLine
 10
4767.166758066995
 20
2545.725018443483
 30
0.0
 11
4767.068197839914
 21
2545.818210212457
 31
0.0
  0
LINE
  5
1663
330
1F
100
AcDbEntity
  8
SANINDUSA
100
AcDbLine
 10
4767.097715373171
 20
2545.810944026279
 30
0.0
 11
4767.181053555591
 21
2545.732145177143
 31
0.0
  0
SPLINE
  5
1665
330
1F
100
AcDbEntity
  8
SANINDUSA
100
AcDbSpline
210
0.0
220
0.0
230
1.0
 70
    24
 71
     3
 72
    10
 73
     6
 74
     0
 42
0.0000000001
 43
0.0000000001
 40
0.0
 40
0.0
 40
0.0
 40
0.0
 40
0.4923321805199134
 40
0.9846643390503912
 40
1.0
 40
1.0
 40
1.0
 40
1.0
 10
4767.160449600799
 20
2545.464577125328
 30
0.0
 10
4767.160039356433
 20
2545.464577125328
 30
0.0
 10
4767.159218867718
 20
2545.464577125328
 30
0.0
 10
4767.158812454492
 20
2545.464577125328
 30
0.0
 10
4767.158938879468
 20
2545.464577125328
 30
0.0
 10
4767.158942698522
 20
2545.464577125328
 30
0.0
  0
ARC
  5
1668
330
1F
100
AcDbEntity
  8
SANINDUSA
100
AcDbCircle
 10
4767.183064100727
 20
2545.736084457205
 30
0.0
 40
0.0042440484413277
100
AcDbArc
 50
227.3570395134516
 51
277.6223709836159
  0
ARC
  5
166B
330
1F
100
AcDbEntity
  8
SANINDUSA
100
AcDbCircle
 10
4767.227905990926
 20
2545.814574865126
 30
0.0
 40
0.0050011171698822
100
AcDbArc
 50
23.3120969504765
 51
89.98441545203961
  0
ARC
  5
1676
330
1F
100
AcDbEntity
  8
SANINDUSA
100
AcDbCircle
 10
4767.023690525323
 20
2545.837577244641
 30
0.0
 40
0.004999873728886
100
AcDbArc
 50
10.07377125034247
 51
89.99924065005032
  0
SPLINE
  5
167C
330
1F
100
AcDbEntity
  8
SANINDUSA
100
AcDbSpline
210
0.0
220
0.0
230
1.0
 70
    24
 71
     3
 72
    11
 73
     7
 74
     0
 42
0.0000000001
 43
0.0000000001
 40
0.0
 40
0.0
 40
0.0
 40
0.0
 40
0.2457547319299684
 40
0.4914885835341548
 40
0.7461665923344695
 40
1.0
 40
1.0
 40
1.0
 40
1.0
 10
4767.164834185524
 20
2545.595718370693
 30
0.0
 10
4767.164594853479
 20
2545.595275910852
 30
0.0
 10
4767.164116209725
 20
2545.594391028762
 30
0.0
 10
4767.163613977594
 20
2545.593481117732
 30
0.0
 10
4767.163280129106
 20
2545.592879289177
 30
0.0
 10
4767.163238322715
 20
2545.592804717601
 30
0.0
 10
4767.163217454238
 20
2545.592767493742
 30
0.0
  0
SPLINE
  5
167D
330
1F
100
AcDbEntity
  8
SANINDUSA
100
AcDbSpline
210
0.0
220
0.0
230
1.0
 70
    24
 71
     3
 72
    11
 73
     7
 74
     0
 42
0.0000000001
 43
0.0000000001
 40
0.0
 40
0.0
 40
0.0
 40
0.0
 40
0.2443599350379942
 40
0.4904774586844882
 40
0.7452295146611498
 40
1.0
 40
1.0
 40
1.0
 40
1.0
 10
4767.167009784861
 20
2545.70618435921
 30
0.0
 10
4767.167027102884
 20
2545.706149336878
 30
0.0
 10
4767.167061863491
 20
2545.706079040312
 30
0.0
 10
4767.167341661525
 20
2545.705506751997
 30
0.0
 10
4767.167778497783
 20
2545.704608837066
 30
0.0
 10
4767.168212196305
 20
2545.703695858907
 30
0.0
 10
4767.168429053409
 20
2545.703239353317
 30
0.0
  0
ARC
  5
175E
330
1F
100
AcDbEntity
  8
SANINDUSA
100
AcDbCircle
 10
4768.39457480293
 20
2545.849577125328
 30
0.0
 40
0.0050000000000156
100
AcDbArc
 50
343.7038839043232
 51
90.0
  0
ARC
  5
175F
330
1F
100
AcDbEntity
  8
SANINDUSA
100
AcDbCircle
 10
4768.361035751286
 20
2545.849577125328
 30
0.0
 40
0.0050000000000001
100
AcDbArc
 50
90.0
 51
177.9999999962464
  0
LINE
  5
1762
330
1F
100
AcDbEntity
  8
SANINDUSA
100
AcDbLine
 10
4768.354461252467
 20
2545.804577123928
 30
0.0
 11
4768.3560388086
 21
2545.84975162297
 31
0.0
  0
SPLINE
  5
1763
330
1F
100
AcDbEntity
  8
SANINDUSA
100
AcDbSpline
210
0.0
220
0.0
230
1.0
 70
    24
 71
     3
 72
    27
 73
    23
 74
     0
 42
0.0000000001
 43
0.0000000001
 40
0.0
 40
0.0
 40
0.0
 40
0.0
 40
0.038720147797423
 40
0.0775438921392718
 40
0.1162757191593095
 40
0.159574703799113
 40
0.202992635312682
 40
0.2463235704114541
 40
0.2935923230100421
 40
0.341029696841669
 40
0.3885103442206587
 40
0.4358386393867581
 40
0.4867375896741963
 40
0.5377960597881332
 40
0.5889411460181933
 40
0.6400606744678531
 40
0.6910109759193876
 40
0.7562289755724157
 40
0.8216061684818399
 40
0.8869992856899944
 40
0.9522389614121593
 40
1.0
 40
1.0
 40
1.0
 40
1.0
 10
4768.354461252467
 20
2545.804577123928
 30
0.0
 10
4768.354366306111
 20
2545.804577123928
 30
0.0
 10
4768.354176159365
 20
2545.804577123928
 30
0.0
 10
4768.35269514018
 20
2545.804577123928
 30
0.0
 10
4768.350299266098
 20
2545.804577123928
 30
0.0
 10
4768.346798930482
 20
2545.804577123928
 30
0.0
 10
4768.342226155186
 20
2545.804577123928
 30
0.0
 10
4768.336636051459
 20
2545.804577123928
 30
0.0
 10
4768.33002968647
 20
2545.804577123928
 30
0.0
 10
4768.322452476231
 20
2545.804577123928
 30
0.0
 10
4768.314210651386
 20
2545.804577123928
 30
0.0
 10
4768.305185383207
 20
2545.804577123928
 30
0.0
 10
4768.295404236745
 20
2545.804577123928
 30
0.0
 10
4768.284900372727
 20
2545.804577123928
 30
0.0
 10
4768.273983046418
 20
2545.804577123928
 30
0.0
 10
4768.262741488148
 20
2545.804577123928
 30
0.0
 10
4768.250166759671
 20
2545.804577123928
 30
0.0
 10
4768.236212112518
 20
2545.804577123928
 30
0.0
 10
4768.220871508577
 20
2545.804577123928
 30
0.0
 10
4768.205334425347
 20
2545.804577123928
 30
0.0
 10
4768.191083618514
 20
2545.804577123928
 30
0.0
 10
4768.182032757358
 20
2545.804577123928
 30
0.0
 10
4768.178207307832
 20
2545.804577123928
 30
0.0
  0
SPLINE
  5
1765
330
1F
100
AcDbEntity
  8
SANINDUSA
100
AcDbSpline
210
0.0
220
0.0
230
1.0
 70
     8
 71
     3
 72
    10
 73
     6
 74
     0
 42
0.0000000001
 43
0.0000000001
 40
0.0
 40
0.0
 40
0.0
 40
0.0
 40
0.3331472110454671
 40
0.6664219218000886
 40
1.0
 40
1.0
 40
1.0
 40
1.0
 10
4768.360120773094
 20
2545.768953033345
 30
0.0
 10
4768.363821711139
 20
2545.777276554053
 30
0.0
 10
4768.37122500363
 20
2545.793926780986
 30
0.0
 10
4768.380937040721
 20
2545.819504277656
 30
0.0
 10
4768.386453368356
 20
2545.83688354051
 30
0.0
 10
4768.389212786929
 20
2545.84557712506
 30
0.0
  0
LINE
  5
1766
330
1F
100
AcDbEntity
  8
SANINDUSA
100
AcDbLine
 10
4768.327203809993
 20
2545.464577131527
 30
0.0
 11
4768.320984780566
 21
2545.687221862929
 31
0.0
  0
LINE
  5
1767
330
1F
100
AcDbEntity
  8
SANINDUSA
100
AcDbLine
 10
4768.327203809993
 20
2545.464577131527
 30
0.0
 11
4768.232688098924
 21
2545.464577131527
 31
0.0
  0
ARC
  5
1768
330
1F
100
AcDbEntity
  8
SANINDUSA
100
AcDbCircle
 10
4768.315986715674
 20
2545.687082261702
 30
0.0
 40
0.0049999999999999
100
AcDbArc
 50
1.600000002568872
 51
121.3456475128228
  0
LINE
  5
1769
330
1F
100
AcDbEntity
  8
SANINDUSA
100
AcDbLine
 10
4768.336207330005
 20
2545.464577131527
 30
0.0
 11
4768.329994201438
 21
2545.687009655493
 31
0.0
  0
SPLINE
  5
176D
330
1F
100
AcDbEntity
  8
SANINDUSA
100
AcDbSpline
210
0.0
220
0.0
230
1.0
 70
     8
 71
     3
 72
    24
 73
    20
 74
     0
 42
0.0000000001
 43
0.0000000001
 40
0.0
 40
0.0
 40
0.0
 40
0.0
 40
0.1249999999999993
 40
0.1249999999999993
 40
0.2499999999999986
 40
0.2499999999999986
 40
0.3749999999999979
 40
0.3749999999999979
 40
0.4999999999999973
 40
0.4999999999999973
 40
0.6249999999999966
 40
0.6249999999999966
 40
0.7499999999999958
 40
0.7499999999999958
 40
0.8124999999999962
 40
0.8124999999999962
 40
0.8749999999999968
 40
0.8749999999999968
 40
1.0
 40
1.0
 40
1.0
 40
1.0
 10
4768.253409079239
 20
2545.683406456087
 30
0.0
 10
4768.251727148314
 20
2545.683198522722
 30
0.0
 10
4768.2500868037
 20
2545.682852084797
 30
0.0
 10
4768.246885795123
 20
2545.681893829948
 30
0.0
 10
4768.245325131643
 20
2545.681282011419
 30
0.0
 10
4768.242286907996
 20
2545.679781596075
 30
0.0
 10
4768.240851248544
 20
2545.678913517463
 30
0.0
 10
4768.238144654028
 20
2545.676954151662
 30
0.0
 10
4768.23687287479
 20
2545.67586244295
 30
0.0
 10
4768.234499210371
 20
2545.673445549299
 30
0.0
 10
4768.233428924252
 20
2545.672152097302
 30
0.0
 10
4768.231518965269
 20
2545.669410392898
 30
0.0
 10
4768.230677993255
 20
2545.66796081046
 30
0.0
 10
4768.229594590141
 20
2545.665663477281
 30
0.0
 10
4768.229267387574
 20
2545.664885518026
 30
0.0
 10
4768.228682040308
 20
2545.663313124182
 30
0.0
 10
4768.228423344019
 20
2545.662517515425
 30
0.0
 10
4768.227748058513
 20
2545.660102766296
 30
0.0
 10
4768.227431531823
 20
2545.658455908279
 30
0.0
 10
4768.227254297783
 20
2545.656770465746
 30
0.0
  0
SPLINE
  5
176F
330
1F
100
AcDbEntity
  8
SANINDUSA
100
AcDbSpline
210
0.0
220
0.0
230
1.0
 70
     8
 71
     3
 72
    22
 73
    18
 74
     0
 42
0.0000000001
 43
0.0000000001
 40
0.0
 40
0.0
 40
0.0
 40
0.0
 40
0.1249999999999984
 40
0.1249999999999984
 40
0.1874999999999986
 40
0.1874999999999986
 40
0.2499999999999988
 40
0.2499999999999988
 40
0.5000000000000007
 40
0.5000000000000007
 40
0.6250000000000009
 40
0.6250000000000009
 40
0.687500000000001
 40
0.687500000000001
 40
0.7500000000000011
 40
0.7500000000000011
 40
1.0
 40
1.0
 40
1.0
 40
1.0
 10
4768.136745714287
 20
2545.544626921193
 30
0.0
 10
4768.136620455639
 20
2545.548756904422
 30
0.0
 10
4768.136331342828
 20
2545.552870565045
 30
0.0
 10
4768.135653607494
 20
2545.559016742924
 30
0.0
 10
4768.135386969574
 20
2545.561061411881
 30
0.0
 10
4768.134771946733
 20
2545.56514260643
 30
0.0
 10
4768.134423110582
 20
2545.567180983044
 30
0.0
 10
4768.132484107705
 20
2545.577298620157
 30
0.0
 10
4768.130308692658
 20
2545.585194145003
 30
0.0
 10
4768.126126796849
 20
2545.596745136989
 30
0.0
 10
4768.124578983876
 20
2545.600546523084
 30
0.0
 10
4768.122022125391
 20
2545.606173795925
 30
0.0
 10
4768.121129235676
 20
2545.608039588447
 30
0.0
 10
4768.119275219253
 20
2545.611723638898
 30
0.0
 10
4768.118313282135
 20
2545.613543957464
 30
0.0
 10
4768.113330404727
 20
2545.622537919785
 30
0.0
 10
4768.108793160432
 20
2545.62939070507
 30
0.0
 10
4768.10369726283
 20
2545.635896313801
 30
0.0
  0
LINE
  5
1773
330
1F
100
AcDbEntity
  8
SANINDUSA
100
AcDbLine
 10
4767.94271571912
 20
2545.689577125566
 30
0.0
 11
4767.878896102087
 21
2545.689577125566
 31
0.0
  0
LINE
  5
1775
330
1F
100
AcDbEntity
  8
SANINDUSA
100
AcDbLine
 10
4767.878896102087
 20
2545.609577127355
 30
0.0
 11
4767.940040990488
 21
2545.609577127355
 31
0.0
  0
LINE
  5
1776
330
1F
100
AcDbEntity
  8
SANINDUSA
100
AcDbLine
 10
4767.878896102087
 20
2545.689577125566
 30
0.0
 11
4767.878896102087
 21
2545.609577127355
 31
0.0
  0
SPLINE
  5
1777
330
1F
100
AcDbEntity
  8
SANINDUSA
100
AcDbSpline
210
0.0
220
0.0
230
1.0
 70
    24
 71
     3
 72
     8
 73
     4
 74
     0
 42
0.0000000001
 43
0.0000000001
 40
0.080725085602843
 40
0.080725085602843
 40
0.080725085602843
 40
0.080725085602843
 40
0.1140239923788105
 40
0.1140239923788105
 40
0.1140239923788105
 40
0.1140239923788105
 10
4767.942715724611
 20
2545.689577125328
 30
0.0
 10
4767.943086623805
 20
2545.70067056231
 30
0.0
 10
4767.943457522987
 20
2545.711763999291
 30
0.0
 10
4767.943828422157
 20
2545.722857436274
 30
0.0
  0
SPLINE
  5
177B
330
1F
100
AcDbEntity
  8
SANINDUSA
100
AcDbSpline
210
0.0
220
0.0
230
1.0
 70
    24
 71
     3
 72
     9
 73
     5
 74
     0
 42
0.0000000001
 43
0.0000000001
 40
0.0
 40
0.0
 40
0.0
 40
0.0
 40
0.559962347989805
 40
1.0
 40
1.0
 40
1.0
 40
1.0
 10
4768.397828042285
 20
2545.842973699416
 30
0.0
 10
4768.398119739491
 20
2545.843943444074
 30
0.0
 10
4768.398640662384
 20
2545.845675247405
 30
0.0
 10
4768.399149875437
 20
2545.847410528228
 30
0.0
 10
4768.399373948351
 20
2545.848174117128
 30
0.0
  0
SPLINE
  5
177C
330
1F
100
AcDbEntity
  8
SANINDUSA
100
AcDbSpline
210
0.0
220
0.0
230
1.0
 70
     8
 71
     3
 72
    42
 73
    38
 74
     0
 42
0.0000000001
 43
0.0000000001
 40
0.0
 40
0.0
 40
0.0
 40
0.0
 40
0.0286140975900582
 40
0.0572207441619271
 40
0.0858203873148975
 40
0.11441347497719
 40
0.1430004553851638
 40
0.1715817770625191
 40
0.2001578887993885
 40
0.2287292396314497
 40
0.257296278818862
 40
0.2858594558252345
 40
0.3144192202965299
 40
0.3429760220399003
 40
0.3715303110025186
 40
0.4000825372503451
 40
0.4286331509469008
 40
0.4571826023319642
 40
0.4857313417003381
 40
0.5142798193804744
 40
0.5428284857132529
 40
0.571377791030595
 40
0.599928185634197
 40
0.628480119774221
 40
0.6570340436280003
 40
0.6855904072787494
 40
0.7141496606943596
 40
0.7427122537061209
 40
0.7712786359875863
 40
0.799849257033362
 40
0.828424566138049
 40
0.8570050123751496
 40
0.8855910445760418
 40
0.9141831113090697
 40
0.9427816608585986
 40
0.971387141204222
 40
1.0
 40
1.0
 40
1.0
 40
1.0
 10
4768.368292934193
 20
2545.765182698238
 30
0.0
 10
4768.368624853565
 20
2545.765904312502
 30
0.0
 10
4768.369288605877
 20
2545.767347353123
 30
0.0
 10
4768.370273249327
 20
2545.769516613008
 30
0.0
 10
4768.371249677648
 20
2545.771688938605
 30
0.0
 10
4768.372217112822
 20
2545.773864688853
 30
0.0
 10
4768.37317576324
 20
2545.776043767609
 30
0.0
 10
4768.374125573083
 20
2545.778226200621
 30
0.0
 10
4768.3750665573
 20
2545.780411980993
 30
0.0
 10
4768.375998711888
 20
2545.782601110568
 30
0.0
 10
4768.376922037916
 20
2545.784793588853
 30
0.0
 10
4768.377836535097
 20
2545.786989415976
 30
0.0
 10
4768.378742203506
 20
2545.789188591901
 30
0.0
 10
4768.379639043124
 20
2545.791391116637
 30
0.0
 10
4768.380527053954
 20
2545.793596990177
 30
0.0
 10
4768.381406235994
 20
2545.795806212524
 30
0.0
 10
4768.382276589244
 20
2545.798018783673
 30
0.0
 10
4768.383138113703
 20
2545.800234703623
 30
0.0
 10
4768.383990809369
 20
2545.802453972374
 30
0.0
 10
4768.384834676244
 20
2545.804676589923
 30
0.0
 10
4768.385669714326
 20
2545.806902556269
 30
0.0
 10
4768.386495923614
 20
2545.809131871409
 30
0.0
 10
4768.387313304108
 20
2545.811364535343
 30
0.0
 10
4768.388121855807
 20
2545.813600548068
 30
0.0
 10
4768.38892157871
 20
2545.815839909583
 30
0.0
 10
4768.38971247282
 20
2545.818082619886
 30
0.0
 10
4768.390494538128
 20
2545.820328678977
 30
0.0
 10
4768.391267774656
 20
2545.822578086847
 30
0.0
 10
4768.392032182324
 20
2545.82483084352
 30
0.0
 10
4768.392787761433
 20
2545.827086948902
 30
0.0
 10
4768.393534510852
 20
2545.829346403333
 30
0.0
 10
4768.394272434803
 20
2545.831609205535
 30
0.0
 10
4768.395001517522
 20
2545.833875360271
 30
0.0
 10
4768.39572181786
 20
2545.836144849754
 30
0.0
 10
4768.396433116111
 20
2545.838417740376
 30
0.0
 10
4768.397136232514
 20
2545.840693784266
 30
0.0
 10
4768.397597418784
 20
2545.842213662063
 30
0.0
 10
4768.397828041654
 20
2545.842973698957
 30
0.0
  0
SPLINE
  5
177D
330
1F
100
AcDbEntity
  8
SANINDUSA
100
AcDbSpline
210
0.0
220
0.0
230
1.0
 70
     8
 71
     3
 72
    11
 73
     7
 74
     0
 42
0.0000000001
 43
0.0000000001
 40
0.0
 40
0.0
 40
0.0
 40
0.0
 40
0.2802458101342346
 40
0.5602563957660093
 40
0.7801562382614824
 40
1.0
 40
1.0
 40
1.0
 40
1.0
 10
4768.333724260108
 20
2545.700860746758
 30
0.0
 10
4768.337258825837
 20
2545.706700469786
 30
0.0
 10
4768.344324990553
 20
2545.718375014264
 30
0.0
 10
4768.353443949552
 20
2545.73505038583
 30
0.0
 10
4768.361451416587
 20
2545.75064689939
 30
0.0
 10
4768.366012617774
 20
2545.760337842985
 30
0.0
 10
4768.36829292752
 20
2545.765182696837
 30
0.0
  0
LINE
  5
177E
330
1F
100
AcDbEntity
  8
SANINDUSA
100
AcDbLine
 10
4768.336207330005
 20
2545.464577131527
 30
0.0
 11
4768.327203809993
 21
2545.464577131527
 31
0.0
  0
SPLINE
  5
177F
330
1F
100
AcDbEntity
  8
SANINDUSA
100
AcDbSpline
210
0.0
220
0.0
230
1.0
 70
     8
 71
     3
 72
    11
 73
     7
 74
     0
 42
0.0000000001
 43
0.0000000001
 40
0.0
 40
0.0
 40
0.0
 40
0.0
 40
0.1939895206894351
 40
0.5969364687612046
 40
0.9998849774602593
 40
1.0
 40
1.0
 40
1.0
 40
1.0
 10
4768.225508034007
 20
2545.54612451102
 30
0.0
 10
4768.226287138189
 20
2545.55327586618
 30
0.0
 10
4768.22868456511
 20
2545.575281718251
 30
0.0
 10
4768.232621763218
 20
2545.612150641981
 30
0.0
 10
4768.235739879838
 20
2545.641876654509
 30
0.0
 10
4768.23730638601
 20
2545.656741050936
 30
0.0
 10
4768.237306833046
 20
2545.6567452928
 30
0.0
  0
SPLINE
  5
1780
330
1F
100
AcDbEntity
  8
SANINDUSA
100
AcDbSpline
210
0.0
220
0.0
230
1.0
 70
     8
 71
     3
 72
    20
 73
    16
 74
     0
 42
0.0000000001
 43
0.0000000001
 40
0.0
 40
0.0
 40
0.0
 40
0.0
 40
0.0780473574894029
 40
0.1563438306917555
 40
0.2343913940703052
 40
0.3124413511649131
 40
0.3907400644096276
 40
0.4687900301597735
 40
0.5468616848941704
 40
0.6251823686585273
 40
0.7032540626941914
 40
0.7813314434126019
 40
0.8596577497415658
 40
0.9377350052600982
 40
1.0
 40
1.0
 40
1.0
 40
1.0
 10
4768.147966801898
 20
2545.474797808187
 30
0.0
 10
4768.150955830793
 20
2545.474969690789
 30
0.0
 10
4768.156943429121
 20
2545.475314004618
 30
0.0
 10
4768.165775287486
 20
2545.47709773366
 30
0.0
 10
4768.174364541713
 20
2545.479776122683
 30
0.0
 10
4768.182587046108
 20
2545.483443283311
 30
0.0
 10
4768.19035194073
 20
2545.487993405498
 30
0.0
 10
4768.197566167009
 20
2545.493378881787
 30
0.0
 10
4768.204114577462
 20
2545.499557633235
 30
0.0
 10
4768.209937594371
 20
2545.506424059196
 30
0.0
 10
4768.214963108823
 20
2545.513895034865
 30
0.0
 10
4768.219101357309
 20
2545.521893910663
 30
0.0
 10
4768.222310234866
 20
2545.530302467478
 30
0.0
 10
4768.224472193178
 20
2545.538424761226
 30
0.0
 10
4768.225189700753
 20
2545.543758233939
 30
0.0
 10
4768.225508034007
 20
2545.54612451102
 30
0.0
  0
SPLINE
  5
1781
330
1F
100
AcDbEntity
  8
SANINDUSA
100
AcDbSpline
210
0.0
220
0.0
230
1.0
 70
    24
 71
     1
 72
     4
 73
     2
 74
     0
 42
0.0000000001
 43
0.0000000001
 40
0.0
 40
0.0
 40
1.0
 40
1.0
 10
4768.132378488557
 20
2545.474923156755
 30
0.0
 10
4768.147966801898
 20
2545.474797808187
 30
0.0
  0
SPLINE
  5
1782
330
1F
100
AcDbEntity
  8
SANINDUSA
100
AcDbSpline
210
0.0
220
0.0
230
1.0
 70
     8
 71
     3
 72
    19
 73
    15
 74
     0
 42
0.0000000001
 43
0.0000000001
 40
0.0
 40
0.0
 40
0.0
 40
0.0
 40
0.0829335060913772
 40
0.1661317334899846
 40
0.2490652492524112
 40
0.3319966547583024
 40
0.4151925581612524
 40
0.4981242127239789
 40
0.5810400530369577
 40
0.6642201678980496
 40
0.7471361026152042
 40
0.8313318921019657
 40
0.9158042405766034
 40
0.9999999999999998
 40
0.9999999999999998
 40
0.9999999999999998
 40
0.9999999999999998
 10
4768.056928828136
 20
2545.540774725931
 30
0.0
 10
4768.057550339518
 20
2545.537846476668
 30
0.0
 10
4768.058795346127
 20
2545.531980631256
 30
0.0
 10
4768.061892710021
 20
2545.523521131033
 30
0.0
 10
4768.065837647052
 20
2545.515436753109
 30
0.0
 10
4768.07070475225
 20
2545.507864670575
 30
0.0
 10
4768.076375509673
 20
2545.500878633124
 30
0.0
 10
4768.082787915156
 20
2545.494564523025
 30
0.0
 10
4768.089882637024
 20
2545.489029050072
 30
0.0
 10
4768.097545938396
 20
2545.484316801459
 30
0.0
 10
4768.105727212364
 20
2545.480457464722
 30
0.0
 10
4768.114345688938
 20
2545.477576972027
 30
0.0
 10
4768.123276111144
 20
2545.475598514031
 30
0.0
 10
4768.129347681558
 20
2545.475148029606
 30
0.0
 10
4768.132378488557
 20
2545.474923156755
 30
0.0
  0
SPLINE
  5
1783
330
1F
100
AcDbEntity
  8
SANINDUSA
100
AcDbSpline
210
0.0
220
0.0
230
1.0
 70
    24
 71
     3
 72
     8
 73
     4
 74
     0
 42
0.0000000001
 43
0.0000000001
 40
0.0
 40
0.0
 40
0.0
 40
0.0
 40
1.0
 40
1.0
 40
1.0
 40
1.0
 10
4768.051255284139
 20
2545.572825254088
 30
0.0
 10
4768.053139363686
 20
2545.562140487461
 30
0.0
 10
4768.055030532137
 20
2545.551456975704
 30
0.0
 10
4768.056928835551
 20
2545.540774726971
 30
0.0
  0
LINE
  5
1784
330
1F
100
AcDbEntity
  8
SANINDUSA
100
AcDbLine
 10
4768.051255285518
 20
2545.572825246113
 30
0.0
 11
4768.047995164768
 21
2545.591313653248
 31
0.0
  0
ARC
  5
1785
330
1F
100
AcDbEntity
  8
SANINDUSA
100
AcDbCircle
 10
4768.03814709537
 20
2545.589577125328
 30
0.0
 40
0.0100000000000001
100
AcDbArc
 50
10.00034796405374
 51
90.0
  0
LINE
  5
1786
330
1F
100
AcDbEntity
  8
SANINDUSA
100
AcDbLine
 10
4768.038147091643
 20
2545.59957712199
 30
0.0
 11
4767.941094279067
 21
2545.59957712199
 31
0.0
  0
LINE
  5
1787
330
1F
100
AcDbEntity
  8
SANINDUSA
100
AcDbLine
 10
4767.936580672638
 20
2545.464577131527
 30
0.0
 11
4767.926575094239
 21
2545.464577131527
 31
0.0
  0
SPLINE
  5
1788
330
1F
100
AcDbEntity
  8
SANINDUSA
100
AcDbSpline
210
0.0
220
0.0
230
1.0
 70
    24
 71
     3
 72
     8
 73
     4
 74
     0
 42
0.0000000001
 43
0.0000000001
 40
0.003791496427555
 40
0.003791496427555
 40
0.003791496427555
 40
0.003791496427555
 40
0.132052851288529
 40
0.132052851288529
 40
0.132052851288529
 40
0.132052851288529
 10
4767.930861000372
 20
2545.592766852454
 30
0.0
 10
4767.92943236444
 20
2545.550036943406
 30
0.0
 10
4767.928003728333
 20
2545.507307034365
 30
0.0
 10
4767.926575092049
 20
2545.464577125328
 30
0.0
  0
ARC
  5
1789
330
1F
100
AcDbEntity
  8
SANINDUSA
100
AcDbCircle
 10
4767.925863792628
 20
2545.592933929583
 30
0.0
 40
0.0050000000000001
100
AcDbArc
 50
358.0850806396347
 51
88.00000002228562
  0
LINE
  5
178A
330
1F
100
AcDbEntity
  8
SANINDUSA
100
AcDbLine
 10
4767.926038287358
 20
2545.597930871504
 30
0.0
 11
4767.878896102087
 21
2545.59957712199
 31
0.0
  0
LINE
  5
178B
330
1F
100
AcDbEntity
  8
SANINDUSA
100
AcDbLine
 10
4767.878896102087
 20
2545.59957712199
 30
0.0
 11
4767.878896102087
 21
2545.609577127355
 31
0.0
  0
LINE
  5
178C
330
1F
100
AcDbEntity
  8
SANINDUSA
100
AcDbLine
 10
4768.038147091643
 20
2545.609577127355
 30
0.0
 11
4767.940040990488
 21
2545.609577127355
 31
0.0
  0
ARC
  5
178D
330
1F
100
AcDbEntity
  8
SANINDUSA
100
AcDbCircle
 10
4768.03814709537
 20
2545.589577125328
 30
0.0
 40
0.0200000000000001
100
AcDbArc
 50
10.00034796405374
 51
90.0
  0
LINE
  5
178E
330
1F
100
AcDbEntity
  8
SANINDUSA
100
AcDbLine
 10
4768.061103343741
 20
2545.574561797636
 30
0.0
 11
4768.057843222992
 21
2545.593050204771
 31
0.0
  0
SPLINE
  5
178F
330
1F
100
AcDbEntity
  8
SANINDUSA
100
AcDbSpline
210
0.0
220
0.0
230
1.0
 70
    24
 71
     3
 72
     8
 73
     4
 74
     0
 42
0.0000000001
 43
0.0000000001
 40
0.0
 40
0.0
 40
0.0
 40
0.0
 40
1.0
 40
1.0
 40
1.0
 40
1.0
 10
4768.061103351123
 20
2545.574561795674
 30
0.0
 10
4768.062986659272
 20
2545.563881403708
 30
0.0
 10
4768.06487705341
 20
2545.553202266096
 30
0.0
 10
4768.066774579597
 20
2545.542524390992
 30
0.0
  0
SPLINE
  5
1790
330
1F
100
AcDbEntity
  8
SANINDUSA
100
AcDbSpline
210
0.0
220
0.0
230
1.0
 70
     8
 71
     3
 72
    19
 73
    15
 74
     0
 42
0.0000000001
 43
0.0000000001
 40
0.0
 40
0.0
 40
0.0
 40
0.0
 40
0.0829363057076789
 40
0.1661366662924654
 40
0.2490727986450041
 40
0.3320052029964464
 40
0.4152019207691517
 40
0.4981340434128287
 40
0.5810484303067778
 40
0.6642271544825601
 40
0.7471413817888767
 40
0.8313353660108122
 40
0.9158057842790194
 40
0.9999999999999998
 40
0.9999999999999998
 40
0.9999999999999998
 40
0.9999999999999998
 10
4768.06677457668
 20
2545.542524390476
 30
0.0
 10
4768.067318320094
 20
2545.539962556344
 30
0.0
 10
4768.068407538105
 20
2545.534830731642
 30
0.0
 10
4768.071117304617
 20
2545.527429796746
 30
0.0
 10
4768.074568624066
 20
2545.520357122374
 30
0.0
 10
4768.078826698911
 20
2545.513732689672
 30
0.0
 10
4768.083787788361
 20
2545.507621000822
 30
0.0
 10
4768.089397743619
 20
2545.502097304239
 30
0.0
 10
4768.095604494611
 20
2545.497254788545
 30
0.0
 10
4768.102308604768
 20
2545.493132520835
 30
0.0
 10
4768.10946581063
 20
2545.489756380717
 30
0.0
 10
4768.117005469096
 20
2545.48723657975
 30
0.0
 10
4768.124818002862
 20
2545.485505837036
 30
0.0
 10
4768.130129546267
 20
2545.485111777769
 30
0.0
 10
4768.132780968921
 20
2545.484915070789
 30
0.0
  0
SPLINE
  5
1791
330
1F
100
AcDbEntity
  8
SANINDUSA
100
AcDbSpline
210
0.0
220
0.0
230
1.0
 70
     8
 71
     3
 72
     8
 73
     4
 74
     0
 42
0.0000000001
 43
0.0000000001
 40
0.0
 40
0.0
 40
0.0
 40
0.0
 40
1.0
 40
1.0
 40
1.0
 40
1.0
 10
4768.13278095932
 20
2545.484915067292
 30
0.0
 10
4768.137761079947
 20
2545.484714474178
 30
0.0
 10
4768.142742492051
 20
2545.48467445921
 30
0.0
 10
4768.14772519445
 20
2545.484794875474
 30
0.0
  0
SPLINE
  5
1792
330
1F
100
AcDbEntity
  8
SANINDUSA
100
AcDbSpline
210
0.0
220
0.0
230
1.0
 70
     8
 71
     3
 72
    20
 73
    16
 74
     0
 42
0.0000000001
 43
0.0000000001
 40
0.0
 40
0.0
 40
0.0
 40
0.0
 40
0.0780432565373781
 40
0.1563356344722372
 40
0.23437883440379
 40
0.3124268921075704
 40
0.3907233075628968
 40
0.4687712684135665
 40
0.5468441675559551
 40
0.6251658174254349
 40
0.7032384469581629
 40
0.7813175563713855
 40
0.8596456634928843
 40
0.937724650127228
 40
1.0
 40
1.0
 40
1.0
 40
1.0
 10
4768.14772519447
 20
2545.484794878023
 30
0.0
 10
4768.150340153734
 20
2545.484945252591
 30
0.0
 10
4768.15557841946
 20
2545.485246481737
 30
0.0
 10
4768.163304988887
 20
2545.486806957289
 30
0.0
 10
4768.170819395311
 20
2545.489150124339
 30
0.0
 10
4768.17801303212
 20
2545.492358306547
 30
0.0
 10
4768.184806388235
 20
2545.496339020711
 30
0.0
 10
4768.191118150993
 20
2545.501050528959
 30
0.0
 10
4768.196847453719
 20
2545.506456207394
 30
0.0
 10
4768.201942223096
 20
2545.512463583285
 30
0.0
 10
4768.206339260613
 20
2545.518999925928
 30
0.0
 10
4768.209960071774
 20
2545.525998163848
 30
0.0
 10
4768.212767735033
 20
2545.533354902798
 30
0.0
 10
4768.214659521849
 20
2545.540461493077
 30
0.0
 10
4768.21528735119
 20
2545.5451281401
 30
0.0
 10
4768.215565919654
 20
2545.547198735731
 30
0.0
  0
SPLINE
  5
1793
330
1F
100
AcDbEntity
  8
SANINDUSA
100
AcDbSpline
210
0.0
220
0.0
230
1.0
 70
     8
 71
     3
 72
    11
 73
     7
 74
     0
 42
0.0000000001
 43
0.0000000001
 40
0.0
 40
0.0
 40
0.0
 40
0.0
 40
0.1353146821518965
 40
0.6765750076533008
 40
0.9998838763565869
 40
0.9999999999999998
 40
0.9999999999999998
 40
0.9999999999999998
 40
0.9999999999999998
 10
4768.215565919654
 20
2545.547198735731
 30
0.0
 10
4768.216102439551
 20
2545.552139956557
 30
0.0
 10
4768.218785045367
 20
2545.576846119001
 30
0.0
 10
4768.222694662078
 20
2545.613364368955
 30
0.0
 10
4768.226008781903
 20
2545.644951873988
 30
0.0
 10
4768.227253854052
 20
2545.656766218997
 30
0.0
 10
4768.227254301087
 20
2545.656770460861
 30
0.0
  0
SPLINE
  5
1794
330
1F
100
AcDbEntity
  8
SANINDUSA
100
AcDbSpline
210
0.0
220
0.0
230
1.0
 70
     8
 71
     3
 72
    14
 73
    10
 74
     0
 42
0.0000000001
 43
0.0000000001
 40
0.3066758625569752
 40
0.3066758625569752
 40
0.3066758625569752
 40
0.3066758625569752
 40
0.445936047935113
 40
0.445936047935113
 40
0.5631913183037187
 40
0.5631913183037187
 40
0.7891865455114408
 40
0.7891865455114408
 40
0.8603935318412823
 40
0.8603935318412823
 40
0.8603935318412823
 40
0.8603935318412823
 10
4768.360120637729
 20
2545.768952787168
 30
0.0
 10
4768.354911184052
 20
2545.757661110687
 30
0.0
 10
4768.349355265587
 20
2545.746554664418
 30
0.0
 10
4768.3384927522
 20
2545.726446529415
 30
0.0
 10
4768.332140146603
 20
2545.718242824864
 30
0.0
 10
4768.310421102651
 20
2545.697774375048
 30
0.0
 10
4768.292158865172
 20
2545.688798941504
 30
0.0
 10
4768.265950104623
 20
2545.685021320568
 30
0.0
 10
4768.259680456508
 20
2545.684181772458
 30
0.0
 10
4768.253409079239
 20
2545.683406456087
 30
0.0
  0
SPLINE
  5
1795
330
1F
100
AcDbEntity
  8
SANINDUSA
100
AcDbSpline
210
0.0
220
0.0
230
1.0
 70
     8
 71
     3
 72
    15
 73
    11
 74
     0
 42
0.0000000001
 43
0.0000000001
 40
0.0
 40
0.0
 40
0.0
 40
0.0
 40
0.1256198469050106
 40
0.2512405876162621
 40
0.3768612384941516
 40
0.5024820334110084
 40
0.6281019519367606
 40
0.7537222553233399
 40
0.8768608240689291
 40
1.0
 40
1.0
 40
1.0
 40
1.0
 10
4768.254738569037
 20
2545.674502336042
 30
0.0
 10
4768.253629648572
 20
2545.674308516856
 30
0.0
 10
4768.251411799748
 20
2545.673920877102
 30
0.0
 10
4768.248265016982
 20
2545.672649632708
 30
0.0
 10
4768.245371674805
 20
2545.6708983447
 30
0.0
 10
4768.242809283591
 20
2545.668684265466
 30
0.0
 10
4768.240660416414
 20
2545.666067006186
 30
0.0
 10
4768.238993481843
 20
2545.663149745932
 30
0.0
 10
4768.237813036308
 20
2545.660016578549
 30
0.0
 10
4768.237475567743
 20
2545.657835723175
 30
0.0
 10
4768.237306833046
 20
2545.6567452928
 30
0.0
  0
SPLINE
  5
1796
330
1F
100
AcDbEntity
  8
SANINDUSA
100
AcDbSpline
210
0.0
220
0.0
230
1.0
 70
     8
 71
     3
 72
    30
 73
    26
 74
     0
 42
0.0000000001
 43
0.0000000001
 40
0.0
 40
0.0
 40
0.0
 40
0.0
 40
0.0477367244863232
 40
0.095505578403154
 40
0.1433070220018949
 40
0.1911415145932306
 40
0.2390095145364945
 40
0.2689303118595685
 40
0.2988816736002298
 40
0.3327913822755462
 40
0.3629277027904048
 40
0.4273026512759704
 40
0.491671002443143
 40
0.5554875651957593
 40
0.6192196191965929
 40
0.6829557458427055
 40
0.7467845095751386
 40
0.7784649393879012
 40
0.8101156361679258
 40
0.8417473827482842
 40
0.873370981346628
 40
0.9049972425296585
 40
0.9366369741348334
 40
0.9683009702060852
 40
1.0
 40
1.0
 40
1.0
 40
1.0
 10
4768.25473858186
 20
2545.674502330572
 30
0.0
 10
4768.25571125787
 20
2545.674623705574
 30
0.0
 10
4768.257657264554
 20
2545.674866537271
 30
0.0
 10
4768.260575811759
 20
2545.675242416001
 30
0.0
 10
4768.263495254823
 20
2545.675626933903
 30
0.0
 10
4768.266415476737
 20
2545.676021022925
 30
0.0
 10
4768.268970801195
 20
2545.676373604231
 30
0.0
 10
4768.271161496055
 20
2545.676682198759
 30
0.0
 10
4768.273068162176
 20
2545.676952254561
 30
0.0
 10
4768.274977406008
 20
2545.677235873644
 30
0.0
 10
4768.277578543225
 20
2545.677669956988
 30
0.0
 10
4768.280780190245
 20
2545.678301229434
 30
0.0
 10
4768.284629447586
 20
2545.67920908932
 30
0.0
 10
4768.288429319308
 20
2545.680257005823
 30
0.0
 10
4768.292175184551
 20
2545.681441640359
 30
0.0
 10
4768.295874437582
 20
2545.682765351823
 30
0.0
 10
4768.298910772542
 20
2545.683981253421
 30
0.0
 10
4768.301306997783
 20
2545.685018789757
 30
0.0
 10
4768.303081923744
 20
2545.685826508323
 30
0.0
 10
4768.304840573733
 20
2545.686666359643
 30
0.0
 10
4768.306582922897
 20
2545.687538400322
 30
0.0
 10
4768.308309089917
 20
2545.688442429633
 30
0.0
 10
4768.310018621028
 20
2545.689379192447
 30
0.0
 10
4768.311713210675
 20
2545.690345905326
 30
0.0
 10
4768.312828009594
 20
2545.6910168348
 30
0.0
 10
4768.313385717244
 20
2545.691352485018
 30
0.0
  0
ARC
  5
1797
330
1F
100
AcDbEntity
  8
SANINDUSA
100
AcDbCircle
 10
4768.3549844572
 20
2545.687707694449
 30
0.0
 40
0.025
100
AcDbArc
 50
148.2561676036065
 51
181.6000000025688
  0
LINE
  5
1798
330
1F
100
AcDbEntity
  8
SANINDUSA
100
AcDbLine
 10
4768.363466739432
 20
2545.804577123928
 30
0.0
 11
4768.354461252467
 21
2545.804577123928
 31
0.0
  0
LINE
  5
1799
330
1F
100
AcDbEntity
  8
SANINDUSA
100
AcDbLine
 10
4768.361035763995
 20
2545.854577125138
 30
0.0
 11
4768.394574820773
 21
2545.854577125138
 31
0.0
  0
SPLINE
  5
179A
330
1F
100
AcDbEntity
  8
SANINDUSA
100
AcDbSpline
210
0.0
220
0.0
230
1.0
 70
    24
 71
     3
 72
     9
 73
     5
 74
     0
 42
0.0000000001
 43
0.0000000001
 40
0.0
 40
0.0
 40
0.0
 40
0.0
 40
0.5412812975750536
 40
1.0
 40
1.0
 40
1.0
 40
1.0
 10
4768.363466739432
 20
2545.804577123928
 30
0.0
 10
4768.363725064579
 20
2545.811974635329
 30
0.0
 10
4768.36420231208
 20
2545.825641302613
 30
0.0
 10
4768.36467957375
 20
2545.839307969404
 30
0.0
 10
4768.364898502604
 20
2545.84557712506
 30
0.0
  0
LINE
  5
179B
330
1F
100
AcDbEntity
  8
SANINDUSA
100
AcDbLine
 10
4768.364898502604
 20
2545.84557712506
 30
0.0
 11
4768.389212786929
 21
2545.84557712506
 31
0.0
  0
SPLINE
  5
17A0
330
1F
100
AcDbEntity
  8
SANINDUSA
100
AcDbSpline
210
0.0
220
0.0
230
1.0
 70
     8
 71
     3
 72
    12
 73
     8
 74
     0
 42
0.0000000001
 43
0.0000000001
 40
0.0
 40
0.0
 40
0.0
 40
0.0
 40
0.0064169719847663
 40
0.008145152054733
 40
0.4572444453778823
 40
0.9058953118574756
 40
1.0
 40
1.0
 40
1.0
 40
1.0
 10
4767.818897310422
 20
2545.819577124524
 30
0.0
 10
4767.818889657292
 20
2545.819577126308
 30
0.0
 10
4767.818879943066
 20
2545.819577128573
 30
0.0
 10
4767.818333727547
 20
2545.819577445413
 30
0.0
 10
4767.817170416273
 20
2545.819616746196
 30
0.0
 10
4767.815766450185
 20
2545.819702760387
 30
0.0
 10
4767.814954290644
 20
2545.819865003262
 30
0.0
 10
4767.814813475833
 20
2545.819893133449
 30
0.0
  0
LINE
  5
17A1
330
1F
100
AcDbEntity
  8
SANINDUSA
100
AcDbLine
 10
4767.815896098279
 20
2545.839577125939
 30
0.0
 11
4767.804896098339
 21
2545.839577125939
 31
0.0
  0
LINE
  5
17A2
330
1F
100
AcDbEntity
  8
SANINDUSA
100
AcDbLine
 10
4767.804896098339
 20
2545.839577125939
 30
0.0
 11
4767.804896098339
 21
2545.838577125775
 31
0.0
  0
ARC
  5
17A3
330
1F
100
AcDbEntity
  8
SANINDUSA
100
AcDbCircle
 10
4767.814896098411
 20
2545.838577125328
 30
0.0
 40
0.01
100
AcDbArc
 50
180.0
 51
270.0
  0
LINE
  5
17A4
330
1F
100
AcDbEntity
  8
SANINDUSA
100
AcDbLine
 10
4767.814896098581
 20
2545.828577125999
 30
0.0
 11
4768.005709007161
 21
2545.828577125999
 31
0.0
  0
SPLINE
  5
17A5
330
1F
100
AcDbEntity
  8
SANINDUSA
100
AcDbSpline
210
0.0
220
0.0
230
1.0
 70
    24
 71
     3
 72
     9
 73
     5
 74
     0
 42
0.0000000001
 43
0.0000000001
 40
0.0
 40
0.0
 40
0.0
 40
0.0
 40
0.5014422504463819
 40
1.0
 40
1.0
 40
1.0
 40
1.0
 10
4768.005709007161
 20
2545.828577125999
 30
0.0
 10
4768.016206734088
 20
2545.804236402303
 30
0.0
 10
4768.037141800728
 20
2545.755694972707
 30
0.0
 10
4768.058078491967
 20
2545.707154243805
 30
0.0
 10
4768.068516641633
 20
2545.682953887241
 30
0.0
  0
SPLINE
  5
17A6
330
1F
100
AcDbEntity
  8
SANINDUSA
100
AcDbSpline
210
0.0
220
0.0
230
1.0
 70
     8
 71
     3
 72
     9
 73
     5
 74
     0
 42
0.0000000001
 43
0.0000000001
 40
0.0
 40
0.0
 40
0.0
 40
0.0
 40
0.4962572376521465
 40
0.9999999999999998
 40
0.9999999999999998
 40
0.9999999999999998
 40
0.9999999999999998
 10
4768.068516641633
 20
2545.682953887241
 30
0.0
 10
4768.069031602037
 20
2545.681853470049
 30
0.0
 10
4768.070069290487
 20
2545.679636037016
 30
0.0
 10
4768.07149330333
 20
2545.67764443122
 30
0.0
 10
4768.072210639493
 20
2545.676641174214
 30
0.0
  0
SPLINE
  5
17A7
330
1F
100
AcDbEntity
  8
SANINDUSA
100
AcDbSpline
210
0.0
220
0.0
230
1.0
 70
     8
 71
     3
 72
    35
 73
    31
 74
     0
 42
0.0000000001
 43
0.0000000001
 40
0.0
 40
0.0
 40
0.0
 40
0.0
 40
0.0055856902067767
 40
0.0055856902067767
 40
0.0055856902067767
 40
0.0111713805096344
 40
0.0111713805096344
 40
0.0111713805096344
 40
0.0167570709108538
 40
0.0167570709108538
 40
0.0167570709108538
 40
0.022342761412732
 40
0.022342761412732
 40
0.022342761412732
 40
0.0279284520175912
 40
0.0279284520175912
 40
0.0279284520175912
 40
0.0335141427277762
 40
0.0335141427277762
 40
0.0335141427277762
 40
0.0390998335456576
 40
0.0390998335456576
 40
0.0390998335456576
 40
0.0452965054719106
 40
0.0452965054719106
 40
0.0452965054719106
 40
0.0514931963114629
 40
0.0514931963114629
 40
0.0514931963114629
 40
0.0514935963114637
 40
0.0514935963114637
 40
0.0514935963114637
 40
0.0514935963114637
 10
4768.10369725731
 20
2545.635896320849
 30
0.0
 10
4768.102549119054
 20
2545.637362075944
 30
0.0
 10
4768.10140195509
 20
2545.638828594758
 30
0.0
 10
4768.100255789271
 20
2545.64029589274
 30
0.0
 10
4768.099109623438
 20
2545.641763190737
 30
0.0
 10
4768.097964455221
 20
2545.643231268581
 30
0.0
 10
4768.096820308586
 20
2545.64470014162
 30
0.0
 10
4768.095676161939
 20
2545.646169014674
 30
0.0
 10
4768.094533036322
 20
2545.647638683633
 30
0.0
 10
4768.093390955829
 20
2545.64910916374
 30
0.0
 10
4768.092248875325
 20
2545.650579643864
 30
0.0
 10
4768.091107839366
 20
2545.652050935879
 30
0.0
 10
4768.089967872179
 20
2545.653523054923
 30
0.0
 10
4768.088827904978
 20
2545.654995173985
 30
0.0
 10
4768.087689005946
 20
2545.656468120853
 30
0.0
 10
4768.086551199438
 20
2545.65794191056
 30
0.0
 10
4768.085413392918
 20
2545.659415700284
 30
0.0
 10
4768.084276678297
 20
2545.660890333657
 30
0.0
 10
4768.083141080068
 20
2545.662365825606
 30
0.0
 10
4768.082005481827
 20
2545.663841317573
 30
0.0
 10
4768.080870999328
 20
2545.665317668959
 30
0.0
 10
4768.079737657209
 20
2545.666794894585
 30
0.0
 10
4768.078480346525
 20
2545.668433703848
 30
0.0
 10
4768.07722443846
 20
2545.670073590211
 30
0.0
 10
4768.075969966867
 20
2545.67171457375
 30
0.0
 10
4768.074715491459
 20
2545.67335556228
 30
0.0
 10
4768.073462451569
 20
2545.67499764925
 30
0.0
 10
4768.072210881284
 20
2545.67664085457
 30
0.0
 10
4768.072210800493
 20
2545.67664096064
 30
0.0
 10
4768.072210719703
 20
2545.67664106671
 30
0.0
 10
4768.072210638914
 20
2545.67664117278
 30
0.0
  0
LINE
  5
17A8
330
1F
100
AcDbEntity
  8
SANINDUSA
100
AcDbLine
 10
4768.126751661078
 20
2545.544626914518
 30
0.0
 11
4768.136745720879
 21
2545.544626914518
 31
0.0
  0
SPLINE
  5
17A9
330
1F
100
AcDbEntity
  8
SANINDUSA
100
AcDbSpline
210
0.0
220
0.0
230
1.0
 70
     8
 71
     3
 72
    23
 73
    19
 74
     0
 42
0.0000000001
 43
0.0000000001
 40
0.0
 40
0.0
 40
0.0
 40
0.0
 40
0.2499999999999996
 40
0.312499999999999
 40
0.3437499999999989
 40
0.3593749999999987
 40
0.3593749999999987
 40
0.3749999999999984
 40
0.3749999999999984
 40
0.4999999999999988
 40
0.4999999999999988
 40
0.6249999999999992
 40
0.6249999999999992
 40
0.7499999999999995
 40
0.7499999999999995
 40
0.8749999999999998
 40
0.8749999999999998
 40
1.0
 40
1.0
 40
1.0
 40
1.0
 10
4768.064258284883
 20
2545.670578164304
 30
0.0
 10
4768.071444098888
 20
2545.661158065814
 30
0.0
 10
4768.080478618113
 20
2545.649422555022
 30
0.0
 10
4768.090487706298
 20
2545.636568910018
 30
0.0
 10
4768.093679186793
 20
2545.63248442601
 30
0.0
 10
4768.095048413107
 20
2545.630735073587
 30
0.0
 10
4768.09596155243
 20
2545.6295690924
 30
0.0
 10
4768.096417460705
 20
2545.628985325674
 30
0.0
 10
4768.100473666332
 20
2545.623682196251
 30
0.0
 10
4768.103824089948
 20
2545.618702531097
 30
0.0
 10
4768.1099123614
 20
2545.60830450916
 30
0.0
 10
4768.112649929018
 20
2545.602886378962
 30
0.0
 10
4768.117433710741
 20
2545.591729633105
 30
0.0
 10
4768.119479742466
 20
2545.585991337556
 30
0.0
 10
4768.122833066386
 20
2545.574329276098
 30
0.0
 10
4768.124140305913
 20
2545.568405874414
 30
0.0
 10
4768.126003677465
 20
2545.556514951239
 30
0.0
 10
4768.126559891057
 20
2545.55054777955
 30
0.0
 10
4768.126751653944
 20
2545.544626921193
 30
0.0
  0
SPLINE
  5
17AA
330
1F
100
AcDbEntity
  8
SANINDUSA
100
AcDbSpline
210
0.0
220
0.0
230
1.0
 70
     8
 71
     3
 72
     9
 73
     5
 74
     0
 42
0.0000000001
 43
0.0000000001
 40
0.0
 40
0.0
 40
0.0
 40
0.0
 40
0.5
 40
1.0
 40
1.0
 40
1.0
 40
1.0
 10
4768.059332419777
 20
2545.678996169009
 30
0.0
 10
4768.059981061628
 20
2545.677492324584
 30
0.0
 10
4768.061452619897
 20
2545.674586613938
 30
0.0
 10
4768.063264975294
 20
2545.671880323551
 30
0.0
 10
4768.064258284883
 20
2545.670578164304
 30
0.0
  0
SPLINE
  5
17AB
330
1F
100
AcDbEntity
  8
SANINDUSA
100
AcDbSpline
210
0.0
220
0.0
230
1.0
 70
    24
 71
     3
 72
     8
 73
     4
 74
     0
 42
0.0000000001
 43
0.0000000001
 40
0.0002870249654359
 40
0.0002870249654359
 40
0.0002870249654359
 40
0.0002870249654359
 40
0.0480193588875435
 40
0.0480193588875435
 40
0.0480193588875435
 40
0.0480193588875435
 10
4768.040428357944
 20
2545.722825521592
 30
0.0
 10
4768.04672960364
 20
2545.70821569071
 30
0.0
 10
4768.053030919245
 20
2545.693605889978
 30
0.0
 10
4768.059332419777
 20
2545.678996169009
 30
0.0
  0
SPLINE
  5
17AC
330
1F
100
AcDbEntity
  8
SANINDUSA
100
AcDbSpline
210
0.0
220
0.0
230
1.0
 70
    24
 71
     3
 72
     8
 73
     4
 74
     0
 42
0.0000000001
 43
0.0000000001
 40
0.0
 40
0.0
 40
0.0
 40
0.0
 40
1.0
 40
1.0
 40
1.0
 40
1.0
 10
4768.040428357944
 20
2545.722825521592
 30
0.0
 10
4768.008228377548
 20
2545.722830443807
 30
0.0
 10
4767.976028398878
 20
2545.72284084527
 30
0.0
 10
4767.943828422157
 20
2545.722857436274
 30
0.0
  0
LINE
  5
17AD
330
1F
100
AcDbEntity
  8
SANINDUSA
100
AcDbLine
 10
4767.878896102087
 20
2545.689577125566
 30
0.0
 11
4767.878896102087
 21
2545.699577130931
 31
0.0
  0
LINE
  5
17AE
330
1F
100
AcDbEntity
  8
SANINDUSA
100
AcDbLine
 10
4767.878896102087
 20
2545.699577130931
 30
0.0
 11
4767.92983034231
 21
2545.701355793136
 31
0.0
  0
ARC
  5
17AF
330
1F
100
AcDbEntity
  8
SANINDUSA
100
AcDbCircle
 10
4767.929655847825
 20
2545.706352742558
 30
0.0
 40
0.0050000000000001
100
AcDbArc
 50
271.9999999777144
 51
358.0850810823241
  0
SPLINE
  5
17B0
330
1F
100
AcDbEntity
  8
SANINDUSA
100
AcDbSpline
210
0.0
220
0.0
230
1.0
 70
    24
 71
     3
 72
     8
 73
     4
 74
     0
 42
0.0000000001
 43
0.0000000001
 40
0.000301280397189
 40
0.000301280397189
 40
0.000301280397189
 40
0.000301280397189
 40
0.0160835805579037
 40
0.0160835805579037
 40
0.0160835805579037
 40
0.0160835805579037
 10
4767.935180427727
 20
2545.721959151985
 30
0.0
 10
4767.935004637011
 20
2545.716701323145
 30
0.0
 10
4767.934828846292
 20
2545.711443494305
 30
0.0
 10
4767.93465305557
 20
2545.706185665466
 30
0.0
  0
ARC
  5
17B1
330
1F
100
AcDbEntity
  8
SANINDUSA
100
AcDbCircle
 10
4767.930183219982
 20
2545.722126229073
 30
0.0
 40
0.0050000000000001
100
AcDbArc
 50
358.0850811344052
 51
46.60368483410002
  0
LINE
  5
17B2
330
1F
100
AcDbEntity
  8
SANINDUSA
100
AcDbLine
 10
4767.835841746779
 20
2545.818210218655
 30
0.0
 11
4767.933618426101
 21
2545.725759320515
 31
0.0
  0
ARC
  5
17B3
330
1F
100
AcDbEntity
  8
SANINDUSA
100
AcDbCircle
 10
4767.832406542989
 20
2545.814577125328
 30
0.0
 40
0.005
100
AcDbArc
 50
46.60368483410002
 51
90.0
  0
LINE
  5
17B4
330
1F
100
AcDbEntity
  8
SANINDUSA
100
AcDbLine
 10
4767.818897310422
 20
2545.819577124524
 30
0.0
 11
4767.832406542973
 21
2545.819577124524
 31
0.0
  0
LINE
  5
17B5
330
1F
100
AcDbEntity
  8
SANINDUSA
100
AcDbLine
 10
4767.791337759944
 20
2545.842577124568
 30
0.0
 11
4767.790896098839
 21
2545.842577124568
 31
0.0
  0
ARC
  5
17B6
330
1F
100
AcDbEntity
  8
SANINDUSA
100
AcDbCircle
 10
4767.790896098411
 20
2545.847577125328
 30
0.0
 40
0.005
100
AcDbArc
 50
180.0
 51
270.0
  0
LINE
  5
17B7
330
1F
100
AcDbEntity
  8
SANINDUSA
100
AcDbLine
 10
4767.785896098019
 20
2545.849577125716
 30
0.0
 11
4767.785896098019
 21
2545.847577125388
 31
0.0
  0
ARC
  5
17B8
330
1F
100
AcDbEntity
  8
SANINDUSA
100
AcDbCircle
 10
4767.790896098411
 20
2545.849577125328
 30
0.0
 40
0.005
100
AcDbArc
 50
90.0
 51
180.0
  0
ARC
  5
17B9
330
1F
100
AcDbEntity
  8
SANINDUSA
100
AcDbCircle
 10
4767.796687894479
 20
2545.852577125328
 30
0.0
 40
0.0020000000000001
100
AcDbArc
 50
16.60154960424281
 51
90.0
  0
ARC
  5
17BA
330
1F
100
AcDbEntity
  8
SANINDUSA
100
AcDbCircle
 10
4767.803396098411
 20
2545.854577125328
 30
0.0
 40
0.005
100
AcDbArc
 50
196.6015496042428
 51
270.0
  0
LINE
  5
17BB
330
1F
100
AcDbEntity
  8
SANINDUSA
100
AcDbLine
 10
4767.815896098279
 20
2545.849577125716
 30
0.0
 11
4767.803396098559
 21
2545.849577125716
 31
0.0
  0
LINE
  5
17BC
330
1F
100
AcDbEntity
  8
SANINDUSA
100
AcDbLine
 10
4767.815896098279
 20
2545.839577125939
 30
0.0
 11
4767.815896098279
 21
2545.849577125716
 31
0.0
  0
LINE
  5
17BD
330
1F
100
AcDbEntity
  8
SANINDUSA
100
AcDbLine
 10
4767.790896098839
 20
2545.854577125138
 30
0.0
 11
4767.796687894279
 21
2545.854577125138
 31
0.0
  0
SPLINE
  5
17CB
330
1F
100
AcDbEntity
  8
SANINDUSA
100
AcDbSpline
210
0.0
220
0.0
230
1.0
 70
    24
 71
     3
 72
     8
 73
     4
 74
     0
 42
0.0000000001
 43
0.0000000001
 40
0.0
 40
0.0
 40
0.0
 40
0.0
 40
1.0
 40
1.0
 40
1.0
 40
1.0
 10
4767.937947252932
 20
2545.464577125328
 30
0.0
 10
4767.93702918469
 20
2545.464577125328
 30
0.0
 10
4767.936580679685
 20
2545.464577125328
 30
0.0
 10
4767.936580679685
 20
2545.464577125328
 30
0.0
  0
ARC
  5
17D0
330
1F
100
AcDbEntity
  8
SANINDUSA
100
AcDbCircle
 10
4767.898396098411
 20
2545.854577125328
 30
0.0
 40
0.005
100
AcDbArc
 50
270.0
 51
343.3984503957571
  0
LINE
  5
17D2
330
1F
100
AcDbEntity
  8
SANINDUSA
100
AcDbLine
 10
4767.912396095471
 20
2545.842577124568
 30
0.0
 11
4767.899115375953
 21
2545.842577124568
 31
0.0
  0
LINE
  5
17D3
330
1F
100
AcDbEntity
  8
SANINDUSA
100
AcDbLine
 10
4767.899115375953
 20
2545.839577125939
 30
0.0
 11
4767.899115375953
 21
2545.842577124568
 31
0.0
  0
LINE
  5
17D4
330
1F
100
AcDbEntity
  8
SANINDUSA
100
AcDbLine
 10
4767.899115375953
 20
2545.839577125939
 30
0.0
 11
4767.885896101372
 21
2545.839577125939
 31
0.0
  0
LINE
  5
17D5
330
1F
100
AcDbEntity
  8
SANINDUSA
100
AcDbLine
 10
4767.885896101372
 20
2545.849577125716
 30
0.0
 11
4767.885896101372
 21
2545.839577125939
 31
0.0
  0
ARC
  5
17D6
330
1F
100
AcDbEntity
  8
SANINDUSA
100
AcDbCircle
 10
4767.905104302343
 20
2545.852577125328
 30
0.0
 40
0.002
100
AcDbArc
 50
90.0
 51
163.3984503957571
  0
ARC
  5
17D7
330
1F
100
AcDbEntity
  8
SANINDUSA
100
AcDbCircle
 10
4768.03162565154
 20
2545.849577125328
 30
0.0
 40
0.005
100
AcDbArc
 50
4.999999996291116
 51
90.0
  0
LINE
  5
17D8
330
1F
100
AcDbEntity
  8
SANINDUSA
100
AcDbLine
 10
4768.040581747667
 20
2545.804577123928
 30
0.0
 11
4768.036606624501
 21
2545.850012903655
 31
0.0
  0
LINE
  5
17D9
330
1F
100
AcDbEntity
  8
SANINDUSA
100
AcDbLine
 10
4768.031547367351
 20
2545.804577123928
 30
0.0
 11
4768.027960330026
 21
2545.84557712506
 31
0.0
  0
LINE
  5
17DA
330
1F
100
AcDbEntity
  8
SANINDUSA
100
AcDbLine
 10
4767.912396095471
 20
2545.842577124568
 30
0.0
 11
4767.912396095471
 21
2545.84557712506
 31
0.0
  0
LINE
  5
17DB
330
1F
100
AcDbEntity
  8
SANINDUSA
100
AcDbLine
 10
4767.898396096902
 20
2545.849577125716
 30
0.0
 11
4767.885896101372
 21
2545.849577125716
 31
0.0
  0
LINE
  5
17DC
330
1F
100
AcDbEntity
  8
SANINDUSA
100
AcDbLine
 10
4768.040581747667
 20
2545.804577123928
 30
0.0
 11
4768.031547367351
 21
2545.804577123928
 31
0.0
  0
LINE
  5
17DD
330
1F
100
AcDbEntity
  8
SANINDUSA
100
AcDbLine
 10
4767.905104301648
 20
2545.854577125138
 30
0.0
 11
4768.031625658052
 21
2545.854577125138
 31
0.0
  0
LINE
  5
17DE
330
1F
100
AcDbEntity
  8
SANINDUSA
100
AcDbLine
 10
4767.912396095471
 20
2545.84557712506
 30
0.0
 11
4768.027960330026
 21
2545.84557712506
 31
0.0
  0
LINE
  5
17DF
330
1F
100
AcDbEntity
  8
SANINDUSA
100
AcDbLine
 10
4767.815896098279
 20
2545.839577125939
 30
0.0
 11
4767.885896101372
 21
2545.839577125939
 31
0.0
  0
LINE
  5
17E0
330
1F
100
AcDbEntity
  8
SANINDUSA
100
AcDbLine
 10
4767.815896098279
 20
2545.849577125716
 30
0.0
 11
4767.885896101372
 21
2545.849577125716
 31
0.0
  0
LINE
  5
17E4
330
1F
100
AcDbEntity
  8
SANINDUSA
100
AcDbLine
 10
4767.796687894279
 20
2545.854577125138
 30
0.0
 11
4767.905104301648
 21
2545.854577125138
 31
0.0
  0
ARC
  5
17ED
330
1F
100
AcDbEntity
  8
SANINDUSA
100
AcDbCircle
 10
4767.791334432188
 20
2545.83757725084
 30
0.0
 40
0.0049998737288857
100
AcDbArc
 50
10.07377125034247
 51
89.99924065005032
  0
SPLINE
  5
17F3
330
1F
100
AcDbEntity
  8
SANINDUSA
100
AcDbSpline
210
0.0
220
0.0
230
1.0
 70
    24
 71
     3
 72
    14
 73
    10
 74
     0
 42
0.0000000001
 43
0.0000000001
 40
0.0158608329346749
 40
0.0158608329346749
 40
0.0158608329346749
 40
0.0158608329346749
 40
0.028119920063853
 40
0.028119920063853
 40
0.028119920063853
 40
0.0562398401277061
 40
0.0562398401277061
 40
0.0562398401277061
 40
0.1038434915363338
 40
0.1038434915363338
 40
0.1038434915363338
 40
0.1038434915363338
 10
4767.937947252932
 20
2545.464577125328
 30
0.0
 10
4767.938656842312
 20
2545.464577125328
 30
0.0
 10
4767.939366431689
 20
2545.464577125328
 30
0.0
 10
4767.940076021068
 20
2545.464577125328
 30
0.0
 10
4767.941703678689
 20
2545.464577125328
 30
0.0
 10
4767.943331336311
 20
2545.464577125328
 30
0.0
 10
4767.944958993932
 20
2545.464577125328
 30
0.0
 10
4767.947714423033
 20
2545.464577125328
 30
0.0
 10
4767.950469852131
 20
2545.464577125328
 30
0.0
 10
4767.953225281231
 20
2545.464577125328
 30
0.0
  0
SPLINE
  5
1806
330
1F
100
AcDbEntity
  8
SANINDUSA
100
AcDbSpline
210
0.0
220
0.0
230
1.0
 70
    24
 71
     3
 72
    34
 73
    30
 74
     0
 42
0.0000000001
 43
0.0000000001
 40
0.0
 40
0.0
 40
0.0
 40
0.0
 40
0.124999999999999
 40
0.124999999999999
 40
0.1874999999999989
 40
0.1874999999999989
 40
0.2187499999999993
 40
0.2187499999999993
 40
0.2499999999999998
 40
0.2499999999999998
 40
0.3750000000000024
 40
0.3750000000000024
 40
0.4375000000000039
 40
0.4375000000000039
 40
0.4687500000000041
 40
0.4687500000000041
 40
0.5000000000000044
 40
0.5000000000000044
 40
0.6250000000000046
 40
0.6250000000000046
 40
0.6875000000000047
 40
0.6875000000000047
 40
0.7500000000000049
 40
0.7500000000000049
 40
0.8750000000000024
 40
0.8750000000000024
 40
0.9375000000000012
 40
0.9375000000000012
 40
1.0
 40
1.0
 40
1.0
 40
1.0
 10
4768.040581740587
 20
2545.804577125328
 30
0.0
 10
4768.040581740587
 20
2545.804577125328
 30
0.0
 10
4768.040790902627
 20
2545.804577125328
 30
0.0
 10
4768.041405427888
 20
2545.804577125328
 30
0.0
 10
4768.041660703624
 20
2545.804577125328
 30
0.0
 10
4768.042120313751
 20
2545.804577125328
 30
0.0
 10
4768.042286318144
 20
2545.804577125328
 30
0.0
 10
4768.042644333328
 20
2545.804577125328
 30
0.0
 10
4768.042836883182
 20
2545.804577125328
 30
0.0
 10
4768.043857749135
 20
2545.804577125328
 30
0.0
 10
4768.044858712849
 20
2545.804577125328
 30
0.0
 10
4768.046627003189
 20
2545.804577125328
 30
0.0
 10
4768.047261171791
 20
2545.804577125328
 30
0.0
 10
4768.04828069383
 20
2545.804577125328
 30
0.0
 10
4768.048631929036
 20
2545.804577125328
 30
0.0
 10
4768.049357589497
 20
2545.804577125328
 30
0.0
 10
4768.049731828064
 20
2545.804577125328
 30
0.0
 10
4768.051642301703
 20
2545.804577125328
 30
0.0
 10
4768.053309579256
 20
2545.804577125328
 30
0.0
 10
4768.056013131928
 20
2545.804577125328
 30
0.0
 10
4768.056948285789
 20
2545.804577125328
 30
0.0
 10
4768.058887959997
 20
2545.804577125328
 30
0.0
 10
4768.059896088264
 20
2545.804577125328
 30
0.0
 10
4768.062968302184
 20
2545.804577125328
 30
0.0
 10
4768.065095373861
 20
2545.804577125328
 30
0.0
 10
4768.068402043142
 20
2545.804577125328
 30
0.0
 10
4768.069523720535
 20
2545.804577125328
 30
0.0
 10
4768.071806956482
 20
2545.804577125328
 30
0.0
 10
4768.07296809263
 20
2545.804577125328
 30
0.0
 10
4768.074135929931
 20
2545.804577125328
 30
0.0
  0
LINE
  5
1808
330
1F
100
AcDbEntity
  8
SANINDUSA
100
AcDbLine
 10
4768.232688098924
 20
2545.464577131527
 30
0.0
 11
4767.953225284593
 21
2545.464577131527
 31
0.0
  0
SPLINE
  5
180A
330
1F
100
AcDbEntity
  8
SANINDUSA
100
AcDbSpline
210
0.0
220
0.0
230
1.0
 70
    24
 71
     3
 72
    12
 73
     8
 74
     0
 42
0.0000000001
 43
0.0000000001
 40
0.0
 40
0.0
 40
0.0
 40
0.0
 40
0.0063358886310022
 40
0.2537379269515902
 40
0.5015395158001201
 40
0.7505625646458686
 40
1.0
 40
1.0
 40
1.0
 40
1.0
 10
4768.074135929124
 20
2545.804577123928
 30
0.0
 10
4768.074353777621
 20
2545.804577123928
 30
0.0
 10
4768.083078114382
 20
2545.804577123928
 30
0.0
 10
4768.100384298099
 20
2545.804577123928
 30
0.0
 10
4768.12618732577
 20
2545.804577123928
 30
0.0
 10
4768.152147466846
 20
2545.804577123928
 30
0.0
 10
4768.169515881193
 20
2545.804577123928
 30
0.0
 10
4768.178207307832
 20
2545.804577123928
 30
0.0
  0
SPLINE
  5
180B
330
1F
100
AcDbEntity
  8
SANINDUSA
100
AcDbSpline
210
0.0
220
0.0
230
1.0
 70
    24
 71
     3
 72
    14
 73
    10
 74
     0
 42
0.0000000001
 43
0.0000000001
 40
0.0
 40
0.0
 40
0.0
 40
0.0
 40
0.25
 40
0.25
 40
0.5
 40
0.5
 40
0.75
 40
0.75
 40
1.0
 40
1.0
 40
1.0
 40
1.0
 10
4768.178207309096
 20
2545.854577125328
 30
0.0
 10
4768.169066015206
 20
2545.854577125328
 30
0.0
 10
4768.159932778949
 20
2545.854577125328
 30
0.0
 10
4768.141682786683
 20
2545.854577125328
 30
0.0
 10
4768.132566032877
 20
2545.854577125328
 30
0.0
 10
4768.114348966605
 20
2545.854577125328
 30
0.0
 10
4768.105264350435
 20
2545.854577125328
 30
0.0
 10
4768.087143682872
 20
2545.854577125328
 30
0.0
 10
4768.078107681973
 20
2545.854577125328
 30
0.0
 10
4768.069096391754
 20
2545.854577125328
 30
0.0
  0
SPLINE
  5
180F
330
1F
100
AcDbEntity
  8
SANINDUSA
100
AcDbSpline
210
0.0
220
0.0
230
1.0
 70
     8
 71
     3
 72
    15
 73
    11
 74
     0
 42
0.0000000001
 43
0.0000000001
 40
0.0
 40
0.0
 40
0.0
 40
0.0
 40
0.0663414384441304
 40
0.1485690331544223
 40
0.2824899007065122
 40
0.41657101688874
 40
0.5818355728669605
 40
0.721051155743739
 40
0.8602912965986893
 40
1.0
 40
1.0
 40
1.0
 40
1.0
 10
4767.814813475833
 20
2545.819893133449
 30
0.0
 10
4767.814221606554
 20
2545.819994949236
 30
0.0
 10
4767.812896138662
 20
2545.820222961673
 30
0.0
 10
4767.810353382063
 20
2545.821001837724
 30
0.0
 10
4767.807348729622
 20
2545.822388660595
 30
0.0
 10
4767.80397793235
 20
2545.824705894955
 30
0.0
 10
4767.801065103511
 20
2545.827649420047
 30
0.0
 10
4767.7987564948
 20
2545.831105920481
 30
0.0
 10
4767.797110678556
 20
2545.83466227737
 30
0.0
 10
4767.796542027677
 20
2545.837187217954
 30
0.0
 10
4767.796257224643
 20
2545.838451808872
 30
0.0
  0
LINE
  5
1838
330
1F
100
AcDbEntity
  8
SANINDUSA
100
AcDbLine
 10
4767.56856342314
 20
2545.464577125328
 30
0.0
 11
4767.562350297459
 21
2545.687009647283
 31
0.0
  0
ARC
  5
1839
330
1F
100
AcDbEntity
  8
SANINDUSA
100
AcDbCircle
 10
4767.055816319445
 20
2546.016543084615
 30
0.0
 40
0.6000206050928387
100
AcDbArc
 50
328.2530873687222
 51
343.703664593257
  0
LINE
  5
1866
330
1F
100
AcDbEntity
  8
SANINDUSA
100
AcDbLine
 10
4767.936580679685
 20
2545.464577125328
 30
0.0
 11
4767.941094279067
 21
2545.59957712199
 31
0.0
  0
LINE
  5
187E
330
1F
100
AcDbEntity
  8
SANINDUSA
100
AcDbLine
 10
4768.031625658052
 20
2545.854577125138
 30
0.0
 11
4768.069096391754
 21
2545.854577125328
 31
0.0
  0
LINE
  5
1882
330
1F
100
AcDbEntity
  8
SANINDUSA
100
AcDbLine
 10
4768.178207309096
 20
2545.854577125328
 30
0.0
 11
4768.361035751286
 21
2545.854577125328
 31
0.0
  0
SPLINE
  5
1D91
330
1F
100
AcDbEntity
  8
SANINDUSA
100
AcDbSpline
210
0.0
220
0.0
230
1.0
 70
     8
 71
     3
 72
    47
 73
    43
 74
     0
 42
0.0000000001
 43
0.0000000001
 40
0.0
 40
0.0
 40
0.0
 40
0.0
 40
0.0175812048770741
 40
0.0383526769395233
 40
0.0591066298369519
 40
0.0800975790816109
 40
0.1013107464268483
 40
0.122726764798355
 40
0.1443198517266174
 40
0.1660581958771263
 40
0.187904451531932
 40
0.2098158523169394
 40
0.2317789321911994
 40
0.2541067418728292
 40
0.2768335039008941
 40
0.2999438161928118
 40
0.3234119321106555
 40
0.3472008686687134
 40
0.3712617043674403
 40
0.3955337992506658
 40
0.4200031199651501
 40
0.4450464876698359
 40
0.4704736001022647
 40
0.4962628268009976
 40
0.5224078975901266
 40
0.5488955378789803
 40
0.575706338045202
 40
0.6027945533300846
 40
0.630145579175739
 40
0.6577615712579979
 40
0.6856054417274123
 40
0.7136985581284297
 40
0.7420591694265497
 40
0.7707030988294232
 40
0.7996430936537854
 40
0.8288887329852771
 40
0.8584465664793594
 40
0.8883191130154374
 40
0.9185054243094644
 40
0.9490003804722887
 40
0.9797028184391042
 40
1.0
 40
1.0
 40
1.0
 40
1.0
 10
4766.205911419432
 20
2545.497016569179
 30
0.0
 10
4766.207735580321
 20
2545.497028385458
 30
0.0
 10
4766.211714912443
 20
2545.497054162185
 30
0.0
 10
4766.217835869835
 20
2545.497479119561
 30
0.0
 10
4766.224281991796
 20
2545.498207100816
 30
0.0
 10
4766.230731247371
 20
2545.499255725874
 30
0.0
 10
4766.237191460699
 20
2545.500617676327
 30
0.0
 10
4766.24364164295
 20
2545.502295421731
 30
0.0
 10
4766.250059300737
 20
2545.504285871358
 30
0.0
 10
4766.256420321343
 20
2545.506585332881
 30
0.0
 10
4766.262699527275
 20
2545.509187189675
 30
0.0
 10
4766.268873180258
 20
2545.512085761617
 30
0.0
 10
4766.274952633481
 20
2545.515285448923
 30
0.0
 10
4766.280958559137
 20
2545.518791851662
 30
0.0
 10
4766.286907229607
 20
2545.522619194163
 30
0.0
 10
4766.292784231505
 20
2545.526764445078
 30
0.0
 10
4766.298569344209
 20
2545.5312199498
 30
0.0
 10
4766.304240127608
 20
2545.535975022041
 30
0.0
 10
4766.309772493208
 20
2545.541015150368
 30
0.0
 10
4766.315143810536
 20
2545.546327437702
 30
0.0
 10
4766.320365855387
 20
2545.551926587287
 30
0.0
 10
4766.325442761739
 20
2545.557816764363
 30
0.0
 10
4766.330371490908
 20
2545.564007486418
 30
0.0
 10
4766.335126401253
 20
2545.570475065764
 30
0.0
 10
4766.339694221686
 20
2545.577209445527
 30
0.0
 10
4766.344062628003
 20
2545.584200119554
 30
0.0
 10
4766.348217553173
 20
2545.591432789183
 30
0.0
 10
4766.352146163785
 20
2545.598892185641
 30
0.0
 10
4766.355838429359
 20
2545.606564146043
 30
0.0
 10
4766.359282900208
 20
2545.614436152835
 30
0.0
 10
4766.362471814225
 20
2545.622497930165
 30
0.0
 10
4766.365398621691
 20
2545.630740519897
 30
0.0
 10
4766.368059191536
 20
2545.639159921445
 30
0.0
 10
4766.370448975973
 20
2545.647751355646
 30
0.0
 10
4766.372563268357
 20
2545.656509163715
 30
0.0
 10
4766.374397190845
 20
2545.665426730611
 30
0.0
 10
4766.375946035282
 20
2545.674496369514
 30
0.0
 10
4766.377204112635
 20
2545.683709304238
 30
0.0
 10
4766.378169642136
 20
2545.693055387129
 30
0.0
 10
4766.378826400808
 20
2545.702514092457
 30
0.0
 10
4766.379167816852
 20
2545.710963113038
 30
0.0
 10
4766.379223789814
 20
2545.716253634188
 30
0.0
 10
4766.379246066321
 20
2545.718359192413
 30
0.0
  0
SPLINE
  5
1D92
330
1F
100
AcDbEntity
  8
SANINDUSA
100
AcDbSpline
210
0.0
220
0.0
230
1.0
 70
     8
 71
     3
 72
    24
 73
    20
 74
     0
 42
0.0000000001
 43
0.0000000001
 40
0.0
 40
0.0
 40
0.0
 40
0.0
 40
0.0265714812932658
 40
0.0694806229183585
 40
0.1177345415177108
 40
0.1749047859426536
 40
0.2359306880199391
 40
0.3003625388451872
 40
0.3648201872344583
 40
0.4292630253873528
 40
0.493650507271739
 40
0.5579478227079362
 40
0.6221205242648656
 40
0.68614410305005
 40
0.7501567460903909
 40
0.8140391093049498
 40
0.877799230823677
 40
0.9328597205520823
 40
0.9784553094527863
 40
0.9784553094527863
 40
0.9784553094527863
 40
0.9784553094527863
 10
4766.37926439475
 20
2545.718359758657
 30
0.0
 10
4766.379293215024
 20
2545.720781943525
 30
0.0
 10
4766.379368575919
 20
2545.727115610498
 30
0.0
 10
4766.379179592379
 20
2545.737848281579
 30
0.0
 10
4766.378735881036
 20
2545.751363195568
 30
0.0
 10
4766.378052801061
 20
2545.76652189927
 30
0.0
 10
4766.377120461489
 20
2545.783144868777
 30
0.0
 10
4766.375823354687
 20
2545.80041011854
 30
0.0
 10
4766.374195629799
 20
2545.817959970214
 30
0.0
 10
4766.372252080628
 20
2545.835473690529
 30
0.0
 10
4766.369996945594
 20
2545.852935250655
 30
0.0
 10
4766.367431740111
 20
2545.870329079513
 30
0.0
 10
4766.364559153674
 20
2545.887641177519
 30
0.0
 10
4766.361378699958
 20
2545.904872951783
 30
0.0
 10
4766.357894224148
 20
2545.922018908782
 30
0.0
 10
4766.354100018173
 20
2545.939074181022
 30
0.0
 10
4766.35020391858
 20
2545.955268671411
 30
0.0
 10
4766.346401499016
 20
2545.969767060026
 30
0.0
 10
4766.343969230653
 20
2545.978615422006
 30
0.0
 10
4766.342825544782
 20
2545.982611502003
 30
0.0
  0
SPLINE
  5
1D93
330
1F
100
AcDbEntity
  8
SANINDUSA
100
AcDbSpline
210
0.0
220
0.0
230
1.0
 70
     8
 71
     3
 72
    47
 73
    43
 74
     0
 42
0.0000000001
 43
0.0000000001
 40
0.0
 40
0.0
 40
0.0
 40
0.0
 40
0.0048259351180456
 40
0.0375497796437167
 40
0.0668229167468078
 40
0.0977732611077073
 40
0.1283846149710935
 40
0.1586838010278189
 40
0.1886674446910356
 40
0.2183361557788171
 40
0.2476946936005413
 40
0.2767518400271004
 40
0.3055195950328068
 40
0.3340134545674527
 40
0.3622519585641462
 40
0.3902564599983574
 40
0.4180507361541902
 40
0.4455901533810423
 40
0.4727457809734656
 40
0.4995836816155046
 40
0.5260805833200932
 40
0.5522200650637936
 40
0.5779931935367764
 40
0.6033975366053215
 40
0.628525532072089
 40
0.653166115530413
 40
0.6775998890972196
 40
0.7017601597718589
 40
0.7255916199726446
 40
0.7490525052600747
 40
0.7721140094124311
 40
0.7947605200174744
 40
0.8170048586636468
 40
0.839009567601443
 40
0.8609634587855836
 40
0.8828233921614422
 40
0.904550187189238
 40
0.926110257020923
 40
0.9474763876490921
 40
0.9686281025749648
 40
0.9895495865485949
 40
1.0
 40
1.0
 40
1.0
 40
1.0
 10
4766.032565127124
 20
2545.718360473913
 30
0.0
 10
4766.032565851538
 20
2545.717859828721
 30
0.0
 10
4766.032571488078
 20
2545.71396439371
 30
0.0
 10
4766.032800107423
 20
2545.707034057969
 30
0.0
 10
4766.033306900739
 20
2545.697404396146
 30
0.0
 10
4766.034134843428
 20
2545.688015421305
 30
0.0
 10
4766.035281593283
 20
2545.678553418339
 30
0.0
 10
4766.036734940539
 20
2545.669234844301
 30
0.0
 10
4766.038487517191
 20
2545.660067494232
 30
0.0
 10
4766.040534929834
 20
2545.651061450746
 30
0.0
 10
4766.042871631458
 20
2545.642225468069
 30
0.0
 10
4766.04549230188
 20
2545.633567089219
 30
0.0
 10
4766.048391708299
 20
2545.625092755943
 30
0.0
 10
4766.051564635098
 20
2545.616807850277
 30
0.0
 10
4766.055006280907
 20
2545.608716874121
 30
0.0
 10
4766.058712027366
 20
2545.600823492289
 30
0.0
 10
4766.062673935201
 20
2545.59313700425
 30
0.0
 10
4766.066877402492
 20
2545.585680796988
 30
0.0
 10
4766.071308369769
 20
2545.578473694319
 30
0.0
 10
4766.075951864274
 20
2545.571531365437
 30
0.0
 10
4766.080799215102
 20
2545.564859642852
 30
0.0
 10
4766.085836980624
 20
2545.558470541266
 30
0.0
 10
4766.091052385028
 20
2545.552373986561
 30
0.0
 10
4766.096438597443
 20
2545.546570072164
 30
0.0
 10
4766.101978859848
 20
2545.541078523795
 30
0.0
 10
4766.107671618796
 20
2545.535893692991
 30
0.0
 10
4766.113500712621
 20
2545.531017645038
 30
0.0
 10
4766.119466162099
 20
2545.526446044152
 30
0.0
 10
4766.125541503121
 20
2545.522195161945
 30
0.0
 10
4766.131702074958
 20
2545.518277190178
 30
0.0
 10
4766.137925725887
 20
2545.514700887459
 30
0.0
 10
4766.144194083517
 20
2545.51147026513
 30
0.0
 10
4766.150507492367
 20
2545.508583052232
 30
0.0
 10
4766.156881722025
 20
2545.506019725375
 30
0.0
 10
4766.163330500002
 20
2545.50376835792
 30
0.0
 10
4766.16984978136
 20
2545.501828955679
 30
0.0
 10
4766.176413528047
 20
2545.500208160757
 30
0.0
 10
4766.182996633489
 20
2545.498912234576
 30
0.0
 10
4766.189575413882
 20
2545.497937944156
 30
0.0
 10
4766.196127674893
 20
2545.497307432398
 30
0.0
 10
4766.20157226162
 20
2545.497001951145
 30
0.0
 10
4766.204827087004
 20
2545.497026150885
 30
0.0
 10
4766.205911314409
 20
2545.497034212154
 30
0.0
  0
SPLINE
  5
1D94
330
1F
100
AcDbEntity
  8
SANINDUSA
100
AcDbSpline
210
0.0
220
0.0
230
1.0
 70
     8
 71
     3
 72
    24
 73
    20
 74
     0
 42
0.0000000001
 43
0.0000000001
 40
0.0215052660826463
 40
0.0215052660826463
 40
0.0215052660826463
 40
0.0215052660826463
 40
0.0605782785334515
 40
0.1161223411410445
 40
0.1743500541609131
 40
0.236389915488038
 40
0.3000700947742971
 40
0.3639042886042118
 40
0.4279422021500451
 40
0.4920180116171497
 40
0.5562360758428485
 40
0.6205623575582484
 40
0.6849624462043922
 40
0.7494013463747038
 40
0.8138413662511334
 40
0.8781919966032878
 40
0.9288073041405745
 40
0.9733729060713065
 40
1.0
 40
1.0
 40
1.0
 40
1.0
 10
4766.068993226645
 20
2545.982623971328
 30
0.0
 10
4766.068018342945
 20
2545.979198024041
 30
0.0
 10
4766.065730448301
 20
2545.97088090695
 30
0.0
 10
4766.062160326152
 20
2545.95741227642
 30
0.0
 10
4766.058374028098
 20
2545.941837698888
 30
0.0
 10
4766.054673323059
 20
2545.925481624808
 30
0.0
 10
4766.05116672798
 20
2545.908560232286
 30
0.0
 10
4766.047929997223
 20
2545.891399855937
 30
0.0
 10
4766.044997324157
 20
2545.8741482864
 30
0.0
 10
4766.042370056513
 20
2545.856812193724
 30
0.0
 10
4766.040050781212
 20
2545.839405701062
 30
0.0
 10
4766.038039989971
 20
2545.821931103379
 30
0.0
 10
4766.036341696466
 20
2545.80440320517
 30
0.0
 10
4766.034952222931
 20
2545.78683758222
 30
0.0
 10
4766.033894673507
 20
2545.769253595959
 30
0.0
 10
4766.033147634645
 20
2545.752915316339
 30
0.0
 10
4766.032653610806
 20
2545.738380738751
 30
0.0
 10
4766.032451816124
 20
2545.727276702605
 30
0.0
 10
4766.032530530872
 20
2545.720786978986
 30
0.0
 10
4766.032559971322
 20
2545.718359728855
 30
0.0
  0
SPLINE
  5
1D95
330
1F
100
AcDbEntity
  8
SANINDUSA
100
AcDbSpline
210
0.0
220
0.0
230
1.0
 70
     8
 71
     3
 72
    27
 73
    23
 74
     0
 42
0.0000000001
 43
0.0000000001
 40
0.0
 40
0.0
 40
0.0
 40
0.0
 40
0.0648314662927775
 40
0.1298966124876908
 40
0.1950206302910434
 40
0.2600464966605154
 40
0.3248448416939392
 40
0.3865201434895218
 40
0.4483877274204784
 40
0.5102058599686785
 40
0.5718135180094148
 40
0.6176609221006716
 40
0.6636491663879321
 40
0.709598677224642
 40
0.7553928320269706
 40
0.7917630342691274
 40
0.8282530852041125
 40
0.8647192474687754
 40
0.9010566421359282
 40
0.9467073389638416
 40
0.9733537698478111
 40
1.0
 40
1.0
 40
1.0
 40
1.0
 10
4766.335792775263
 20
2545.718360831541
 30
0.0
 10
4766.335692207059
 20
2545.713114053899
 30
0.0
 10
4766.33549070816
 20
2545.702601587022
 30
0.0
 10
4766.333864296441
 20
2545.686887808049
 30
0.0
 10
4766.331260121989
 20
2545.671298500264
 30
0.0
 10
4766.327574253057
 20
2545.655946729972
 30
0.0
 10
4766.322892183436
 20
2545.641161606622
 30
0.0
 10
4766.317236245435
 20
2545.626995970195
 30
0.0
 10
4766.310646824646
 20
2545.61350603326
 30
0.0
 10
4766.303009988534
 20
2545.600584539507
 30
0.0
 10
4766.295049194502
 20
2545.589415185738
 30
0.0
 10
4766.287036008965
 20
2545.579918145043
 30
0.0
 10
4766.279229801059
 20
2545.571942837321
 30
0.0
 10
4766.270821415001
 20
2545.564609926377
 30
0.0
 10
4766.262445342898
 20
2545.558477729395
 30
0.0
 10
4766.254240282836
 20
2545.553474891332
 30
0.0
 10
4766.246344145909
 20
2545.549466104193
 30
0.0
 10
4766.238150459145
 20
2545.546111537657
 30
0.0
 10
4766.228987993336
 20
2545.5432552438
 30
0.0
 10
4766.220348602737
 20
2545.541528738756
 30
0.0
 10
4766.212381007512
 20
2545.540661069666
 30
0.0
 10
4766.208067876268
 20
2545.540573243626
 30
0.0
 10
4766.205911318769
 20
2545.540529330772
 30
0.0
  0
SPLINE
  5
1D96
330
1F
100
AcDbEntity
  8
SANINDUSA
100
AcDbSpline
210
0.0
220
0.0
230
1.0
 70
     8
 71
     3
 72
    27
 73
    23
 74
     0
 42
0.0000000001
 43
0.0000000001
 40
0.0
 40
0.0
 40
0.0
 40
0.0
 40
0.0648314662927775
 40
0.1298966124876908
 40
0.1950206302910434
 40
0.2600464966605154
 40
0.3248448416939392
 40
0.3865201434895218
 40
0.4483877274204784
 40
0.5102058599686785
 40
0.5718135180094148
 40
0.6176609221006716
 40
0.6636491663879321
 40
0.709598677224642
 40
0.7553928320269706
 40
0.7917630342691274
 40
0.8282530852041125
 40
0.8647192474687754
 40
0.9010566421359282
 40
0.9467073389638416
 40
0.9733537698478111
 40
1.0
 40
1.0
 40
1.0
 40
1.0
 10
4766.076029862275
 20
2545.718360831541
 30
0.0
 10
4766.076130430479
 20
2545.713114053899
 30
0.0
 10
4766.076331929379
 20
2545.702601587022
 30
0.0
 10
4766.077958341098
 20
2545.686887808049
 30
0.0
 10
4766.080562515548
 20
2545.671298500264
 30
0.0
 10
4766.084248384481
 20
2545.655946729972
 30
0.0
 10
4766.088930454102
 20
2545.641161606622
 30
0.0
 10
4766.094586392102
 20
2545.626995970195
 30
0.0
 10
4766.101175812893
 20
2545.61350603326
 30
0.0
 10
4766.108812649004
 20
2545.600584539507
 30
0.0
 10
4766.116773443036
 20
2545.589415185738
 30
0.0
 10
4766.124786628572
 20
2545.579918145043
 30
0.0
 10
4766.132592836479
 20
2545.571942837321
 30
0.0
 10
4766.141001222536
 20
2545.564609926377
 30
0.0
 10
4766.149377294638
 20
2545.558477729395
 30
0.0
 10
4766.157582354701
 20
2545.553474891332
 30
0.0
 10
4766.165478491628
 20
2545.549466104193
 30
0.0
 10
4766.173672178393
 20
2545.546111537657
 30
0.0
 10
4766.182834644201
 20
2545.5432552438
 30
0.0
 10
4766.1914740348
 20
2545.541528738756
 30
0.0
 10
4766.199441630025
 20
2545.540661069666
 30
0.0
 10
4766.20375476127
 20
2545.540573243626
 30
0.0
 10
4766.205911318769
 20
2545.540529330772
 30
0.0
  0
SPLINE
  5
1D97
330
1F
100
AcDbEntity
  8
SANINDUSA
100
AcDbSpline
210
0.0
220
0.0
230
1.0
 70
     8
 71
     3
 72
    14
 73
    10
 74
     0
 42
0.0000000001
 43
0.0000000001
 40
0.0
 40
0.0
 40
0.0
 40
0.0
 40
0.25
 40
0.25
 40
0.5
 40
0.5
 40
0.75
 40
0.75
 40
1.0
 40
1.0
 40
1.0
 40
1.0
 10
4766.326627838396
 20
2545.826631330638
 30
0.0
 10
4766.328153189521
 20
2545.817691084178
 30
0.0
 10
4766.329486328856
 20
2545.808726324564
 30
0.0
 10
4766.331774097468
 20
2545.79074853319
 30
0.0
 10
4766.332730954013
 20
2545.781735596451
 30
0.0
 10
4766.334265322518
 20
2545.763662104397
 30
0.0
 10
4766.334840256543
 20
2545.754614943724
 30
0.0
 10
4766.335604011398
 20
2545.736499705719
 30
0.0
 10
4766.335792778247
 20
2545.72743014953
 30
0.0
 10
4766.335792778636
 20
2545.718360830061
 30
0.0
  0
SPLINE
  5
1D98
330
1F
100
AcDbEntity
  8
SANINDUSA
100
AcDbSpline
210
0.0
220
0.0
230
1.0
 70
     8
 71
     3
 72
    36
 73
    32
 74
     0
 42
0.0000000001
 43
0.0000000001
 40
0.0
 40
0.0
 40
0.0
 40
0.0
 40
0.0625000000000006
 40
0.0625000000000006
 40
0.1250000000000012
 40
0.1250000000000012
 40
0.2500000000000022
 40
0.2500000000000022
 40
0.2812500000000024
 40
0.2812500000000024
 40
0.3125000000000027
 40
0.3125000000000027
 40
0.3750000000000034
 40
0.3750000000000034
 40
0.5000000000000054
 40
0.5000000000000054
 40
0.5312500000000055
 40
0.5312500000000055
 40
0.5625000000000055
 40
0.5625000000000055
 40
0.6250000000000057
 40
0.6250000000000057
 40
0.7500000000000064
 40
0.7500000000000064
 40
0.7812500000000058
 40
0.7812500000000058
 40
0.8125000000000049
 40
0.8125000000000049
 40
0.8750000000000033
 40
0.8750000000000033
 40
1.0
 40
1.0
 40
1.0
 40
1.0
 10
4766.287269817083
 20
2545.859961514341
 30
0.0
 10
4766.288448690796
 20
2545.859961776134
 30
0.0
 10
4766.289629308928
 20
2545.85990936108
 30
0.0
 10
4766.291964212093
 20
2545.859702264288
 30
0.0
 10
4766.293120347024
 20
2545.859547863176
 30
0.0
 10
4766.296555562111
 20
2545.858935517933
 30
0.0
 10
4766.298801705517
 20
2545.858329568603
 30
0.0
 10
4766.30155306457
 20
2545.857319050396
 30
0.0
 10
4766.302101604525
 20
2545.857103732007
 30
0.0
 10
4766.303187619662
 20
2545.856649310645
 30
0.0
 10
4766.303723633557
 20
2545.85641088414
 30
0.0
 10
4766.305311085415
 20
2545.855662584526
 30
0.0
 10
4766.306341972818
 20
2545.855119754282
 30
0.0
 10
4766.309354018519
 20
2545.853361978077
 30
0.0
 10
4766.311255181046
 20
2545.85201874212
 30
0.0
 10
4766.31349412053
 20
2545.850119165159
 30
0.0
 10
4766.313935850365
 20
2545.849727278481
 30
0.0
 10
4766.314797270396
 20
2545.848928350512
 30
0.0
 10
4766.315217753028
 20
2545.848520708024
 30
0.0
 10
4766.316449046882
 20
2545.84727366736
 30
0.0
 10
4766.317229761073
 20
2545.846410201574
 30
0.0
 10
4766.319453512213
 20
2545.843725130471
 30
0.0
 10
4766.320779078354
 20
2545.841809587593
 30
0.0
 10
4766.322233019531
 20
2545.839252813355
 30
0.0
 10
4766.322513174554
 20
2545.838733848102
 30
0.0
 10
4766.323047601107
 20
2545.837689785086
 30
0.0
 10
4766.323302580469
 20
2545.837163468834
 30
0.0
 10
4766.324031388619
 20
2545.835571866111
 30
0.0
 10
4766.324469155219
 20
2545.834493949403
 30
0.0
 10
4766.325640151348
 20
2545.831210359566
 30
0.0
 10
4766.32623219806
 20
2545.828955239285
 30
0.0
 10
4766.326627838396
 20
2545.826631330638
 30
0.0
  0
LINE
  5
1D99
330
1F
100
AcDbEntity
  8
SANINDUSA
100
AcDbLine
 10
4766.287269818593
 20
2545.859961514872
 30
0.0
 11
4766.124552818943
 21
2545.859961514872
 31
0.0
  0
SPLINE
  5
1D9A
330
1F
100
AcDbEntity
  8
SANINDUSA
100
AcDbSpline
210
0.0
220
0.0
230
1.0
 70
     8
 71
     3
 72
    36
 73
    32
 74
     0
 42
0.0000000001
 43
0.0000000001
 40
0.0
 40
0.0
 40
0.0
 40
0.0
 40
0.0625000000000006
 40
0.0625000000000006
 40
0.1250000000000012
 40
0.1250000000000012
 40
0.2500000000000022
 40
0.2500000000000022
 40
0.2812500000000024
 40
0.2812500000000024
 40
0.3125000000000027
 40
0.3125000000000027
 40
0.3750000000000034
 40
0.3750000000000034
 40
0.5000000000000054
 40
0.5000000000000054
 40
0.5312500000000055
 40
0.5312500000000055
 40
0.5625000000000055
 40
0.5625000000000055
 40
0.6250000000000057
 40
0.6250000000000057
 40
0.7500000000000064
 40
0.7500000000000064
 40
0.7812500000000058
 40
0.7812500000000058
 40
0.8125000000000049
 40
0.8125000000000049
 40
0.8750000000000033
 40
0.8750000000000033
 40
1.0
 40
1.0
 40
1.0
 40
1.0
 10
4766.124552820455
 20
2545.859961514341
 30
0.0
 10
4766.123373946742
 20
2545.859961776134
 30
0.0
 10
4766.12219332861
 20
2545.85990936108
 30
0.0
 10
4766.119858425446
 20
2545.859702264288
 30
0.0
 10
4766.118702290513
 20
2545.859547863176
 30
0.0
 10
4766.115267075426
 20
2545.858935517933
 30
0.0
 10
4766.11302093202
 20
2545.858329568603
 30
0.0
 10
4766.110269572968
 20
2545.857319050396
 30
0.0
 10
4766.109721033013
 20
2545.857103732007
 30
0.0
 10
4766.108635017874
 20
2545.856649310645
 30
0.0
 10
4766.108099003981
 20
2545.85641088414
 30
0.0
 10
4766.106511552123
 20
2545.855662584526
 30
0.0
 10
4766.10548066472
 20
2545.855119754282
 30
0.0
 10
4766.102468619017
 20
2545.853361978077
 30
0.0
 10
4766.100567456493
 20
2545.85201874212
 30
0.0
 10
4766.098328517006
 20
2545.850119165159
 30
0.0
 10
4766.097886787172
 20
2545.849727278481
 30
0.0
 10
4766.097025367141
 20
2545.848928350512
 30
0.0
 10
4766.096604884509
 20
2545.848520708024
 30
0.0
 10
4766.095373590655
 20
2545.84727366736
 30
0.0
 10
4766.094592876465
 20
2545.846410201574
 30
0.0
 10
4766.092369125323
 20
2545.843725130471
 30
0.0
 10
4766.091043559185
 20
2545.841809587593
 30
0.0
 10
4766.089589618007
 20
2545.839252813355
 30
0.0
 10
4766.089309462983
 20
2545.838733848102
 30
0.0
 10
4766.08877503643
 20
2545.837689785086
 30
0.0
 10
4766.088520057068
 20
2545.837163468834
 30
0.0
 10
4766.087791248918
 20
2545.835571866111
 30
0.0
 10
4766.087353482318
 20
2545.834493949403
 30
0.0
 10
4766.08618248619
 20
2545.831210359566
 30
0.0
 10
4766.085590439478
 20
2545.828955239285
 30
0.0
 10
4766.085194799141
 20
2545.826631330638
 30
0.0
  0
SPLINE
  5
1D9B
330
1F
100
AcDbEntity
  8
SANINDUSA
100
AcDbSpline
210
0.0
220
0.0
230
1.0
 70
     8
 71
     3
 72
    14
 73
    10
 74
     0
 42
0.0000000001
 43
0.0000000001
 40
0.0
 40
0.0
 40
0.0
 40
0.0
 40
0.25
 40
0.25
 40
0.5
 40
0.5
 40
0.75
 40
0.75
 40
1.0
 40
1.0
 40
1.0
 40
1.0
 10
4766.085194799141
 20
2545.826631330638
 30
0.0
 10
4766.083669448017
 20
2545.817691084178
 30
0.0
 10
4766.082336308681
 20
2545.808726324564
 30
0.0
 10
4766.08004854007
 20
2545.79074853319
 30
0.0
 10
4766.079091683525
 20
2545.781735596451
 30
0.0
 10
4766.07755731502
 20
2545.763662104397
 30
0.0
 10
4766.076982380994
 20
2545.754614943724
 30
0.0
 10
4766.076218626139
 20
2545.736499705719
 30
0.0
 10
4766.076029859291
 20
2545.72743014953
 30
0.0
 10
4766.076029858901
 20
2545.718360830061
 30
0.0
  0
ARC
  5
1D9C
330
1F
100
AcDbEntity
  8
SANINDUSA
100
AcDbCircle
 10
4766.203887726272
 20
2545.720764261504
 30
0.0
 40
0.039916615655668
100
AcDbArc
 50
282.0535799901177
 51
358.7682567290196
  0
ARC
  5
1D9D
330
1F
100
AcDbEntity
  8
SANINDUSA
100
AcDbCircle
 10
4766.207934911267
 20
2545.720764261504
 30
0.0
 40
0.0399166156556669
100
AcDbArc
 50
181.2317432709804
 51
257.9464200098824
  0
SPLINE
  5
1D9E
330
1F
100
AcDbEntity
  8
SANINDUSA
100
AcDbSpline
210
0.0
220
0.0
230
1.0
 70
     8
 71
     3
 72
    10
 73
     6
 74
     0
 42
0.0000000001
 43
0.0000000001
 40
0.0
 40
0.0
 40
0.0
 40
0.0
 40
0.5
 40
0.5
 40
1.0
 40
1.0
 40
1.0
 40
1.0
 10
4766.199599271615
 20
2545.681727699111
 30
0.0
 10
4766.201671675796
 20
2545.681284279582
 30
0.0
 10
4766.203791461685
 20
2545.681060067778
 30
0.0
 10
4766.208031175852
 20
2545.681060067778
 30
0.0
 10
4766.210150961741
 20
2545.681284279582
 30
0.0
 10
4766.212223365921
 20
2545.681727699111
 30
0.0
  0
SPLINE
  5
1D9F
330
1F
100
AcDbEntity
  8
SANINDUSA
100
AcDbSpline
210
0.0
220
0.0
230
1.0
 70
     8
 71
     3
 72
    16
 73
    12
 74
     0
 42
0.0000000001
 43
0.0000000001
 40
0.0
 40
0.0
 40
0.0
 40
0.0
 40
0.1097776115823403
 40
0.2195468694329216
 40
0.3260168419743399
 40
0.4324828051244123
 40
0.5376182986824917
 40
0.6427574252650082
 40
0.7476729240738895
 40
0.8525978177945164
 40
1.0
 40
1.0
 40
1.0
 40
1.0
 10
4766.229307507162
 20
2545.754683037799
 30
0.0
 10
4766.230170133456
 20
2545.754639642468
 30
0.0
 10
4766.231895320404
 20
2545.754552855107
 30
0.0
 10
4766.234380145607
 20
2545.753870358931
 30
0.0
 10
4766.236685522778
 20
2545.752803993574
 30
0.0
 10
4766.238749906333
 20
2545.751379137394
 30
0.0
 10
4766.240528676568
 20
2545.749626042969
 30
0.0
 10
4766.241990519776
 20
2545.74761115019
 30
0.0
 10
4766.243079312355
 20
2545.745376264342
 30
0.0
 10
4766.243925196896
 20
2545.742672084179
 30
0.0
 10
4766.244016977032
 20
2545.740677062897
 30
0.0
 10
4766.244070592334
 20
2545.739511629146
 30
0.0
  0
SPLINE
  5
1DA0
330
1F
100
AcDbEntity
  8
SANINDUSA
100
AcDbSpline
210
0.0
220
0.0
230
1.0
 70
     8
 71
     3
 72
    16
 73
    12
 74
     0
 42
0.0000000001
 43
0.0000000001
 40
0.0
 40
0.0
 40
0.0
 40
0.0
 40
0.1097776115823403
 40
0.2195468694329216
 40
0.3260168419743399
 40
0.4324828051244123
 40
0.5376182986824917
 40
0.6427574252650082
 40
0.7476729240738895
 40
0.8525978177945164
 40
1.0
 40
1.0
 40
1.0
 40
1.0
 10
4766.182515130376
 20
2545.754683037799
 30
0.0
 10
4766.181652504081
 20
2545.754639642468
 30
0.0
 10
4766.179927317135
 20
2545.754552855107
 30
0.0
 10
4766.177442491932
 20
2545.753870358931
 30
0.0
 10
4766.17513711476
 20
2545.752803993574
 30
0.0
 10
4766.173072731204
 20
2545.751379137394
 30
0.0
 10
4766.17129396097
 20
2545.749626042969
 30
0.0
 10
4766.169832117761
 20
2545.74761115019
 30
0.0
 10
4766.168743325183
 20
2545.745376264342
 30
0.0
 10
4766.167897440641
 20
2545.742672084179
 30
0.0
 10
4766.167805660506
 20
2545.740677062897
 30
0.0
 10
4766.167752045204
 20
2545.739511629146
 30
0.0
  0
SPLINE
  5
1DA1
330
1F
100
AcDbEntity
  8
SANINDUSA
100
AcDbSpline
210
0.0
220
0.0
230
1.0
 70
     8
 71
     3
 72
    11
 73
     7
 74
     0
 42
0.0000000001
 43
0.0000000001
 40
0.0
 40
0.0
 40
0.0
 40
0.0
 40
0.2628577529030001
 40
0.5329892369426858
 40
0.7586336272956595
 40
1.0
 40
1.0
 40
1.0
 40
1.0
 10
4766.20801283349
 20
2545.7546355627
 30
0.0
 10
4766.209880259085
 20
2545.754650571963
 30
0.0
 10
4766.213666785186
 20
2545.754681005824
 30
0.0
 10
4766.219057483211
 20
2545.754659640362
 30
0.0
 10
4766.224289213332
 20
2545.754678452505
 30
0.0
 10
4766.2275976166
 20
2545.754681475445
 30
0.0
 10
4766.229307507162
 20
2545.754683037799
 30
0.0
  0
SPLINE
  5
1DA2
330
1F
100
AcDbEntity
  8
SANINDUSA
100
AcDbSpline
210
0.0
220
0.0
230
1.0
 70
     8
 71
     3
 72
    11
 73
     7
 74
     0
 42
0.0000000001
 43
0.0000000001
 40
0.0
 40
0.0
 40
0.0
 40
0.0
 40
0.2628577529030001
 40
0.5329892369426858
 40
0.7586336272956595
 40
1.0
 40
1.0
 40
1.0
 40
1.0
 10
4766.203809804047
 20
2545.7546355627
 30
0.0
 10
4766.201942378454
 20
2545.754650571963
 30
0.0
 10
4766.198155852351
 20
2545.754681005824
 30
0.0
 10
4766.192765154327
 20
2545.754659640362
 30
0.0
 10
4766.187533424206
 20
2545.754678452505
 30
0.0
 10
4766.184225020938
 20
2545.754681475445
 30
0.0
 10
4766.182515130376
 20
2545.754683037799
 30
0.0
  0
SPLINE
  5
1DA3
330
1F
100
AcDbEntity
  8
SANINDUSA
100
AcDbSpline
210
0.0
220
0.0
230
1.0
 70
    24
 71
     1
 72
     4
 73
     2
 74
     0
 42
0.0000000001
 43
0.0000000001
 40
0.0
 40
0.0
 40
1.0
 40
1.0
 10
4766.20801283349
 20
2545.7546355627
 30
0.0
 10
4766.205911318769
 20
2545.754625102084
 30
0.0
  0
SPLINE
  5
1DA4
330
1F
100
AcDbEntity
  8
SANINDUSA
100
AcDbSpline
210
0.0
220
0.0
230
1.0
 70
    24
 71
     1
 72
     4
 73
     2
 74
     0
 42
0.0000000001
 43
0.0000000001
 40
0.0
 40
0.0
 40
1.0
 40
1.0
 10
4766.205911318769
 20
2545.754625102084
 30
0.0
 10
4766.203809804047
 20
2545.7546355627
 30
0.0
  0
ELLIPSE
  5
1DA5
330
1F
100
AcDbEntity
  8
SANINDUSA
100
AcDbEllipse
 10
4766.244370647791
 20
2545.749741862692
 30
0.0
 11
-0.0005238115180411
 21
-0.0299999986071336
 31
0.0
210
0.0
220
0.0
230
1.0
 40
0.0174524048171845
 41
4.942034496596837
 42
6.1787702777542
  0
ELLIPSE
  5
1DA6
330
1F
100
AcDbEntity
  8
SANINDUSA
100
AcDbEllipse
 10
4766.167451989747
 20
2545.749741862692
 30
0.0
 11
0.0005238115180413
 21
-0.0299999986071336
 31
0.0
210
0.0
220
0.0
230
1.0
 40
0.017452404817194
 41
0.1044150294261421
 42
1.341150810582898
  0
SPLINE
  5
1DA7
330
1F
100
AcDbEntity
  8
SANINDUSA
100
AcDbSpline
210
0.0
220
0.0
230
1.0
 70
     8
 71
     3
 72
    34
 73
    30
 74
     0
 42
0.0000000001
 43
0.0000000001
 40
0.0
 40
0.0
 40
0.0
 40
0.0
 40
0.036419196565431
 40
0.0762157018999058
 40
0.1093629637424906
 40
0.1389598460214305
 40
0.1675914950029093
 40
0.2210788831998692
 40
0.2710219657288262
 40
0.3236329453813411
 40
0.3722273456242071
 40
0.419598256290658
 40
0.4668874689702232
 40
0.4985612788444931
 40
0.5304737898349036
 40
0.5627261076747981
 40
0.5940504479027206
 40
0.6210474049758734
 40
0.6443740452290659
 40
0.660064863982483
 40
0.6779715250884372
 40
0.698349891121111
 40
0.7240682891930519
 40
0.7559532609138263
 40
0.7940215417961193
 40
0.8382866348705325
 40
0.888760787697474
 40
0.9454562460423275
 40
0.9999999999999998
 40
0.9999999999999998
 40
0.9999999999999998
 40
0.9999999999999998
 10
4766.816220139197
 20
2545.700079427975
 30
0.0
 10
4766.816774052234
 20
2545.701189339572
 30
0.0
 10
4766.817933245046
 20
2545.703512089644
 30
0.0
 10
4766.819689674831
 20
2545.707037497934
 30
0.0
 10
4766.821439690164
 20
2545.71055976749
 30
0.0
 10
4766.823071437516
 20
2545.713855591942
 30
0.0
 10
4766.825085488826
 20
2545.71793971561
 30
0.0
 10
4766.827526854426
 20
2545.722922956549
 30
0.0
 10
4766.830497854463
 20
2545.729053350346
 30
0.0
 10
4766.833472428769
 20
2545.735272277477
 30
0.0
 10
4766.836485816533
 20
2545.74167035501
 30
0.0
 10
4766.839561832648
 20
2545.748313951351
 30
0.0
 10
4766.842392190864
 20
2545.754548147701
 30
0.0
 10
4766.844936060402
 20
2545.760256859481
 30
0.0
 10
4766.847164953608
 20
2545.76533959658
 30
0.0
 10
4766.849404187673
 20
2545.770535012842
 30
0.0
 10
4766.851533334485
 20
2545.775565715618
 30
0.0
 10
4766.853456271132
 20
2545.780189433932
 30
0.0
 10
4766.855023272296
 20
2545.784018292692
 30
0.0
 10
4766.856363674544
 20
2545.787336239344
 30
0.0
 10
4766.857624278258
 20
2545.790491940147
 30
0.0
 10
4766.859103614746
 20
2545.79424356143
 30
0.0
 10
4766.860888065557
 20
2545.798842561955
 30
0.0
 10
4766.863041418974
 20
2545.804507259782
 30
0.0
 10
4766.865557503503
 20
2545.811297504093
 30
0.0
 10
4766.868406901571
 20
2545.819224835144
 30
0.0
 10
4766.871550291894
 20
2545.828304266465
 30
0.0
 10
4766.87479590288
 20
2545.838040013903
 30
0.0
 10
4766.876903662909
 20
2545.844778143521
 30
0.0
 10
4766.877937157682
 20
2545.848082040379
 30
0.0
  0
SPLINE
  5
1DA8
330
1F
100
AcDbEntity
  8
SANINDUSA
100
AcDbSpline
210
0.0
220
0.0
230
1.0
 70
     8
 71
     3
 72
    33
 73
    29
 74
     0
 42
0.0000000001
 43
0.0000000001
 40
0.0
 40
0.0
 40
0.0
 40
0.0
 40
0.0545472411495955
 40
0.1112463242531072
 40
0.1617237040867231
 40
0.2059916271987456
 40
0.2440623419326163
 40
0.2759493521822374
 40
0.3016693945302599
 40
0.3220490634302334
 40
0.3399568693778872
 40
0.3556486913056816
 40
0.3840180292810643
 40
0.4180237554462378
 40
0.4566923032747112
 40
0.4950996767039901
 40
0.5331338355057481
 40
0.5804260715665172
 40
0.6278000108374384
 40
0.676397517907168
 40
0.7290118611819127
 40
0.7931874896680629
 40
0.8631591551437715
 40
0.8863879633403859
 40
0.9112320817391367
 40
0.9400612661843055
 40
0.973033370571356
 40
1.0
 40
1.0
 40
1.0
 40
1.0
 10
4766.531863023571
 20
2545.848082040379
 30
0.0
 10
4766.532896518341
 20
2545.844778143526
 30
0.0
 10
4766.535004278366
 20
2545.838040013918
 30
0.0
 10
4766.53824988938
 20
2545.828304266406
 30
0.0
 10
4766.541393279609
 20
2545.819224835328
 30
0.0
 10
4766.544242677972
 20
2545.811297503533
 30
0.0
 10
4766.546758761623
 20
2545.804507261439
 30
0.0
 10
4766.548912117554
 20
2545.798842557266
 30
0.0
 10
4766.550696561489
 20
2545.794243574093
 30
0.0
 10
4766.552175916813
 20
2545.790491905263
 30
0.0
 10
4766.553436464028
 20
2545.787336347081
 30
0.0
 10
4766.554895792162
 20
2545.783724007704
 30
0.0
 10
4766.556749041327
 20
2545.779203431687
 30
0.0
 10
4766.559124638862
 20
2545.773521534068
 30
0.0
 10
4766.561735282925
 20
2545.767409599853
 30
0.0
 10
4766.564421300699
 20
2545.761253955314
 30
0.0
 10
4766.567265606275
 20
2545.754861759311
 30
0.0
 10
4766.57023833643
 20
2545.748313980445
 30
0.0
 10
4766.573314351101
 20
2545.741670382557
 30
0.0
 10
4766.576327823812
 20
2545.735272128308
 30
0.0
 10
4766.579582016567
 20
2545.728468605775
 30
0.0
 10
4766.583122998464
 20
2545.721175957251
 30
0.0
 10
4766.585991193436
 20
2545.715346033548
 30
0.0
 10
4766.588092305511
 20
2545.71110140338
 30
0.0
 10
4766.589431016273
 20
2545.708404456033
 30
0.0
 10
4766.590853267273
 20
2545.705546232881
 30
0.0
 10
4766.592261765618
 20
2545.702720826709
 30
0.0
 10
4766.59317093108
 20
2545.70089908165
 30
0.0
 10
4766.59357996755
 20
2545.700079472678
 30
0.0
  0
SPLINE
  5
1DA9
330
1F
100
AcDbEntity
  8
SANINDUSA
100
AcDbSpline
210
0.0
220
0.0
230
1.0
 70
    24
 71
     1
 72
     4
 73
     2
 74
     0
 42
0.0000000001
 43
0.0000000001
 40
0.0
 40
0.0
 40
1.0
 40
1.0
 10
4766.819900092712
 20
2545.464577512758
 30
0.0
 10
4766.813648824624
 20
2545.688376264589
 30
0.0
  0
SPLINE
  5
1DAA
330
1F
100
AcDbEntity
  8
SANINDUSA
100
AcDbSpline
210
0.0
220
0.0
230
1.0
 70
    24
 71
     1
 72
     4
 73
     2
 74
     0
 42
0.0000000001
 43
0.0000000001
 40
0.0
 40
0.0
 40
1.0
 40
1.0
 10
4766.596151356629
 20
2545.688376264589
 30
0.0
 10
4766.58990008854
 20
2545.464577512758
 30
0.0
  0
SPLINE
  5
1DAB
330
1F
100
AcDbEntity
  8
SANINDUSA
100
AcDbSpline
210
0.0
220
0.0
230
1.0
 70
     8
 71
     3
 72
    12
 73
     8
 74
     0
 42
0.0000000001
 43
0.0000000001
 40
0.0
 40
0.0
 40
0.0
 40
0.0
 40
0.1088312979720774
 40
0.3446263325258471
 40
0.5777434642628656
 40
0.8076414651074273
 40
1.0
 40
1.0
 40
1.0
 40
1.0
 10
4766.593535144857
 20
2545.700057567972
 30
0.0
 10
4766.593729025603
 20
2545.699686860088
 30
0.0
 10
4766.594342970412
 20
2545.698512972608
 30
0.0
 10
4766.59511887236
 20
2545.696310153372
 30
0.0
 10
4766.595799388982
 20
2545.693550615002
 30
0.0
 10
4766.596156142113
 20
2545.690873931697
 30
0.0
 10
4766.596139678718
 20
2545.689156710235
 30
0.0
 10
4766.596132178834
 20
2545.688374431747
 30
0.0
  0
SPLINE
  5
1DAC
330
1F
100
AcDbEntity
  8
SANINDUSA
100
AcDbSpline
210
0.0
220
0.0
230
1.0
 70
     8
 71
     3
 72
    12
 73
     8
 74
     0
 42
0.0000000001
 43
0.0000000001
 40
0.0
 40
0.0
 40
0.0
 40
0.0
 40
0.1605282718567209
 40
0.390598370032095
 40
0.6172914105382266
 40
0.8407639463198627
 40
1.0
 40
1.0
 40
1.0
 40
1.0
 10
4766.813683223954
 20
2545.688375281113
 30
0.0
 10
4766.813666676298
 20
2545.689026607231
 30
0.0
 10
4766.813626412438
 20
2545.690611417916
 30
0.0
 10
4766.813932391343
 20
2545.693137584513
 30
0.0
 10
4766.814542630737
 20
2545.695842774743
 30
0.0
 10
4766.815327868311
 20
2545.69817936429
 30
0.0
 10
4766.815983865806
 20
2545.69951155836
 30
0.0
 10
4766.816256810954
 20
2545.700065853017
 30
0.0
  0
ARC
  5
1DAD
330
1F
100
AcDbEntity
  8
SANINDUSA
100
AcDbCircle
 10
4766.87319646213
 20
2545.849577506559
 30
0.0
 40
0.0050000000046916
100
AcDbArc
 50
342.7787346782395
 51
90.0
  0
SPLINE
  5
1DAE
330
1F
100
AcDbEntity
  8
SANINDUSA
100
AcDbSpline
210
0.0
220
0.0
230
1.0
 70
    24
 71
     3
 72
    30
 73
    26
 74
     0
 42
0.0000000001
 43
0.0000000001
 40
0.0
 40
0.0
 40
0.0
 40
0.0
 40
0.0374891960329169
 40
0.0749783449979199
 40
0.1298929246919239
 40
0.1849840722540508
 40
0.2401108522517704
 40
0.295155743902236
 40
0.3500314955787133
 40
0.3911290447838593
 40
0.4322553285552177
 40
0.4733479908161005
 40
0.5178381467271694
 40
0.5625034230913421
 40
0.6071972023512588
 40
0.6518030832738745
 40
0.6962432072290267
 40
0.7372557771894736
 40
0.7784037758025657
 40
0.8195287707379343
 40
0.8605098960692762
 40
0.8953320616145148
 40
0.9302634006348776
 40
0.9651875682169869
 40
1.0
 40
1.0
 40
1.0
 40
1.0
 10
4766.873196457556
 20
2545.85457750637
 30
0.0
 10
4766.873153255121
 20
2545.85457750637
 30
0.0
 10
4766.873066850305
 20
2545.85457750637
 30
0.0
 10
4766.872268982676
 20
2545.85457750637
 30
0.0
 10
4766.87066717755
 20
2545.85457750637
 30
0.0
 10
4766.867848064066
 20
2545.85457750637
 30
0.0
 10
4766.864003983992
 20
2545.85457750637
 30
0.0
 10
4766.859112753844
 20
2545.85457750637
 30
0.0
 10
4766.853643968373
 20
2545.85457750637
 30
0.0
 10
4766.847881690922
 20
2545.85457750637
 30
0.0
 10
4766.842095801068
 20
2545.85457750637
 30
0.0
 10
4766.835526756895
 20
2545.85457750637
 30
0.0
 10
4766.828093479989
 20
2545.85457750637
 30
0.0
 10
4766.819733958696
 20
2545.85457750637
 30
0.0
 10
4766.810656281256
 20
2545.85457750637
 30
0.0
 10
4766.800891052681
 20
2545.85457750637
 30
0.0
 10
4766.790722538138
 20
2545.85457750637
 30
0.0
 10
4766.780210004164
 20
2545.85457750637
 30
0.0
 10
4766.769446190303
 20
2545.85457750637
 30
0.0
 10
4766.758208186466
 20
2545.85457750637
 30
0.0
 10
4766.747144158084
 20
2545.85457750637
 30
0.0
 10
4766.736369265912
 20
2545.85457750637
 30
0.0
 10
4766.725987996284
 20
2545.85457750637
 30
0.0
 10
4766.715473619232
 20
2545.85457750637
 30
0.0
 10
4766.708420833375
 20
2545.85457750637
 30
0.0
 10
4766.704900090626
 20
2545.85457750637
 30
0.0
  0
ARC
  5
1DAF
330
1F
100
AcDbEntity
  8
SANINDUSA
100
AcDbCircle
 10
4766.536603719123
 20
2545.849577506559
 30
0.0
 40
0.0050000000046916
100
AcDbArc
 50
90.0
 51
197.2212653217605
  0
SPLINE
  5
1DB0
330
1F
100
AcDbEntity
  8
SANINDUSA
100
AcDbSpline
210
0.0
220
0.0
230
1.0
 70
    24
 71
     3
 72
    30
 73
    26
 74
     0
 42
0.0000000001
 43
0.0000000001
 40
0.0
 40
0.0
 40
0.0
 40
0.0
 40
0.0374891960329169
 40
0.0749783449979199
 40
0.1298929246919239
 40
0.1849840722540508
 40
0.2401108522517704
 40
0.295155743902236
 40
0.3500314955787133
 40
0.3911290447838593
 40
0.4322553285552177
 40
0.4733479908161005
 40
0.5178381467271694
 40
0.5625034230913421
 40
0.6071972023512588
 40
0.6518030832738745
 40
0.6962432072290267
 40
0.7372557771894736
 40
0.7784037758025657
 40
0.8195287707379343
 40
0.8605098960692762
 40
0.8953320616145148
 40
0.9302634006348776
 40
0.9651875682169869
 40
1.0
 40
1.0
 40
1.0
 40
1.0
 10
4766.536603723696
 20
2545.85457750637
 30
0.0
 10
4766.536646926131
 20
2545.85457750637
 30
0.0
 10
4766.536733330947
 20
2545.85457750637
 30
0.0
 10
4766.537531198576
 20
2545.85457750637
 30
0.0
 10
4766.539133003702
 20
2545.85457750637
 30
0.0
 10
4766.541952117186
 20
2545.85457750637
 30
0.0
 10
4766.54579619726
 20
2545.85457750637
 30
0.0
 10
4766.550687427408
 20
2545.85457750637
 30
0.0
 10
4766.556156212878
 20
2545.85457750637
 30
0.0
 10
4766.561918490331
 20
2545.85457750637
 30
0.0
 10
4766.567704380184
 20
2545.85457750637
 30
0.0
 10
4766.574273424358
 20
2545.85457750637
 30
0.0
 10
4766.581706701264
 20
2545.85457750637
 30
0.0
 10
4766.590066222557
 20
2545.85457750637
 30
0.0
 10
4766.599143899995
 20
2545.85457750637
 30
0.0
 10
4766.608909128571
 20
2545.85457750637
 30
0.0
 10
4766.619077643114
 20
2545.85457750637
 30
0.0
 10
4766.629590177087
 20
2545.85457750637
 30
0.0
 10
4766.64035399095
 20
2545.85457750637
 30
0.0
 10
4766.651591994786
 20
2545.85457750637
 30
0.0
 10
4766.662656023169
 20
2545.85457750637
 30
0.0
 10
4766.67343091534
 20
2545.85457750637
 30
0.0
 10
4766.683812184967
 20
2545.85457750637
 30
0.0
 10
4766.69432656202
 20
2545.85457750637
 30
0.0
 10
4766.701379347877
 20
2545.85457750637
 30
0.0
 10
4766.704900090626
 20
2545.85457750637
 30
0.0
  0
SPLINE
  5
1DB1
330
1F
100
AcDbEntity
  8
SANINDUSA
100
AcDbSpline
210
0.0
220
0.0
230
1.0
 70
     8
 71
     3
 72
    22
 73
    18
 74
     0
 42
0.0000000001
 43
0.0000000001
 40
0.0
 40
0.0
 40
0.0
 40
0.0
 40
0.0746303110701058
 40
0.1494997453365041
 40
0.2241440394388731
 40
0.2988424929447599
 40
0.3737638835944055
 40
0.4484659977698054
 40
0.5232303550028665
 40
0.5982151454477061
 40
0.6729698483318857
 40
0.7289948835091784
 40
0.7852254381544704
 40
0.8414448405719346
 40
0.8974547557271179
 40
0.9487280811881676
 40
1.0
 40
1.0
 40
1.0
 40
1.0
 10
4766.81180961155
 20
2545.700492115634
 30
0.0
 10
4766.811363831939
 20
2545.700456164531
 30
0.0
 10
4766.810470844392
 20
2545.700384147135
 30
0.0
 10
4766.807452086251
 20
2545.700279122599
 30
0.0
 10
4766.80327650365
 20
2545.700191514875
 30
0.0
 10
4766.797841604388
 20
2545.700141198421
 30
0.0
 10
4766.791290476353
 20
2545.700134097887
 30
0.0
 10
4766.783690194628
 20
2545.700166623664
 30
0.0
 10
4766.775102064189
 20
2545.700244308064
 30
0.0
 10
4766.76565067058
 20
2545.700355368718
 30
0.0
 10
4766.756289987568
 20
2545.700473187264
 30
0.0
 10
4766.747299900988
 20
2545.700581412436
 30
0.0
 10
4766.738888170988
 20
2545.700673198471
 30
0.0
 10
4766.730223489417
 20
2545.700753667662
 30
0.0
 10
4766.721622216095
 20
2545.700814278257
 30
0.0
 10
4766.713162486936
 20
2545.700853436868
 30
0.0
 10
4766.707654197543
 20
2545.700858564306
 30
0.0
 10
4766.704900090626
 20
2545.70086112799
 30
0.0
  0
SPLINE
  5
1DB2
330
1F
100
AcDbEntity
  8
SANINDUSA
100
AcDbSpline
210
0.0
220
0.0
230
1.0
 70
     8
 71
     3
 72
    22
 73
    18
 74
     0
 42
0.0000000001
 43
0.0000000001
 40
0.0
 40
0.0
 40
0.0
 40
0.0
 40
0.0746303110701058
 40
0.1494997453365041
 40
0.2241440394388731
 40
0.2988424929447599
 40
0.3737638835944055
 40
0.4484659977698054
 40
0.5232303550028665
 40
0.5982151454477061
 40
0.6729698483318857
 40
0.7289948835091784
 40
0.7852254381544704
 40
0.8414448405719346
 40
0.8974547557271179
 40
0.9487280811881676
 40
1.0
 40
1.0
 40
1.0
 40
1.0
 10
4766.597990569702
 20
2545.700492115634
 30
0.0
 10
4766.598436349314
 20
2545.700456164531
 30
0.0
 10
4766.599329336861
 20
2545.700384147135
 30
0.0
 10
4766.602348095001
 20
2545.700279122599
 30
0.0
 10
4766.606523677602
 20
2545.700191514875
 30
0.0
 10
4766.611958576864
 20
2545.700141198421
 30
0.0
 10
4766.618509704899
 20
2545.700134097887
 30
0.0
 10
4766.626109986623
 20
2545.700166623664
 30
0.0
 10
4766.634698117064
 20
2545.700244308064
 30
0.0
 10
4766.644149510671
 20
2545.700355368718
 30
0.0
 10
4766.653510193684
 20
2545.700473187264
 30
0.0
 10
4766.662500280264
 20
2545.700581412436
 30
0.0
 10
4766.670912010265
 20
2545.700673198471
 30
0.0
 10
4766.679576691836
 20
2545.700753667662
 30
0.0
 10
4766.688177965157
 20
2545.700814278257
 30
0.0
 10
4766.696637694316
 20
2545.700853436868
 30
0.0
 10
4766.70214598371
 20
2545.700858564306
 30
0.0
 10
4766.704900090626
 20
2545.70086112799
 30
0.0
  0
LINE
  5
1DB3
330
1F
100
AcDbEntity
  8
SANINDUSA
100
AcDbLine
 10
4766.814900090031
 20
2545.464577512758
 30
0.0
 11
4766.594900091223
 21
2545.464577512758
 31
0.0
  0
LINE
  5
1DB4
330
1F
100
AcDbEntity
  8
SANINDUSA
100
AcDbLine
 10
4766.814900090031
 20
2545.464577512758
 30
0.0
 11
4766.819900092712
 21
2545.464577512758
 31
0.0
  0
LINE
  5
1DB5
330
1F
100
AcDbEntity
  8
SANINDUSA
100
AcDbLine
 10
4766.594900091223
 20
2545.464577512758
 30
0.0
 11
4766.58990008854
 21
2545.464577512758
 31
0.0
  0
SPLINE
  5
1DB6
330
1F
100
AcDbEntity
  8
SANINDUSA
100
AcDbSpline
210
0.0
220
0.0
230
1.0
 70
     8
 71
     3
 72
    12
 73
     8
 74
     0
 42
0.0000000001
 43
0.0000000001
 40
0.0
 40
0.0
 40
0.0
 40
0.0
 40
0.153667064075363
 40
0.3651407168244372
 40
0.5766143429879764
 40
0.7883154481363538
 40
1.0
 40
1.0
 40
1.0
 40
1.0
 10
4766.816134658685
 20
2545.700122045296
 30
0.0
 10
4766.816180994785
 20
2545.700167125349
 30
0.0
 10
4766.816291097731
 20
2545.700274243702
 30
0.0
 10
4766.815848125685
 20
2545.700399713197
 30
0.0
 10
4766.815026149271
 20
2545.700501947665
 30
0.0
 10
4766.81384726769
 20
2545.700635425515
 30
0.0
 10
4766.81248881256
 20
2545.70053988435
 30
0.0
 10
4766.81180961155
 20
2545.700492115634
 30
0.0
  0
SPLINE
  5
1DB7
330
1F
100
AcDbEntity
  8
SANINDUSA
100
AcDbSpline
210
0.0
220
0.0
230
1.0
 70
     8
 71
     3
 72
    12
 73
     8
 74
     0
 42
0.0000000001
 43
0.0000000001
 40
0.0
 40
0.0
 40
0.0
 40
0.0
 40
0.1536005109406595
 40
0.3650907933562636
 40
0.576581049184242
 40
0.7882988018853375
 40
1.0
 40
1.0
 40
1.0
 40
1.0
 10
4766.593665485314
 20
2545.7001221049
 30
0.0
 10
4766.593619179963
 20
2545.700167164334
 30
0.0
 10
4766.593509117455
 20
2545.700274265438
 30
0.0
 10
4766.593952063586
 20
2545.700399711795
 30
0.0
 10
4766.59477402984
 20
2545.700501948039
 30
0.0
 10
4766.595952914098
 20
2545.700635425422
 30
0.0
 10
4766.597311368871
 20
2545.700539884318
 30
0.0
 10
4766.597990569702
 20
2545.700492115634
 30
0.0
  0
LINE
  5
1DE9
330
1F
100
AcDbEntity
  8
SANINDUSA
100
AcDbLine
 10
4767.790896098839
 20
2545.854577125138
 30
0.0
 11
4767.820536926842
 21
2545.854577125138
 31
0.0
  0
CIRCLE
  5
1E1D
330
1F
100
AcDbEntity
  8
SANINDUSA
100
AcDbCircle
 10
4766.283411318769
 20
2545.922194214865
 30
0.0
 40
0.00775
  0
CIRCLE
  5
1E1E
330
1F
100
AcDbEntity
  8
SANINDUSA
100
AcDbCircle
 10
4766.12841131877
 20
2545.922194214865
 30
0.0
 40
0.00775
  0
LINE
  5
1E23
330
1F
100
AcDbEntity
  8
SANINDUSA
100
AcDbLine
 10
4766.839623702357
 20
2546.19757750637
 30
0.0
 11
4766.824623907973
 21
2546.19757750637
 31
0.0
  0
ARC
  5
1E24
330
1F
100
AcDbEntity
  8
SANINDUSA
100
AcDbCircle
 10
4766.839623702357
 20
2546.20057750637
 30
0.0
 40
0.0030000000000001
100
AcDbArc
 50
270.0
 51
0.3000000005074312
  0
LINE
  5
1E25
330
1F
100
AcDbEntity
  8
SANINDUSA
100
AcDbLine
 10
4766.824623907973
 20
2546.19757750637
 30
0.0
 11
4766.58517627328
 21
2546.19757750637
 31
0.0
  0
LINE
  5
1E26
330
1F
100
AcDbEntity
  8
SANINDUSA
100
AcDbLine
 10
4766.58517627328
 20
2546.19757750637
 30
0.0
 11
4766.570176478897
 21
2546.19757750637
 31
0.0
  0
ARC
  5
1E27
330
1F
100
AcDbEntity
  8
SANINDUSA
100
AcDbCircle
 10
4766.570176478897
 20
2546.20057750637
 30
0.0
 40
0.0030000000000001
100
AcDbArc
 50
179.6999999994925
 51
270.0
  0
LINE
  5
1E28
330
1F
100
AcDbEntity
  8
SANINDUSA
100
AcDbLine
 10
4766.842508413619
 20
2546.222603686189
 30
0.0
 11
4766.842623661233
 21
2546.200593214261
 31
0.0
  0
LINE
  5
1E29
330
1F
100
AcDbEntity
  8
SANINDUSA
100
AcDbLine
 10
4766.567176520021
 20
2546.200593214261
 30
0.0
 11
4766.567291767635
 21
2546.222603686189
 31
0.0
  0
LINE
  5
1E2A
330
1F
100
AcDbEntity
  8
SANINDUSA
100
AcDbLine
 10
4766.824508660358
 20
2546.22757750637
 30
0.0
 11
4766.837508482157
 21
2546.22757750637
 31
0.0
  0
ARC
  5
1E2B
330
1F
100
AcDbEntity
  8
SANINDUSA
100
AcDbCircle
 10
4766.837508482157
 20
2546.22257750637
 30
0.0
 40
0.005
100
AcDbArc
 50
0.3000000005074312
 51
90.0
  0
LINE
  5
1E2C
330
1F
100
AcDbEntity
  8
SANINDUSA
100
AcDbLine
 10
4766.585291520895
 20
2546.22757750637
 30
0.0
 11
4766.824508660358
 21
2546.22757750637
 31
0.0
  0
LINE
  5
1E2D
330
1F
100
AcDbEntity
  8
SANINDUSA
100
AcDbLine
 10
4766.572291699096
 20
2546.22757750637
 30
0.0
 11
4766.585291520895
 21
2546.22757750637
 31
0.0
  0
ARC
  5
1E2E
330
1F
100
AcDbEntity
  8
SANINDUSA
100
AcDbCircle
 10
4766.572291699096
 20
2546.22257750637
 30
0.0
 40
0.005
100
AcDbArc
 50
90.0
 51
179.6999999994925
  0
ARC
  5
1E2F
330
1F
100
AcDbEntity
  8
SANINDUSA
100
AcDbCircle
 10
4766.83948973405
 20
2546.19457750637
 30
0.0
 40
0.0030000000000002
100
AcDbArc
 50
358.300000000627
 51
90.0
  0
ARC
  5
1E30
330
1F
100
AcDbEntity
  8
SANINDUSA
100
AcDbCircle
 10
4766.570310447202
 20
2546.19457750637
 30
0.0
 40
0.0030000000000001
100
AcDbArc
 50
90.0
 51
181.699999999373
  0
LINE
  5
1E31
330
1F
100
AcDbEntity
  8
SANINDUSA
100
AcDbLine
 10
4766.842488413631
 20
2546.194488507638
 30
0.0
 11
4766.832544084794
 21
2545.859429175149
 31
0.0
  0
LINE
  5
1E32
330
1F
100
AcDbEntity
  8
SANINDUSA
100
AcDbLine
 10
4766.577256096459
 20
2545.859429175149
 30
0.0
 11
4766.567311767622
 21
2546.194488507638
 31
0.0
  0
LINE
  5
1E33
330
1F
100
AcDbEntity
  8
SANINDUSA
100
AcDbLine
 10
4766.827546285494
 20
2545.85457750637
 30
0.0
 11
4766.814552007312
 21
2545.85457750637
 31
0.0
  0
ARC
  5
1E34
330
1F
100
AcDbEntity
  8
SANINDUSA
100
AcDbCircle
 10
4766.827546285494
 20
2545.85957750637
 30
0.0
 40
0.005
100
AcDbArc
 50
270.0
 51
358.300000000627
  0
LINE
  5
1E35
330
1F
100
AcDbEntity
  8
SANINDUSA
100
AcDbLine
 10
4766.814552007312
 20
2545.85457750637
 30
0.0
 11
4766.595248173941
 21
2545.85457750637
 31
0.0
  0
LINE
  5
1E36
330
1F
100
AcDbEntity
  8
SANINDUSA
100
AcDbLine
 10
4766.595248173941
 20
2545.85457750637
 30
0.0
 11
4766.58225389576
 21
2545.85457750637
 31
0.0
  0
ARC
  5
1E37
330
1F
100
AcDbEntity
  8
SANINDUSA
100
AcDbCircle
 10
4766.58225389576
 20
2545.85957750637
 30
0.0
 40
0.0050000000000001
100
AcDbArc
 50
181.699999999373
 51
270.0
  0
LINE
  5
1E38
330
1F
100
AcDbEntity
  8
SANINDUSA
100
AcDbLine
 10
4767.036252191155
 20
2546.19757711894
 30
0.0
 11
4767.021252191155
 21
2546.19757711894
 31
0.0
  0
ARC
  5
1E39
330
1F
100
AcDbEntity
  8
SANINDUSA
100
AcDbCircle
 10
4767.021252191155
 20
2546.200577118939
 30
0.0
 40
0.0030000000000001
100
AcDbArc
 50
180.0
 51
270.0
  0
LINE
  5
1E3A
330
1F
100
AcDbEntity
  8
SANINDUSA
100
AcDbLine
 10
4767.141605748675
 20
2546.19757711894
 30
0.0
 11
4767.036252191155
 21
2546.19757711894
 31
0.0
  0
LINE
  5
1E3B
330
1F
100
AcDbEntity
  8
SANINDUSA
100
AcDbLine
 10
4767.15660554306
 20
2546.19757711894
 30
0.0
 11
4767.141605748675
 21
2546.19757711894
 31
0.0
  0
ARC
  5
1E3C
330
1F
100
AcDbEntity
  8
SANINDUSA
100
AcDbCircle
 10
4767.15660554306
 20
2546.200577118939
 30
0.0
 40
0.0030000000000001
100
AcDbArc
 50
270.0
 51
0.3000000005074312
  0
LINE
  5
1E3D
330
1F
100
AcDbEntity
  8
SANINDUSA
100
AcDbLine
 10
4767.018252191155
 20
2546.200577118939
 30
0.0
 11
4767.018252191155
 21
2546.222577118939
 31
0.0
  0
LINE
  5
1E3E
330
1F
100
AcDbEntity
  8
SANINDUSA
100
AcDbLine
 10
4767.159490254321
 20
2546.222603298759
 30
0.0
 11
4767.159605501936
 21
2546.200592826831
 31
0.0
  0
LINE
  5
1E3F
330
1F
100
AcDbEntity
  8
SANINDUSA
100
AcDbLine
 10
4767.023252191155
 20
2546.227577118939
 30
0.0
 11
4767.036252191155
 21
2546.227577118939
 31
0.0
  0
ARC
  5
1E40
330
1F
100
AcDbEntity
  8
SANINDUSA
100
AcDbCircle
 10
4767.023252191155
 20
2546.222577118939
 30
0.0
 40
0.005
100
AcDbArc
 50
90.0
 51
180.0
  0
LINE
  5
1E41
330
1F
100
AcDbEntity
  8
SANINDUSA
100
AcDbLine
 10
4767.036252191155
 20
2546.227577118939
 30
0.0
 11
4767.14149050106
 21
2546.227577118939
 31
0.0
  0
LINE
  5
1E42
330
1F
100
AcDbEntity
  8
SANINDUSA
100
AcDbLine
 10
4767.14149050106
 20
2546.227577118939
 30
0.0
 11
4767.15449032286
 21
2546.227577118939
 31
0.0
  0
ARC
  5
1E43
330
1F
100
AcDbEntity
  8
SANINDUSA
100
AcDbCircle
 10
4767.15449032286
 20
2546.222577118939
 30
0.0
 40
0.005
100
AcDbArc
 50
0.3000000005074312
 51
90.0
  0
ARC
  5
1E44
330
1F
100
AcDbEntity
  8
SANINDUSA
100
AcDbCircle
 10
4767.021252191155
 20
2546.19457711894
 30
0.0
 40
0.0030000000000001
100
AcDbArc
 50
90.0
 51
180.0
  0
ARC
  5
1E45
330
1F
100
AcDbEntity
  8
SANINDUSA
100
AcDbCircle
 10
4767.156471574753
 20
2546.19457711894
 30
0.0
 40
0.0030000000000002
100
AcDbArc
 50
358.300000000627
 51
90.0
  0
LINE
  5
1E46
330
1F
100
AcDbEntity
  8
SANINDUSA
100
AcDbLine
 10
4767.018252191155
 20
2545.859577118939
 30
0.0
 11
4767.018252191155
 21
2546.19457711894
 31
0.0
  0
LINE
  5
1E47
330
1F
100
AcDbEntity
  8
SANINDUSA
100
AcDbLine
 10
4767.159470254333
 20
2546.194488120207
 30
0.0
 11
4767.149525925497
 21
2545.859428787719
 31
0.0
  0
LINE
  5
1E48
330
1F
100
AcDbEntity
  8
SANINDUSA
100
AcDbLine
 10
4767.144528126197
 20
2545.85457711894
 30
0.0
 11
4767.023252191155
 21
2545.85457711894
 31
0.0
  0
ARC
  5
1E49
330
1F
100
AcDbEntity
  8
SANINDUSA
100
AcDbCircle
 10
4767.023252191155
 20
2545.859577118939
 30
0.0
 40
0.005
100
AcDbArc
 50
180.0
 51
270.0
  0
ARC
  5
1E4C
330
1F
100
AcDbEntity
  8
SANINDUSA
100
AcDbCircle
 10
4767.144528126197
 20
2545.859577118939
 30
0.0
 40
0.0050000000000001
100
AcDbArc
 50
270.0
 51
358.300000000627
  0
LINE
  5
1E4D
330
1F
100
AcDbEntity
  8
SANINDUSA
100
AcDbLine
 10
4766.086303105441
 20
2546.111301781135
 30
0.0
 11
4766.325519532096
 21
2546.111301781135
 31
0.0
  0
CIRCLE
  5
1E4E
330
1F
100
AcDbEntity
  8
SANINDUSA
100
AcDbCircle
 10
4766.205911318769
 20
2546.045672040961
 30
0.0
 40
0.025
  0
ELLIPSE
  5
1E4F
330
1F
100
AcDbEntity
  8
SANINDUSA
100
AcDbEllipse
 10
4766.086187912658
 20
2545.987948634851
 30
0.0
 11
0.0127281546927961
 21
0.0127281546928477
 31
0.0
210
0.0
220
0.0
230
1.0
 40
0.9999817230800928
 41
2.356208197848945
 42
3.926977109326593
  0
ELLIPSE
  5
1E50
330
1F
100
AcDbEntity
  8
SANINDUSA
100
AcDbEllipse
 10
4766.325634724879
 20
2545.987948634851
 30
0.0
 11
0.0127281546928474
 21
-0.0127281546927961
 31
0.0
210
0.0
220
0.0
230
1.0
 40
0.9999817230800983
 41
5.497800851438759
 42
7.068569762916388
  0
ELLIPSE
  5
1E51
330
1F
100
AcDbEntity
  8
SANINDUSA
100
AcDbEllipse
 10
4766.086187912658
 20
2546.093301781136
 30
0.0
 11
0.0180001644958493
 21
-0.0000000000000003
 31
0.0
210
0.0
220
0.0
230
1.0
 40
0.9999908614252179
 41
1.570796326794912
 42
3.141592653589822
  0
LINE
  5
1E52
330
1F
100
AcDbEntity
  8
SANINDUSA
100
AcDbLine
 10
4766.086187912658
 20
2546.111301781135
 30
0.0
 11
4766.086303105441
 21
2546.111301781135
 31
0.0
  0
LINE
  5
1E53
330
1F
100
AcDbEntity
  8
SANINDUSA
100
AcDbLine
 10
4766.068187748162
 20
2546.093301781136
 30
0.0
 11
4766.068187748162
 21
2545.987948223615
 31
0.0
  0
LINE
  5
1E54
330
1F
100
AcDbEntity
  8
SANINDUSA
100
AcDbLine
 10
4766.325519532096
 20
2546.111301781135
 30
0.0
 11
4766.325634724879
 21
2546.111301781135
 31
0.0
  0
ELLIPSE
  5
1E55
330
1F
100
AcDbEntity
  8
SANINDUSA
100
AcDbEllipse
 10
4766.325634724879
 20
2546.093301781136
 30
0.0
 11
0.0180001644958495
 21
0.0000000000000003
 31
0.0
210
0.0
220
0.0
230
1.0
 40
0.9999908614252101
 41
0.0
 42
1.57079632679488
  0
LINE
  5
1E56
330
1F
100
AcDbEntity
  8
SANINDUSA
100
AcDbLine
 10
4766.343634889374
 20
2545.987948223615
 30
0.0
 11
4766.343634889374
 21
2546.093301781136
 31
0.0
  0
LINE
  5
1E57
330
1F
100
AcDbEntity
  8
SANINDUSA
100
AcDbLine
 10
4766.086187501422
 20
2545.969948470355
 30
0.0
 11
4766.325635136114
 21
2545.969948470355
 31
0.0
  0
LINE
  5
1E58
330
1F
100
AcDbEntity
  8
SANINDUSA
100
AcDbLine
 10
4767.826525838586
 20
2546.215577125138
 30
0.0
 11
4767.823794463161
 21
2546.215577125138
 31
0.0
  0
ARC
  5
1E59
330
1F
100
AcDbEntity
  8
SANINDUSA
100
AcDbCircle
 10
4767.823794463161
 20
2546.210577125138
 30
0.0
 40
0.0050000000000002
100
AcDbArc
 50
90.0
 51
169.9999999993365
  0
LINE
  5
1E5A
330
1F
100
AcDbEntity
  8
SANINDUSA
100
AcDbLine
 10
4767.818870424398
 20
2546.211445366027
 30
0.0
 11
4767.816041806534
 21
2546.195403476961
 31
0.0
  0
ARC
  5
1E5B
330
1F
100
AcDbEntity
  8
SANINDUSA
100
AcDbCircle
 10
4767.81505699878
 20
2546.195577125138
 30
0.0
 40
0.0010000000000002
100
AcDbArc
 50
270.0
 51
349.9999999993365
  0
LINE
  5
1E5C
330
1F
100
AcDbEntity
  8
SANINDUSA
100
AcDbLine
 10
4767.806769081757
 20
2546.194577125138
 30
0.0
 11
4767.81505699878
 21
2546.194577125138
 31
0.0
  0
ARC
  5
1E5D
330
1F
100
AcDbEntity
  8
SANINDUSA
100
AcDbCircle
 10
4767.806769081757
 20
2546.195577125138
 30
0.0
 40
0.0010000000000002
100
AcDbArc
 50
194.477512185468
 51
270.0
  0
ARC
  5
1E5E
330
1F
100
AcDbEntity
  8
SANINDUSA
100
AcDbCircle
 10
4767.802896098412
 20
2546.194577125138
 30
0.0
 40
0.0030000000000001
100
AcDbArc
 50
14.47751218546802
 51
90.0
  0
LINE
  5
1E5F
330
1F
100
AcDbEntity
  8
SANINDUSA
100
AcDbLine
 10
4767.802896098412
 20
2546.197577125138
 30
0.0
 11
4767.788896098411
 21
2546.197577125138
 31
0.0
  0
ARC
  5
1E60
330
1F
100
AcDbEntity
  8
SANINDUSA
100
AcDbCircle
 10
4767.788896098411
 20
2546.200577125138
 30
0.0
 40
0.0030000000000004
100
AcDbArc
 50
180.0
 51
270.0
  0
LINE
  5
1E61
330
1F
100
AcDbEntity
  8
SANINDUSA
100
AcDbLine
 10
4767.785896098411
 20
2546.200577125138
 30
0.0
 11
4767.785896098411
 21
2546.222577125138
 31
0.0
  0
ARC
  5
1E62
330
1F
100
AcDbEntity
  8
SANINDUSA
100
AcDbCircle
 10
4767.790896098411
 20
2546.222577125138
 30
0.0
 40
0.005
100
AcDbArc
 50
90.0
 51
180.0
  0
LINE
  5
1E63
330
1F
100
AcDbEntity
  8
SANINDUSA
100
AcDbLine
 10
4767.825525838586
 20
2546.227577125138
 30
0.0
 11
4767.790896098411
 21
2546.227577125138
 31
0.0
  0
ARC
  5
1E64
330
1F
100
AcDbEntity
  8
SANINDUSA
100
AcDbCircle
 10
4767.825525838586
 20
2546.226577125138
 30
0.0
 40
0.0009999999999999
100
AcDbArc
 50
0.0
 51
90.0
  0
LINE
  5
1E65
330
1F
100
AcDbEntity
  8
SANINDUSA
100
AcDbLine
 10
4767.826525838586
 20
2546.226577125138
 30
0.0
 11
4767.826525838586
 21
2546.215577125138
 31
0.0
  0
LINE
  5
1E66
330
1F
100
AcDbEntity
  8
SANINDUSA
100
AcDbLine
 10
4767.876525838586
 20
2546.215577125138
 30
0.0
 11
4767.876525838586
 21
2546.226577125138
 31
0.0
  0
LINE
  5
1E67
330
1F
100
AcDbEntity
  8
SANINDUSA
100
AcDbLine
 10
4767.876525838586
 20
2546.215577125138
 30
0.0
 11
4767.826525838586
 21
2546.215577125138
 31
0.0
  0
ARC
  5
1E68
330
1F
100
AcDbEntity
  8
SANINDUSA
100
AcDbCircle
 10
4767.877525838586
 20
2546.226577125138
 30
0.0
 40
0.0010000000000002
100
AcDbArc
 50
90.0
 51
180.0
  0
LINE
  5
1E69
330
1F
100
AcDbEntity
  8
SANINDUSA
100
AcDbLine
 10
4767.825525838586
 20
2546.227577125138
 30
0.0
 11
4767.877525838586
 21
2546.227577125138
 31
0.0
  0
ARC
  5
1E6A
330
1F
100
AcDbEntity
  8
SANINDUSA
100
AcDbCircle
 10
4767.922134230116
 20
2546.222577125138
 30
0.0
 40
0.0050000000000004
100
AcDbArc
 50
0.3000000005074312
 51
90.0
  0
LINE
  5
1E6B
330
1F
100
AcDbEntity
  8
SANINDUSA
100
AcDbLine
 10
4767.927134161578
 20
2546.222603304958
 30
0.0
 11
4767.927249409193
 21
2546.20059283303
 31
0.0
  0
ARC
  5
1E6C
330
1F
100
AcDbEntity
  8
SANINDUSA
100
AcDbCircle
 10
4767.924249450316
 20
2546.200577125138
 30
0.0
 40
0.0030000000000004
100
AcDbArc
 50
270.0
 51
0.3000000005074312
  0
ARC
  5
1E6D
330
1F
100
AcDbEntity
  8
SANINDUSA
100
AcDbCircle
 10
4767.915249450316
 20
2546.194577125138
 30
0.0
 40
0.0030000000000003
100
AcDbArc
 50
90.0
 51
165.522487814532
  0
ARC
  5
1E6E
330
1F
100
AcDbEntity
  8
SANINDUSA
100
AcDbCircle
 10
4767.911376466969
 20
2546.195577125138
 30
0.0
 40
0.0010000000000002
100
AcDbArc
 50
270.0
 51
345.522487814532
  0
ARC
  5
1E6F
330
1F
100
AcDbEntity
  8
SANINDUSA
100
AcDbCircle
 10
4767.903088549947
 20
2546.195577125138
 30
0.0
 40
0.0009999999999999
100
AcDbArc
 50
190.0000000006635
 51
270.0
  0
LINE
  5
1E70
330
1F
100
AcDbEntity
  8
SANINDUSA
100
AcDbLine
 10
4767.902103742194
 20
2546.195403476961
 30
0.0
 11
4767.899275124331
 21
2546.211445366027
 31
0.0
  0
ARC
  5
1E71
330
1F
100
AcDbEntity
  8
SANINDUSA
100
AcDbCircle
 10
4767.894351085565
 20
2546.210577125138
 30
0.0
 40
0.005
100
AcDbArc
 50
10.00000000066347
 51
90.0
  0
LINE
  5
1E72
330
1F
100
AcDbEntity
  8
SANINDUSA
100
AcDbLine
 10
4767.894351085565
 20
2546.215577125138
 30
0.0
 11
4767.876525838586
 21
2546.215577125138
 31
0.0
  0
LINE
  5
1E73
330
1F
100
AcDbEntity
  8
SANINDUSA
100
AcDbLine
 10
4767.903088549947
 20
2546.194577125138
 30
0.0
 11
4767.911376466969
 21
2546.194577125138
 31
0.0
  0
LINE
  5
1E74
330
1F
100
AcDbEntity
  8
SANINDUSA
100
AcDbLine
 10
4767.922134230116
 20
2546.227577125138
 30
0.0
 11
4767.877525838586
 21
2546.227577125138
 31
0.0
  0
LINE
  5
1E75
330
1F
100
AcDbEntity
  8
SANINDUSA
100
AcDbLine
 10
4767.924249450316
 20
2546.197577125138
 30
0.0
 11
4767.915249450316
 21
2546.197577125138
 31
0.0
  0
LINE
  5
1E76
330
1F
100
AcDbEntity
  8
SANINDUSA
100
AcDbLine
 10
4767.806769081757
 20
2546.194577125138
 30
0.0
 11
4767.802896098412
 21
2546.194577125138
 31
0.0
  0
LINE
  5
1E77
330
1F
100
AcDbEntity
  8
SANINDUSA
100
AcDbLine
 10
4767.903088549947
 20
2546.194577125138
 30
0.0
 11
4767.897179703429
 21
2546.194577125138
 31
0.0
  0
LINE
  5
1E78
330
1F
100
AcDbEntity
  8
SANINDUSA
100
AcDbLine
 10
4767.897179703429
 20
2546.194577125138
 30
0.0
 11
4767.81505699878
 21
2546.194577125138
 31
0.0
  0
LINE
  5
1E79
330
1F
100
AcDbEntity
  8
SANINDUSA
100
AcDbLine
 10
4767.820536926842
 20
2545.866577125138
 30
0.0
 11
4767.820536926842
 21
2545.854577125138
 31
0.0
  0
LINE
  5
1E7A
330
1F
100
AcDbEntity
  8
SANINDUSA
100
AcDbLine
 10
4767.882536926841
 20
2545.854577125138
 30
0.0
 11
4767.882536926841
 21
2545.866577125138
 31
0.0
  0
LINE
  5
1E7B
330
1F
100
AcDbEntity
  8
SANINDUSA
100
AcDbLine
 10
4767.882536926841
 20
2545.866577125138
 30
0.0
 11
4767.820536926842
 21
2545.866577125138
 31
0.0
  0
LINE
  5
1E7C
330
1F
100
AcDbEntity
  8
SANINDUSA
100
AcDbLine
 10
4767.820536926842
 20
2545.854577125138
 30
0.0
 11
4767.882536926841
 21
2545.854577125138
 31
0.0
  0
ARC
  5
1E7D
330
1F
100
AcDbEntity
  8
SANINDUSA
100
AcDbCircle
 10
4767.795896098411
 20
2545.859577125138
 30
0.0
 40
0.005
100
AcDbArc
 50
180.0
 51
270.0
  0
LINE
  5
1E7E
330
1F
100
AcDbEntity
  8
SANINDUSA
100
AcDbLine
 10
4767.790896098411
 20
2545.859577125138
 30
0.0
 11
4767.790896098411
 21
2546.194577125138
 31
0.0
  0
ARC
  5
1E7F
330
1F
100
AcDbEntity
  8
SANINDUSA
100
AcDbCircle
 10
4767.793896098411
 20
2546.194577125138
 30
0.0
 40
0.0029999999999998
100
AcDbArc
 50
90.0
 51
180.0
  0
LINE
  5
1E80
330
1F
100
AcDbEntity
  8
SANINDUSA
100
AcDbLine
 10
4767.802896098412
 20
2546.197577125138
 30
0.0
 11
4767.793896098411
 21
2546.197577125138
 31
0.0
  0
LINE
  5
1E81
330
1F
100
AcDbEntity
  8
SANINDUSA
100
AcDbLine
 10
4767.802896098412
 20
2545.866577125138
 30
0.0
 11
4767.802896098412
 21
2546.197577125138
 31
0.0
  0
LINE
  5
1E82
330
1F
100
AcDbEntity
  8
SANINDUSA
100
AcDbLine
 10
4767.820536926842
 20
2545.866577125138
 30
0.0
 11
4767.802896098412
 21
2545.866577125138
 31
0.0
  0
ARC
  5
1E84
330
1F
100
AcDbEntity
  8
SANINDUSA
100
AcDbCircle
 10
4767.924115482009
 20
2546.194577125138
 30
0.0
 40
0.0029999999999999
100
AcDbArc
 50
358.300000000627
 51
90.0
  0
LINE
  5
1E85
330
1F
100
AcDbEntity
  8
SANINDUSA
100
AcDbLine
 10
4767.927114161589
 20
2546.194488126406
 30
0.0
 11
4767.917169832753
 21
2545.859428793918
 31
0.0
  0
ARC
  5
1E86
330
1F
100
AcDbEntity
  8
SANINDUSA
100
AcDbCircle
 10
4767.912172033454
 20
2545.859577125138
 30
0.0
 40
0.005
100
AcDbArc
 50
270.0
 51
358.300000000627
  0
LINE
  5
1E87
330
1F
100
AcDbEntity
  8
SANINDUSA
100
AcDbLine
 10
4767.915200556927
 20
2546.197577125138
 30
0.0
 11
4767.905376706266
 21
2545.866577125138
 31
0.0
  0
LINE
  5
1E88
330
1F
100
AcDbEntity
  8
SANINDUSA
100
AcDbLine
 10
4767.924115482009
 20
2546.197577125138
 30
0.0
 11
4767.915200556927
 21
2546.197577125138
 31
0.0
  0
LINE
  5
1E89
330
1F
100
AcDbEntity
  8
SANINDUSA
100
AcDbLine
 10
4767.905376706266
 20
2545.866577125138
 30
0.0
 11
4767.882536926841
 21
2545.866577125138
 31
0.0
  0
LINE
  5
1E8A
330
1F
100
AcDbEntity
  8
SANINDUSA
100
AcDbLine
 10
4767.912172033454
 20
2545.854577125138
 30
0.0
 11
4767.882536926841
 21
2545.854577125138
 31
0.0
  0
ARC
  5
1E8B
330
1F
100
AcDbEntity
  8
SANINDUSA
100
AcDbCircle
 10
4767.788896098411
 20
2546.194577125138
 30
0.0
 40
0.0029999999999998
100
AcDbArc
 50
90.0
 51
180.0
  0
LINE
  5
1E8C
330
1F
100
AcDbEntity
  8
SANINDUSA
100
AcDbLine
 10
4767.785896098411
 20
2545.859577125138
 30
0.0
 11
4767.785896098411
 21
2546.194577125138
 31
0.0
  0
ARC
  5
1E8D
330
1F
100
AcDbEntity
  8
SANINDUSA
100
AcDbCircle
 10
4767.790896098411
 20
2545.859577125138
 30
0.0
 40
0.005
100
AcDbArc
 50
180.0
 51
270.0
  0
LINE
  5
1E8E
330
1F
100
AcDbEntity
  8
SANINDUSA
100
AcDbLine
 10
4767.795896098411
 20
2545.854577125138
 30
0.0
 11
4767.790896098411
 21
2545.854577125138
 31
0.0
  0
LINE
  5
1E8F
330
1F
100
AcDbEntity
  8
SANINDUSA
100
AcDbLine
 10
4767.911376466969
 20
2546.194577125138
 30
0.0
 11
4767.915111519005
 21
2546.194577125138
 31
0.0
  0
ENDSEC
  0
SECTION
  2
OBJECTS
  0
DICTIONARY
  5
C
330
0
100
AcDbDictionary
281
     1
  3
ACAD_2007HEADERVARS_RT
350
1EEB
  3
ACAD_BACKGROUND
350
1B9F
  3
ACAD_COLOR
350
EE6
  3
ACAD_GROUP
350
D
  3
ACAD_LAYOUT
350
1A
  3
ACAD_MATERIAL
350
EE5
  3
ACAD_MLEADERSTYLE
350
10A8
  3
ACAD_MLINESTYLE
350
17
  3
ACAD_PLOTSETTINGS
350
19
  3
ACAD_PLOTSTYLENAME
350
E
  3
ACAD_SCALELIST
350
1096
  3
ACAD_TABLESTYLE
350
EE7
  3
ACAD_VISUALSTYLE
350
1082
  3
ACDB_RECOMPOSE_DATA
350
1EE9
  3
AcDbVariableDictionary
350
3D
  3
AEC_PROPERTY_SET_DEFS
350
15CD
  3
ASE_INDEX_DICTIONARY
350
1066
  3
Autodesk_PNP
350
10B2
  3
DWGPROPS
350
1EEA
  0
DICTIONARY
  5
1BA7
330
8
100
AcDbDictionary
280
     1
281
     1
  0
DICTIONARY
  5
1051
330
2
100
AcDbDictionary
280
     1
281
     1
  3
ACAD_LAYERFILTERS
360
1065
  3
ACAD_LAYERSTATES
360
12CE
  3
ACLYDICTIONARY
360
1064
  0
DICTIONARY
  5
1B39
330
10
100
AcDbDictionary
280
     1
281
     1
  3
ADSK_XREC_LAYER_RECONCILED
360
1B3A
  0
DICTIONARY
  5
1B3B
330
2F
100
AcDbDictionary
280
     1
281
     1
  3
ADSK_XREC_LAYER_RECONCILED
360
1B3C
  0
DICTIONARY
  5
1B3D
330
30
100
AcDbDictionary
280
     1
281
     1
  3
ADSK_XREC_LAYER_RECONCILED
360
1B3E
  0
DICTIONARY
  5
1B3F
330
31
100
AcDbDictionary
280
     1
281
     1
  3
ADSK_XREC_LAYER_RECONCILED
360
1B40
  0
DICTIONARY
  5
1B41
330
32
100
AcDbDictionary
280
     1
281
     1
  3
ADSK_XREC_LAYER_RECONCILED
360
1B42
  0
DICTIONARY
  5
1B43
330
33
100
AcDbDictionary
280
     1
281
     1
  3
ADSK_XREC_LAYER_RECONCILED
360
1B44
  0
DICTIONARY
  5
1B45
330
34
100
AcDbDictionary
280
     1
281
     1
  3
ADSK_XREC_LAYER_RECONCILED
360
1B46
  0
DICTIONARY
  5
1B47
330
35
100
AcDbDictionary
280
     1
281
     1
  3
ADSK_XREC_LAYER_RECONCILED
360
1B48
  0
DICTIONARY
  5
1B49
330
36
100
AcDbDictionary
280
     1
281
     1
  3
ADSK_XREC_LAYER_RECONCILED
360
1B4A
  0
DICTIONARY
  5
1B4B
330
37
100
AcDbDictionary
280
     1
281
     1
  3
ADSK_XREC_LAYER_RECONCILED
360
1B4C
  0
DICTIONARY
  5
1B4D
330
5D6
100
AcDbDictionary
280
     1
281
     1
  3
ADSK_XREC_LAYER_RECONCILED
360
1B4E
  0
DICTIONARY
  5
1B4F
330
8AF
100
AcDbDictionary
280
     1
281
     1
  3
ADSK_XREC_LAYER_RECONCILED
360
1B50
  0
DICTIONARY
  5
1B51
330
8F8
100
AcDbDictionary
280
     1
281
     1
  3
ADSK_XREC_LAYER_RECONCILED
360
1B52
  0
DICTIONARY
  5
1B53
330
91D
100
AcDbDictionary
280
     1
281
     1
  3
ADSK_XREC_LAYER_RECONCILED
360
1B54
  0
DICTIONARY
  5
1B55
330
C7B
100
AcDbDictionary
280
     1
281
     1
  3
ADSK_XREC_LAYER_RECONCILED
360
1B56
  0
DICTIONARY
  5
1B57
330
1060
100
AcDbDictionary
280
     1
281
     1
  3
ADSK_XREC_LAYER_RECONCILED
360
1B58
  0
DICTIONARY
  5
1EEB
102
{ACAD_REACTORS
330
C
102
}
330
C
100
AcDbDictionary
281
     1
  3
DIMJOGANG
350
1EEC
  0
DICTIONARY
  5
1B9F
102
{ACAD_REACTORS
330
C
102
}
330
C
100
AcDbDictionary
281
     1
  0
DICTIONARY
  5
EE6
102
{ACAD_REACTORS
330
C
102
}
330
C
100
AcDbDictionary
281
     1
  0
DICTIONARY
  5
D
102
{ACAD_REACTORS
330
C
102
}
330
C
100
AcDbDictionary
281
     1
  0
DICTIONARY
  5
1A
102
{ACAD_REACTORS
330
C
102
}
330
C
100
AcDbDictionary
281
     1
  3
Layout1
350
1E
  3
Layout2
350
26
  3
Model
350
22
  0
DICTIONARY
  5
EE5
102
{ACAD_REACTORS
330
C
102
}
330
C
100
AcDbDictionary
281
     1
  3
ByBlock
350
1072
  3
ByLayer
350
106A
  3
Global
350
107A
  0
DICTIONARY
  5
10A8
102
{ACAD_REACTORS
330
C
102
}
330
C
100
AcDbDictionary
281
     1
  3
Standard
350
10A9
  0
DICTIONARY
  5
17
102
{ACAD_REACTORS
330
C
102
}
330
C
100
AcDbDictionary
281
     1
  3
Standard
350
18
  0
DICTIONARY
  5
19
102
{ACAD_REACTORS
330
C
102
}
330
C
100
AcDbDictionary
281
     1
  0
ACDBDICTIONARYWDFLT
  5
E
102
{ACAD_REACTORS
330
C
102
}
330
C
100
AcDbDictionary
281
     1
  3
Normal
350
F
100
AcDbDictionaryWithDefault
340
F
  0
DICTIONARY
  5
1096
102
{ACAD_REACTORS
330
C
102
}
330
C
100
AcDbDictionary
281
     1
  3
A0
350
1097
  3
A1
350
1098
  3
A2
350
1099
  3
A3
350
109A
  3
A4
350
109B
  3
A5
350
109C
  3
A6
350
109D
  3
A7
350
109E
  3
A8
350
109F
  3
A9
350
10A0
  3
B0
350
10A1
  3
B1
350
10A2
  3
B2
350
10A3
  3
B3
350
10A4
  3
B4
350
10A5
  3
B5
350
10A6
  3
B6
350
10A7
  0
DICTIONARY
  5
EE7
102
{ACAD_REACTORS
330
C
102
}
330
C
100
AcDbDictionary
281
     1
  3
Standard
350
EE8
  0
DICTIONARY
  5
1082
102
{ACAD_REACTORS
330
C
102
}
330
C
100
AcDbDictionary
281
     1
  3
2dWireframe
350
1088
  3
3D Hidden
350
108A
  3
3dWireframe
350
1089
  3
Basic
350
1087
  3
Brighten
350
108E
  3
ColorChange
350
1092
  3
Conceptual
350
108B
  3
Dim
350
108D
  3
EdgeColorOff
350
1095
  3
Facepattern
350
1091
  3
Flat
350
1083
  3
FlatWithEdges
350
1084
  3
Gouraud
350
1085
  3
GouraudWithEdges
350
1086
  3
JitterOff
350
1093
  3
Linepattern
350
1090
  3
OverhangOff
350
1094
  3
Realistic
350
108C
  3
Thicken
350
108F
  0
XRECORD
  5
1EE9
102
{ACAD_REACTORS
330
C
102
}
330
C
100
AcDbXrecord
280
     1
 90
        1
330
EE8
  0
DICTIONARY
  5
3D
102
{ACAD_REACTORS
330
C
102
}
330
C
100
AcDbDictionary
281
     1
  3
CANNOSCALE
350
1BE3
  3
CMLEADERSTYLE
350
1BE2
  3
CTABLESTYLE
350
1049
  3
DIMASSOC
350
3F
  3
HIDETEXT
350
3E
  3
INDEXCTL
350
1BE5
  3
SORTENTS
350
1BE4
  3
XCLIPFRAME
350
1EE7
  0
DICTIONARY
  5
15CD
102
{ACAD_REACTORS
330
C
102
}
330
C
100
AcDbDictionary
281
     1
  0
DICTIONARY
  5
1066
102
{ACAD_REACTORS
330
C
102
}
330
C
100
AcDbDictionary
281
     1
  3
ASEBlockHierarchyIndexRecord
350
1067
1001
DCO15
1040
1602247867.484
  0
DICTIONARY
  5
10B2
102
{ACAD_REACTORS
330
C
102
}
330
C
100
AcDbDictionary
281
     1
  0
XRECORD
  5
1EEA
102
{ACAD_REACTORS
330
C
102
}
330
C
100
AcDbXrecord
280
     1
  1
DWGPROPS COOKIE
  2

  3

  4

  6

  7

  8
Julio
  9

300
=
301
=
302
=
303
=
304
=
305
=
306
=
307
=
308
=
309
=
 40
0.0159186921296296
 41
2455776.701374236
 42
2456111.467291481
  1

 90
        0
  0
DICTIONARY
  5
1065
102
{ACAD_REACTORS
330
1051
102
}
330
1051
100
AcDbDictionary
281
     1
  0
DICTIONARY
  5
12CE
102
{ACAD_REACTORS
330
1051
102
}
330
1051
100
AcDbDictionary
281
     1
  0
DICTIONARY
  5
1064
102
{ACAD_REACTORS
330
1051
102
}
330
1051
100
AcDbDictionary
281
     1
1001
ACAD
1000
<All
  0
XRECORD
  5
1B3A
102
{ACAD_REACTORS
330
1B39
102
}
330
1B39
100
AcDbXrecord
280
     1
290
     1
  0
XRECORD
  5
1B3C
102
{ACAD_REACTORS
330
1B3B
102
}
330
1B3B
100
AcDbXrecord
280
     1
290
     1
  0
XRECORD
  5
1B3E
102
{ACAD_REACTORS
330
1B3D
102
}
330
1B3D
100
AcDbXrecord
280
     1
290
     1
  0
XRECORD
  5
1B40
102
{ACAD_REACTORS
330
1B3F
102
}
330
1B3F
100
AcDbXrecord
280
     1
290
     1
  0
XRECORD
  5
1B42
102
{ACAD_REACTORS
330
1B41
102
}
330
1B41
100
AcDbXrecord
280
     1
290
     1
  0
XRECORD
  5
1B44
102
{ACAD_REACTORS
330
1B43
102
}
330
1B43
100
AcDbXrecord
280
     1
290
     1
  0
XRECORD
  5
1B46
102
{ACAD_REACTORS
330
1B45
102
}
330
1B45
100
AcDbXrecord
280
     1
290
     1
  0
XRECORD
  5
1B48
102
{ACAD_REACTORS
330
1B47
102
}
330
1B47
100
AcDbXrecord
280
     1
290
     1
  0
XRECORD
  5
1B4A
102
{ACAD_REACTORS
330
1B49
102
}
330
1B49
100
AcDbXrecord
280
     1
290
     1
  0
XRECORD
  5
1B4C
102
{ACAD_REACTORS
330
1B4B
102
}
330
1B4B
100
AcDbXrecord
280
     1
290
     1
  0
XRECORD
  5
1B4E
102
{ACAD_REACTORS
330
1B4D
102
}
330
1B4D
100
AcDbXrecord
280
     1
290
     1
  0
XRECORD
  5
1B50
102
{ACAD_REACTORS
330
1B4F
102
}
330
1B4F
100
AcDbXrecord
280
     1
290
     1
  0
XRECORD
  5
1B52
102
{ACAD_REACTORS
330
1B51
102
}
330
1B51
100
AcDbXrecord
280
     1
290
     1
  0
XRECORD
  5
1B54
102
{ACAD_REACTORS
330
1B53
102
}
330
1B53
100
AcDbXrecord
280
     1
290
     1
  0
XRECORD
  5
1B56
102
{ACAD_REACTORS
330
1B55
102
}
330
1B55
100
AcDbXrecord
280
     1
290
     1
  0
XRECORD
  5
1B58
102
{ACAD_REACTORS
330
1B57
102
}
330
1B57
100
AcDbXrecord
280
     1
290
     1
  0
XRECORD
  5
1EEC
102
{ACAD_REACTORS
330
1EEB
102
}
330
1EEB
100
AcDbXrecord
280
     1
 40
1.570796326794896
  0
LAYOUT
  5
1E
102
{ACAD_XDICTIONARY
360
1EED
102
}
102
{ACAD_REACTORS
330
1A
102
}
330
1A
100
AcDbPlotSettings
  1

  2
Ploter HP500
  4

  6

 40
0.0
 41
0.0
 42
0.0
 43
0.0
 44
0.0
 45
0.0
 46
0.0
 47
0.0
 48
0.0
 49
0.0
140
0.0
141
0.0
142
1.0
143
1.0
 70
   688
 72
     0
 73
     0
 74
     5
  7
sanindusa.ctb
 75
    16
147
1.0
148
0.0
149
0.0
100
AcDbLayout
  1
Layout1
 70
     1
 71
     1
 10
0.0
 20
0.0
 11
420.0
 21
297.0
 12
0.0
 22
0.0
 32
0.0
 14
1.000000000000000E+20
 24
1.000000000000000E+20
 34
1.000000000000000E+20
 15
-1.000000000000000E+20
 25
-1.000000000000000E+20
 35
-1.000000000000000E+20
146
0.0
 13
0.0
 23
0.0
 33
0.0
 16
1.0
 26
0.0
 36
0.0
 17
0.0
 27
1.0
 37
0.0
 76
     0
330
1B
  0
LAYOUT
  5
26
102
{ACAD_XDICTIONARY
360
1EF1
102
}
102
{ACAD_REACTORS
330
1A
102
}
330
1A
100
AcDbPlotSettings
  1

  2
Ploter HP500
  4

  6

 40
0.0
 41
0.0
 42
0.0
 43
0.0
 44
0.0
 45
0.0
 46
0.0
 47
0.0
 48
0.0
 49
0.0
140
0.0
141
0.0
142
1.0
143
1.0
 70
   688
 72
     0
 73
     0
 74
     5
  7
sanindusa.ctb
 75
    16
147
1.0
148
0.0
149
0.0
100
AcDbLayout
  1
Layout2
 70
     1
 71
     2
 10
0.0
 20
0.0
 11
12.0
 21
9.0
 12
0.0
 22
0.0
 32
0.0
 14
0.0
 24
0.0
 34
0.0
 15
0.0
 25
0.0
 35
0.0
146
0.0
 13
0.0
 23
0.0
 33
0.0
 16
1.0
 26
0.0
 36
0.0
 17
0.0
 27
1.0
 37
0.0
 76
     0
330
23
  0
LAYOUT
  5
22
102
{ACAD_XDICTIONARY
360
1EEF
102
}
102
{ACAD_REACTORS
330
1A
102
}
330
1A
100
AcDbPlotSettings
  1

  2
Ploter HP500
  4
User268
  6

 40
4.995333194732666
 41
16.97565841674804
 42
4.995330810546875
 43
16.97567749023437
 44
209.9733276367187
 45
296.9259948730469
 46
0.0
 47
0.0
 48
0.0
 49
0.0
140
0.0
141
0.0
142
1.0
143
1.0
 70
 11952
 72
     1
 73
     1
 74
     0
  7
sanindusa.ctb
 75
     0
147
1.0
148
-427.5957866592534
149
7.362384574453926
100
AcDbLayout
  1
Model
 70
     1
 71
     0
 10
0.0
 20
0.0
 11
12.0
 21
9.0
 12
0.0
 22
0.0
 32
0.0
 14
0.0
 24
0.0
 34
0.0
 15
0.0
 25
0.0
 35
0.0
146
0.0
 13
0.0
 23
0.0
 33
0.0
 16
1.0
 26
0.0
 36
0.0
 17
0.0
 27
1.0
 37
0.0
 76
     0
330
1F
331
1068
  0
MATERIAL
  5
1072
102
{ACAD_XDICTIONARY
360
1073
102
}
102
{ACAD_REACTORS
330
EE5
102
}
330
EE5
100
AcDbMaterial
  1
ByBlock
 72
     0
 43
0.0008202099737533
 43
0.0
 43
0.0
 43
0.0
 43
0.0
 43
0.0008202099737533
 43
0.0
 43
0.0
 43
0.0
 43
0.0
 43
1.0
 43
0.0
 43
0.0
 43
0.0
 43
0.0
 43
1.0
 77
     0
 47
0.0008202099737533
 47
0.0
 47
0.0
 47
0.0
 47
0.0
 47
0.0008202099737533
 47
0.0
 47
0.0
 47
0.0
 47
0.0
 47
1.0
 47
0.0
 47
0.0
 47
0.0
 47
0.0
 47
1.0
171
     0
 49
0.0008202099737533
 49
0.0
 49
0.0
 49
0.0
 49
0.0
 49
0.0008202099737533
 49
0.0
 49
0.0
 49
0.0
 49
0.0
 49
1.0
 49
0.0
 49
0.0
 49
0.0
 49
0.0
 49
1.0
175
     0
142
0.0008202099737533
142
0.0
142
0.0
142
0.0
142
0.0
142
0.0008202099737533
142
0.0
142
0.0
142
0.0
142
0.0
142
1.0
142
0.0
142
0.0
142
0.0
142
0.0
142
1.0
179
     0
144
0.0008202099737533
144
0.0
144
0.0
144
0.0
144
0.0
144
0.0008202099737533
144
0.0
144
0.0
144
0.0
144
0.0
144
1.0
144
0.0
144
0.0
144
0.0
144
0.0
144
1.0
147
0.0008202099737533
147
0.0
147
0.0
147
0.0
147
0.0
147
0.0008202099737533
147
0.0
147
0.0
147
0.0
147
0.0
147
1.0
147
0.0
147
0.0
147
0.0
147
0.0
147
1.0
  0
MATERIAL
  5
106A
102
{ACAD_XDICTIONARY
360
106B
102
}
102
{ACAD_REACTORS
330
EE5
102
}
330
EE5
100
AcDbMaterial
  1
ByLayer
 72
     0
 43
0.0008202099737533
 43
0.0
 43
0.0
 43
0.0
 43
0.0
 43
0.0008202099737533
 43
0.0
 43
0.0
 43
0.0
 43
0.0
 43
1.0
 43
0.0
 43
0.0
 43
0.0
 43
0.0
 43
1.0
 77
     0
 47
0.0008202099737533
 47
0.0
 47
0.0
 47
0.0
 47
0.0
 47
0.0008202099737533
 47
0.0
 47
0.0
 47
0.0
 47
0.0
 47
1.0
 47
0.0
 47
0.0
 47
0.0
 47
0.0
 47
1.0
171
     0
 49
0.0008202099737533
 49
0.0
 49
0.0
 49
0.0
 49
0.0
 49
0.0008202099737533
 49
0.0
 49
0.0
 49
0.0
 49
0.0
 49
1.0
 49
0.0
 49
0.0
 49
0.0
 49
0.0
 49
1.0
175
     0
142
0.0008202099737533
142
0.0
142
0.0
142
0.0
142
0.0
142
0.0008202099737533
142
0.0
142
0.0
142
0.0
142
0.0
142
1.0
142
0.0
142
0.0
142
0.0
142
0.0
142
1.0
179
     0
144
0.0008202099737533
144
0.0
144
0.0
144
0.0
144
0.0
144
0.0008202099737533
144
0.0
144
0.0
144
0.0
144
0.0
144
1.0
144
0.0
144
0.0
144
0.0
144
0.0
144
1.0
147
0.0008202099737533
147
0.0
147
0.0
147
0.0
147
0.0
147
0.0008202099737533
147
0.0
147
0.0
147
0.0
147
0.0
147
1.0
147
0.0
147
0.0
147
0.0
147
0.0
147
1.0
  0
MATERIAL
  5
107A
102
{ACAD_XDICTIONARY
360
107B
102
}
102
{ACAD_REACTORS
330
EE5
102
}
330
EE5
100
AcDbMaterial
  1
Global
 72
     0
 43
0.0008202099737533
 43
0.0
 43
0.0
 43
0.0
 43
0.0
 43
0.0008202099737533
 43
0.0
 43
0.0
 43
0.0
 43
0.0
 43
1.0
 43
0.0
 43
0.0
 43
0.0
 43
0.0
 43
1.0
 77
     0
 47
0.0008202099737533
 47
0.0
 47
0.0
 47
0.0
 47
0.0
 47
0.0008202099737533
 47
0.0
 47
0.0
 47
0.0
 47
0.0
 47
1.0
 47
0.0
 47
0.0
 47
0.0
 47
0.0
 47
1.0
171
     0
 49
0.0008202099737533
 49
0.0
 49
0.0
 49
0.0
 49
0.0
 49
0.0008202099737533
 49
0.0
 49
0.0
 49
0.0
 49
0.0
 49
1.0
 49
0.0
 49
0.0
 49
0.0
 49
0.0
 49
1.0
175
     0
142
0.0008202099737533
142
0.0
142
0.0
142
0.0
142
0.0
142
0.0008202099737533
142
0.0
142
0.0
142
0.0
142
0.0
142
1.0
142
0.0
142
0.0
142
0.0
142
0.0
142
1.0
179
     0
144
0.0008202099737533
144
0.0
144
0.0
144
0.0
144
0.0
144
0.0008202099737533
144
0.0
144
0.0
144
0.0
144
0.0
144
1.0
144
0.0
144
0.0
144
0.0
144
0.0
144
1.0
147
0.0008202099737533
147
0.0
147
0.0
147
0.0
147
0.0
147
0.0008202099737533
147
0.0
147
0.0
147
0.0
147
0.0
147
1.0
147
0.0
147
0.0
147
0.0
147
0.0
147
1.0
  0
MLEADERSTYLE
  5
10A9
102
{ACAD_REACTORS
330
10A8
102
}
330
10A8
100
AcDbMLeaderStyle
170
     2
171
     1
172
     0
 90
        2
 40
0.0
 41
0.0
173
     1
 91
-1056964608
340
14
 92
       -2
290
     1
 42
2.0
291
     1
 43
0.36
  3
Standard
 44
4.0
300

342
11
174
     1
178
     6
175
     1
176
     0
 93
-1056964608
 45
4.0
292
     0
297
     0
 46
4.0
 94
-1056964608
 47
1.0
 49
1.0
140
1.0
293
     1
141
0.0
294
     1
177
     0
142
1.0
295
     0
296
     0
143
0.125
1001
ACAD_MLEADERVER
1070
     2
  0
MLINESTYLE
  5
18
102
{ACAD_REACTORS
330
17
102
}
330
17
100
AcDbMlineStyle
  2
STANDARD
 70
     0
  3

 62
   256
 51
90.0
 52
90.0
 71
     2
 49
0.5
 62
   256
  6
BYLAYER
 49
-0.5
 62
   256
  6
BYLAYER
  0
ACDBPLACEHOLDER
  5
F
102
{ACAD_REACTORS
330
E
102
}
330
E
  0
SCALE
  5
1097
102
{ACAD_REACTORS
330
1096
102
}
330
1096
100
AcDbScale
 70
     0
300
1:1
140
1.0
141
1.0
290
     1
  0
SCALE
  5
1098
102
{ACAD_REACTORS
330
1096
102
}
330
1096
100
AcDbScale
 70
     0
300
1:2
140
1.0
141
2.0
290
     0
  0
SCALE
  5
1099
102
{ACAD_REACTORS
330
1096
102
}
330
1096
100
AcDbScale
 70
     0
300
1:4
140
1.0
141
4.0
290
     0
  0
SCALE
  5
109A
102
{ACAD_REACTORS
330
1096
102
}
330
1096
100
AcDbScale
 70
     0
300
1:5
140
1.0
141
5.0
290
     0
  0
SCALE
  5
109B
102
{ACAD_REACTORS
330
1096
102
}
330
1096
100
AcDbScale
 70
     0
300
1:8
140
1.0
141
8.0
290
     0
  0
SCALE
  5
109C
102
{ACAD_REACTORS
330
1096
102
}
330
1096
100
AcDbScale
 70
     0
300
1:10
140
1.0
141
10.0
290
     0
  0
SCALE
  5
109D
102
{ACAD_REACTORS
330
1096
102
}
330
1096
100
AcDbScale
 70
     0
300
1:16
140
1.0
141
16.0
290
     0
  0
SCALE
  5
109E
102
{ACAD_REACTORS
330
1096
102
}
330
1096
100
AcDbScale
 70
     0
300
1:20
140
1.0
141
20.0
290
     0
  0
SCALE
  5
109F
102
{ACAD_REACTORS
330
1096
102
}
330
1096
100
AcDbScale
 70
     0
300
1:30
140
1.0
141
30.0
290
     0
  0
SCALE
  5
10A0
102
{ACAD_REACTORS
330
1096
102
}
330
1096
100
AcDbScale
 70
     0
300
1:40
140
1.0
141
40.0
290
     0
  0
SCALE
  5
10A1
102
{ACAD_REACTORS
330
1096
102
}
330
1096
100
AcDbScale
 70
     0
300
1:50
140
1.0
141
50.0
290
     0
  0
SCALE
  5
10A2
102
{ACAD_REACTORS
330
1096
102
}
330
1096
100
AcDbScale
 70
     0
300
1:100
140
1.0
141
100.0
290
     0
  0
SCALE
  5
10A3
102
{ACAD_REACTORS
330
1096
102
}
330
1096
100
AcDbScale
 70
     0
300
2:1
140
2.0
141
1.0
290
     0
  0
SCALE
  5
10A4
102
{ACAD_REACTORS
330
1096
102
}
330
1096
100
AcDbScale
 70
     0
300
4:1
140
4.0
141
1.0
290
     0
  0
SCALE
  5
10A5
102
{ACAD_REACTORS
330
1096
102
}
330
1096
100
AcDbScale
 70
     0
300
8:1
140
8.0
141
1.0
290
     0
  0
SCALE
  5
10A6
102
{ACAD_REACTORS
330
1096
102
}
330
1096
100
AcDbScale
 70
     0
300
10:1
140
10.0
141
1.0
290
     0
  0
SCALE
  5
10A7
102
{ACAD_REACTORS
330
1096
102
}
330
1096
100
AcDbScale
 70
     0
300
100:1
140
100.0
141
1.0
290
     0
  0
TABLESTYLE
  5
EE8
102
{ACAD_XDICTIONARY
360
1BA1
102
}
102
{ACAD_REACTORS
330
EE7
102
}
330
EE7
100
AcDbTableStyle
  3
Standard
 70
     0
 71
     0
 40
1.5
 41
1.5
280
     0
281
     0
  7
Standard
140
4.5
170
     2
 62
     0
 63
     7
283
     0
274
    -2
284
     1
 64
     0
275
    -2
285
     1
 65
     0
276
    -2
286
     1
 66
     0
277
    -2
287
     1
 67
     0
278
    -2
288
     1
 68
     0
279
    -2
289
     1
 69
     0
  7
Standard
140
6.0
170
     5
 62
     0
 63
     7
283
     0
274
    -2
284
     1
 64
     0
275
    -2
285
     1
 65
     0
276
    -2
286
     1
 66
     0
277
    -2
287
     1
 67
     0
278
    -2
288
     1
 68
     0
279
    -2
289
     1
 69
     0
  7
Standard
140
4.5
170
     5
 62
     0
 63
     7
283
     0
274
    -2
284
     1
 64
     0
275
    -2
285
     1
 65
     0
276
    -2
286
     1
 66
     0
277
    -2
287
     1
 67
     0
278
    -2
288
     1
 68
     0
279
    -2
289
     1
 69
     0
  0
VISUALSTYLE
  5
1088
102
{ACAD_XDICTIONARY
360
1F01
102
}
102
{ACAD_REACTORS
330
1082
102
}
330
1082
100
AcDbVisualStyle
  2
2dWireframe
 70
     4
 71
     0
 72
     2
 73
     0
 90
        0
 40
-0.6
 41
-30.0
 62
     5
 63
     7
 74
     1
 91
        4
 64
     7
 65
   257
 75
     1
175
     1
 42
1.0
 92
        0
 66
   257
 43
1.0
 76
     1
 77
     6
 78
     2
 67
     7
 79
     5
170
     0
171
     0
290
     0
174
     0
 93
        1
 44
0.0
173
     0
291
     0
 45
0.0
1001
ACAD
1000
AcDbSavedByObjectVersion
1070
     0
  0
VISUALSTYLE
  5
108A
102
{ACAD_XDICTIONARY
360
1F05
102
}
102
{ACAD_REACTORS
330
1082
102
}
330
1082
100
AcDbVisualStyle
  2
3D Hidden
 70
     6
 71
     1
 72
     2
 73
     2
 90
        0
 40
-0.6
 41
-30.0
 62
     5
 63
     7
 74
     2
 91
        2
 64
     7
 65
   257
 75
     2
175
     1
 42
179.0
 92
        0
 66
   257
 43
1.0
 76
     1
 77
     6
 78
     2
 67
     7
 79
     3
170
     0
171
     0
290
     0
174
     0
 93
        1
 44
0.0
173
     0
291
     0
 45
0.0
1001
ACAD
1000
AcDbSavedByObjectVersion
1070
     0
  0
VISUALSTYLE
  5
1089
102
{ACAD_XDICTIONARY
360
1F03
102
}
102
{ACAD_REACTORS
330
1082
102
}
330
1082
100
AcDbVisualStyle
  2
3dWireframe
 70
     5
 71
     0
 72
     2
 73
     0
 90
        0
 40
-0.6
 41
-30.0
 62
     5
 63
     7
 74
     1
 91
        4
 64
     7
 65
   257
 75
     1
175
     1
 42
1.0
 92
        0
 66
   257
 43
1.0
 76
     1
 77
     6
 78
     2
 67
     7
 79
     5
170
     0
171
     0
290
     0
174
     0
 93
        1
 44
0.0
173
     0
291
     0
 45
0.0
1001
ACAD
1000
AcDbSavedByObjectVersion
1070
     0
  0
VISUALSTYLE
  5
1087
102
{ACAD_XDICTIONARY
360
1EFF
102
}
102
{ACAD_REACTORS
330
1082
102
}
330
1082
100
AcDbVisualStyle
  2
Basic
 70
     7
 71
     1
 72
     0
 73
     1
 90
        0
 40
-0.6
 41
-30.0
 62
     5
 63
     7
 74
     0
 91
        4
 64
     7
 65
   257
 75
     1
175
     1
 42
1.0
 92
        8
 66
     7
 43
1.0
 76
     1
 77
     6
 78
     2
 67
     7
 79
     5
170
     0
171
     0
290
     0
174
     0
 93
        1
 44
0.0
173
     0
291
     1
 45
0.0
1001
ACAD
1000
AcDbSavedByObjectVersion
1070
     0
  0
VISUALSTYLE
  5
108E
102
{ACAD_XDICTIONARY
360
1F0D
102
}
102
{ACAD_REACTORS
330
1082
102
}
330
1082
100
AcDbVisualStyle
  2
Brighten
 70
    12
 71
     2
 72
     2
 73
     0
 90
        0
 40
-0.6
 41
-30.0
 62
     5
 63
     7
 74
     1
 91
        4
 64
     7
 65
   257
 75
     1
175
     1
 42
1.0
 92
        8
 66
     7
 43
1.0
 76
     1
 77
     6
 78
     2
 67
     7
 79
     5
170
     0
171
     0
290
     0
174
     0
 93
        1
 44
50.0
173
     0
291
     1
 45
0.0
1001
ACAD
1000
AcDbSavedByObjectVersion
1070
     0
  0
VISUALSTYLE
  5
1092
102
{ACAD_XDICTIONARY
360
1F15
102
}
102
{ACAD_REACTORS
330
1082
102
}
330
1082
100
AcDbVisualStyle
  2
ColorChange
 70
    16
 71
     2
 72
     2
 73
     3
 90
        0
 40
-0.6
 41
-30.0
 62
     5
 63
     8
 74
     1
 91
        4
 64
     7
 65
   257
 75
     1
175
     1
 42
1.0
 92
        8
 66
     8
 43
1.0
 76
     1
 77
     6
 78
     2
 67
     7
 79
     5
170
     0
171
     0
290
     0
174
     0
 93
        1
 44
0.0
173
     0
291
     1
 45
0.0
1001
ACAD
1000
AcDbSavedByObjectVersion
1070
     0
  0
VISUALSTYLE
  5
108B
102
{ACAD_XDICTIONARY
360
1F07
102
}
102
{ACAD_REACTORS
330
1082
102
}
330
1082
100
AcDbVisualStyle
  2
Conceptual
 70
     9
 71
     3
 72
     2
 73
     0
 90
        0
 40
-0.6
 41
-30.0
 62
     5
 63
     7
 74
     2
 91
        2
 64
     7
 65
   257
 75
     1
175
     1
 42
179.0
 92
        8
 66
     7
 43
1.0
 76
     1
 77
     6
 78
     2
 67
     7
 79
     3
170
     0
171
     0
290
     0
174
     0
 93
        1
 44
0.0
173
     0
291
     0
 45
0.0
1001
ACAD
1000
AcDbSavedByObjectVersion
1070
     0
  0
VISUALSTYLE
  5
108D
102
{ACAD_XDICTIONARY
360
1F0B
102
}
102
{ACAD_REACTORS
330
1082
102
}
330
1082
100
AcDbVisualStyle
  2
Dim
 70
    11
 71
     2
 72
     2
 73
     0
 90
        0
 40
-0.6
 41
-30.0
 62
     5
 63
     7
 74
     1
 91
        4
 64
     7
 65
   257
 75
     1
175
     1
 42
1.0
 92
        8
 66
     7
 43
1.0
 76
     1
 77
     6
 78
     2
 67
     7
 79
     5
170
     0
171
     0
290
     0
174
     0
 93
        1
 44
-50.0
173
     0
291
     1
 45
0.0
1001
ACAD
1000
AcDbSavedByObjectVersion
1070
     0
  0
VISUALSTYLE
  5
1095
102
{ACAD_XDICTIONARY
360
1F1B
102
}
102
{ACAD_REACTORS
330
1082
102
}
330
1082
100
AcDbVisualStyle
  2
EdgeColorOff
 70
    22
 71
     2
 72
     2
 73
     0
 90
        0
 40
-0.6
 41
-30.0
 62
     5
 63
     7
 74
     1
 91
        4
 64
     7
 65
   257
 75
     1
175
     1
 42
1.0
 92
        8
 66
     7
 43
1.0
 76
     1
 77
     6
 78
     2
 67
     7
 79
     5
170
     0
171
     0
290
     0
174
     0
 93
        1
 44
0.0
173
     0
291
     1
 45
0.0
1001
ACAD
1000
AcDbSavedByObjectVersion
1070
     0
  0
VISUALSTYLE
  5
1091
102
{ACAD_XDICTIONARY
360
1F13
102
}
102
{ACAD_REACTORS
330
1082
102
}
330
1082
100
AcDbVisualStyle
  2
Facepattern
 70
    15
 71
     2
 72
     2
 73
     0
 90
        0
 40
-0.6
 41
-30.0
 62
     5
 63
     7
 74
     1
 91
        4
 64
     7
 65
   257
 75
     1
175
     1
 42
1.0
 92
        8
 66
     7
 43
1.0
 76
     1
 77
     6
 78
     2
 67
     7
 79
     5
170
     0
171
     0
290
     0
174
     0
 93
        1
 44
0.0
173
     0
291
     1
 45
0.0
1001
ACAD
1000
AcDbSavedByObjectVersion
1070
     0
  0
VISUALSTYLE
  5
1083
102
{ACAD_XDICTIONARY
360
1EF7
102
}
102
{ACAD_REACTORS
330
1082
102
}
330
1082
100
AcDbVisualStyle
  2
Flat
 70
     0
 71
     2
 72
     1
 73
     1
 90
        2
 40
-0.6
 41
30.0
 62
     5
 63
     7
 74
     0
 91
        4
 64
     7
 65
   257
 75
     1
175
     1
 42
1.0
 92
        8
 66
     7
 43
1.0
 76
     1
 77
     6
 78
     2
 67
     7
 79
     5
170
     0
171
     0
290
     0
174
     0
 93
       13
 44
0.0
173
     0
291
     1
 45
0.0
1001
ACAD
1000
AcDbSavedByObjectVersion
1070
     0
  0
VISUALSTYLE
  5
1084
102
{ACAD_XDICTIONARY
360
1EF9
102
}
102
{ACAD_REACTORS
330
1082
102
}
330
1082
100
AcDbVisualStyle
  2
FlatWithEdges
 70
     1
 71
     2
 72
     1
 73
     1
 90
        2
 40
-0.6
 41
30.0
 62
     5
 63
     7
 74
     1
 91
        4
 64
     7
 65
   257
 75
     1
175
     1
 42
1.0
 92
        0
 66
   257
 43
1.0
 76
     1
 77
     6
 78
     2
 67
     7
 79
     5
170
     0
171
     0
290
     0
174
     0
 93
       13
 44
0.0
173
     0
291
     1
 45
0.0
1001
ACAD
1000
AcDbSavedByObjectVersion
1070
     0
  0
VISUALSTYLE
  5
1085
102
{ACAD_XDICTIONARY
360
1EFB
102
}
102
{ACAD_REACTORS
330
1082
102
}
330
1082
100
AcDbVisualStyle
  2
Gouraud
 70
     2
 71
     2
 72
     2
 73
     1
 90
        2
 40
-0.6
 41
30.0
 62
     5
 63
     7
 74
     0
 91
        4
 64
     7
 65
   257
 75
     1
175
     1
 42
1.0
 92
        0
 66
     7
 43
1.0
 76
     1
 77
     6
 78
     2
 67
     7
 79
     5
170
     0
171
     0
290
     0
174
     0
 93
       13
 44
0.0
173
     0
291
     1
 45
0.0
1001
ACAD
1000
AcDbSavedByObjectVersion
1070
     0
  0
VISUALSTYLE
  5
1086
102
{ACAD_XDICTIONARY
360
1EFD
102
}
102
{ACAD_REACTORS
330
1082
102
}
330
1082
100
AcDbVisualStyle
  2
GouraudWithEdges
 70
     3
 71
     2
 72
     2
 73
     1
 90
        2
 40
-0.6
 41
30.0
 62
     5
 63
     7
 74
     1
 91
        4
 64
     7
 65
   257
 75
     1
175
     1
 42
1.0
 92
        0
 66
   257
 43
1.0
 76
     1
 77
     6
 78
     2
 67
     7
 79
     5
170
     0
171
     0
290
     0
174
     0
 93
       13
 44
0.0
173
     0
291
     1
 45
0.0
1001
ACAD
1000
AcDbSavedByObjectVersion
1070
     0
  0
VISUALSTYLE
  5
1093
102
{ACAD_XDICTIONARY
360
1F17
102
}
102
{ACAD_REACTORS
330
1082
102
}
330
1082
100
AcDbVisualStyle
  2
JitterOff
 70
    20
 71
     2
 72
     2
 73
     0
 90
        0
 40
-0.6
 41
-30.0
 62
     5
 63
     7
 74
     1
 91
        4
 64
     7
 65
   257
 75
     1
175
     1
 42
1.0
 92
       10
 66
     7
 43
1.0
 76
     1
 77
     6
 78
     2
 67
     7
 79
     5
170
     0
171
     0
290
     0
174
     0
 93
        1
 44
0.0
173
     0
291
     1
 45
0.0
1001
ACAD
1000
AcDbSavedByObjectVersion
1070
     0
  0
VISUALSTYLE
  5
1090
102
{ACAD_XDICTIONARY
360
1F11
102
}
102
{ACAD_REACTORS
330
1082
102
}
330
1082
100
AcDbVisualStyle
  2
Linepattern
 70
    14
 71
     2
 72
     2
 73
     0
 90
        0
 40
-0.6
 41
-30.0
 62
     5
 63
     7
 74
     1
 91
        4
 64
     7
 65
   257
 75
     7
175
     7
 42
1.0
 92
        8
 66
     7
 43
1.0
 76
     1
 77
     6
 78
     2
 67
     7
 79
     5
170
     0
171
     0
290
     0
174
     0
 93
        1
 44
0.0
173
     0
291
     1
 45
0.0
1001
ACAD
1000
AcDbSavedByObjectVersion
1070
     0
  0
VISUALSTYLE
  5
1094
102
{ACAD_XDICTIONARY
360
1F19
102
}
102
{ACAD_REACTORS
330
1082
102
}
330
1082
100
AcDbVisualStyle
  2
OverhangOff
 70
    21
 71
     2
 72
     2
 73
     0
 90
        0
 40
-0.6
 41
-30.0
 62
     5
 63
     7
 74
     1
 91
        4
 64
     7
 65
   257
 75
     1
175
     1
 42
1.0
 92
        9
 66
     7
 43
1.0
 76
     1
 77
     6
 78
     2
 67
     7
 79
     5
170
     0
171
     0
290
     0
174
     0
 93
        1
 44
0.0
173
     0
291
     1
 45
0.0
1001
ACAD
1000
AcDbSavedByObjectVersion
1070
     0
  0
VISUALSTYLE
  5
108C
102
{ACAD_XDICTIONARY
360
1F09
102
}
102
{ACAD_REACTORS
330
1082
102
}
330
1082
100
AcDbVisualStyle
  2
Realistic
 70
     8
 71
     2
 72
     2
 73
     0
 90
        0
 40
-0.6
 41
-30.0
 62
     5
 63
     7
 74
     1
 91
        0
 64
     7
 65
   257
 75
     1
175
     1
 42
1.0
 92
        8
 66
     8
 43
1.0
 76
     1
 77
     6
 78
     2
 67
     7
 79
     5
170
     0
171
     0
290
     0
174
     0
 93
       13
 44
0.0
173
     0
291
     0
 45
0.0
1001
ACAD
1000
AcDbSavedByObjectVersion
1070
     0
  0
VISUALSTYLE
  5
108F
102
{ACAD_XDICTIONARY
360
1F0F
102
}
102
{ACAD_REACTORS
330
1082
102
}
330
1082
100
AcDbVisualStyle
  2
Thicken
 70
    13
 71
     2
 72
     2
 73
     0
 90
        0
 40
-0.6
 41
-30.0
 62
     5
 63
     7
 74
     1
 91
        4
 64
     7
 65
   257
 75
     1
175
     1
 42
1.0
 92
       12
 66
     7
 43
1.0
 76
     1
 77
     6
 78
     2
 67
     7
 79
     5
170
     0
171
     0
290
     0
174
     0
 93
        1
 44
0.0
173
     0
291
     1
 45
0.0
1001
ACAD
1000
AcDbSavedByObjectVersion
1070
     0
  0
DICTIONARYVAR
  5
1BE3
102
{ACAD_REACTORS
330
3D
102
}
330
3D
100
DictionaryVariables
280
     0
  1
1:1
  0
DICTIONARYVAR
  5
1BE2
102
{ACAD_REACTORS
330
3D
102
}
330
3D
100
DictionaryVariables
280
     0
  1
STANDARD
  0
DICTIONARYVAR
  5
1049
102
{ACAD_REACTORS
330
3D
102
}
330
3D
100
DictionaryVariables
280
     0
  1
STANDARD
  0
DICTIONARYVAR
  5
3F
102
{ACAD_REACTORS
330
3D
102
}
330
3D
100
DictionaryVariables
280
     0
  1
2
  0
DICTIONARYVAR
  5
3E
102
{ACAD_REACTORS
330
3D
102
}
330
3D
100
DictionaryVariables
280
     0
  1
1
  0
DICTIONARYVAR
  5
1BE5
102
{ACAD_REACTORS
330
3D
102
}
330
3D
100
DictionaryVariables
280
     0
  1
0
  0
DICTIONARYVAR
  5
1BE4
102
{ACAD_REACTORS
330
3D
102
}
330
3D
100
DictionaryVariables
280
     0
  1
127
  0
DICTIONARYVAR
  5
1EE7
102
{ACAD_REACTORS
330
3D
102
}
330
3D
100
DictionaryVariables
280
     0
  1
2
  0
XRECORD
  5
1067
102
{ACAD_REACTORS
330
1066
102
}
330
1066
100
AcDbXrecord
280
     1
  0
DICTIONARY
  5
1EED
330
1E
100
AcDbDictionary
280
     1
281
     1
  3
ACAD_XREC_ROUNDTRIP
360
1EEE
  0
DICTIONARY
  5
1EF1
330
26
100
AcDbDictionary
280
     1
281
     1
  3
ACAD_XREC_ROUNDTRIP
360
1EF2
  0
DICTIONARY
  5
1EEF
330
22
100
AcDbDictionary
280
     1
281
     1
  3
ACAD_XREC_ROUNDTRIP
360
1EF0
  0
DICTIONARY
  5
1073
330
1072
100
AcDbDictionary
280
     1
281
     1
  3
ACAD_XREC_ROUNDTRIP
360
1EF5
  3
BUMPTILE
360
1075
  3
DIFFUSETILE
360
1074
  3
OPACITYTILE
360
1078
  3
REFLECTIONTILE
360
1077
  3
REFRACTIONTILE
360
1079
  3
SPECULARTILE
360
1076
  0
DICTIONARY
  5
106B
330
106A
100
AcDbDictionary
280
     1
281
     1
  3
ACAD_XREC_ROUNDTRIP
360
1EF4
  3
BUMPTILE
360
106D
  3
DIFFUSETILE
360
106C
  3
OPACITYTILE
360
1070
  3
REFLECTIONTILE
360
106F
  3
REFRACTIONTILE
360
1071
  3
SPECULARTILE
360
106E
  0
DICTIONARY
  5
107B
330
107A
100
AcDbDictionary
280
     1
281
     1
  3
ACAD_XREC_ROUNDTRIP
360
1EF6
  3
BUMPTILE
360
107D
  3
DIFFUSETILE
360
107C
  3
OPACITYTILE
360
1080
  3
REFLECTIONTILE
360
107F
  3
REFRACTIONTILE
360
1081
  3
SPECULARTILE
360
107E
  0
DICTIONARY
  5
1BA1
330
EE8
100
AcDbDictionary
280
     1
281
     1
  3
ACAD_ROUNDTRIP_2008_TABLESTYLE_CELLSTYLEMAP
360
1EE8
  3
ACAD_XREC_ROUNDTRIP
360
1EF3
  0
DICTIONARY
  5
1F01
330
1088
100
AcDbDictionary
280
     1
281
     1
  3
ACAD_XREC_ROUNDTRIP
360
1F02
  0
DICTIONARY
  5
1F05
330
108A
100
AcDbDictionary
280
     1
281
     1
  3
ACAD_XREC_ROUNDTRIP
360
1F06
  0
DICTIONARY
  5
1F03
330
1089
100
AcDbDictionary
280
     1
281
     1
  3
ACAD_XREC_ROUNDTRIP
360
1F04
  0
DICTIONARY
  5
1EFF
330
1087
100
AcDbDictionary
280
     1
281
     1
  3
ACAD_XREC_ROUNDTRIP
360
1F00
  0
DICTIONARY
  5
1F0D
330
108E
100
AcDbDictionary
280
     1
281
     1
  3
ACAD_XREC_ROUNDTRIP
360
1F0E
  0
DICTIONARY
  5
1F15
330
1092
100
AcDbDictionary
280
     1
281
     1
  3
ACAD_XREC_ROUNDTRIP
360
1F16
  0
DICTIONARY
  5
1F07
330
108B
100
AcDbDictionary
280
     1
281
     1
  3
ACAD_XREC_ROUNDTRIP
360
1F08
  0
DICTIONARY
  5
1F0B
330
108D
100
AcDbDictionary
280
     1
281
     1
  3
ACAD_XREC_ROUNDTRIP
360
1F0C
  0
DICTIONARY
  5
1F1B
330
1095
100
AcDbDictionary
280
     1
281
     1
  3
ACAD_XREC_ROUNDTRIP
360
1F1C
  0
DICTIONARY
  5
1F13
330
1091
100
AcDbDictionary
280
     1
281
     1
  3
ACAD_XREC_ROUNDTRIP
360
1F14
  0
DICTIONARY
  5
1EF7
330
1083
100
AcDbDictionary
280
     1
281
     1
  3
ACAD_XREC_ROUNDTRIP
360
1EF8
  0
DICTIONARY
  5
1EF9
330
1084
100
AcDbDictionary
280
     1
281
     1
  3
ACAD_XREC_ROUNDTRIP
360
1EFA
  0
DICTIONARY
  5
1EFB
330
1085
100
AcDbDictionary
280
     1
281
     1
  3
ACAD_XREC_ROUNDTRIP
360
1EFC
  0
DICTIONARY
  5
1EFD
330
1086
100
AcDbDictionary
280
     1
281
     1
  3
ACAD_XREC_ROUNDTRIP
360
1EFE
  0
DICTIONARY
  5
1F17
330
1093
100
AcDbDictionary
280
     1
281
     1
  3
ACAD_XREC_ROUNDTRIP
360
1F18
  0
DICTIONARY
  5
1F11
330
1090
100
AcDbDictionary
280
     1
281
     1
  3
ACAD_XREC_ROUNDTRIP
360
1F12
  0
DICTIONARY
  5
1F19
330
1094
100
AcDbDictionary
280
     1
281
     1
  3
ACAD_XREC_ROUNDTRIP
360
1F1A
  0
DICTIONARY
  5
1F09
330
108C
100
AcDbDictionary
280
     1
281
     1
  3
ACAD_XREC_ROUNDTRIP
360
1F0A
  0
DICTIONARY
  5
1F0F
330
108F
100
AcDbDictionary
280
     1
281
     1
  3
ACAD_XREC_ROUNDTRIP
360
1F10
  0
XRECORD
  5
1EEE
102
{ACAD_REACTORS
330
1EED
102
}
330
1EED
100
AcDbXrecord
280
     1
102
SHADEPLOT
 70
     0
102
SHADEPLOTRESLEVEL
 70
     2
102
SHADEPLOTCUSTOMDPI
 70
   300
  0
XRECORD
  5
1EF2
102
{ACAD_REACTORS
330
1EF1
102
}
330
1EF1
100
AcDbXrecord
280
     1
102
SHADEPLOT
 70
     0
102
SHADEPLOTRESLEVEL
 70
     2
102
SHADEPLOTCUSTOMDPI
 70
   300
  0
XRECORD
  5
1EF0
102
{ACAD_REACTORS
330
1EEF
102
}
330
1EEF
100
AcDbXrecord
280
     1
102
SHADEPLOT
 70
     0
102
SHADEPLOTRESLEVEL
 70
     2
102
SHADEPLOTCUSTOMDPI
 70
   300
  0
XRECORD
  5
1EF5
102
{ACAD_REACTORS
330
1073
102
}
330
1073
100
AcDbXrecord
280
     1
102
MATERIAL
148
0.0
149
0.0
149
0.0
 93
        0
 94
      127
282
     0
 72
     0
 77
     0
171
     0
175
     0
179
     0
273
     0
  0
XRECORD
  5
1075
102
{ACAD_REACTORS
330
1073
102
}
330
1073
100
AcDbXrecord
280
     1
270
     1
271
     1
  0
XRECORD
  5
1074
102
{ACAD_REACTORS
330
1073
102
}
330
1073
100
AcDbXrecord
280
     1
270
     1
271
     1
  0
XRECORD
  5
1078
102
{ACAD_REACTORS
330
1073
102
}
330
1073
100
AcDbXrecord
280
     1
270
     1
271
     1
  0
XRECORD
  5
1077
102
{ACAD_REACTORS
330
1073
102
}
330
1073
100
AcDbXrecord
280
     1
270
     1
271
     1
  0
XRECORD
  5
1079
102
{ACAD_REACTORS
330
1073
102
}
330
1073
100
AcDbXrecord
280
     1
270
     1
271
     1
  0
XRECORD
  5
1076
102
{ACAD_REACTORS
330
1073
102
}
330
1073
100
AcDbXrecord
280
     1
270
     1
271
     1
  0
XRECORD
  5
1EF4
102
{ACAD_REACTORS
330
106B
102
}
330
106B
100
AcDbXrecord
280
     1
102
MATERIAL
148
0.0
149
0.0
149
0.0
 93
        0
 94
      127
282
     0
 72
     0
 77
     0
171
     0
175
     0
179
     0
273
     0
  0
XRECORD
  5
106D
102
{ACAD_REACTORS
330
106B
102
}
330
106B
100
AcDbXrecord
280
     1
270
     1
271
     1
  0
XRECORD
  5
106C
102
{ACAD_REACTORS
330
106B
102
}
330
106B
100
AcDbXrecord
280
     1
270
     1
271
     1
  0
XRECORD
  5
1070
102
{ACAD_REACTORS
330
106B
102
}
330
106B
100
AcDbXrecord
280
     1
270
     1
271
     1
  0
XRECORD
  5
106F
102
{ACAD_REACTORS
330
106B
102
}
330
106B
100
AcDbXrecord
280
     1
270
     1
271
     1
  0
XRECORD
  5
1071
102
{ACAD_REACTORS
330
106B
102
}
330
106B
100
AcDbXrecord
280
     1
270
     1
271
     1
  0
XRECORD
  5
106E
102
{ACAD_REACTORS
330
106B
102
}
330
106B
100
AcDbXrecord
280
     1
270
     1
271
     1
  0
XRECORD
  5
1EF6
102
{ACAD_REACTORS
330
107B
102
}
330
107B
100
AcDbXrecord
280
     1
102
MATERIAL
148
0.0
149
0.0
149
0.0
 93
        0
 94
      127
282
     0
 72
     0
 77
     0
171
     0
175
     0
179
     0
273
     0
  0
XRECORD
  5
107D
102
{ACAD_REACTORS
330
107B
102
}
330
107B
100
AcDbXrecord
280
     1
270
     1
271
     1
  0
XRECORD
  5
107C
102
{ACAD_REACTORS
330
107B
102
}
330
107B
100
AcDbXrecord
280
     1
270
     1
271
     1
  0
XRECORD
  5
1080
102
{ACAD_REACTORS
330
107B
102
}
330
107B
100
AcDbXrecord
280
     1
270
     1
271
     1
  0
XRECORD
  5
107F
102
{ACAD_REACTORS
330
107B
102
}
330
107B
100
AcDbXrecord
280
     1
270
     1
271
     1
  0
XRECORD
  5
1081
102
{ACAD_REACTORS
330
107B
102
}
330
107B
100
AcDbXrecord
280
     1
270
     1
271
     1
  0
XRECORD
  5
107E
102
{ACAD_REACTORS
330
107B
102
}
330
107B
100
AcDbXrecord
280
     1
270
     1
271
     1
  0
CELLSTYLEMAP
  5
1EE8
102
{ACAD_REACTORS
330
1BA1
102
}
330
1BA1
100
AcDbCellStyleMap
 90
        3
300
CELLSTYLE
  1
TABLEFORMAT_BEGIN
 90
        5
170
     1
 91
        0
 92
    32768
 62
   257
 93
        1
300
CONTENTFORMAT
  1
CONTENTFORMAT_BEGIN
 90
        0
 91
        0
 92
        4
 93
        0
300

 40
0.0
140
1.0
 94
        5
 62
     0
340
11
144
6.0
309
CONTENTFORMAT_END
171
     1
301
MARGIN
  1
CELLMARGIN_BEGIN
 40
1.5
 40
1.5
 40
1.5
 40
1.5
 40
0.18
 40
0.18
309
CELLMARGIN_END
 94
        6
 95
        1
302
GRIDFORMAT
  1
GRIDFORMAT_BEGIN
 90
        0
 91
        1
 62
     0
 92
       -2
340
0
 93
        0
 40
0.045
309
GRIDFORMAT_END
 95
        2
302
GRIDFORMAT
  1
GRIDFORMAT_BEGIN
 90
        0
 91
        1
 62
     0
 92
       -2
340
0
 93
        0
 40
0.045
309
GRIDFORMAT_END
 95
        4
302
GRIDFORMAT
  1
GRIDFORMAT_BEGIN
 90
        0
 91
        1
 62
     0
 92
       -2
340
0
 93
        0
 40
0.045
309
GRIDFORMAT_END
 95
        8
302
GRIDFORMAT
  1
GRIDFORMAT_BEGIN
 90
        0
 91
        1
 62
     0
 92
       -2
340
0
 93
        0
 40
0.045
309
GRIDFORMAT_END
 95
       16
302
GRIDFORMAT
  1
GRIDFORMAT_BEGIN
 90
        0
 91
        1
 62
     0
 92
       -2
340
0
 93
        0
 40
0.045
309
GRIDFORMAT_END
 95
       32
302
GRIDFORMAT
  1
GRIDFORMAT_BEGIN
 90
        0
 91
        1
 62
     0
 92
       -2
340
0
 93
        0
 40
0.045
309
GRIDFORMAT_END
309
TABLEFORMAT_END
  1
CELLSTYLE_BEGIN
 90
        1
 91
        1
300
_TITLE
309
CELLSTYLE_END
300
CELLSTYLE
  1
TABLEFORMAT_BEGIN
 90
        5
170
     1
 91
        0
 92
        0
 62
   257
 93
        1
300
CONTENTFORMAT
  1
CONTENTFORMAT_BEGIN
 90
        0
 91
        0
 92
        4
 93
        0
300

 40
0.0
140
1.0
 94
        5
 62
     0
340
11
144
4.5
309
CONTENTFORMAT_END
171
     1
301
MARGIN
  1
CELLMARGIN_BEGIN
 40
1.5
 40
1.5
 40
1.5
 40
1.5
 40
0.18
 40
0.18
309
CELLMARGIN_END
 94
        6
 95
        1
302
GRIDFORMAT
  1
GRIDFORMAT_BEGIN
 90
        0
 91
        1
 62
     0
 92
       -2
340
0
 93
        0
 40
0.045
309
GRIDFORMAT_END
 95
        2
302
GRIDFORMAT
  1
GRIDFORMAT_BEGIN
 90
        0
 91
        1
 62
     0
 92
       -2
340
0
 93
        0
 40
0.045
309
GRIDFORMAT_END
 95
        4
302
GRIDFORMAT
  1
GRIDFORMAT_BEGIN
 90
        0
 91
        1
 62
     0
 92
       -2
340
0
 93
        0
 40
0.045
309
GRIDFORMAT_END
 95
        8
302
GRIDFORMAT
  1
GRIDFORMAT_BEGIN
 90
        0
 91
        1
 62
     0
 92
       -2
340
0
 93
        0
 40
0.045
309
GRIDFORMAT_END
 95
       16
302
GRIDFORMAT
  1
GRIDFORMAT_BEGIN
 90
        0
 91
        1
 62
     0
 92
       -2
340
0
 93
        0
 40
0.045
309
GRIDFORMAT_END
 95
       32
302
GRIDFORMAT
  1
GRIDFORMAT_BEGIN
 90
        0
 91
        1
 62
     0
 92
       -2
340
0
 93
        0
 40
0.045
309
GRIDFORMAT_END
309
TABLEFORMAT_END
  1
CELLSTYLE_BEGIN
 90
        2
 91
        1
300
_HEADER
309
CELLSTYLE_END
300
CELLSTYLE
  1
TABLEFORMAT_BEGIN
 90
        5
170
     1
 91
        0
 92
        0
 62
   257
 93
        1
300
CONTENTFORMAT
  1
CONTENTFORMAT_BEGIN
 90
        0
 91
        0
 92
        4
 93
        0
300

 40
0.0
140
1.0
 94
        2
 62
     0
340
11
144
4.5
309
CONTENTFORMAT_END
171
     1
301
MARGIN
  1
CELLMARGIN_BEGIN
 40
1.5
 40
1.5
 40
1.5
 40
1.5
 40
0.18
 40
0.18
309
CELLMARGIN_END
 94
        6
 95
        1
302
GRIDFORMAT
  1
GRIDFORMAT_BEGIN
 90
        0
 91
        1
 62
     0
 92
       -2
340
0
 93
        0
 40
0.045
309
GRIDFORMAT_END
 95
        2
302
GRIDFORMAT
  1
GRIDFORMAT_BEGIN
 90
        0
 91
        1
 62
     0
 92
       -2
340
0
 93
        0
 40
0.045
309
GRIDFORMAT_END
 95
        4
302
GRIDFORMAT
  1
GRIDFORMAT_BEGIN
 90
        0
 91
        1
 62
     0
 92
       -2
340
0
 93
        0
 40
0.045
309
GRIDFORMAT_END
 95
        8
302
GRIDFORMAT
  1
GRIDFORMAT_BEGIN
 90
        0
 91
        1
 62
     0
 92
       -2
340
0
 93
        0
 40
0.045
309
GRIDFORMAT_END
 95
       16
302
GRIDFORMAT
  1
GRIDFORMAT_BEGIN
 90
        0
 91
        1
 62
     0
 92
       -2
340
0
 93
        0
 40
0.045
309
GRIDFORMAT_END
 95
       32
302
GRIDFORMAT
  1
GRIDFORMAT_BEGIN
 90
        0
 91
        1
 62
     0
 92
       -2
340
0
 93
        0
 40
0.045
309
GRIDFORMAT_END
309
TABLEFORMAT_END
  1
CELLSTYLE_BEGIN
 90
        3
 91
        2
300
_DATA
309
CELLSTYLE_END
  0
XRECORD
  5
1EF3
102
{ACAD_REACTORS
330
1BA1
102
}
330
1BA1
100
AcDbXrecord
280
     1
102
ACAD_ROUNDTRIP_PRE2007_TABLESTYLE
 90
        4
 91
        0
  1

 92
        4
 93
        0
  2

 94
        4
 95
        0
  3

  0
XRECORD
  5
1F02
102
{ACAD_REACTORS
330
1F01
102
}
330
1F01
100
AcDbXrecord
280
     1
102
RTVSPropertyOp0
 70
     1
102
RTVSPropertyOp1
 70
     1
102
RTVSPropertyOp2
 70
     1
102
RTVSPropertyOp3
 70
     1
102
RTVSPropertyOp4
 70
     1
102
RTVSPropertyOp5
 70
     1
102
RTVSPropertyOp6
 70
     1
102
RTVSPropertyOp7
 70
     1
102
RTVSPropertyOp8
 70
     1
102
RTVSPropertyOp9
 70
     1
102
RTVSPropertyOp10
 70
     1
102
RTVSPropertyOp11
 70
     1
102
RTVSPropertyOp12
 70
     1
102
RTVSPropertyOp13
 70
     1
102
RTVSPropertyOp14
 70
     1
102
RTVSPropertyOp15
 70
     1
102
RTVSPropertyOp16
 70
     1
102
RTVSPropertyOp17
 70
     1
102
RTVSPropertyOp18
 70
     1
102
RTVSPropertyOp19
 70
     1
102
RTVSPropertyOp20
 70
     1
102
RTVSPropertyOp21
 70
     1
102
RTVSPropertyOp22
 70
     1
102
RTVSPropertyOp23
 70
     1
102
RTVSPropertyOp24
 70
     1
102
RTVSPropertyOp25
 70
     1
102
RTVSPropertyOp26
 70
     1
102
RTVSPropertyOp27
 70
     1
  0
XRECORD
  5
1F06
102
{ACAD_REACTORS
330
1F05
102
}
330
1F05
100
AcDbXrecord
280
     1
102
RTVSPropertyOp0
 70
     1
102
RTVSPropertyOp1
 70
     1
102
RTVSPropertyOp2
 70
     1
102
RTVSPropertyOp3
 70
     1
102
RTVSPropertyOp4
 70
     1
102
RTVSPropertyOp5
 70
     1
102
RTVSPropertyOp6
 70
     1
102
RTVSPropertyOp7
 70
     1
102
RTVSPropertyOp8
 70
     1
102
RTVSPropertyOp9
 70
     1
102
RTVSPropertyOp10
 70
     1
102
RTVSPropertyOp11
 70
     1
102
RTVSPropertyOp12
 70
     1
102
RTVSPropertyOp13
 70
     1
102
RTVSPropertyOp14
 70
     1
102
RTVSPropertyOp15
 70
     1
102
RTVSPropertyOp16
 70
     1
102
RTVSPropertyOp17
 70
     1
102
RTVSPropertyOp18
 70
     1
102
RTVSPropertyOp19
 70
     1
102
RTVSPropertyOp20
 70
     1
102
RTVSPropertyOp21
 70
     1
102
RTVSPropertyOp22
 70
     1
102
RTVSPropertyOp23
 70
     1
102
RTVSPropertyOp24
 70
     1
102
RTVSPropertyOp25
 70
     1
102
RTVSPropertyOp26
 70
     1
102
RTVSPropertyOp27
 70
     1
  0
XRECORD
  5
1F04
102
{ACAD_REACTORS
330
1F03
102
}
330
1F03
100
AcDbXrecord
280
     1
102
RTVSPropertyOp0
 70
     1
102
RTVSPropertyOp1
 70
     1
102
RTVSPropertyOp2
 70
     1
102
RTVSPropertyOp3
 70
     1
102
RTVSPropertyOp4
 70
     1
102
RTVSPropertyOp5
 70
     1
102
RTVSPropertyOp6
 70
     1
102
RTVSPropertyOp7
 70
     1
102
RTVSPropertyOp8
 70
     1
102
RTVSPropertyOp9
 70
     1
102
RTVSPropertyOp10
 70
     1
102
RTVSPropertyOp11
 70
     1
102
RTVSPropertyOp12
 70
     1
102
RTVSPropertyOp13
 70
     1
102
RTVSPropertyOp14
 70
     1
102
RTVSPropertyOp15
 70
     1
102
RTVSPropertyOp16
 70
     1
102
RTVSPropertyOp17
 70
     1
102
RTVSPropertyOp18
 70
     1
102
RTVSPropertyOp19
 70
     1
102
RTVSPropertyOp20
 70
     1
102
RTVSPropertyOp21
 70
     1
102
RTVSPropertyOp22
 70
     1
102
RTVSPropertyOp23
 70
     1
102
RTVSPropertyOp24
 70
     1
102
RTVSPropertyOp25
 70
     1
102
RTVSPropertyOp26
 70
     1
102
RTVSPropertyOp27
 70
     1
  0
XRECORD
  5
1F00
102
{ACAD_REACTORS
330
1EFF
102
}
330
1EFF
100
AcDbXrecord
280
     1
102
RTVSPropertyOp0
 70
     1
102
RTVSPropertyOp1
 70
     1
102
RTVSPropertyOp2
 70
     1
102
RTVSPropertyOp3
 70
     1
102
RTVSPropertyOp4
 70
     1
102
RTVSPropertyOp5
 70
     1
102
RTVSPropertyOp6
 70
     1
102
RTVSPropertyOp7
 70
     1
102
RTVSPropertyOp8
 70
     1
102
RTVSPropertyOp9
 70
     1
102
RTVSPropertyOp10
 70
     1
102
RTVSPropertyOp11
 70
     1
102
RTVSPropertyOp12
 70
     1
102
RTVSPropertyOp13
 70
     1
102
RTVSPropertyOp14
 70
     1
102
RTVSPropertyOp15
 70
     1
102
RTVSPropertyOp16
 70
     1
102
RTVSPropertyOp17
 70
     1
102
RTVSPropertyOp18
 70
     1
102
RTVSPropertyOp19
 70
     1
102
RTVSPropertyOp20
 70
     1
102
RTVSPropertyOp21
 70
     1
102
RTVSPropertyOp22
 70
     1
102
RTVSPropertyOp23
 70
     1
102
RTVSPropertyOp24
 70
     1
102
RTVSPropertyOp25
 70
     1
102
RTVSPropertyOp26
 70
     1
102
RTVSPropertyOp27
 70
     1
  0
XRECORD
  5
1F0E
102
{ACAD_REACTORS
330
1F0D
102
}
330
1F0D
100
AcDbXrecord
280
     1
102
RTVSPropertyOp0
 70
     1
102
RTVSPropertyOp1
 70
     1
102
RTVSPropertyOp2
 70
     1
102
RTVSPropertyOp3
 70
     1
102
RTVSPropertyOp4
 70
     1
102
RTVSPropertyOp5
 70
     1
102
RTVSPropertyOp6
 70
     1
102
RTVSPropertyOp7
 70
     1
102
RTVSPropertyOp8
 70
     1
102
RTVSPropertyOp9
 70
     1
102
RTVSPropertyOp10
 70
     1
102
RTVSPropertyOp11
 70
     1
102
RTVSPropertyOp12
 70
     1
102
RTVSPropertyOp13
 70
     1
102
RTVSPropertyOp14
 70
     1
102
RTVSPropertyOp15
 70
     1
102
RTVSPropertyOp16
 70
     1
102
RTVSPropertyOp17
 70
     1
102
RTVSPropertyOp18
 70
     1
102
RTVSPropertyOp19
 70
     1
102
RTVSPropertyOp20
 70
     1
102
RTVSPropertyOp21
 70
     1
102
RTVSPropertyOp22
 70
     1
102
RTVSPropertyOp23
 70
     1
102
RTVSPropertyOp24
 70
     1
102
RTVSPropertyOp25
 70
     1
102
RTVSPropertyOp26
 70
     1
102
RTVSPropertyOp27
 70
     1
  0
XRECORD
  5
1F16
102
{ACAD_REACTORS
330
1F15
102
}
330
1F15
100
AcDbXrecord
280
     1
102
RTVSPropertyOp0
 70
     1
102
RTVSPropertyOp1
 70
     1
102
RTVSPropertyOp2
 70
     1
102
RTVSPropertyOp3
 70
     1
102
RTVSPropertyOp4
 70
     1
102
RTVSPropertyOp5
 70
     1
102
RTVSPropertyOp6
 70
     1
102
RTVSPropertyOp7
 70
     1
102
RTVSPropertyOp8
 70
     1
102
RTVSPropertyOp9
 70
     1
102
RTVSPropertyOp10
 70
     1
102
RTVSPropertyOp11
 70
     1
102
RTVSPropertyOp12
 70
     1
102
RTVSPropertyOp13
 70
     1
102
RTVSPropertyOp14
 70
     1
102
RTVSPropertyOp15
 70
     1
102
RTVSPropertyOp16
 70
     1
102
RTVSPropertyOp17
 70
     1
102
RTVSPropertyOp18
 70
     1
102
RTVSPropertyOp19
 70
     1
102
RTVSPropertyOp20
 70
     1
102
RTVSPropertyOp21
 70
     1
102
RTVSPropertyOp22
 70
     1
102
RTVSPropertyOp23
 70
     1
102
RTVSPropertyOp24
 70
     1
102
RTVSPropertyOp25
 70
     1
102
RTVSPropertyOp26
 70
     1
102
RTVSPropertyOp27
 70
     1
  0
XRECORD
  5
1F08
102
{ACAD_REACTORS
330
1F07
102
}
330
1F07
100
AcDbXrecord
280
     1
102
RTVSPropertyOp0
 70
     1
102
RTVSPropertyOp1
 70
     1
102
RTVSPropertyOp2
 70
     1
102
RTVSPropertyOp3
 70
     1
102
RTVSPropertyOp4
 70
     1
102
RTVSPropertyOp5
 70
     1
102
RTVSPropertyOp6
 70
     1
102
RTVSPropertyOp7
 70
     1
102
RTVSPropertyOp8
 70
     1
102
RTVSPropertyOp9
 70
     1
102
RTVSPropertyOp10
 70
     1
102
RTVSPropertyOp11
 70
     1
102
RTVSPropertyOp12
 70
     1
102
RTVSPropertyOp13
 70
     1
102
RTVSPropertyOp14
 70
     1
102
RTVSPropertyOp15
 70
     1
102
RTVSPropertyOp16
 70
     1
102
RTVSPropertyOp17
 70
     1
102
RTVSPropertyOp18
 70
     1
102
RTVSPropertyOp19
 70
     1
102
RTVSPropertyOp20
 70
     1
102
RTVSPropertyOp21
 70
     1
102
RTVSPropertyOp22
 70
     1
102
RTVSPropertyOp23
 70
     1
102
RTVSPropertyOp24
 70
     1
102
RTVSPropertyOp25
 70
     1
102
RTVSPropertyOp26
 70
     1
102
RTVSPropertyOp27
 70
     1
  0
XRECORD
  5
1F0C
102
{ACAD_REACTORS
330
1F0B
102
}
330
1F0B
100
AcDbXrecord
280
     1
102
RTVSPropertyOp0
 70
     1
102
RTVSPropertyOp1
 70
     1
102
RTVSPropertyOp2
 70
     1
102
RTVSPropertyOp3
 70
     1
102
RTVSPropertyOp4
 70
     1
102
RTVSPropertyOp5
 70
     1
102
RTVSPropertyOp6
 70
     1
102
RTVSPropertyOp7
 70
     1
102
RTVSPropertyOp8
 70
     1
102
RTVSPropertyOp9
 70
     1
102
RTVSPropertyOp10
 70
     1
102
RTVSPropertyOp11
 70
     1
102
RTVSPropertyOp12
 70
     1
102
RTVSPropertyOp13
 70
     1
102
RTVSPropertyOp14
 70
     1
102
RTVSPropertyOp15
 70
     1
102
RTVSPropertyOp16
 70
     1
102
RTVSPropertyOp17
 70
     1
102
RTVSPropertyOp18
 70
     1
102
RTVSPropertyOp19
 70
     1
102
RTVSPropertyOp20
 70
     1
102
RTVSPropertyOp21
 70
     1
102
RTVSPropertyOp22
 70
     1
102
RTVSPropertyOp23
 70
     1
102
RTVSPropertyOp24
 70
     1
102
RTVSPropertyOp25
 70
     1
102
RTVSPropertyOp26
 70
     1
102
RTVSPropertyOp27
 70
     1
  0
XRECORD
  5
1F1C
102
{ACAD_REACTORS
330
1F1B
102
}
330
1F1B
100
AcDbXrecord
280
     1
102
RTVSPropertyOp0
 70
     0
102
RTVSPropertyOp1
 70
     0
102
RTVSPropertyOp2
 70
     0
102
RTVSPropertyOp3
 70
     0
102
RTVSPropertyOp4
 70
     0
102
RTVSPropertyOp5
 70
     0
102
RTVSPropertyOp6
 70
     0
102
RTVSPropertyOp7
 70
     0
102
RTVSPropertyOp8
 70
     0
102
RTVSPropertyOp9
 70
     0
102
RTVSPropertyOp10
 70
     0
102
RTVSPropertyOp11
 70
     0
102
RTVSPropertyOp12
 70
     0
102
RTVSPropertyOp13
 70
     0
102
RTVSPropertyOp14
 70
     2
102
RTVSPropertyOp15
 70
     0
102
RTVSPropertyOp16
 70
     0
102
RTVSPropertyOp17
 70
     0
102
RTVSPropertyOp18
 70
     0
102
RTVSPropertyOp19
 70
     0
102
RTVSPropertyOp20
 70
     0
102
RTVSPropertyOp21
 70
     0
102
RTVSPropertyOp22
 70
     0
102
RTVSPropertyOp23
 70
     0
102
RTVSPropertyOp24
 70
     0
102
RTVSPropertyOp25
 70
     0
102
RTVSPropertyOp26
 70
     0
102
RTVSPropertyOp27
 70
     0
  0
XRECORD
  5
1F14
102
{ACAD_REACTORS
330
1F13
102
}
330
1F13
100
AcDbXrecord
280
     1
102
RTVSPropertyOp0
 70
     1
102
RTVSPropertyOp1
 70
     1
102
RTVSPropertyOp2
 70
     1
102
RTVSPropertyOp3
 70
     1
102
RTVSPropertyOp4
 70
     1
102
RTVSPropertyOp5
 70
     1
102
RTVSPropertyOp6
 70
     1
102
RTVSPropertyOp7
 70
     1
102
RTVSPropertyOp8
 70
     1
102
RTVSPropertyOp9
 70
     1
102
RTVSPropertyOp10
 70
     1
102
RTVSPropertyOp11
 70
     1
102
RTVSPropertyOp12
 70
     1
102
RTVSPropertyOp13
 70
     1
102
RTVSPropertyOp14
 70
     1
102
RTVSPropertyOp15
 70
     1
102
RTVSPropertyOp16
 70
     1
102
RTVSPropertyOp17
 70
     1
102
RTVSPropertyOp18
 70
     1
102
RTVSPropertyOp19
 70
     1
102
RTVSPropertyOp20
 70
     1
102
RTVSPropertyOp21
 70
     1
102
RTVSPropertyOp22
 70
     1
102
RTVSPropertyOp23
 70
     1
102
RTVSPropertyOp24
 70
     1
102
RTVSPropertyOp25
 70
     1
102
RTVSPropertyOp26
 70
     1
102
RTVSPropertyOp27
 70
     1
  0
XRECORD
  5
1EF8
102
{ACAD_REACTORS
330
1EF7
102
}
330
1EF7
100
AcDbXrecord
280
     1
102
RTVSPropertyOp0
 70
     1
102
RTVSPropertyOp1
 70
     1
102
RTVSPropertyOp2
 70
     1
102
RTVSPropertyOp3
 70
     1
102
RTVSPropertyOp4
 70
     1
102
RTVSPropertyOp5
 70
     1
102
RTVSPropertyOp6
 70
     1
102
RTVSPropertyOp7
 70
     1
102
RTVSPropertyOp8
 70
     1
102
RTVSPropertyOp9
 70
     1
102
RTVSPropertyOp10
 70
     1
102
RTVSPropertyOp11
 70
     1
102
RTVSPropertyOp12
 70
     1
102
RTVSPropertyOp13
 70
     1
102
RTVSPropertyOp14
 70
     1
102
RTVSPropertyOp15
 70
     1
102
RTVSPropertyOp16
 70
     1
102
RTVSPropertyOp17
 70
     1
102
RTVSPropertyOp18
 70
     1
102
RTVSPropertyOp19
 70
     1
102
RTVSPropertyOp20
 70
     1
102
RTVSPropertyOp21
 70
     1
102
RTVSPropertyOp22
 70
     1
102
RTVSPropertyOp23
 70
     1
102
RTVSPropertyOp24
 70
     1
102
RTVSPropertyOp25
 70
     1
102
RTVSPropertyOp26
 70
     1
102
RTVSPropertyOp27
 70
     1
  0
XRECORD
  5
1EFA
102
{ACAD_REACTORS
330
1EF9
102
}
330
1EF9
100
AcDbXrecord
280
     1
102
RTVSPropertyOp0
 70
     1
102
RTVSPropertyOp1
 70
     1
102
RTVSPropertyOp2
 70
     1
102
RTVSPropertyOp3
 70
     1
102
RTVSPropertyOp4
 70
     1
102
RTVSPropertyOp5
 70
     1
102
RTVSPropertyOp6
 70
     1
102
RTVSPropertyOp7
 70
     1
102
RTVSPropertyOp8
 70
     1
102
RTVSPropertyOp9
 70
     1
102
RTVSPropertyOp10
 70
     1
102
RTVSPropertyOp11
 70
     1
102
RTVSPropertyOp12
 70
     1
102
RTVSPropertyOp13
 70
     1
102
RTVSPropertyOp14
 70
     1
102
RTVSPropertyOp15
 70
     1
102
RTVSPropertyOp16
 70
     1
102
RTVSPropertyOp17
 70
     1
102
RTVSPropertyOp18
 70
     1
102
RTVSPropertyOp19
 70
     1
102
RTVSPropertyOp20
 70
     1
102
RTVSPropertyOp21
 70
     1
102
RTVSPropertyOp22
 70
     1
102
RTVSPropertyOp23
 70
     1
102
RTVSPropertyOp24
 70
     1
102
RTVSPropertyOp25
 70
     1
102
RTVSPropertyOp26
 70
     1
102
RTVSPropertyOp27
 70
     1
  0
XRECORD
  5
1EFC
102
{ACAD_REACTORS
330
1EFB
102
}
330
1EFB
100
AcDbXrecord
280
     1
102
RTVSPropertyOp0
 70
     1
102
RTVSPropertyOp1
 70
     1
102
RTVSPropertyOp2
 70
     1
102
RTVSPropertyOp3
 70
     1
102
RTVSPropertyOp4
 70
     1
102
RTVSPropertyOp5
 70
     1
102
RTVSPropertyOp6
 70
     1
102
RTVSPropertyOp7
 70
     1
102
RTVSPropertyOp8
 70
     1
102
RTVSPropertyOp9
 70
     1
102
RTVSPropertyOp10
 70
     1
102
RTVSPropertyOp11
 70
     1
102
RTVSPropertyOp12
 70
     1
102
RTVSPropertyOp13
 70
     1
102
RTVSPropertyOp14
 70
     1
102
RTVSPropertyOp15
 70
     1
102
RTVSPropertyOp16
 70
     1
102
RTVSPropertyOp17
 70
     1
102
RTVSPropertyOp18
 70
     1
102
RTVSPropertyOp19
 70
     1
102
RTVSPropertyOp20
 70
     1
102
RTVSPropertyOp21
 70
     1
102
RTVSPropertyOp22
 70
     1
102
RTVSPropertyOp23
 70
     1
102
RTVSPropertyOp24
 70
     1
102
RTVSPropertyOp25
 70
     1
102
RTVSPropertyOp26
 70
     1
102
RTVSPropertyOp27
 70
     1
  0
XRECORD
  5
1EFE
102
{ACAD_REACTORS
330
1EFD
102
}
330
1EFD
100
AcDbXrecord
280
     1
102
RTVSPropertyOp0
 70
     1
102
RTVSPropertyOp1
 70
     1
102
RTVSPropertyOp2
 70
     1
102
RTVSPropertyOp3
 70
     1
102
RTVSPropertyOp4
 70
     1
102
RTVSPropertyOp5
 70
     1
102
RTVSPropertyOp6
 70
     1
102
RTVSPropertyOp7
 70
     1
102
RTVSPropertyOp8
 70
     1
102
RTVSPropertyOp9
 70
     1
102
RTVSPropertyOp10
 70
     1
102
RTVSPropertyOp11
 70
     1
102
RTVSPropertyOp12
 70
     1
102
RTVSPropertyOp13
 70
     1
102
RTVSPropertyOp14
 70
     1
102
RTVSPropertyOp15
 70
     1
102
RTVSPropertyOp16
 70
     1
102
RTVSPropertyOp17
 70
     1
102
RTVSPropertyOp18
 70
     1
102
RTVSPropertyOp19
 70
     1
102
RTVSPropertyOp20
 70
     1
102
RTVSPropertyOp21
 70
     1
102
RTVSPropertyOp22
 70
     1
102
RTVSPropertyOp23
 70
     1
102
RTVSPropertyOp24
 70
     1
102
RTVSPropertyOp25
 70
     1
102
RTVSPropertyOp26
 70
     1
102
RTVSPropertyOp27
 70
     1
  0
XRECORD
  5
1F18
102
{ACAD_REACTORS
330
1F17
102
}
330
1F17
100
AcDbXrecord
280
     1
102
RTVSPropertyOp0
 70
     0
102
RTVSPropertyOp1
 70
     0
102
RTVSPropertyOp2
 70
     0
102
RTVSPropertyOp3
 70
     0
102
RTVSPropertyOp4
 70
     0
102
RTVSPropertyOp5
 70
     0
102
RTVSPropertyOp6
 70
     0
102
RTVSPropertyOp7
 70
     0
102
RTVSPropertyOp8
 70
     0
102
RTVSPropertyOp9
 70
     0
102
RTVSPropertyOp10
 70
     0
102
RTVSPropertyOp11
 70
     0
102
RTVSPropertyOp12
 70
     0
102
RTVSPropertyOp13
 70
     0
102
RTVSPropertyOp14
 70
     2
102
RTVSPropertyOp15
 70
     0
102
RTVSPropertyOp16
 70
     0
102
RTVSPropertyOp17
 70
     0
102
RTVSPropertyOp18
 70
     0
102
RTVSPropertyOp19
 70
     0
102
RTVSPropertyOp20
 70
     0
102
RTVSPropertyOp21
 70
     0
102
RTVSPropertyOp22
 70
     0
102
RTVSPropertyOp23
 70
     0
102
RTVSPropertyOp24
 70
     0
102
RTVSPropertyOp25
 70
     0
102
RTVSPropertyOp26
 70
     0
102
RTVSPropertyOp27
 70
     0
  0
XRECORD
  5
1F12
102
{ACAD_REACTORS
330
1F11
102
}
330
1F11
100
AcDbXrecord
280
     1
102
RTVSPropertyOp0
 70
     1
102
RTVSPropertyOp1
 70
     1
102
RTVSPropertyOp2
 70
     1
102
RTVSPropertyOp3
 70
     1
102
RTVSPropertyOp4
 70
     1
102
RTVSPropertyOp5
 70
     1
102
RTVSPropertyOp6
 70
     1
102
RTVSPropertyOp7
 70
     1
102
RTVSPropertyOp8
 70
     1
102
RTVSPropertyOp9
 70
     1
102
RTVSPropertyOp10
 70
     1
102
RTVSPropertyOp11
 70
     1
102
RTVSPropertyOp12
 70
     1
102
RTVSPropertyOp13
 70
     1
102
RTVSPropertyOp14
 70
     1
102
RTVSPropertyOp15
 70
     1
102
RTVSPropertyOp16
 70
     1
102
RTVSPropertyOp17
 70
     1
102
RTVSPropertyOp18
 70
     1
102
RTVSPropertyOp19
 70
     1
102
RTVSPropertyOp20
 70
     1
102
RTVSPropertyOp21
 70
     1
102
RTVSPropertyOp22
 70
     1
102
RTVSPropertyOp23
 70
     1
102
RTVSPropertyOp24
 70
     1
102
RTVSPropertyOp25
 70
     1
102
RTVSPropertyOp26
 70
     1
102
RTVSPropertyOp27
 70
     1
  0
XRECORD
  5
1F1A
102
{ACAD_REACTORS
330
1F19
102
}
330
1F19
100
AcDbXrecord
280
     1
102
RTVSPropertyOp0
 70
     0
102
RTVSPropertyOp1
 70
     0
102
RTVSPropertyOp2
 70
     0
102
RTVSPropertyOp3
 70
     0
102
RTVSPropertyOp4
 70
     0
102
RTVSPropertyOp5
 70
     0
102
RTVSPropertyOp6
 70
     0
102
RTVSPropertyOp7
 70
     0
102
RTVSPropertyOp8
 70
     0
102
RTVSPropertyOp9
 70
     0
102
RTVSPropertyOp10
 70
     0
102
RTVSPropertyOp11
 70
     0
102
RTVSPropertyOp12
 70
     0
102
RTVSPropertyOp13
 70
     0
102
RTVSPropertyOp14
 70
     2
102
RTVSPropertyOp15
 70
     0
102
RTVSPropertyOp16
 70
     0
102
RTVSPropertyOp17
 70
     0
102
RTVSPropertyOp18
 70
     0
102
RTVSPropertyOp19
 70
     0
102
RTVSPropertyOp20
 70
     0
102
RTVSPropertyOp21
 70
     0
102
RTVSPropertyOp22
 70
     0
102
RTVSPropertyOp23
 70
     0
102
RTVSPropertyOp24
 70
     0
102
RTVSPropertyOp25
 70
     0
102
RTVSPropertyOp26
 70
     0
102
RTVSPropertyOp27
 70
     0
  0
XRECORD
  5
1F0A
102
{ACAD_REACTORS
330
1F09
102
}
330
1F09
100
AcDbXrecord
280
     1
102
RTVSPropertyOp0
 70
     1
102
RTVSPropertyOp1
 70
     1
102
RTVSPropertyOp2
 70
     1
102
RTVSPropertyOp3
 70
     1
102
RTVSPropertyOp4
 70
     1
102
RTVSPropertyOp5
 70
     1
102
RTVSPropertyOp6
 70
     1
102
RTVSPropertyOp7
 70
     1
102
RTVSPropertyOp8
 70
     1
102
RTVSPropertyOp9
 70
     1
102
RTVSPropertyOp10
 70
     1
102
RTVSPropertyOp11
 70
     1
102
RTVSPropertyOp12
 70
     1
102
RTVSPropertyOp13
 70
     1
102
RTVSPropertyOp14
 70
     1
102
RTVSPropertyOp15
 70
     1
102
RTVSPropertyOp16
 70
     1
102
RTVSPropertyOp17
 70
     1
102
RTVSPropertyOp18
 70
     1
102
RTVSPropertyOp19
 70
     1
102
RTVSPropertyOp20
 70
     1
102
RTVSPropertyOp21
 70
     1
102
RTVSPropertyOp22
 70
     1
102
RTVSPropertyOp23
 70
     1
102
RTVSPropertyOp24
 70
     1
102
RTVSPropertyOp25
 70
     1
102
RTVSPropertyOp26
 70
     1
102
RTVSPropertyOp27
 70
     1
  0
XRECORD
  5
1F10
102
{ACAD_REACTORS
330
1F0F
102
}
330
1F0F
100
AcDbXrecord
280
     1
102
RTVSPropertyOp0
 70
     1
102
RTVSPropertyOp1
 70
     1
102
RTVSPropertyOp2
 70
     1
102
RTVSPropertyOp3
 70
     1
102
RTVSPropertyOp4
 70
     1
102
RTVSPropertyOp5
 70
     1
102
RTVSPropertyOp6
 70
     1
102
RTVSPropertyOp7
 70
     1
102
RTVSPropertyOp8
 70
     1
102
RTVSPropertyOp9
 70
     1
102
RTVSPropertyOp10
 70
     1
102
RTVSPropertyOp11
 70
     1
102
RTVSPropertyOp12
 70
     1
102
RTVSPropertyOp13
 70
     1
102
RTVSPropertyOp14
 70
     1
102
RTVSPropertyOp15
 70
     1
102
RTVSPropertyOp16
 70
     1
102
RTVSPropertyOp17
 70
     1
102
RTVSPropertyOp18
 70
     1
102
RTVSPropertyOp19
 70
     1
102
RTVSPropertyOp20
 70
     1
102
RTVSPropertyOp21
 70
     1
102
RTVSPropertyOp22
 70
     1
102
RTVSPropertyOp23
 70
     1
102
RTVSPropertyOp24
 70
     1
102
RTVSPropertyOp25
 70
     1
102
RTVSPropertyOp26
 70
     1
102
RTVSPropertyOp27
 70
     1
  0
ENDSEC
  0
EOF
