  0
SECTION
  2
HEADER
  9
$ACADVER
  1
AC1015
  9
$ACADMAINTVER
 70
    20
  9
$DWGCODEPAGE
  3
ANSI_1252
  9
$INSBASE
 10
0.0
 20
0.0
 30
0.0
  9
$EXTMIN
 10
4423.424455722367
 20
1929.200915398578
 30
0.0
  9
$EXTMAX
 10
4425.958819786251
 20
1930.035915424869
 30
0.0
  9
$LIMMIN
 10
0.0
 20
0.0
  9
$LIMMAX
 10
420.0
 20
297.0
  9
$ORTHOMODE
 70
     1
  9
$REGENMODE
 70
     1
  9
$FILLMODE
 70
     1
  9
$QTEXTMODE
 70
     0
  9
$MIRRTEXT
 70
     1
  9
$LTSCALE
 40
1.0
  9
$ATTMODE
 70
     1
  9
$TEXTSIZE
 40
2.5
  9
$TRACEWID
 40
1.0
  9
$TEXTSTYLE
  7
SANINDUSA
  9
$CLAYER
  8
0
  9
$CELTYPE
  6
ByLayer
  9
$CECOLOR
 62
   256
  9
$CELTSCALE
 40
1.0
  9
$DISPSILH
 70
     0
  9
$DIMSCALE
 40
10.0
  9
$DIMASZ
 40
2.0
  9
$DIMEXO
 40
1.0
  9
$DIMDLI
 40
1.0
  9
$DIMRND
 40
0.0
  9
$DIMDLE
 40
0.0
  9
$DIMEXE
 40
1.0
  9
$DIMTP
 40
0.0
  9
$DIMTM
 40
0.0
  9
$DIMTXT
 40
2.0
  9
$DIMCEN
 40
0.0
  9
$DIMTSZ
 40
0.0
  9
$DIMTOL
 70
     0
  9
$DIMLIM
 70
     0
  9
$DIMTIH
 70
     0
  9
$DIMTOH
 70
     0
  9
$DIMSE1
 70
     0
  9
$DIMSE2
 70
     0
  9
$DIMTAD
 70
     1
  9
$DIMZIN
 70
     8
  9
$DIMBLK
  1

  9
$DIMASO
 70
     1
  9
$DIMSHO
 70
     1
  9
$DIMPOST
  1

  9
$DIMAPOST
  1

  9
$DIMALT
 70
     0
  9
$DIMALTD
 70
     3
  9
$DIMALTF
 40
0.03937007874016
  9
$DIMLFAC
 40
1.0
  9
$DIMTOFL
 70
     1
  9
$DIMTVP
 40
0.0
  9
$DIMTIX
 70
     0
  9
$DIMSOXD
 70
     0
  9
$DIMSAH
 70
     0
  9
$DIMBLK1
  1

  9
$DIMBLK2
  1

  9
$DIMSTYLE
  2
SANINDUSA
  9
$DIMCLRD
 70
   256
  9
$DIMCLRE
 70
   256
  9
$DIMCLRT
 70
   256
  9
$DIMTFAC
 40
1.0
  9
$DIMGAP
 40
1.0
  9
$DIMJUST
 70
     0
  9
$DIMSD1
 70
     0
  9
$DIMSD2
 70
     0
  9
$DIMTOLJ
 70
     0
  9
$DIMTZIN
 70
     8
  9
$DIMALTZ
 70
     0
  9
$DIMALTTZ
 70
     0
  9
$DIMUPT
 70
     0
  9
$DIMDEC
 70
     0
  9
$DIMTDEC
 70
     0
  9
$DIMALTU
 70
     2
  9
$DIMALTTD
 70
     3
  9
$DIMTXSTY
  7
SANINDUSA
  9
$DIMAUNIT
 70
     0
  9
$DIMADEC
 70
     1
  9
$DIMALTRND
 40
0.0
  9
$DIMAZIN
 70
     0
  9
$DIMDSEP
 70
    44
  9
$DIMATFIT
 70
     3
  9
$DIMFRAC
 70
     0
  9
$DIMLDRBLK
  1

  9
$DIMLUNIT
 70
     2
  9
$DIMLWD
 70
    -1
  9
$DIMLWE
 70
    -1
  9
$DIMTMOVE
 70
     0
  9
$LUNITS
 70
     2
  9
$LUPREC
 70
     4
  9
$SKETCHINC
 40
1.0
  9
$FILLETRAD
 40
0.0
  9
$AUNITS
 70
     0
  9
$AUPREC
 70
     0
  9
$MENU
  1
.
  9
$ELEVATION
 40
0.0
  9
$PELEVATION
 40
0.0
  9
$THICKNESS
 40
0.0
  9
$LIMCHECK
 70
     0
  9
$CHAMFERA
 40
10.0
  9
$CHAMFERB
 40
10.0
  9
$CHAMFERC
 40
20.0
  9
$CHAMFERD
 40
0.0
  9
$SKPOLY
 70
     0
  9
$TDCREATE
 40
2455097.426161563
  9
$TDUCREATE
 40
2455097.384494896
  9
$TDUPDATE
 40
2455296.528917997
  9
$TDUUPDATE
 40
2455296.487251331
  9
$TDINDWG
 40
1.2335783796
  9
$TDUSRTIMER
 40
1.2335783796
  9
$USRTIMER
 70
     1
  9
$ANGBASE
 50
0.0
  9
$ANGDIR
 70
     0
  9
$PDMODE
 70
     0
  9
$PDSIZE
 40
0.0
  9
$PLINEWID
 40
0.0
  9
$SPLFRAME
 70
     0
  9
$SPLINETYPE
 70
     6
  9
$SPLINESEGS
 70
     8
  9
$HANDSEED
  5
32C1
  9
$SURFTAB1
 70
     6
  9
$SURFTAB2
 70
     6
  9
$SURFTYPE
 70
     6
  9
$SURFU
 70
     6
  9
$SURFV
 70
     6
  9
$UCSBASE
  2

  9
$UCSNAME
  2

  9
$UCSORG
 10
0.0
 20
0.0
 30
0.0
  9
$UCSXDIR
 10
1.0
 20
0.0
 30
0.0
  9
$UCSYDIR
 10
0.0
 20
1.0
 30
0.0
  9
$UCSORTHOREF
  2

  9
$UCSORTHOVIEW
 70
     0
  9
$UCSORGTOP
 10
0.0
 20
0.0
 30
0.0
  9
$UCSORGBOTTOM
 10
0.0
 20
0.0
 30
0.0
  9
$UCSORGLEFT
 10
0.0
 20
0.0
 30
0.0
  9
$UCSORGRIGHT
 10
0.0
 20
0.0
 30
0.0
  9
$UCSORGFRONT
 10
0.0
 20
0.0
 30
0.0
  9
$UCSORGBACK
 10
0.0
 20
0.0
 30
0.0
  9
$PUCSBASE
  2

  9
$PUCSNAME
  2

  9
$PUCSORG
 10
0.0
 20
0.0
 30
0.0
  9
$PUCSXDIR
 10
1.0
 20
0.0
 30
0.0
  9
$PUCSYDIR
 10
0.0
 20
1.0
 30
0.0
  9
$PUCSORTHOREF
  2

  9
$PUCSORTHOVIEW
 70
     0
  9
$PUCSORGTOP
 10
0.0
 20
0.0
 30
0.0
  9
$PUCSORGBOTTOM
 10
0.0
 20
0.0
 30
0.0
  9
$PUCSORGLEFT
 10
0.0
 20
0.0
 30
0.0
  9
$PUCSORGRIGHT
 10
0.0
 20
0.0
 30
0.0
  9
$PUCSORGFRONT
 10
0.0
 20
0.0
 30
0.0
  9
$PUCSORGBACK
 10
0.0
 20
0.0
 30
0.0
  9
$USERI1
 70
     0
  9
$USERI2
 70
     0
  9
$USERI3
 70
     0
  9
$USERI4
 70
     0
  9
$USERI5
 70
     0
  9
$USERR1
 40
0.0
  9
$USERR2
 40
0.0
  9
$USERR3
 40
0.0
  9
$USERR4
 40
0.0
  9
$USERR5
 40
0.0
  9
$WORLDVIEW
 70
     1
  9
$SHADEDGE
 70
     3
  9
$SHADEDIF
 70
    70
  9
$TILEMODE
 70
     1
  9
$MAXACTVP
 70
    64
  9
$PINSBASE
 10
0.0
 20
0.0
 30
0.0
  9
$PLIMCHECK
 70
     0
  9
$PEXTMIN
 10
1.000000000000000E+20
 20
1.000000000000000E+20
 30
1.000000000000000E+20
  9
$PEXTMAX
 10
-1.000000000000000E+20
 20
-1.000000000000000E+20
 30
-1.000000000000000E+20
  9
$PLIMMIN
 10
0.0
 20
0.0
  9
$PLIMMAX
 10
420.0
 20
297.0
  9
$UNITMODE
 70
     0
  9
$VISRETAIN
 70
     1
  9
$PLINEGEN
 70
     0
  9
$PSLTSCALE
 70
     1
  9
$TREEDEPTH
 70
  3020
  9
$CMLSTYLE
  2
Standard
  9
$CMLJUST
 70
     0
  9
$CMLSCALE
 40
20.0
  9
$PROXYGRAPHICS
 70
     1
  9
$MEASUREMENT
 70
     1
  9
$CELWEIGHT
370
    -1
  9
$ENDCAPS
280
     0
  9
$JOINSTYLE
280
     0
  9
$LWDISPLAY
290
     0
  9
$INSUNITS
 70
     4
  9
$HYPERLINKBASE
  1

  9
$STYLESHEET
  1
sanindusa.ctb
  9
$XEDIT
290
     1
  9
$CEPSNTYPE
380
     0
  9
$PSTYLEMODE
290
     1
  9
$FINGERPRINTGUID
  2
{90773B8C-B4CC-469C-8FBA-A8945AC11F1A}
  9
$VERSIONGUID
  2
{C3B3B608-6A66-41A4-A3A5-F6AFF37870A1}
  9
$EXTNAMES
290
     1
  9
$PSVPSCALE
 40
0.0
  9
$OLESTARTUP
290
     0
  0
ENDSEC
  0
SECTION
  2
CLASSES
  0
CLASS
  1
ACDBDICTIONARYWDFLT
  2
AcDbDictionaryWithDefault
  3
ObjectDBX Classes
 90
        0
280
     0
281
     0
  0
CLASS
  1
ACDBPLACEHOLDER
  2
AcDbPlaceHolder
  3
ObjectDBX Classes
 90
        0
280
     0
281
     0
  0
CLASS
  1
LAYOUT
  2
AcDbLayout
  3
ObjectDBX Classes
 90
        0
280
     0
281
     0
  0
CLASS
  1
DICTIONARYVAR
  2
AcDbDictionaryVar
  3
ObjectDBX Classes
 90
        0
280
     0
281
     0
  0
CLASS
  1
DIMASSOC
  2
AcDbDimAssoc
  3
"AcDbDimAssoc|Product Desc:     AcDim ARX App For Dimension|Company:          Autodesk, Inc.|WEB Address:      www.autodesk.com"
 90
    32768
280
     0
281
     0
  0
CLASS
  1
TABLESTYLE
  2
AcDbTableStyle
  3
ObjectDBX Classes
 90
     4095
280
     0
281
     0
  0
CLASS
  1
MATERIAL
  2
AcDbMaterial
  3
ObjectDBX Classes
 90
     1153
280
     0
281
     0
  0
CLASS
  1
VISUALSTYLE
  2
AcDbVisualStyle
  3
ObjectDBX Classes
 90
     4095
280
     0
281
     0
  0
CLASS
  1
SCALE
  2
AcDbScale
  3
ObjectDBX Classes
 90
     1153
280
     0
281
     0
  0
CLASS
  1
MLEADERSTYLE
  2
AcDbMLeaderStyle
  3
ACDB_MLEADERSTYLE_CLASS
 90
     4095
280
     0
281
     0
  0
CLASS
  1
AEC_REFEDIT_STATUS_TRACKER
  2
AecDbRefEditStatusTracker
  3
AecArchBase60|Product Desc: Autodesk Architectural Desktop 2007 |Company: Autodesk,Inc. |WEB Address: www.autodesk.com
 90
    32897
280
     0
281
     0
  0
CLASS
  1
NPOCOLLECTION
  2
AcDbImpNonPersistentObjectsCollection
  3
ObjectDBX Classes
 90
    33921
280
     0
281
     0
  0
CLASS
  1
SORTENTSTABLE
  2
AcDbSortentsTable
  3
ObjectDBX Classes
 90
        0
280
     0
281
     0
  0
CLASS
  1
CELLSTYLEMAP
  2
AcDbCellStyleMap
  3
ObjectDBX Classes
 90
     1152
280
     0
281
     0
  0
CLASS
  1
SOLID_BACKGROUND
  2
AcDbSolidBackground
  3
SCENEOE
 90
    36863
280
     0
281
     0
  0
ENDSEC
  0
SECTION
  2
TABLES
  0
TABLE
  2
VPORT
  5
8
102
{ACAD_XDICTIONARY
360
2607
102
}
330
0
100
AcDbSymbolTable
 70
     1
  0
VPORT
  5
1068
330
8
100
AcDbSymbolTableRecord
100
AcDbViewportTableRecord
  2
*Active
 70
     0
 10
0.0
 20
0.0
 11
1.0
 21
1.0
 12
4424.691637797396
 22
1929.618415411723
 13
0.0
 23
0.0
 14
10.0
 24
10.0
 15
10.0
 25
10.0
 16
0.0
 26
0.0
 36
1.0
 17
0.0
 27
0.0
 37
0.0
 40
1.555735554034161
 41
1.635233160621761
 42
50.0
 43
0.0
 44
0.0
 50
0.0
 51
0.0
 71
     0
 72
   100
 73
     1
 74
     2
 75
     0
 76
     0
 77
     0
 78
     0
281
     0
 65
     1
110
0.0
120
0.0
130
0.0
111
1.0
121
0.0
131
0.0
112
0.0
122
1.0
132
0.0
 79
     0
146
0.0
  0
ENDTAB
  0
TABLE
  2
LTYPE
  5
5
330
0
100
AcDbSymbolTable
 70
     7
  0
LTYPE
  5
14
330
5
100
AcDbSymbolTableRecord
100
AcDbLinetypeTableRecord
  2
ByBlock
 70
     0
  3

 72
    65
 73
     0
 40
0.0
  0
LTYPE
  5
15
330
5
100
AcDbSymbolTableRecord
100
AcDbLinetypeTableRecord
  2
ByLayer
 70
     0
  3

 72
    65
 73
     0
 40
0.0
  0
LTYPE
  5
16
330
5
100
AcDbSymbolTableRecord
100
AcDbLinetypeTableRecord
  2
Continuous
 70
     0
  3
Solid line
 72
    65
 73
     0
 40
0.0
  0
LTYPE
  5
2D
330
5
100
AcDbSymbolTableRecord
100
AcDbLinetypeTableRecord
  2
DASHDOT
 70
     0
  3
Dash dot __ . __ . __ . __ . __ . __ . __ . __
 72
    65
 73
     4
 40
25.4
 49
12.7
 74
     0
 49
-6.349999999999999
 74
     0
 49
0.0
 74
     0
 49
-6.349999999999999
 74
     0
  0
LTYPE
  5
2E
330
5
100
AcDbSymbolTableRecord
100
AcDbLinetypeTableRecord
  2
HIDDEN
 70
     0
  3
Hidden __ __ __ __ __ __ __ __ __ __ __ __ __ _
 72
    65
 73
     2
 40
9.524999999999998
 49
6.349999999999999
 74
     0
 49
-3.174999999999999
 74
     0
  0
LTYPE
  5
C75
330
5
100
AcDbSymbolTableRecord
100
AcDbLinetypeTableRecord
  2
AM_ISO02W050
 70
     0
  3
__ __ __ __ __ __ __ __ __ __ __ __ __ __ __
 72
    65
 73
     2
 40
7.5
 49
6.0
 74
     0
 49
-1.5
 74
     0
  0
LTYPE
  5
C76
330
5
100
AcDbSymbolTableRecord
100
AcDbLinetypeTableRecord
  2
AM_ISO08W050
 70
     0
  3
____ . ____ . ____ . ____ . ____ . ____ . ____
 72
    65
 73
     4
 40
18.0
 49
12.0
 74
     0
 49
-1.5
 74
     0
 49
3.0
 74
     0
 49
-1.5
 74
     0
  0
LTYPE
  5
10B3
330
5
100
AcDbSymbolTableRecord
100
AcDbLinetypeTableRecord
  2
CENTER
 70
     0
  3
Center ____ _ ____ _ ____ _ ____ _ ____ _ ____
 72
    65
 73
     4
 40
10.16
 49
6.349999999999999
 74
     0
 49
-1.27
 74
     0
 49
1.27
 74
     0
 49
-1.27
 74
     0
  0
LTYPE
  5
319D
330
5
100
AcDbSymbolTableRecord
100
AcDbLinetypeTableRecord
  2
SLD-Solid
 70
     0
  3
SolidWorks Line Style
 72
    65
 73
     0
 40
0.0
  0
ENDTAB
  0
TABLE
  2
LAYER
  5
2
102
{ACAD_XDICTIONARY
360
1051
102
}
330
0
100
AcDbSymbolTable
 70
    17
  0
LAYER
  5
10
102
{ACAD_XDICTIONARY
360
2478
102
}
330
2
100
AcDbSymbolTableRecord
100
AcDbLayerTableRecord
  2
0
 70
     0
 62
     7
  6
Continuous
370
    -3
390
F
  0
LAYER
  5
2F
102
{ACAD_XDICTIONARY
360
247A
102
}
330
2
100
AcDbSymbolTableRecord
100
AcDbLayerTableRecord
  2
1
 70
     0
 62
     1
  6
Continuous
370
    -3
390
F
  0
LAYER
  5
30
102
{ACAD_XDICTIONARY
360
247C
102
}
330
2
100
AcDbSymbolTableRecord
100
AcDbLayerTableRecord
  2
2
 70
     0
 62
     2
  6
Continuous
370
    -3
390
F
  0
LAYER
  5
31
102
{ACAD_XDICTIONARY
360
247E
102
}
330
2
100
AcDbSymbolTableRecord
100
AcDbLayerTableRecord
  2
3
 70
     0
 62
     3
  6
Continuous
370
    -3
390
F
  0
LAYER
  5
32
102
{ACAD_XDICTIONARY
360
2480
102
}
330
2
100
AcDbSymbolTableRecord
100
AcDbLayerTableRecord
  2
4
 70
     0
 62
     4
  6
Continuous
370
    -3
390
F
  0
LAYER
  5
33
102
{ACAD_XDICTIONARY
360
2482
102
}
330
2
100
AcDbSymbolTableRecord
100
AcDbLayerTableRecord
  2
5
 70
     0
 62
     5
  6
Continuous
370
    -3
390
F
  0
LAYER
  5
34
102
{ACAD_XDICTIONARY
360
2484
102
}
330
2
100
AcDbSymbolTableRecord
100
AcDbLayerTableRecord
  2
6
 70
     0
 62
     6
  6
Continuous
370
    -3
390
F
  0
LAYER
  5
35
102
{ACAD_XDICTIONARY
360
2486
102
}
330
2
100
AcDbSymbolTableRecord
100
AcDbLayerTableRecord
  2
7
 70
     0
 62
     7
  6
Continuous
370
    -3
390
F
  0
LAYER
  5
36
102
{ACAD_XDICTIONARY
360
2488
102
}
330
2
100
AcDbSymbolTableRecord
100
AcDbLayerTableRecord
  2
cen
 70
     0
 62
     7
  6
DASHDOT
370
    -3
390
F
  0
LAYER
  5
37
102
{ACAD_XDICTIONARY
360
248A
102
}
330
2
100
AcDbSymbolTableRecord
100
AcDbLayerTableRecord
  2
hid
 70
     0
 62
     7
  6
HIDDEN
370
    -3
390
F
  0
LAYER
  5
5D6
102
{ACAD_XDICTIONARY
360
248C
102
}
330
2
100
AcDbSymbolTableRecord
100
AcDbLayerTableRecord
  2
hatch
 70
     0
 62
     9
  6
Continuous
370
    -3
390
F
  0
LAYER
  5
8AF
102
{ACAD_XDICTIONARY
360
248E
102
}
330
2
100
AcDbSymbolTableRecord
100
AcDbLayerTableRecord
  2
9
 70
     0
 62
     9
  6
Continuous
370
    -3
390
F
  0
LAYER
  5
8F8
102
{ACAD_XDICTIONARY
360
2490
102
}
330
2
100
AcDbSymbolTableRecord
100
AcDbLayerTableRecord
  2
leg fin
 70
     0
 62
     9
  6
Continuous
370
    -3
390
F
  0
LAYER
  5
91D
102
{ACAD_XDICTIONARY
360
2492
102
}
330
2
100
AcDbSymbolTableRecord
100
AcDbLayerTableRecord
  2
cotas
 70
     0
 62
     1
  6
Continuous
370
    -3
390
F
  0
LAYER
  5
92F
330
2
100
AcDbSymbolTableRecord
100
AcDbLayerTableRecord
  2
Defpoints
 70
     0
 62
     7
  6
Continuous
290
     0
370
    -3
390
F
  0
LAYER
  5
C7B
102
{ACAD_XDICTIONARY
360
2494
102
}
330
2
100
AcDbSymbolTableRecord
100
AcDbLayerTableRecord
  2
SANINDUSA
 70
     0
 62
     3
  6
Continuous
370
    -3
390
F
  0
LAYER
  5
1060
102
{ACAD_XDICTIONARY
360
2496
102
}
330
2
100
AcDbSymbolTableRecord
100
AcDbLayerTableRecord
  2
hid1
 70
     0
 62
     9
  6
HIDDEN
370
    -3
390
F
1001
AcAecLayerStandard
1000

1000

  0
ENDTAB
  0
TABLE
  2
STYLE
  5
3
330
0
100
AcDbSymbolTable
 70
     5
  0
STYLE
  5
11
330
3
100
AcDbSymbolTableRecord
100
AcDbTextStyleTableRecord
  2
Standard
 70
     0
 40
0.0
 41
1.0
 50
0.0
 71
     0
 42
2.5
  3
Avgardn.ttf
  4

1001
ACAD
1000
AvantGarde Bk BT
1071
       34
  0
STYLE
  5
2C
330
3
100
AcDbSymbolTableRecord
100
AcDbTextStyleTableRecord
  2

 70
     1
 40
0.0
 41
1.0
 50
0.0
 71
     0
 42
2.5
  3
ltypeshp.shx
  4

  0
STYLE
  5
91F
330
3
100
AcDbSymbolTableRecord
100
AcDbTextStyleTableRecord
  2
SANINDUSA
 70
     0
 40
0.0
 41
1.0
 50
0.0
 71
     0
 42
2.5
  3
verdana.TTF
  4

1001
ACAD
1000
Verdana
1071
       34
  0
STYLE
  5
C7C
330
3
100
AcDbSymbolTableRecord
100
AcDbTextStyleTableRecord
  2
futura
 70
     0
 40
0.0
 41
1.0
 50
0.0
 71
     0
 42
2.5
  3
ZURCHN.TTF
  4

1001
ACAD
1000
Zurich BT
1071
       34
  0
STYLE
  5
10B4
330
3
100
AcDbSymbolTableRecord
100
AcDbTextStyleTableRecord
  2
SLDTEXTSTYLE0
 70
     0
 40
0.0
 41
0.75
 50
0.0
 71
     0
 42
0.2
  3
TXT
  4

  0
ENDTAB
  0
TABLE
  2
VIEW
  5
6
330
0
100
AcDbSymbolTable
 70
     0
  0
ENDTAB
  0
TABLE
  2
UCS
  5
7
330
0
100
AcDbSymbolTable
 70
     0
  0
ENDTAB
  0
TABLE
  2
APPID
  5
9
330
0
100
AcDbSymbolTable
 70
    16
  0
APPID
  5
12
330
9
100
AcDbSymbolTableRecord
100
AcDbRegAppTableRecord
  2
ACAD
 70
     0
  0
APPID
  5
3A
330
9
100
AcDbSymbolTableRecord
100
AcDbRegAppTableRecord
  2
DCO15
 70
     0
  0
APPID
  5
EEE
330
9
100
AcDbSymbolTableRecord
100
AcDbRegAppTableRecord
  2
ACAD_DSTYLE_DIMTEXT_FILL
 70
     0
  0
APPID
  5
EEF
330
9
100
AcDbSymbolTableRecord
100
AcDbRegAppTableRecord
  2
ACAD_DSTYLE_DIMEXT_LENGTH
 70
     0
  0
APPID
  5
EF0
330
9
100
AcDbSymbolTableRecord
100
AcDbRegAppTableRecord
  2
ACAD_DSTYLE_DIMEXT_ENABLED
 70
     0
  0
APPID
  5
EF1
330
9
100
AcDbSymbolTableRecord
100
AcDbRegAppTableRecord
  2
ACAD_DSTYLE_DIM_LINETYPE
 70
     0
  0
APPID
  5
EF2
330
9
100
AcDbSymbolTableRecord
100
AcDbRegAppTableRecord
  2
ACAD_DSTYLE_DIM_EXT1_LINETYPE
 70
     0
  0
APPID
  5
EF3
330
9
100
AcDbSymbolTableRecord
100
AcDbRegAppTableRecord
  2
ACAD_DSTYLE_DIM_EXT2_LINETYPE
 70
     0
  0
APPID
  5
FAF
330
9
100
AcDbSymbolTableRecord
100
AcDbRegAppTableRecord
  2
ACAD_DSTYLE_DIMJOGGED_JOGANGLE_SYMBOL
 70
     0
  0
APPID
  5
1013
330
9
100
AcDbSymbolTableRecord
100
AcDbRegAppTableRecord
  2
ACAD_DSTYLE_DIMARC_LENGTH_SYMBOL
 70
     0
  0
APPID
  5
1061
330
9
100
AcDbSymbolTableRecord
100
AcDbRegAppTableRecord
  2
AcAecLayerStandard
 70
     0
  0
APPID
  5
1B62
330
9
100
AcDbSymbolTableRecord
100
AcDbRegAppTableRecord
  2
ACAD_DSTYLE_DIMJAG
 70
     0
  0
APPID
  5
1B63
330
9
100
AcDbSymbolTableRecord
100
AcDbRegAppTableRecord
  2
ACAD_DSTYLE_DIMTALN
 70
     0
  0
APPID
  5
1B64
330
9
100
AcDbSymbolTableRecord
100
AcDbRegAppTableRecord
  2
ACAD_DSTYLE_DIMRADIAL_EXTENSION
 70
     0
  0
APPID
  5
2143
330
9
100
AcDbSymbolTableRecord
100
AcDbRegAppTableRecord
  2
ACAD_EXEMPT_FROM_CAD_STANDARDS
 70
     0
  0
APPID
  5
2639
330
9
100
AcDbSymbolTableRecord
100
AcDbRegAppTableRecord
  2
ACAD_MLEADERVER
 70
     0
  0
ENDTAB
  0
TABLE
  2
DIMSTYLE
  5
A
330
0
100
AcDbSymbolTable
 70
     4
100
AcDbDimStyleTable
 71
     1
340
921
  0
DIMSTYLE
105
45
330
A
100
AcDbSymbolTableRecord
100
AcDbDimStyleTableRecord
  2
STANDARD
 70
     0
289
     0
340
11
  0
DIMSTYLE
105
921
330
A
100
AcDbSymbolTableRecord
100
AcDbDimStyleTableRecord
  2
SANINDUSA
 70
     0
 40
10.0
 41
2.0
 42
1.0
 43
1.0
 44
1.0
 73
     0
 74
     0
 77
     1
 78
     8
140
2.0
141
0.0
143
0.03937007874016
147
1.0
171
     3
172
     1
176
   256
177
   256
178
   256
179
     1
271
     0
272
     0
274
     3
278
    44
283
     0
284
     8
340
91F
371
    -1
372
    -1
1001
ACAD_DSTYLE_DIMJAG
1070
   388
1040
1.5
1001
ACAD_DSTYLE_DIMTALN
1070
   392
1070
     0
1001
ACAD_DSTYLE_DIMJOGGED_JOGANGLE_SYMBOL
1070
   384
1040
1.570796326794896
  0
DIMSTYLE
105
C7D
330
A
100
AcDbSymbolTableRecord
100
AcDbDimStyleTableRecord
  2
AM_ISO
 70
     0
  4
"
 41
2.5
 42
1.0
 43
10.0
 44
1.0
 47
0.1
 48
0.1
 73
     0
 74
     0
 77
     1
 78
     8
 79
     2
140
3.5
141
0.0
143
0.0393701
146
0.71
147
1.5
172
     1
176
   256
177
   256
178
     2
271
     2
272
     3
274
     4
283
     0
284
     8
340
11
371
    -1
372
    -1
  0
DIMSTYLE
105
10B5
330
A
100
AcDbSymbolTableRecord
100
AcDbDimStyleTableRecord
  2
ISO-25
 70
     0
 41
2.5
 42
0.625
 43
3.75
 44
1.25
 73
     0
 74
     0
 77
     1
 78
     8
140
2.5
141
2.5
143
0.03937007874016
147
0.625
171
     3
172
     1
271
     2
272
     2
274
     3
278
    44
283
     0
284
     8
340
11
  0
ENDTAB
  0
TABLE
  2
BLOCK_RECORD
  5
1
330
0
100
AcDbSymbolTable
 70
    23
  0
BLOCK_RECORD
  5
1F
102
{ACAD_XDICTIONARY
360
1A3F
102
}
330
1
100
AcDbSymbolTableRecord
100
AcDbBlockTableRecord
  2
*Model_Space
340
22
  0
BLOCK_RECORD
  5
1B
330
1
100
AcDbSymbolTableRecord
100
AcDbBlockTableRecord
  2
*Paper_Space
340
1E
  0
BLOCK_RECORD
  5
23
330
1
100
AcDbSymbolTableRecord
100
AcDbBlockTableRecord
  2
*Paper_Space0
340
26
  0
BLOCK_RECORD
  5
919
330
1
100
AcDbSymbolTableRecord
100
AcDbBlockTableRecord
  2
_DotSmall
340
0
  0
BLOCK_RECORD
  5
922
330
1
100
AcDbSymbolTableRecord
100
AcDbBlockTableRecord
  2
base para cotas
340
0
310
2800000020000000200000000100080000000000000400000000000000000000000000000000000000000000000080000080000000808000800000008000800080800000C0C0C000C0DCC000F0CAA6000020400000206000002080000020A0000020C0000020E00000400000004020000040400000406000004080000040A0
310
000040C0000040E00000600000006020000060400000606000006080000060A0000060C0000060E00000800000008020000080400000806000008080000080A0000080C0000080E00000A0000000A0200000A0400000A0600000A0800000A0A00000A0C00000A0E00000C0000000C0200000C0400000C0600000C0800000C0
310
A00000C0C00000C0E00000E0000000E0200000E0400000E0600000E0800000E0A00000E0C00000E0E00040000000400020004000400040006000400080004000A0004000C0004000E00040200000402020004020400040206000402080004020A0004020C0004020E000404000004040200040404000404060004040800040
310
40A0004040C0004040E00040600000406020004060400040606000406080004060A0004060C0004060E00040800000408020004080400040806000408080004080A0004080C0004080E00040A0000040A0200040A0400040A0600040A0800040A0A00040A0C00040A0E00040C0000040C0200040C0400040C0600040C08000
310
40C0A00040C0C00040C0E00040E0000040E0200040E0400040E0600040E0800040E0A00040E0C00040E0E00080000000800020008000400080006000800080008000A0008000C0008000E00080200000802020008020400080206000802080008020A0008020C0008020E00080400000804020008040400080406000804080
310
008040A0008040C0008040E00080600000806020008060400080606000806080008060A0008060C0008060E00080800000808020008080400080806000808080008080A0008080C0008080E00080A0000080A0200080A0400080A0600080A0800080A0A00080A0C00080A0E00080C0000080C0200080C0400080C0600080C0
310
800080C0A00080C0C00080C0E00080E0000080E0200080E0400080E0600080E0800080E0A00080E0C00080E0E000C0000000C0002000C0004000C0006000C0008000C000A000C000C000C000E000C0200000C0202000C0204000C0206000C0208000C020A000C020C000C020E000C0400000C0402000C0404000C0406000C0
310
408000C040A000C040C000C040E000C0600000C0602000C0604000C0606000C0608000C060A000C060C000C060E000C0800000C0802000C0804000C0806000C0808000C080A000C080C000C080E000C0A00000C0A02000C0A04000C0A06000C0A08000C0A0A000C0A0C000C0A0E000C0C00000C0C02000C0C04000C0C06000
310
C0C08000C0C0A000F0FBFF00A4A0A000808080000000FF0000FF000000FFFF00FF000000FF00FF00FFFF0000FFFFFF00A4A4A4A4A4A4A4A4A4A4A4A4A4A4A4A4A4A4A4A4A4A4A4A4A4A4A4A4A4A4A4A4A4A4A4A4A4A4A4A4A4A4A4A4A4A4A4A4A4A4A4A4A4A4A4A4A4A4A4A4A4A4A4A4A4A4A4A4A4A4A4A4A4A4A4A4A4A4A4
310
A4A4A4A4A4A4A4A4A4A4A4A4A4A4A4A4A4A4A4A4A4A4A4A4A4A4A4A4A4A4A4A4A4A4A4A4A4A4A4A4A4A4A4A4A4A4A4A4A4A4A4A4A4A4A4A4A4A4A4A4A4A4A4A4A4A4A4A4A4A4A4A4A4A4A4A4A4A4A4A4A4A4A4A4A4A4A4A4A4A4A4A4A4A4A4A4A4A4A4A4A4A4A4A4A4A4A4A4A4A4A4A4A4A4A4A4A4A4A4A4A4A4A4A4A4A4A4
310
A4A4A4A4A4A4A4A4A4A4A4A4A4A4A4A4A4A4A4A4A4A4A4A4A4A4A4A4A4A4A4A4A4A4A4A4A4A4A4A4A4A4A4A4A4A4A4A4A4A4A4A4A4A4A4A4A4A4A4A4A4A4A4A4A4A4A4A4A4A4A4A4A4A4A4A4A4A4A4A4A4A4A4A4A4A4A4A4A4A4A4A4A4A4A4A4A4A4A4A4A4A4A4A4A4A4A4A4A4A4A4A4A4A4A4A4A4A4A4A4A4A4A4A4A4A4A4
310
A4A4A4A4A4A4A4A4A4A4A4A4A4A4A4A4A4A4A4A4A4A4A4A4A4A4A4A4A4A4A4A4A4A4A4A4A4A4A4A4A4A4A4A4A4A4A4A4A4A4A4A4A4A4A4A4A4A4A4A4A4A4A4A4A4A4A4A4A4A4A4A4A4A4A4A4A4A4A4A4A4A4A4A4A4A4A4A4A4A4A4A4A4A4A4A4A4A4A4A4A4A4A4A4A4A4A4A4A4A4A4A4A4A4A4A4F9F9F9F9F9F9F9F9F9F9F9
310
F9F9F9F9F9F9F9F9F9F9F9F9F9F9F9F9F9F9F9A4A4F9F9F9F9F9F9F9F9F9F9F9F9F9F9F9F9F9F9F9F9F9F9F9F9F9F9F9F9F9F9A4A4F9F9F9F9F9F9F9F9F9F9F9F9F9F9F9F9F9F9F9F9F9F9F9F9F9F9F9F9F9F9A4A4F9A4A4A4A4A4A4A4A4A4A4A4A4A4A4A4A4A4A4A4A4A4A4A4A4A4A4A4A4F9A4A4A4A4A4A4A4A4A4A4A4A4
310
A4A4A4A4A4A4A4A4A4A4A4A4A4A4A4A4A4A4A4A4A4A4A4A4A4A4A4A4A4A4A4A4A4A4A4A4A4A4A4A4A4A4A4A4A4A4A4A4A4A4A4A4A4A4A4A4A4A4A4A4A4A4A4A4A4A4A4A4A4A4A4A4A4A4A4A4A4A4A4A4A4A4A4A4A4A4A4A4A4A4A4A4A4A4A4A4A4A4A4A4A4A4A4A4A4A4A4A4A4A4A4A4A4A4A4A4A4A4A4A4A4A4A4A4A4A4A4
310
A4A4A4A4A4A4A4A4A4A4A4A4A4A4A4A4A4A4A4A4A4A4A4A4A4A4A4A4A4A4A4A4A4A4A4A4A4A4A4A4A4A4A4A4A4A4A4A4A4A4A4A4A4A4A4A4A4A4A4A4A4A4A4A4A4A4A4A4A4A4A4A4A4A4A4A4A4A4A4A4A4A4A4A4A4A4A4A4A4A4A4A4A4A4A4A4A4A4A4A4A4A4A4A4A4A4A4A4A4A4A4A4A4A4A4A4A4A4A4A4A4A4A4A4A4A4A4
310
A4A4A4A4A4A4A4A4A4A4A4A4A4A4A4A4A4A4A4A4A4A4A4A4A4A4A4A4A4A4A4A4A4A4A4A4A4A4A4A4A4A4A4A4A4A4A4A4A4A4A4A4A4A4A4A4A4A4A4A4A4A4A4A4A4A4A4A4A4A4A4A4A4A4A4A4A4A4A4A4A4A4A4A4A4A4A4A4A4A4A4A4A4A4A4A4A4A4A4A4A4A4A4A4A4A4A4A4A4A4A4A4A4A4A4A4A4A4A4A4A4A4A4A4A4A4A4
310
A4A4A4A4A4A4A4A4A4A4A4A4A4A4A4A4A4A4A4A4A4A4A4A4A4A4A4A4A4A4A4A4A4A4A4A4A4A4A4A4A4A4A4A4A4A4A4A4A4A4A4A4A4A4A4A4
1001
ACAD
1000
DesignCenter Data
1002
{
1070
     1
1070
     4
1002
}
  0
BLOCK_RECORD
  5
AA8
330
1
100
AcDbSymbolTableRecord
100
AcDbBlockTableRecord
  2
_CLOSED
340
0
  0
BLOCK_RECORD
  5
B79
330
1
100
AcDbSymbolTableRecord
100
AcDbBlockTableRecord
  2
nota revisoes
340
0
1001
ACAD
1000
DesignCenter Data
1002
{
1070
     1
1070
     4
1002
}
  0
BLOCK_RECORD
  5
B8E
330
1
100
AcDbSymbolTableRecord
100
AcDbBlockTableRecord
  2
a3l
340
0
1001
ACAD
1000
DesignCenter Data
1002
{
1070
     1
1070
     4
1002
}
  0
BLOCK_RECORD
  5
B9E
330
1
100
AcDbSymbolTableRecord
100
AcDbBlockTableRecord
  2
legenda desenvolvimento
340
0
1001
ACAD
1000
DesignCenter Data
1002
{
1070
     1
1070
     4
1002
}
  0
BLOCK_RECORD
  5
1A45
330
1
100
AcDbSymbolTableRecord
100
AcDbBlockTableRecord
  2
SW_CENTERMARKSYMBOL_0
340
0
  0
ENDTAB
  0
ENDSEC
  0
SECTION
  2
BLOCKS
  0
BLOCK
  5
20
330
1F
100
AcDbEntity
  8
0
100
AcDbBlockBegin
  2
*Model_Space
 70
     0
 10
0.0
 20
0.0
 30
0.0
  3
*Model_Space
  1

  0
ENDBLK
  5
21
330
1F
100
AcDbEntity
  8
0
100
AcDbBlockEnd
  0
BLOCK
  5
1C
330
1B
100
AcDbEntity
 67
     1
  8
0
100
AcDbBlockBegin
  2
*Paper_Space
 70
     0
 10
0.0
 20
0.0
 30
0.0
  3
*Paper_Space
  1

  0
ENDBLK
  5
1D
330
1B
100
AcDbEntity
 67
     1
  8
0
100
AcDbBlockEnd
  0
BLOCK
  5
24
330
23
100
AcDbEntity
 67
     1
  8
0
100
AcDbBlockBegin
  2
*Paper_Space0
 70
     0
 10
0.0
 20
0.0
 30
0.0
  3
*Paper_Space0
  1

  0
ENDBLK
  5
25
330
23
100
AcDbEntity
 67
     1
  8
0
100
AcDbBlockEnd
  0
BLOCK
  5
91B
330
919
100
AcDbEntity
  8
0
100
AcDbBlockBegin
  2
_DotSmall
 70
     0
 10
0.0
 20
0.0
 30
0.0
  3
_DotSmall
  1

  0
LWPOLYLINE
  5
91A
330
919
100
AcDbEntity
  8
0
  6
ByBlock
 62
     0
100
AcDbPolyline
 90
        2
 70
     1
 43
0.5
 10
-0.0625
 20
0.0
 42
1.0
 10
0.0625
 20
0.0
 42
1.0
  0
ENDBLK
  5
91C
330
919
100
AcDbEntity
  8
0
100
AcDbBlockEnd
  0
BLOCK
  5
92A
330
922
100
AcDbEntity
  8
0
100
AcDbBlockBegin
  2
base para cotas
 70
     0
 10
0.0
 20
0.0
 30
0.0
  3
base para cotas
  1

  0
LINE
  5
B36
330
922
100
AcDbEntity
  8
cotas
100
AcDbLine
 10
0.0
 20
-30.0
 30
0.0
 11
327.1260136525398
 21
-30.0
 31
0.0
  0
LINE
  5
B37
330
922
100
AcDbEntity
  8
cotas
100
AcDbLine
 10
0.0
 20
-25.0
 30
0.0
 11
327.1260136525398
 21
-25.0
 31
0.0
  0
LINE
  5
B38
330
922
100
AcDbEntity
  8
cotas
100
AcDbLine
 10
0.0
 20
-20.0
 30
0.0
 11
327.1260136525398
 21
-20.0
 31
0.0
  0
LINE
  5
B39
330
922
100
AcDbEntity
  8
cotas
100
AcDbLine
 10
0.0
 20
-15.0
 30
0.0
 11
327.1260136525398
 21
-15.0
 31
0.0
  0
LINE
  5
B3A
330
922
100
AcDbEntity
  8
cotas
100
AcDbLine
 10
0.0
 20
-10.0
 30
0.0
 11
327.1260136525398
 21
-10.0
 31
0.0
  0
LINE
  5
B3B
330
922
100
AcDbEntity
  8
cotas
100
AcDbLine
 10
0.0
 20
0.0
 30
0.0
 11
0.0
 21
-30.0
 31
0.0
  0
LINE
  5
B3C
330
922
100
AcDbEntity
  8
cotas
100
AcDbLine
 10
327.1260136525398
 20
-30.0
 30
0.0
 11
327.1260136525398
 21
0.0
 31
0.0
  0
ENDBLK
  5
92B
330
922
100
AcDbEntity
  8
0
100
AcDbBlockEnd
  0
BLOCK
  5
AAD
330
AA8
100
AcDbEntity
  8
0
100
AcDbBlockBegin
  2
_CLOSED
 70
     0
 10
0.0
 20
0.0
 30
0.0
  3
_CLOSED
  1

  0
LINE
  5
AA9
330
AA8
100
AcDbEntity
  8
0
100
AcDbLine
 10
-1.0
 20
0.166667
 30
0.0
 11
0.0
 21
0.0
 31
0.0
  0
LINE
  5
AAA
330
AA8
100
AcDbEntity
  8
0
100
AcDbLine
 10
0.0
 20
0.0
 30
0.0
 11
-1.0
 21
-0.166667
 31
0.0
  0
LINE
  5
AAB
330
AA8
100
AcDbEntity
  8
0
100
AcDbLine
 10
-1.0
 20
0.166667
 30
0.0
 11
-1.0
 21
-0.166667
 31
0.0
  0
LINE
  5
AAC
330
AA8
100
AcDbEntity
  8
0
100
AcDbLine
 10
0.0
 20
0.0
 30
0.0
 11
-1.0
 21
0.0
 31
0.0
  0
ENDBLK
  5
AAE
330
AA8
100
AcDbEntity
  8
0
100
AcDbBlockEnd
  0
BLOCK
  5
B7C
330
B79
100
AcDbEntity
  8
0
100
AcDbBlockBegin
  2
nota revisoes
 70
     0
 10
0.0
 20
0.0
 30
0.0
  3
nota revisoes
  1

  0
CIRCLE
  5
B7A
330
B79
100
AcDbEntity
  8
4
100
AcDbCircle
 10
0.0
 20
0.0
 30
0.0
 40
13.69426055101189
  0
TEXT
  5
B7B
330
B79
100
AcDbEntity
  8
4
100
AcDbText
 10
-5.496248358154345
 20
-5.354545554066362
 30
0.0
 40
12.0
  1
1
  7
SANINDUSA
 72
     1
 11
-0.249774214433728
 21
-5.354545554066362
 31
0.0
100
AcDbText
  0
ENDBLK
  5
B7D
330
B79
100
AcDbEntity
  8
0
100
AcDbBlockEnd
  0
BLOCK
  5
B9C
330
B8E
100
AcDbEntity
  8
0
100
AcDbBlockBegin
  2
a3l
 70
     0
 10
0.0
 20
0.0
 30
0.0
  3
a3l
  1

  0
LINE
  5
B8F
330
B8E
100
AcDbEntity
  8
1
100
AcDbLine
 10
-364.2925296599447
 20
-362.1188951399395
 30
0.0
 11
-364.2925296599447
 21
-65.11889513993946
 31
0.0
  0
LINE
  5
B90
330
B8E
100
AcDbEntity
  8
4
100
AcDbLine
 10
-369.2925296599447
 20
-357.1188951399395
 30
0.0
 11
-369.2925296599447
 21
-70.11889513993946
 31
0.0
  0
LINE
  5
B91
330
B8E
100
AcDbEntity
  8
1
100
AcDbLine
 10
-784.2925296599446
 20
-65.11889513993946
 30
0.0
 11
-784.2925296599446
 21
-362.1188951399395
 31
0.0
  0
LINE
  5
B92
330
B8E
100
AcDbEntity
  8
4
100
AcDbLine
 10
-759.2925296599446
 20
-357.1188951399395
 30
0.0
 11
-759.2925296599446
 21
-70.11889513993946
 31
0.0
  0
LINE
  5
B93
330
B8E
100
AcDbEntity
  8
1
100
AcDbLine
 10
-784.2925296599446
 20
-362.1188951399395
 30
0.0
 11
-364.2925296599447
 21
-362.1188951399395
 31
0.0
  0
LINE
  5
B94
330
B8E
100
AcDbEntity
  8
4
100
AcDbLine
 10
-759.2925296599446
 20
-357.1188951399395
 30
0.0
 11
-369.2925296599447
 21
-357.1188951399395
 31
0.0
  0
LINE
  5
B95
330
B8E
100
AcDbEntity
  8
1
100
AcDbLine
 10
-654.2925296599446
 20
-357.1188951399395
 30
0.0
 11
-654.2925296599446
 21
-362.1188951399395
 31
0.0
  0
LINE
  5
B96
330
B8E
100
AcDbEntity
  8
1
100
AcDbLine
 10
-364.2925296599447
 20
-65.11889513993946
 30
0.0
 11
-784.2925296599446
 21
-65.11889513993946
 31
0.0
  0
LINE
  5
B97
330
B8E
100
AcDbEntity
  8
4
100
AcDbLine
 10
-369.2925296599447
 20
-70.11889513993946
 30
0.0
 11
-759.2925296599446
 21
-70.11889513993946
 31
0.0
  0
LINE
  5
B98
330
B8E
100
AcDbEntity
  8
1
100
AcDbLine
 10
-654.2925296599446
 20
-65.11889513993946
 30
0.0
 11
-654.2925296599446
 21
-70.11889513993946
 31
0.0
  0
LINE
  5
B99
330
B8E
100
AcDbEntity
  8
1
100
AcDbLine
 10
-549.2925296599446
 20
-70.11889513993946
 30
0.0
 11
-549.2925296599446
 21
-65.11889513993946
 31
0.0
  0
LINE
  5
B9A
330
B8E
100
AcDbEntity
  8
1
100
AcDbLine
 10
-369.2925296599447
 20
-65.11889513993946
 30
0.0
 11
-364.2925296599447
 21
-65.11889513993946
 31
0.0
  0
LINE
  5
B9B
330
B8E
100
AcDbEntity
  8
1
100
AcDbLine
 10
-549.2925296599446
 20
-357.1188951399395
 30
0.0
 11
-549.2925296599446
 21
-362.1188951399395
 31
0.0
  0
ENDBLK
  5
B9D
330
B8E
100
AcDbEntity
  8
0
100
AcDbBlockEnd
  0
BLOCK
  5
C13
330
B9E
100
AcDbEntity
  8
0
100
AcDbBlockBegin
  2
legenda desenvolvimento
 70
     2
 10
0.0
 20
0.0
 30
0.0
  3
legenda desenvolvimento
  1

  0
ATTDEF
  5
B9F
330
B9E
100
AcDbEntity
  8
1
100
AcDbText
 10
-108.606245802552
 20
55.5
 30
0.0
 40
4.0
  1
XXXXXXXXXXXXXX
 41
0.8
  7
SANINDUSA
 72
     4
 11
-87.5
 21
57.5
 31
0.0
100
AcDbAttributeDefinition
  3
Nome do Produto:
  2
PRODUTO
 70
     0
  0
ATTDEF
  5
BA0
330
B9E
100
AcDbEntity
  8
1
100
AcDbText
 10
-97.9997966101695
 20
41.25
 30
0.0
 40
3.0
  1
XXXXXXXXX
 41
0.8
  7
futura
 72
     4
 11
-87.5
 21
42.75
 31
0.0
100
AcDbAttributeDefinition
  3
Nome da Peça:
  2
PECA
 70
     0
  0
ATTDEF
  5
BA1
330
B9E
100
AcDbEntity
  8
1
100
AcDbText
 10
-133.4422431161853
 20
21.11745296763252
 30
0.0
 40
2.5
  1
X
 41
0.8
  7
SANINDUSA
 72
     4
 11
-132.5
 21
22.36745296763252
 31
0.0
100
AcDbAttributeDefinition
  3
Cod. TESTE:
  2
TESTE
 70
     0
  0
ATTDEF
  5
BA2
330
B9E
100
AcDbEntity
  8
1
100
AcDbText
 10
-124.3844862323707
 20
21.11745296763252
 30
0.0
 40
2.5
  1
XX
 41
0.8
  7
SANINDUSA
 72
     4
 11
-122.5
 21
22.36745296763252
 31
0.0
100
AcDbAttributeDefinition
  3
Cod. Ano:
  2
ANO
 70
     0
  0
ATTDEF
  5
BA3
330
B9E
100
AcDbEntity
  8
1
100
AcDbText
 10
-112.526889953052
 20
21.11745296763252
 30
0.0
 40
2.5
  1
XXX
 41
0.8
  7
SANINDUSA
 72
     4
 11
-109.700160604496
 21
22.36745296763252
 31
0.0
100
AcDbAttributeDefinition
  3
Cod. Sequência:
  2
SEQUENCIA
 70
     0
  0
ATTDEF
  5
BA4
330
B9E
100
AcDbEntity
  8
1
100
AcDbText
 10
-99.35382430979316
 20
21.11745296763252
 30
0.0
 40
2.5
  1
XX
 41
0.8
  7
SANINDUSA
 72
     4
 11
-97.46933807742244
 21
22.36745296763252
 31
0.0
100
AcDbAttributeDefinition
  3
Cod. Tipo:
  2
TIPO
 70
     0
  0
ATTDEF
  5
BA5
330
B9E
100
AcDbEntity
  8
1
100
AcDbText
 10
-87.42035911468438
 20
21.11745296763252
 30
0.0
 40
2.5
  1
XXX
 41
0.8
  7
SANINDUSA
 72
     4
 11
-84.59362976612828
 21
22.36745296763252
 31
0.0
100
AcDbAttributeDefinition
  3
Cod. Produto:
  2
PRODUTO
 70
     0
  0
ATTDEF
  5
BA6
330
B9E
100
AcDbEntity
  8
1
100
AcDbText
 10
-74.62051971917853
 20
21.11745296763252
 30
0.0
 40
2.5
  1
XXX
 41
0.8
  7
SANINDUSA
 72
     4
 11
-71.79379037062244
 21
22.36745296763252
 31
0.0
100
AcDbAttributeDefinition
  3
Cod. Peça:
  2
PECA
 70
     0
  0
ATTDEF
  5
BA7
330
B9E
100
AcDbEntity
  8
1
100
AcDbText
 10
-61.10603446650329
 20
21.11745296763252
 30
0.0
 40
2.5
  1
XX
 41
0.8
  7
SANINDUSA
 72
     4
 11
-59.22154823413257
 21
22.36745296763252
 31
0.0
100
AcDbAttributeDefinition
  3
Cod. Revisão:
  2
REV
 70
     0
  0
ATTDEF
  5
BA8
330
B9E
100
AcDbEntity
  8
1
100
AcDbText
 10
-48.43615325006194
 20
21.11745296763252
 30
0.0
 40
2.5
  1
XX
 41
0.8
  7
SANINDUSA
 72
     4
 11
-46.55166701769121
 21
22.36745296763252
 31
0.0
100
AcDbAttributeDefinition
  3
Cod. Alteração:
  2
ALT
 70
     0
  0
ATTDEF
  5
BA9
330
B9E
100
AcDbEntity
  8
1
100
AcDbText
 10
-35.19086635325722
 20
23.98875083948959
 30
0.0
 40
3.0
  1
1/XXX
 41
0.8
  7
SANINDUSA
 72
     4
 11
-30.0
 21
25.25
 31
0.0
100
AcDbAttributeDefinition
  3
Escala geral:
  2
ESCALA
 70
     0
  0
ATTDEF
  5
BAA
330
B9E
100
AcDbEntity
  8
1
100
AcDbText
 10
-15.65345869711215
 20
23.75
 30
0.0
 40
3.0
  1
XXXXX
 41
0.8
  7
SANINDUSA
 72
     4
 11
-10.0
 21
25.25
 31
0.0
100
AcDbAttributeDefinition
  3
Folha:
  2
FOLHA
 70
     0
  0
ATTDEF
  5
BAB
330
B9E
100
AcDbEntity
  8
1
100
AcDbText
 10
-178.5146998822042
 20
56.9531347542807
 30
0.0
 40
2.0
  1
xx
 41
0.8
  7
SANINDUSA
 72
     4
 11
-177.2123493113513
 21
57.70330265219877
 31
0.0
100
AcDbAttributeDefinition
  3
revisão
  2
REV.
 70
     0
  0
ATTDEF
  5
BAC
330
B9E
100
AcDbEntity
  8
1
100
AcDbText
 10
-172.7849640077129
 20
56.9531347542807
 30
0.0
 40
2.0
  1
xx
 41
0.8
  7
SANINDUSA
 72
     4
 11
-171.48261343686
 21
57.70330265219877
 31
0.0
100
AcDbAttributeDefinition
  3
alteração
  2
ALT.
 70
     0
  0
ATTDEF
  5
BAD
330
B9E
100
AcDbEntity
  8
1
100
AcDbText
 10
-168.007199951307
 20
56.70330265219877
 30
0.0
 40
2.0
  1
xx/xx/xxxx
 41
0.8
  7
SANINDUSA
 11
-168.007199951307
 21
57.70330265219877
 31
0.0
100
AcDbAttributeDefinition
  3
data
  2
DATA
 70
     0
 74
     2
  0
ATTDEF
  5
BAE
330
B9E
100
AcDbEntity
  8
1
100
AcDbText
 10
-168.5396372253371
 20
13.15916722632639
 30
0.0
 40
2.0
  1
XX/XX/XXXX
 41
0.8
  7
SANINDUSA
 72
     4
 11
-161.5099528734231
 21
14.0
 31
0.0
100
AcDbAttributeDefinition
  3
Data projecto
  2
DATA_PROJ
 70
     0
  0
ATTDEF
  5
BAF
330
B9E
100
AcDbEntity
  8
1
100
AcDbText
 10
-150.8658110728766
 20
13.24983210208193
 30
0.0
 40
2.0
  1
xxxxxxxx
 41
0.8
  7
SANINDUSA
 72
     4
 11
-145.6564087894649
 21
14.0
 31
0.0
100
AcDbAttributeDefinition
  3
nome de quem projectou
  2
NOME
 70
     0
  0
ATTDEF
  5
BB0
330
B9E
100
AcDbEntity
  8
1
100
AcDbText
 10
-168.5396372253371
 20
9.159167226326394
 30
0.0
 40
2.0
  1
XX/XX/XXXX
 41
0.8
  7
SANINDUSA
 72
     4
 11
-161.5099528734231
 21
10.0
 31
0.0
100
AcDbAttributeDefinition
  3
Data desenhou
  2
DATA_DES
 70
     0
  0
ATTDEF
  5
BB1
330
B9E
100
AcDbEntity
  8
1
100
AcDbText
 10
-151.516986358303
 20
9.249832102081933
 30
0.0
 40
2.0
  1
xxxxxxxxx
 41
0.8
  7
SANINDUSA
 72
     4
 11
-145.6564087894649
 21
10.0
 31
0.0
100
AcDbAttributeDefinition
  3
nome
  2
NOME
 70
     0
  0
ATTDEF
  5
BB2
330
B9E
100
AcDbEntity
  8
1
100
AcDbText
 10
-127.2924214135946
 20
14.1979876583216
 30
0.0
 40
2.0
  1
Vitreous China
 41
0.8
  7
SANINDUSA
 72
     4
 11
-119.231709526422
 21
15.22216495852308
 31
0.0
100
AcDbAttributeDefinition
  3
Nome do Material:
  2
MATERIAL
 70
     0
  0
ATTDEF
  5
BB3
330
B9E
100
AcDbEntity
  8
1
100
AcDbText
 10
-103.1563452122093
 20
14.38019043949261
 30
0.0
 40
2.0
  1
Branco
 41
0.8
  7
SANINDUSA
 72
     4
 11
-99.33418268702462
 21
15.35937109765245
 31
0.0
100
AcDbAttributeDefinition
  3
cor da peça
  2
COR
 70
     0
  0
ATTDEF
  5
BB4
330
B9E
100
AcDbEntity
  8
1
100
AcDbText
 10
-116.7235057085292
 20
5.975822699798522
 30
0.0
 40
2.0
  1
Vidrado
 41
0.8
  7
SANINDUSA
 72
     4
 11
-112.5
 21
7.0
 31
0.0
100
AcDbAttributeDefinition
  3
Tipo de acabamento:
  2
ACABAMENTO
 70
     0
  0
ATTDEF
  5
BB5
330
B9E
100
AcDbEntity
  8
1
100
AcDbText
 10
-79.18527869967246
 20
16.65066409850533
 30
0.0
 40
2.0
  1
XXXXXXX
 41
0.8
  7
SANINDUSA
 72
     4
 11
-73.90871724903445
 21
17.65066409850533
 31
0.0
100
AcDbAttributeDefinition
  3
Normas
  2
NORMAS
 70
     0
  0
ATTDEF
  5
BB6
330
B9E
100
AcDbEntity
  8
1
100
AcDbText
 10
-30.55312290127603
 20
14.0
 30
0.0
 40
2.0
  1
XXXXXXXXXXXXXX
 41
0.8
  7
SANINDUSA
 72
     4
 11
-20.0
 21
15.0
 31
0.0
100
AcDbAttributeDefinition
  3
Substitui o desenho:
  2
SUBSTITUI
 70
     0
  0
ATTDEF
  5
BB7
330
B9E
100
AcDbEntity
  8
1
100
AcDbText
 10
-31.30691739422431
 20
6.0
 30
0.0
 40
2.0
  1
XXXXXXXXXXXXXXX
 41
0.8
  7
SANINDUSA
 72
     4
 11
-20.0
 21
7.0
 31
0.0
100
AcDbAttributeDefinition
  3
Substituido por:
  2
SUBSTITUIDO
 70
     0
  0
ATTDEF
  5
BB8
330
B9E
100
AcDbEntity
  8
1
100
AcDbText
 10
-110.0220608548302
 20
1.478208457928303
 30
0.0
 40
2.0
  1
XXXXXXXXXXXXXXXXXXXXXXXXXXXXXXXXXX
 41
0.8
  7
SANINDUSA
 11
-110.0220608548302
 21
2.478208457928303
 31
0.0
100
AcDbAttributeDefinition
  3
Localização do desenho:
  2
LOC-DWG
 70
     0
 74
     2
  0
LINE
  5
BB9
330
B9E
100
AcDbEntity
  8
3
100
AcDbLine
 10
-135.0
 20
4.0
 30
0.0
 11
0.0000000000004547
 21
4.0
 31
0.0
  0
LINE
  5
BBA
330
B9E
100
AcDbEntity
  8
3
100
AcDbLine
 10
-90.00000000000046
 20
12.0
 30
0.0
 11
-135.0
 21
12.0
 31
0.0
  0
LINE
  5
BBB
330
B9E
100
AcDbEntity
  8
3
100
AcDbLine
 10
-135.0
 20
32.5
 30
0.0
 11
-40.0
 21
32.5
 31
0.0
  0
TEXT
  5
BBC
330
B9E
100
AcDbEntity
  8
1
100
AcDbText
 10
-134.0
 20
1.25
 30
0.0
 40
2.0
  1
Localização do des.:
 41
0.8
  7
SANINDUSA
 11
-134.0
 21
2.25
 31
0.0
100
AcDbText
 73
     2
  0
LINE
  5
BBD
330
B9E
100
AcDbEntity
  8
3
100
AcDbLine
 10
-180.0
 20
65.0
 30
0.0
 11
0.0
 21
65.0
 31
0.0
  0
LINE
  5
BBE
330
B9E
100
AcDbEntity
  8
leg fin
100
AcDbLine
 10
-40.0
 20
25.05956924886846
 30
0.0
 11
-135.0
 21
25.05956924886846
 31
0.0
  0
LINE
  5
BBF
330
B9E
100
AcDbEntity
  8
leg fin
100
AcDbLine
 10
-40.0
 20
28.5
 30
0.0
 11
-135.0
 21
28.5
 31
0.0
  0
LINE
  5
BC0
330
B9E
100
AcDbEntity
  8
3
100
AcDbLine
 10
-135.0
 20
50.0
 30
0.0
 11
-40.0
 21
50.0
 31
0.0
  0
TEXT
  5
BC1
330
B9E
100
AcDbEntity
  8
1
100
AcDbText
 10
-134.0
 20
29.75
 30
0.0
 40
2.0
  1
Desenho nº:
 41
0.8
  7
SANINDUSA
 11
-134.0
 21
30.75
 31
0.0
100
AcDbText
 73
     2
  0
TEXT
  5
BC2
330
B9E
100
AcDbEntity
  8
1
100
AcDbText
 10
-134.0
 20
9.25
 30
0.0
 40
2.0
  1
Acabamento:
 41
0.8
  7
SANINDUSA
 11
-134.0
 21
10.25
 31
0.0
100
AcDbText
 73
     2
  0
LINE
  5
BC3
330
B9E
100
AcDbEntity
  8
3
100
AcDbLine
 10
-180.0
 20
20.0
 30
0.0
 11
0.0
 21
20.0
 31
0.0
  0
LINE
  5
BC4
330
B9E
100
AcDbEntity
  8
1
100
AcDbLine
 10
-174.5810776056337
 20
55.5
 30
0.0
 11
-174.5810776056337
 21
65.0
 31
0.0
  0
LINE
  5
BC5
330
B9E
100
AcDbEntity
  8
1
100
AcDbLine
 10
-168.9210461879161
 20
55.5
 30
0.0
 11
-168.9210461879161
 21
65.0
 31
0.0
  0
LINE
  5
BC6
330
B9E
100
AcDbEntity
  8
1
100
AcDbLine
 10
-154.0988595589306
 20
55.5
 30
0.0
 11
-154.0988595589306
 21
65.0
 31
0.0
  0
LINE
  5
BC7
330
B9E
100
AcDbEntity
  8
3
100
AcDbLine
 10
-180.0
 20
65.0
 30
0.0
 11
-180.0
 21
0.0
 31
0.0
  0
LINE
  5
BC8
330
B9E
100
AcDbEntity
  8
3
100
AcDbLine
 10
-135.0
 20
0.0
 30
0.0
 11
-135.0
 21
65.0
 31
0.0
  0
TEXT
  5
BC9
330
B9E
100
AcDbEntity
  8
1
100
AcDbText
 10
-179.0
 20
9.75
 30
0.0
 40
1.5
  1
Des.
 41
0.8
  7
SANINDUSA
 11
-179.0
 21
10.5
 31
0.0
100
AcDbText
 73
     2
  0
LINE
  5
BCA
330
B9E
100
AcDbEntity
  8
1
100
AcDbLine
 10
-168.9210461879161
 20
20.0
 30
0.0
 11
-168.9210461879161
 21
0.0
 31
0.0
  0
LINE
  5
BCB
330
B9E
100
AcDbEntity
  8
1
100
AcDbLine
 10
-154.0988595589306
 20
20.0
 30
0.0
 11
-154.0988595589306
 21
0.0
 31
0.0
  0
LINE
  5
BCC
330
B9E
100
AcDbEntity
  8
1
100
AcDbLine
 10
-180.0
 20
4.0
 30
0.0
 11
-135.0
 21
4.0
 31
0.0
  0
LINE
  5
BCD
330
B9E
100
AcDbEntity
  8
1
100
AcDbLine
 10
-180.0
 20
8.0
 30
0.0
 11
-135.0
 21
8.0
 31
0.0
  0
TEXT
  5
BCE
330
B9E
100
AcDbEntity
  8
1
100
AcDbText
 10
-179.0
 20
1.73257823687436
 30
0.0
 40
1.5
  1
Aprov.
 41
0.8
  7
SANINDUSA
 11
-179.0
 21
2.48257823687436
 31
0.0
100
AcDbText
 73
     2
  0
TEXT
  5
BCF
330
B9E
100
AcDbEntity
  8
1
100
AcDbText
 10
-179.0
 20
5.75
 30
0.0
 40
1.5
  1
Ver.
 41
0.8
  7
SANINDUSA
 11
-179.0
 21
6.5
 31
0.0
100
AcDbText
 73
     2
  0
LINE
  5
BD0
330
B9E
100
AcDbEntity
  8
1
100
AcDbLine
 10
-180.0
 20
16.0
 30
0.0
 11
-135.0
 21
16.0
 31
0.0
  0
LINE
  5
BD1
330
B9E
100
AcDbEntity
  8
1
100
AcDbLine
 10
-180.0
 20
12.0
 30
0.0
 11
-135.0
 21
12.0
 31
0.0
  0
TEXT
  5
BD2
330
B9E
100
AcDbEntity
  8
1
100
AcDbText
 10
-179.0
 20
13.75
 30
0.0
 40
1.5
  1
Proj.
 41
0.8
  7
SANINDUSA
 11
-179.0
 21
14.5
 31
0.0
100
AcDbText
 73
     2
  0
TEXT
  5
BD3
330
B9E
100
AcDbEntity
  8
1
100
AcDbText
 10
-167.9210461879161
 20
17.75
 30
0.0
 40
1.5
  1
Data
 41
0.8
  7
SANINDUSA
 11
-167.9210461879161
 21
18.5
 31
0.0
100
AcDbText
 73
     2
  0
TEXT
  5
BD4
330
B9E
100
AcDbEntity
  8
1
100
AcDbText
 10
-153.0988595589306
 20
17.75
 30
0.0
 40
1.5
  1
Nome
 41
0.8
  7
SANINDUSA
 11
-153.0988595589306
 21
18.5
 31
0.0
100
AcDbText
 73
     2
  0
LINE
  5
BD5
330
B9E
100
AcDbEntity
  8
leg fin
100
AcDbLine
 10
-130.0
 20
20.0
 30
0.0
 11
-130.0
 21
28.5
 31
0.0
  0
TEXT
  5
BD6
330
B9E
100
AcDbEntity
  8
1
100
AcDbText
 10
-134.0
 20
17.25
 30
0.0
 40
2.0
  1
Material:
 41
0.8
  7
SANINDUSA
 11
-134.0
 21
18.25
 31
0.0
100
AcDbText
 73
     2
  0
TEXT
  5
BD7
330
B9E
100
AcDbEntity
  8
1
100
AcDbText
 10
-129.0
 20
26.43288406845113
 30
0.0
 40
1.5
  1
Ano:
 41
0.8
  7
SANINDUSA
 11
-129.0
 21
27.18288406845113
 31
0.0
100
AcDbText
 73
     2
  0
LINE
  5
BD8
330
B9E
100
AcDbEntity
  8
1
100
AcDbLine
 10
-180.0
 20
55.5
 30
0.0
 11
-135.0
 21
55.5
 31
0.0
  0
TEXT
  5
BD9
330
B9E
100
AcDbEntity
  8
1
100
AcDbText
 10
-179.0
 20
52.67772246885193
 30
0.0
 40
1.5
  1
descrição
 41
0.8
  7
SANINDUSA
 11
-179.0
 21
53.42772246885193
 31
0.0
100
AcDbText
 73
     2
  0
TEXT
  5
BDA
330
B9E
100
AcDbEntity
  8
1
100
AcDbText
 10
-134.0
 20
47.25
 30
0.0
 40
2.0
  1
Peça:
 41
0.8
  7
SANINDUSA
 11
-134.0
 21
48.25
 31
0.0
100
AcDbText
 73
     2
  0
LINE
  5
BDB
330
B9E
100
AcDbEntity
  8
1
100
AcDbLine
 10
-180.0
 20
59.5
 30
0.0
 11
-135.0
 21
59.5
 31
0.0
  0
TEXT
  5
BDC
330
B9E
100
AcDbEntity
  8
1
100
AcDbText
 10
-173.5810776056337
 20
62.75
 30
0.0
 40
1.5
  1
Alt.
 41
0.8
  7
SANINDUSA
 11
-173.5810776056337
 21
63.5
 31
0.0
100
AcDbText
 73
     2
  0
TEXT
  5
BDD
330
B9E
100
AcDbEntity
  8
1
100
AcDbText
 10
-179.0
 20
62.75
 30
0.0
 40
1.5
  1
Rev.
 41
0.8
  7
SANINDUSA
 11
-179.0
 21
63.5
 31
0.0
100
AcDbText
 73
     2
  0
TEXT
  5
BDE
330
B9E
100
AcDbEntity
  8
1
100
AcDbText
 10
-167.9210461879161
 20
62.75
 30
0.0
 40
1.5
  1
Data
 41
0.8
  7
SANINDUSA
 11
-167.9210461879161
 21
63.5
 31
0.0
100
AcDbText
 73
     2
  0
TEXT
  5
BDF
330
B9E
100
AcDbEntity
  8
1
100
AcDbText
 10
-153.0988595589306
 20
62.75
 30
0.0
 40
1.5
  1
Nome
 41
0.8
  7
SANINDUSA
 11
-153.0988595589306
 21
63.5
 31
0.0
100
AcDbText
 73
     2
  0
TEXT
  5
BE0
330
B9E
100
AcDbEntity
  8
1
100
AcDbText
 10
-134.0
 20
62.25
 30
0.0
 40
2.0
  1
Produto:
 41
0.8
  7
SANINDUSA
 11
-134.0
 21
63.25
 31
0.0
100
AcDbText
 73
     2
  0
LINE
  5
BE1
330
B9E
100
AcDbEntity
  8
3
100
AcDbLine
 10
-40.0
 20
4.0
 30
0.0
 11
-40.0
 21
65.0
 31
0.0
  0
LWPOLYLINE
  5
BE2
102
{ACAD_REACTORS
330
BEC
102
}
330
B9E
100
AcDbEntity
  8
9
100
AcDbPolyline
 90
       12
 70
     1
 43
0.0
 10
-3.038714600644652
 20
58.90010174665076
 10
-5.726962862472191
 20
58.90010174665076
 10
-5.726962862472191
 20
58.5001017466509
 10
-3.038748516195028
 20
58.5001017466509
 42
-0.4142135623731731
 10
-2.638748516194482
 20
58.1001017466508
 10
-2.638748516194482
 20
57.42799728675596
 10
-5.21497371544865
 20
57.42799728675596
 42
0.4142135623731289
 10
-6.014973715448377
 20
56.627997286756
 10
-6.014973715448377
 20
55.92380871629643
 42
0.4142135623731132
 10
-5.21497371544865
 20
55.12380871629648
 10
-2.23871460064447
 20
55.12380871629648
 10
-2.23871460064447
 20
58.10010174665103
 42
0.4142135623730717
  0
LWPOLYLINE
  5
BE3
102
{ACAD_REACTORS
330
BEC
102
}
330
B9E
100
AcDbEntity
  8
9
100
AcDbPolyline
 90
       20
 70
     1
 43
0.0
 10
-10.01531287095122
 20
57.82799728675581
 10
-10.01531287095122
 20
58.10010174665103
 42
-0.4142135623730744
 10
-9.615312870951584
 20
58.5001017466509
 10
-6.92703069357276
 20
58.5001017466509
 10
-6.92703069357276
 20
58.90010174665076
 10
-9.615346786501959
 20
58.90010174665076
 42
0.4142135623730883
 10
-10.41534678650168
 20
58.1001017466508
 10
-10.41534678650168
 20
57.82796337120567
 42
0.4142135623730717
 10
-9.615346786501959
 20
57.02796337120571
 10
-7.423079531965413
 20
57.02796337120571
 42
-0.4142135623730847
 10
-7.023079531965322
 20
56.62796337120562
 10
-7.023079531965322
 20
55.90786840766487
 42
-0.4142135623730744
 10
-7.423079531965413
 20
55.507868407665
 10
-10.41534678650168
 20
55.507868407665
 10
-10.41534678650168
 20
55.12380871629648
 10
-7.445787917283723
 20
55.12380871629648
 42
0.4114777732064574
 10
-6.645822882998345
 20
55.9163291493976
 10
-6.639238813324936
 20
56.62051771985716
 42
0.4169546541682913
 10
-7.439203847610315
 20
57.42799728675596
 10
-9.615312870951584
 20
57.42799728675596
 42
-0.4142135623731576
  0
LWPOLYLINE
  5
BE4
102
{ACAD_REACTORS
330
BEC
102
}
330
B9E
100
AcDbEntity
  8
9
100
AcDbPolyline
 90
       12
 70
     1
 43
0.0
 10
-14.41561811090378
 20
58.90010174665076
 10
-14.79964388672215
 20
58.90010174665076
 10
-14.79964388672215
 20
55.92380871629643
 42
0.4142135623731133
 10
-13.99964388672242
 20
55.12380871629648
 10
-11.8233508563676
 20
55.12380871629648
 42
0.4142135623730872
 10
-11.02335085636741
 20
55.92380871629643
 10
-11.02335085636741
 20
58.90010174665076
 10
-11.42338477191788
 20
58.90010174665076
 10
-11.42338477191788
 20
55.91567577726095
 42
-0.4131711701795318
 10
-11.82196067063523
 20
55.51567831234956
 10
-14.0141940096214
 20
55.50787335710947
 42
-0.4152567234624407
 10
-14.41561811090378
 20
55.90787082202087
  0
LWPOLYLINE
  5
BE5
102
{ACAD_REACTORS
330
BEC
102
}
330
B9E
100
AcDbEntity
  8
9
100
AcDbPolyline
 90
        6
 70
     1
 43
0.0
 10
-15.80771578768872
 20
55.507868407665
 10
-18.39994912667453
 20
55.507868407665
 42
-0.4142135623731731
 10
-18.79994912667462
 20
55.90786840766487
 10
-18.79994912667462
 20
58.10010174665103
 42
-0.4142135623730744
 10
-18.39994912667453
 20
58.5001017466509
 10
-15.80771578768872
 20
58.5001017466509
  0
LWPOLYLINE
  5
BE6
102
{ACAD_REACTORS
330
BEC
102
}
330
B9E
100
AcDbEntity
  8
9
100
AcDbPolyline
 90
        8
 70
     1
 43
0.0
 10
-15.4236900118708
 20
59.87619128370352
 10
-15.80771578768872
 20
59.87619128370352
 10
-15.80771578768872
 20
58.90010174665076
 10
-18.39176256411201
 20
58.90010174665076
 42
0.4131164467977967
 10
-19.19175694739761
 20
58.1030995310698
 10
-19.1999120763262
 20
55.92680650071542
 42
0.4153115297271718
 10
-18.39991769304061
 20
55.12380871629648
 10
-15.4236900118708
 20
55.12380871629648
  0
LWPOLYLINE
  5
BE7
102
{ACAD_REACTORS
330
BEC
102
}
330
B9E
100
AcDbEntity
  8
9
100
AcDbPolyline
 90
       10
 70
     1
 43
0.0
 10
-20.59201288790928
 20
58.90010174665076
 10
-23.56830591826338
 20
58.90010174665076
 10
-23.56830591826338
 20
55.12380871629648
 10
-23.18424622689509
 20
55.12380871629648
 10
-23.18424622689509
 20
58.5001017466509
 10
-20.59204680345965
 20
58.5001017466509
 42
-0.4142135623730898
 10
-20.19204680345956
 20
58.1001017466508
 10
-20.19204680345956
 20
55.12380871629648
 10
-19.79201288790909
 20
55.12380871629648
 10
-19.79201288790909
 20
58.10010174665103
 42
0.4142135623731132
  0
LWPOLYLINE
  5
BE8
102
{ACAD_REACTORS
330
BEC
102
}
330
B9E
100
AcDbEntity
  8
9
100
AcDbPolyline
 90
        4
 70
     1
 43
0.0
 10
-24.19231812786165
 20
58.90010174665076
 10
-24.57637781922995
 20
58.90010174665076
 10
-24.57637781922995
 20
55.12380871629648
 10
-24.19231812786165
 20
55.12380871629648
  0
LWPOLYLINE
  5
BE9
102
{ACAD_REACTORS
330
BEC
102
}
330
B9E
100
AcDbEntity
  8
9
100
AcDbPolyline
 90
       10
 70
     1
 43
0.0
 10
-28.57661522808212
 20
58.5001017466509
 10
-25.98444972019706
 20
58.5001017466509
 42
-0.4142135623731731
 10
-25.58444972019652
 20
58.1001017466508
 10
-25.58444972019652
 20
55.12380871629648
 10
-25.2004239443786
 20
55.12380871629648
 10
-25.2004239443786
 20
58.10010174665103
 42
0.4142135623730717
 10
-26.00042394437833
 20
58.90010174665076
 10
-28.97664914363259
 20
58.90010174665076
 10
-28.97664914363259
 20
55.12380871629648
 10
-28.57661522808212
 20
55.12380871629648
  0
LWPOLYLINE
  5
BEA
102
{ACAD_REACTORS
330
BEC
102
}
330
B9E
100
AcDbEntity
  8
9
100
AcDbPolyline
 90
       12
 70
     1
 43
0.0
 10
-29.58465321349832
 20
58.10010174665103
 42
0.4142135623730716
 10
-30.3846532134985
 20
58.90010174665076
 10
-33.07296930642724
 20
58.90010174665076
 10
-33.07296930642724
 20
58.5001017466509
 10
-30.38468712904842
 20
58.5001017466509
 42
-0.4142135623730067
 10
-29.98468712904878
 20
58.1001017466508
 10
-29.98468712904878
 20
57.42799728675618
 10
-32.56098015940324
 20
57.42799728675596
 42
0.4142135623731289
 10
-33.36098015940343
 20
56.627997286756
 10
-33.36098015940343
 20
55.92380871629643
 42
0.4142135623731132
 10
-32.56098015940324
 20
55.12380871629648
 10
-29.58465321349832
 20
55.12380871629648
  0
LWPOLYLINE
  5
BEB
102
{ACAD_REACTORS
330
BEC
102
}
330
B9E
100
AcDbEntity
  8
9
100
AcDbPolyline
 90
       20
 70
     1
 43
0.0
 10
-34.7850262845518
 20
57.42799728675596
 10
-36.96125148380543
 20
57.42799728675596
 42
-0.4142135623730898
 10
-37.36125148380552
 20
57.82799728675604
 10
-37.36125148380552
 20
58.10010174665103
 42
-0.4142135623730744
 10
-36.96125148380543
 20
58.5001017466509
 10
-34.27303713752781
 20
58.50010174665067
 10
-34.27303713752781
 20
58.90010174665076
 10
-36.96128539935535
 20
58.90010174665076
 42
0.4142135623731289
 10
-37.76128539935553
 20
58.1001017466508
 10
-37.76128539935553
 20
57.82796337120567
 42
0.4142135623730716
 10
-36.9612853993558
 20
57.02796337120571
 10
-34.76901814481926
 20
57.02796337120571
 42
-0.414213562373168
 10
-34.36901814481962
 20
56.62796337120562
 10
-34.36901814481962
 20
55.90786840766487
 42
-0.4142135623730744
 10
-34.76901814481926
 20
55.507868407665
 10
-37.76128539935553
 20
55.507868407665
 10
-37.76128539935553
 20
55.12380871629648
 10
-34.7850262845518
 20
55.12380871629648
 42
0.4142135623731289
 10
-33.98502628455162
 20
55.92380871629643
 10
-33.98502628455162
 20
56.627997286756
 42
0.4142135623731132
  0
HATCH
  5
BEC
330
B9E
100
AcDbEntity
  8
9
100
AcDbHatch
 10
0.0
 20
0.0
 30
0.0
210
0.0
220
0.0
230
1.0
  2
SOLID
 70
     1
 71
     1
 91
       13
 92
        7
 72
     1
 73
     1
 93
       20
 10
-34.36901814481962
 20
55.90786840766487
 42
-0.414213562372991
 10
-34.76901814481926
 20
55.507868407665
 42
0.0
 10
-37.76128539935553
 20
55.507868407665
 42
0.0
 10
-37.76128539935553
 20
55.12380871629648
 42
0.0
 10
-34.7850262845518
 20
55.12380871629648
 42
0.4142135623731705
 10
-33.98502628455162
 20
55.92380871629666
 42
0.0
 10
-33.98502628455162
 20
56.627997286756
 42
0.4142135623731547
 10
-34.7850262845518
 20
57.42799728675596
 42
0.0
 10
-36.96125148380543
 20
57.42799728675596
 42
-0.4142135623730898
 10
-37.36125148380552
 20
57.82799728675604
 42
0.0
 10
-37.36125148380552
 20
58.1001017466508
 42
-0.4142135623731575
 10
-36.96125148380543
 20
58.5001017466509
 42
0.0
 10
-34.27303713752781
 20
58.50010174665067
 42
0.0
 10
-34.27303713752781
 20
58.90010174665076
 42
0.0
 10
-36.96128539935535
 20
58.90010174665076
 42
0.4142135623731705
 10
-37.76128539935553
 20
58.10010174665058
 42
0.0
 10
-37.76128539935553
 20
57.82796337120544
 42
0.4142135623730299
 10
-36.9612853993558
 20
57.02796337120571
 42
0.0
 10
-34.76901814481926
 20
57.02796337120571
 42
-0.4142135623730015
 10
-34.36901814481962
 20
56.62796337120608
 42
0.0
 97
        1
330
BEB
 92
        7
 72
     1
 73
     1
 93
       12
 10
-33.36098015940343
 20
55.92380871629666
 42
0.4142135623731547
 10
-32.56098015940324
 20
55.12380871629648
 42
0.0
 10
-29.58465321349877
 20
55.12380871629648
 42
0.0
 10
-29.58465321349832
 20
58.10010174665058
 42
0.4142135623731964
 10
-30.3846532134985
 20
58.90010174665076
 42
0.0
 10
-33.07296930642724
 20
58.90010174665076
 42
0.0
 10
-33.07296930642724
 20
58.50010174665067
 42
0.0
 10
-30.38468712904887
 20
58.5001017466509
 42
-0.4142135623732564
 10
-29.98468712904878
 20
58.10010174665103
 42
0.0
 10
-29.98468712904923
 20
57.42799728675596
 42
0.0
 10
-32.56098015940324
 20
57.42799728675596
 42
0.4142135623731705
 10
-33.36098015940343
 20
56.627997286756
 42
0.0
 97
        1
330
BEA
 92
       22
 72
     1
 73
     1
 93
        6
 10
-32.97692046803468
 20
56.62796337120562
 42
-0.4142135623731576
 10
-32.57692046803459
 20
57.02796337120571
 42
0.0
 10
-29.98468712904878
 20
57.02796337120571
 42
0.0
 10
-29.98468712904878
 20
55.507868407665
 42
0.0
 10
-32.57692046803459
 20
55.507868407665
 42
-0.4142135623731731
 10
-32.97692046803468
 20
55.90786840766487
 42
0.0
 97
        1
330
C11
 92
        7
 72
     1
 73
     1
 93
       10
 10
-28.57661522808212
 20
58.5001017466509
 42
0.0
 10
-25.98444972019661
 20
58.5001017466509
 42
-0.4142135623730067
 10
-25.58444972019652
 20
58.10010174665058
 42
0.0
 10
-25.58444972019606
 20
55.12380871629648
 42
0.0
 10
-25.20042394437906
 20
55.12380871629648
 42
0.0
 10
-25.2004239443786
 20
58.1001017466508
 42
0.4142135623731134
 10
-26.00042394437833
 20
58.90010174665076
 42
0.0
 10
-28.97664914363259
 20
58.90010174665076
 42
0.0
 10
-28.97664914363259
 20
55.12380871629648
 42
0.0
 10
-28.57661522808212
 20
55.12380871629648
 42
0.0
 97
        1
330
BE9
 92
        7
 72
     0
 73
     1
 93
        4
 10
-24.57637781922995
 20
55.12380871629648
 10
-24.19231812786165
 20
55.12380871629648
 10
-24.19231812786165
 20
58.90010174665076
 10
-24.57637781922995
 20
58.90010174665076
 97
        1
330
BE8
 92
        7
 72
     0
 73
     1
 93
        4
 10
-24.19231812786165
 20
59.87619128370352
 10
-24.5763778192304
 20
59.87619128370352
 10
-24.5763778192304
 20
59.28412752246913
 10
-24.1923181278612
 20
59.28412752246913
 97
        1
330
C12
 92
        7
 72
     1
 73
     1
 93
       10
 10
-23.18424622689509
 20
58.5001017466509
 42
0.0
 10
-20.59204680345965
 20
58.5001017466509
 42
-0.4142135623730898
 10
-20.19204680345956
 20
58.1001017466508
 42
0.0
 10
-20.19204680345956
 20
55.12380871629648
 42
0.0
 10
-19.79201288790909
 20
55.12380871629648
 42
0.0
 10
-19.79201288790909
 20
58.1001017466508
 42
0.4142135623731547
 10
-20.59201288790928
 20
58.90010174665076
 42
0.0
 10
-23.56830591826338
 20
58.90010174665076
 42
0.0
 10
-23.56830591826338
 20
55.12380871629648
 42
0.0
 10
-23.18424622689463
 20
55.12380871629648
 42
0.0
 97
        1
330
BE7
 92
        7
 72
     1
 73
     1
 93
        8
 10
-19.1999120763262
 20
55.92680650071542
 42
0.4153115297271299
 10
-18.39991769304061
 20
55.12380871629648
 42
0.0
 10
-15.4236900118708
 20
55.12380871629648
 42
0.0
 10
-15.4236900118708
 20
59.87619128370352
 42
0.0
 10
-15.80771578768872
 20
59.87619128370352
 42
0.0
 10
-15.80771578768872
 20
58.90010174665076
 42
0.0
 10
-18.39176256411201
 20
58.90010174665076
 42
0.4131164467977965
 10
-19.19175694739761
 20
58.1030995310698
 42
0.0
 97
        1
330
BE6
 92
       22
 72
     1
 73
     1
 93
        6
 10
-18.79994912667462
 20
58.1001017466508
 42
-0.4142135623731575
 10
-18.39994912667453
 20
58.5001017466509
 42
0.0
 10
-15.80771578768872
 20
58.50010174665067
 42
0.0
 10
-15.80771578768827
 20
55.507868407665
 42
0.0
 10
-18.39994912667453
 20
55.507868407665
 42
-0.4142135623731731
 10
-18.79994912667462
 20
55.90786840766487
 42
0.0
 97
        1
330
BE5
 92
        7
 72
     1
 73
     1
 93
       12
 10
-14.79964388672215
 20
55.92380871629621
 42
0.4142135623729885
 10
-13.99964388672242
 20
55.12380871629648
 42
0.0
 10
-11.8233508563676
 20
55.12380871629648
 42
0.4142135623731289
 10
-11.02335085636741
 20
55.92380871629666
 42
0.0
 10
-11.02335085636741
 20
58.90010174665076
 42
0.0
 10
-11.42338477191788
 20
58.90010174665076
 42
0.0
 10
-11.42338477191788
 20
55.91567577726095
 42
-0.4131711701795319
 10
-11.82196067063523
 20
55.51567831234956
 42
0.0
 10
-14.01419400962095
 20
55.50787335710947
 42
-0.4152567234626918
 10
-14.41561811090378
 20
55.90787082202087
 42
0.0
 10
-14.41561811090378
 20
58.90010174665076
 42
0.0
 10
-14.7996438867226
 20
58.90010174665076
 42
0.0
 97
        1
330
BE4
 92
        7
 72
     1
 73
     1
 93
       20
 10
-7.423079531965413
 20
57.02796337120571
 42
-0.414213562373168
 10
-7.023079531965322
 20
56.62796337120562
 42
0.0
 10
-7.023079531965322
 20
55.90786840766487
 42
-0.4142135623731575
 10
-7.423079531965413
 20
55.507868407665
 42
0.0
 10
-10.41534678650168
 20
55.507868407665
 42
0.0
 10
-10.41534678650168
 20
55.12380871629648
 42
0.0
 10
-7.445787917283723
 20
55.12380871629648
 42
0.4114777732065809
 10
-6.645822882998345
 20
55.91632914939783
 42
0.0
 10
-6.639238813324936
 20
56.62051771985716
 42
0.4169546541682913
 10
-7.439203847610315
 20
57.42799728675596
 42
0.0
 10
-9.615312870951584
 20
57.42799728675596
 42
-0.4142135623729911
 10
-10.01531287095122
 20
57.82799728675581
 42
0.0
 10
-10.01531287095122
 20
58.10010174665103
 42
-0.414213562372991
 10
-9.615312870951584
 20
58.5001017466509
 42
0.0
 10
-6.92703069357276
 20
58.50010174665067
 42
0.0
 10
-6.927030693572305
 20
58.90010174665076
 42
0.0
 10
-9.615346786501959
 20
58.90010174665076
 42
0.4142135623730467
 10
-10.41534678650168
 20
58.10010174665103
 42
0.0
 10
-10.41534678650168
 20
57.82796337120544
 42
0.4142135623730301
 10
-9.615346786501959
 20
57.02796337120571
 42
0.0
 97
        1
330
BE3
 92
        7
 72
     1
 73
     1
 93
       12
 10
-5.21497371544865
 20
57.42799728675596
 42
0.4142135623730871
 10
-6.014973715448377
 20
56.627997286756
 42
0.0
 10
-6.014973715448377
 20
55.92380871629621
 42
0.4142135623730715
 10
-5.21497371544865
 20
55.12380871629648
 42
0.0
 10
-2.23871460064447
 20
55.12380871629648
 42
0.0
 10
-2.23871460064447
 20
58.10010174665058
 42
0.414213562373155
 10
-3.038714600644652
 20
58.90010174665076
 42
0.0
 10
-5.726962862471737
 20
58.90010174665076
 42
0.0
 10
-5.726962862472191
 20
58.5001017466509
 42
0.0
 10
-3.038748516194573
 20
58.5001017466509
 42
-0.4142135623730067
 10
-2.638748516194482
 20
58.10010174665058
 42
0.0
 10
-2.638748516194482
 20
57.42799728675596
 42
0.0
 97
        1
330
BE2
 92
       22
 72
     1
 73
     1
 93
        6
 10
-2.638748516194937
 20
57.02796337120571
 42
0.0
 10
-2.638748516194482
 20
55.50786840766477
 42
0.0
 10
-5.21497371544865
 20
55.507868407665
 42
-0.4142135623731731
 10
-5.614973715448741
 20
55.90786840766509
 42
0.0
 10
-5.614973715448741
 20
56.62796337120562
 42
-0.4142135623731576
 10
-5.21497371544865
 20
57.02796337120571
 42
0.0
 97
        1
330
C0D
 75
     0
 76
     1
 47
0.0407044778999864
 98
       13
 10
-34.18710075113677
 20
56.16907953933765
 10
-33.12851374392494
 20
56.49471602641233
 10
-33.12851374392494
 20
56.49471602641233
 10
-28.77202873835904
 20
57.51232930166111
 10
-24.41554807250941
 20
57.91937341678636
 10
-24.41554807250941
 20
59.384734621186
 10
-23.31624584658039
 20
58.3264175319116
 10
-19.04119127844888
 20
57.75655517324913
 10
-19.04119127844888
 20
57.75655517324913
 10
-14.64399105416578
 20
57.43091868617466
 10
-8.048195057457178
 20
57.22739662861204
 10
-4.017427461911665
 20
57.18669281458665
 10
-4.017427461911665
 20
57.18669281458665
  0
TEXT
  5
BED
330
B9E
100
AcDbEntity
  8
leg fin
100
AcDbText
 10
3.391127401597259
 20
2.107634911895729
 30
0.0
 40
1.5
  1
Este desenho é propriedade da Sanindusa, S.A., e não pode ser copiado nem divulgado sem nossa autorização.
 50
90.0
 41
0.8
  7
SANINDUSA
100
AcDbText
  0
LINE
  5
BEE
330
B9E
100
AcDbEntity
  8
3
100
AcDbLine
 10
-90.0
 20
4.0
 30
0.0
 11
-90.0
 21
12.0
 31
0.0
  0
TEXT
  5
BEF
330
B9E
100
AcDbEntity
  8
1
100
AcDbText
 10
-39.0
 20
9.25
 30
0.0
 40
2.0
  1
Substituido por:
 41
0.8
  7
SANINDUSA
 11
-39.0
 21
10.25
 31
0.0
100
AcDbText
 73
     2
  0
POINT
  5
BF0
330
B9E
100
AcDbEntity
  8
SANINDUSA
100
AcDbPoint
 10
0.0
 20
0.0
 30
0.0
  0
TEXT
  5
BF1
330
B9E
100
AcDbEntity
  8
1
100
AcDbText
 10
-89.0
 20
16.74927010445663
 30
0.0
 40
2.0
  1
Normas:
 41
0.8
  7
SANINDUSA
 11
-89.0
 21
17.74927010445663
 31
0.0
100
AcDbText
 73
     2
  0
LINE
  5
BF2
330
B9E
100
AcDbEntity
  8
3
100
AcDbLine
 10
-90.0
 20
12.0
 30
0.0
 11
-90.0
 21
20.0
 31
0.0
  0
LINE
  5
BF3
330
B9E
100
AcDbEntity
  8
3
100
AcDbLine
 10
-110.546019464768
 20
12.0
 30
0.0
 11
-110.546019464768
 21
20.0
 31
0.0
  0
TEXT
  5
BF4
330
B9E
100
AcDbEntity
  8
1
100
AcDbText
 10
-109.6177520618648
 20
17.25
 30
0.0
 40
2.0
  1
Cor:
 41
0.8
  7
SANINDUSA
 11
-109.6177520618648
 21
18.25
 31
0.0
100
AcDbText
 73
     2
  0
LINE
  5
BF5
330
B9E
100
AcDbEntity
  8
leg fin
100
AcDbLine
 10
-91.42857142857156
 20
20.0
 30
0.0
 11
-91.42857142857156
 21
28.5
 31
0.0
  0
LINE
  5
BF6
330
B9E
100
AcDbEntity
  8
leg fin
100
AcDbLine
 10
-104.2857142857142
 20
20.0
 30
0.0
 11
-104.2857142857142
 21
28.5
 31
0.0
  0
LINE
  5
BF7
330
B9E
100
AcDbEntity
  8
leg fin
100
AcDbLine
 10
-117.1428571428573
 20
20.0
 30
0.0
 11
-117.1428571428573
 21
28.5
 31
0.0
  0
POINT
  5
BF8
330
B9E
100
AcDbEntity
  8
SANINDUSA
100
AcDbPoint
 10
-117.1428571428573
 20
28.5
 30
0.0
  0
POINT
  5
BF9
330
B9E
100
AcDbEntity
  8
SANINDUSA
100
AcDbPoint
 10
-104.2857142857142
 20
28.5
 30
0.0
  0
POINT
  5
BFA
330
B9E
100
AcDbEntity
  8
SANINDUSA
100
AcDbPoint
 10
-91.42857142857156
 20
28.5
 30
0.0
  0
TEXT
  5
BFB
330
B9E
100
AcDbEntity
  8
1
100
AcDbText
 10
-116.200160604496
 20
26.43288406845113
 30
0.0
 40
1.5
  1
Nº Seq.:
 41
0.8
  7
SANINDUSA
 11
-116.200160604496
 21
27.18288406845113
 31
0.0
100
AcDbText
 73
     2
  0
TEXT
  5
BFC
330
B9E
100
AcDbEntity
  8
1
100
AcDbText
 10
-103.2106584078738
 20
26.43288406845113
 30
0.0
 40
1.5
  1
Tipo:
 41
0.8
  7
SANINDUSA
 11
-103.2106584078738
 21
27.18288406845113
 31
0.0
100
AcDbText
 73
     2
  0
TEXT
  5
BFD
330
B9E
100
AcDbEntity
  8
1
100
AcDbText
 10
-90.22114672289353
 20
26.43288406845113
 30
0.0
 40
1.5
  1
Prod.:
 41
0.8
  7
SANINDUSA
 11
-90.22114672289353
 21
27.18288406845113
 31
0.0
100
AcDbText
 73
     2
  0
TEXT
  5
BFE
330
B9E
100
AcDbEntity
  8
1
100
AcDbText
 10
-64.77320576346574
 20
26.43288406845113
 30
0.0
 40
1.5
  1
Rev.:
 41
0.8
  7
SANINDUSA
 11
-64.77320576346574
 21
27.18288406845113
 31
0.0
100
AcDbText
 73
     2
  0
LINE
  5
BFF
330
B9E
100
AcDbEntity
  8
leg fin
100
AcDbLine
 10
-52.85714285714266
 20
20.0
 30
0.0
 11
-52.85714285714266
 21
28.5
 31
0.0
  0
LINE
  5
C00
330
B9E
100
AcDbEntity
  8
leg fin
100
AcDbLine
 10
-65.71428571428578
 20
20.0
 30
0.0
 11
-65.71428571428578
 21
28.5
 31
0.0
  0
LINE
  5
C01
330
B9E
100
AcDbEntity
  8
leg fin
100
AcDbLine
 10
-78.57142857142844
 20
20.0
 30
0.0
 11
-78.57142857142844
 21
28.5
 31
0.0
  0
POINT
  5
C02
330
B9E
100
AcDbEntity
  8
SANINDUSA
100
AcDbPoint
 10
-78.57142857142844
 20
28.5
 30
0.0
  0
POINT
  5
C03
330
B9E
100
AcDbEntity
  8
SANINDUSA
100
AcDbPoint
 10
-65.71428571428578
 20
28.5
 30
0.0
  0
POINT
  5
C04
330
B9E
100
AcDbEntity
  8
SANINDUSA
100
AcDbPoint
 10
-52.85714285714266
 20
28.5
 30
0.0
  0
TEXT
  5
C05
330
B9E
100
AcDbEntity
  8
1
100
AcDbText
 10
-77.61097961686573
 20
26.43288406845113
 30
0.0
 40
1.5
  1
Peça:
 41
0.8
  7
SANINDUSA
 11
-77.61097961686573
 21
27.18288406845113
 31
0.0
100
AcDbText
 73
     2
  0
TEXT
  5
C06
330
B9E
100
AcDbEntity
  8
1
100
AcDbText
 10
-52.06538060077036
 20
26.43288406845113
 30
0.0
 40
1.5
  1
Alt.:
 41
0.8
  7
SANINDUSA
 11
-52.06538060077036
 21
27.18288406845113
 31
0.0
100
AcDbText
 73
     2
  0
LINE
  5
C07
330
B9E
100
AcDbEntity
  8
3
100
AcDbLine
 10
0.0
 20
12.0
 30
0.0
 11
-40.0
 21
12.0
 31
0.0
  0
LINE
  5
C08
330
B9E
100
AcDbEntity
  8
3
100
AcDbLine
 10
-40.0
 20
32.5
 30
0.0
 11
0.0
 21
32.5
 31
0.0
  0
TEXT
  5
C09
330
B9E
100
AcDbEntity
  8
1
100
AcDbText
 10
-19.0
 20
29.75
 30
0.0
 40
2.0
  1
Folha:
 41
0.8
  7
SANINDUSA
 11
-19.0
 21
30.75
 31
0.0
100
AcDbText
 73
     2
  0
LINE
  5
C0A
330
B9E
100
AcDbEntity
  8
3
100
AcDbLine
 10
-20.0
 20
32.5
 30
0.0
 11
-20.0
 21
20.0
 31
0.0
  0
TEXT
  5
C0B
330
B9E
100
AcDbEntity
  8
1
100
AcDbText
 10
-39.0
 20
29.75
 30
0.0
 40
2.0
  1
Escala:
 41
0.8
  7
SANINDUSA
 11
-39.0
 21
30.75
 31
0.0
100
AcDbText
 73
     2
  0
TEXT
  5
C0C
330
B9E
100
AcDbEntity
  8
1
100
AcDbText
 10
-39.0
 20
17.25
 30
0.0
 40
2.0
  1
Substitui:
 41
0.8
  7
SANINDUSA
 11
-39.0
 21
18.25
 31
0.0
100
AcDbText
 73
     2
  0
LWPOLYLINE
  5
C0D
102
{ACAD_REACTORS
330
BEC
102
}
330
B9E
100
AcDbEntity
  8
9
100
AcDbPolyline
 90
        6
 70
     1
 43
0.0
 10
-2.638748516194482
 20
57.02796337120571
 10
-2.638748516194482
 20
55.50786840766477
 10
-5.21497371544865
 20
55.507868407665
 42
-0.4142135623730898
 10
-5.614973715448741
 20
55.90786840766487
 10
-5.614973715448741
 20
56.62796337120562
 42
-0.4142135623731576
 10
-5.21497371544865
 20
57.02796337120571
  0
LINE
  5
C0E
330
B9E
100
AcDbEntity
  8
3
100
AcDbLine
 10
-40.0
 20
50.0
 30
0.0
 11
0.0
 21
50.0
 31
0.0
  0
ATTDEF
  5
C0F
330
B9E
100
AcDbEntity
  8
1
100
AcDbText
 10
-31.30691739422431
 20
40.25
 30
0.0
 40
2.0
  1
XXXXXXXXXXXXXXX
 41
0.8
  7
SANINDUSA
 72
     4
 11
-20.0
 21
41.25
 31
0.0
100
AcDbAttributeDefinition
  3
Observações:
  2
OBS
 70
     0
  0
TEXT
  5
C10
330
B9E
100
AcDbEntity
  8
1
100
AcDbText
 10
-39.0
 20
47.25
 30
0.0
 40
2.0
  1
Observações:
 41
0.8
  7
SANINDUSA
 11
-39.0
 21
48.25
 31
0.0
100
AcDbText
 73
     2
  0
LWPOLYLINE
  5
C11
102
{ACAD_REACTORS
330
BEC
102
}
330
B9E
100
AcDbEntity
  8
9
100
AcDbPolyline
 90
        6
 70
     1
 43
0.0
 10
-29.98468712904878
 20
57.02796337120571
 10
-29.98468712904878
 20
55.507868407665
 10
-32.57692046803459
 20
55.507868407665
 42
-0.4142135623731731
 10
-32.97692046803468
 20
55.90786840766487
 10
-32.97692046803468
 20
56.62796337120562
 42
-0.4142135623731576
 10
-32.57692046803459
 20
57.02796337120571
  0
LWPOLYLINE
  5
C12
102
{ACAD_REACTORS
330
BEC
102
}
330
B9E
100
AcDbEntity
  8
9
100
AcDbPolyline
 90
        4
 70
     1
 43
0.0
 10
-24.19231812786165
 20
59.87619128370352
 10
-24.57637781922995
 20
59.87619128370352
 10
-24.57637781922995
 20
59.28412752246913
 10
-24.19231812786165
 20
59.28412752246913
  0
ENDBLK
  5
C14
330
B9E
100
AcDbEntity
  8
0
100
AcDbBlockEnd
  0
BLOCK
  5
1A46
330
1A45
100
AcDbEntity
  8
0
100
AcDbBlockBegin
  2
SW_CENTERMARKSYMBOL_0
 70
     0
 10
0.0
 20
0.0
 30
0.0
  3
SW_CENTERMARKSYMBOL_0
  1

  0
LINE
  5
1A47
330
1A45
100
AcDbEntity
  8
0
  6
Continuous
 62
     0
370
     0
100
AcDbLine
 10
0.0
 20
0.0
 30
0.0
 11
0.0
 21
0.5000000000000005
 31
0.0
  0
LINE
  5
1A48
330
1A45
100
AcDbEntity
  8
0
  6
Continuous
 62
     0
370
     0
100
AcDbLine
 10
0.0
 20
0.0
 30
0.0
 11
-0.5000000000000005
 21
0.0
 31
0.0
  0
LINE
  5
1A49
330
1A45
100
AcDbEntity
  8
0
  6
Continuous
 62
     0
370
     0
100
AcDbLine
 10
0.0
 20
0.0
 30
0.0
 11
0.0
 21
-0.5000000000000005
 31
0.0
  0
LINE
  5
1A4A
330
1A45
100
AcDbEntity
  8
0
  6
Continuous
 62
     0
370
     0
100
AcDbLine
 10
0.0
 20
0.0
 30
0.0
 11
0.5000000000000005
 21
0.0
 31
0.0
  0
LINE
  5
1A4B
330
1A45
100
AcDbEntity
  8
0
  6
Continuous
 62
     0
370
     0
100
AcDbLine
 10
0.0
 20
1.0
 30
0.0
 11
0.0
 21
5.099999999999979
 31
0.0
  0
LINE
  5
1A4C
330
1A45
100
AcDbEntity
  8
0
  6
Continuous
 62
     0
370
     0
100
AcDbLine
 10
-1.0
 20
0.0
 30
0.0
 11
-5.099999999999993
 21
0.0
 31
0.0
  0
LINE
  5
1A4D
330
1A45
100
AcDbEntity
  8
0
  6
Continuous
 62
     0
370
     0
100
AcDbLine
 10
0.0
 20
-1.0
 30
0.0
 11
0.0
 21
-5.099999999999986
 31
0.0
  0
LINE
  5
1A4E
330
1A45
100
AcDbEntity
  8
0
  6
Continuous
 62
     0
370
     0
100
AcDbLine
 10
1.0
 20
0.0
 30
0.0
 11
5.099999999999993
 21
0.0
 31
0.0
  0
ENDBLK
  5
1A4F
330
1A45
100
AcDbEntity
  8
0
100
AcDbBlockEnd
  0
ENDSEC
  0
SECTION
  2
ENTITIES
  0
SPLINE
  5
1807
330
1F
100
AcDbEntity
  8
SANINDUSA
100
AcDbSpline
210
0.0
220
0.0
230
1.0
 70
     8
 71
     3
 72
    13
 73
     9
 74
     0
 42
0.0000000001
 43
0.0000000001
 40
0.0
 40
0.0
 40
0.0
 40
0.0
 40
0.1931117621313694
 40
0.3863507524419238
 40
0.539731244335529
 40
0.6931755744074736
 40
0.8465558842172066
 40
1.0
 40
1.0
 40
1.0
 40
1.0
 10
4424.689611892767
 20
1930.026592504735
 30
0.0
 10
4424.687839897059
 20
1930.016483034214
 30
0.0
 10
4424.684294738199
 20
1929.996257432731
 30
0.0
 10
4424.678422599824
 20
1929.968175607082
 30
0.0
 10
4424.672435221844
 20
1929.942281285813
 30
0.0
 10
4424.666420792086
 20
1929.91857289099
 30
0.0
 10
4424.659960311356
 20
1929.894977610566
 30
0.0
 10
4424.655248552486
 20
1929.879366223691
 30
0.0
 10
4424.652892183131
 20
1929.871558907012
 30
0.0
  0
SPLINE
  5
1811
330
1F
100
AcDbEntity
  8
SANINDUSA
100
AcDbSpline
210
0.0
220
0.0
230
1.0
 70
     8
 71
     3
 72
    13
 73
     9
 74
     0
 42
0.0000000001
 43
0.0000000001
 40
0.0
 40
0.0
 40
0.0
 40
0.0
 40
0.1931117621313694
 40
0.3863507524419238
 40
0.539731244335529
 40
0.6931755744074736
 40
0.8465558842172066
 40
1.0
 40
1.0
 40
1.0
 40
1.0
 10
4424.142662923403
 20
1930.026592504735
 30
0.0
 10
4424.144434919109
 20
1930.016483034214
 30
0.0
 10
4424.147980077971
 20
1929.996257432731
 30
0.0
 10
4424.153852216345
 20
1929.968175607082
 30
0.0
 10
4424.159839594326
 20
1929.942281285813
 30
0.0
 10
4424.165854024083
 20
1929.91857289099
 30
0.0
 10
4424.172314504813
 20
1929.894977610566
 30
0.0
 10
4424.177026263683
 20
1929.879366223691
 30
0.0
 10
4424.179382633037
 20
1929.871558907012
 30
0.0
  0
SPLINE
  5
181A
330
1F
100
AcDbEntity
  8
SANINDUSA
100
AcDbSpline
210
0.0
220
0.0
230
1.0
 70
     8
 71
     3
 72
    13
 73
     9
 74
     0
 42
0.0000000001
 43
0.0000000001
 40
0.0
 40
0.0
 40
0.0
 40
0.0
 40
0.0289615018341244
 40
0.2231695698773624
 40
0.4173767681547584
 40
0.6115855003111141
 40
0.8057924797286192
 40
0.9999999999999998
 40
0.9999999999999998
 40
0.9999999999999998
 40
0.9999999999999998
 10
4424.681722025938
 20
1930.035915422755
 30
0.0
 10
4424.681855524998
 20
1930.035913294476
 30
0.0
 10
4424.68288423297
 20
1930.035896894531
 30
0.0
 10
4424.68480332913
 20
1930.035461490385
 30
0.0
 10
4424.687130055791
 20
1930.034019364378
 30
0.0
 10
4424.688832505384
 20
1930.031887362028
 30
0.0
 10
4424.689796413015
 20
1930.02929803038
 30
0.0
 10
4424.689673399574
 20
1930.027494347454
 30
0.0
 10
4424.689611892767
 20
1930.026592504735
 30
0.0
  0
SPLINE
  5
181C
330
1F
100
AcDbEntity
  8
SANINDUSA
100
AcDbSpline
210
0.0
220
0.0
230
1.0
 70
     8
 71
     3
 72
    13
 73
     9
 74
     0
 42
0.0000000001
 43
0.0000000001
 40
0.0
 40
0.0
 40
0.0
 40
0.0
 40
0.0289615018341244
 40
0.2231695698773624
 40
0.4173767681547584
 40
0.6115855003111141
 40
0.8057924797286192
 40
0.9999999999999998
 40
0.9999999999999998
 40
0.9999999999999998
 40
0.9999999999999998
 10
4424.150552790232
 20
1930.035915422755
 30
0.0
 10
4424.150419291172
 20
1930.035913294476
 30
0.0
 10
4424.1493905832
 20
1930.035896894531
 30
0.0
 10
4424.14747148704
 20
1930.035461490385
 30
0.0
 10
4424.145144760379
 20
1930.034019364378
 30
0.0
 10
4424.143442310786
 20
1930.031887362028
 30
0.0
 10
4424.142478403154
 20
1930.02929803038
 30
0.0
 10
4424.142601416597
 20
1930.027494347454
 30
0.0
 10
4424.142662923403
 20
1930.026592504735
 30
0.0
  0
SPLINE
  5
181E
330
1F
100
AcDbEntity
  8
SANINDUSA
100
AcDbSpline
210
0.0
220
0.0
230
1.0
 70
     8
 71
     3
 72
    11
 73
     7
 74
     0
 42
0.0000000001
 43
0.0000000001
 40
0.0
 40
0.0
 40
0.0
 40
0.0
 40
0.204506013167469
 40
0.4696712999038316
 40
0.7348357242873052
 40
1.0
 40
1.0
 40
1.0
 40
1.0
 10
4424.652892183131
 20
1929.871558907012
 30
0.0
 10
4424.652637641059
 20
1929.870912387535
 30
0.0
 10
4424.652053056266
 20
1929.869427582084
 30
0.0
 10
4424.650331155471
 20
1929.867562249636
 30
0.0
 10
4424.647948182938
 20
1929.866180166393
 30
0.0
 10
4424.646147479131
 20
1929.866003668805
 30
0.0
 10
4424.645247127481
 20
1929.865915420036
 30
0.0
  0
SPLINE
  5
181F
330
1F
100
AcDbEntity
  8
SANINDUSA
100
AcDbSpline
210
0.0
220
0.0
230
1.0
 70
     8
 71
     3
 72
    11
 73
     7
 74
     0
 42
0.0000000001
 43
0.0000000001
 40
0.0
 40
0.0
 40
0.0
 40
0.0
 40
0.204506013167469
 40
0.4696712999038316
 40
0.7348357242873052
 40
1.0
 40
1.0
 40
1.0
 40
1.0
 10
4424.179382633037
 20
1929.871558907012
 30
0.0
 10
4424.17963717511
 20
1929.870912387535
 30
0.0
 10
4424.180221759903
 20
1929.869427582084
 30
0.0
 10
4424.181943660699
 20
1929.867562249636
 30
0.0
 10
4424.184326633231
 20
1929.866180166393
 30
0.0
 10
4424.186127337039
 20
1929.866003668805
 30
0.0
 10
4424.187027688689
 20
1929.865915420036
 30
0.0
  0
SPLINE
  5
1827
330
1F
100
AcDbEntity
  8
SANINDUSA
100
AcDbSpline
210
0.0
220
0.0
230
1.0
 70
    24
 71
     3
 72
    21
 73
    17
 74
     0
 42
0.0000000001
 43
0.0000000001
 40
0.0
 40
0.0
 40
0.0
 40
0.0
 40
0.072813689775008
 40
0.1458596336298185
 40
0.2186732627374263
 40
0.2914870217837513
 40
0.3645330766377476
 40
0.4373470443627925
 40
0.5101578618479201
 40
0.5832010958161175
 40
0.6560118568889921
 40
0.7288217512501575
 40
0.8018636502846286
 40
0.8746734133116929
 40
0.9373366678815409
 40
1.0
 40
1.0
 40
1.0
 40
1.0
 10
4424.451952848204
 20
1929.200915398578
 30
0.0
 10
4424.454123592364
 20
1929.200915398578
 30
0.0
 10
4424.458472004714
 20
1929.200915398578
 30
0.0
 10
4424.464898621482
 20
1929.200915398578
 30
0.0
 10
4424.471157971843
 20
1929.200915398578
 30
0.0
 10
4424.477160831606
 20
1929.200915398578
 30
0.0
 10
4424.482840177662
 20
1929.200915398578
 30
0.0
 10
4424.488127420782
 20
1929.200915398578
 30
0.0
 10
4424.492938774377
 20
1929.200915398578
 30
0.0
 10
4424.497229734969
 20
1929.200915398578
 30
0.0
 10
4424.500949120831
 20
1929.200915398578
 30
0.0
 10
4424.504025673435
 20
1929.200915398578
 30
0.0
 10
4424.506448023845
 20
1929.200915398578
 30
0.0
 10
4424.508088503151
 20
1929.200915398578
 30
0.0
 10
4424.509073938821
 20
1929.200915398578
 30
0.0
 10
4424.509244467656
 20
1929.200915398578
 30
0.0
 10
4424.509329732127
 20
1929.200915398578
 30
0.0
  0
SPLINE
  5
1829
330
1F
100
AcDbEntity
  8
SANINDUSA
100
AcDbSpline
210
0.0
220
0.0
230
1.0
 70
    24
 71
     3
 72
    21
 73
    17
 74
     0
 42
0.0000000001
 43
0.0000000001
 40
0.0
 40
0.0
 40
0.0
 40
0.0
 40
0.072813689775008
 40
0.1458596336298185
 40
0.2186732627374263
 40
0.2914870217837513
 40
0.3645330766377476
 40
0.4373470443627925
 40
0.5101578618479201
 40
0.5832010958161175
 40
0.6560118568889921
 40
0.7288217512501575
 40
0.8018636502846286
 40
0.8746734133116929
 40
0.9373366678815409
 40
1.0
 40
1.0
 40
1.0
 40
1.0
 10
4424.380321967967
 20
1929.200915398578
 30
0.0
 10
4424.378151223805
 20
1929.200915398578
 30
0.0
 10
4424.373802811454
 20
1929.200915398578
 30
0.0
 10
4424.367376194687
 20
1929.200915398578
 30
0.0
 10
4424.361116844328
 20
1929.200915398578
 30
0.0
 10
4424.355113984564
 20
1929.200915398578
 30
0.0
 10
4424.349434638507
 20
1929.200915398578
 30
0.0
 10
4424.344147395387
 20
1929.200915398578
 30
0.0
 10
4424.339336041793
 20
1929.200915398578
 30
0.0
 10
4424.335045081202
 20
1929.200915398578
 30
0.0
 10
4424.331325695339
 20
1929.200915398578
 30
0.0
 10
4424.328249142734
 20
1929.200915398578
 30
0.0
 10
4424.325826792324
 20
1929.200915398578
 30
0.0
 10
4424.324186313018
 20
1929.200915398578
 30
0.0
 10
4424.323200877348
 20
1929.200915398578
 30
0.0
 10
4424.323030348513
 20
1929.200915398578
 30
0.0
 10
4424.322945084042
 20
1929.200915398578
 30
0.0
  0
LINE
  5
182D
330
1F
100
AcDbEntity
  8
SANINDUSA
100
AcDbLine
 10
4424.416137408085
 20
1929.200915398578
 30
0.0
 11
4424.451952848204
 21
1929.200915398578
 31
0.0
  0
LINE
  5
182E
330
1F
100
AcDbEntity
  8
SANINDUSA
100
AcDbLine
 10
4424.416137408085
 20
1929.200915398578
 30
0.0
 11
4424.380321967967
 21
1929.200915398578
 31
0.0
  0
LINE
  5
1830
330
1F
100
AcDbEntity
  8
SANINDUSA
100
AcDbLine
 10
4424.312666292854
 20
1929.865915420036
 30
0.0
 11
4424.318554233379
 21
1929.202897968272
 31
0.0
  0
LINE
  5
1831
330
1F
100
AcDbEntity
  8
SANINDUSA
100
AcDbLine
 10
4424.519608523317
 20
1929.865915420036
 30
0.0
 11
4424.51372058279
 21
1929.202897968272
 31
0.0
  0
ARC
  5
1833
330
1F
100
AcDbEntity
  8
SANINDUSA
100
AcDbCircle
 10
4424.511720748498
 20
1929.20291530803
 30
0.0
 40
0.0019999094638296
100
AcDbArc
 50
270.006236028592
 51
359.5032238288741
  0
LINE
  5
1834
330
1F
100
AcDbEntity
  8
SANINDUSA
100
AcDbLine
 10
4424.509329732127
 20
1929.200915398578
 30
0.0
 11
4424.511720966168
 21
1929.200915398578
 31
0.0
  0
ARC
  5
1835
330
1F
100
AcDbEntity
  8
SANINDUSA
100
AcDbCircle
 10
4424.320554067672
 20
1929.20291530803
 30
0.0
 40
0.0019999094638296
100
AcDbArc
 50
180.4967761711259
 51
269.9937639714081
  0
LINE
  5
1836
330
1F
100
AcDbEntity
  8
SANINDUSA
100
AcDbLine
 10
4424.322945084042
 20
1929.200915398578
 30
0.0
 11
4424.320553850003
 21
1929.200915398578
 31
0.0
  0
SPLINE
  5
1919
330
1F
100
AcDbEntity
  8
SANINDUSA
100
AcDbSpline
210
0.0
220
0.0
230
1.0
 70
     8
 71
     3
 72
    22
 73
    18
 74
     0
 42
0.0000000001
 43
0.0000000001
 40
0.0
 40
0.0
 40
0.0
 40
0.0
 40
0.0863410324550817
 40
0.1701828132263813
 40
0.2441942829679929
 40
0.3083804622605974
 40
0.3519225691223044
 40
0.3894033838920151
 40
0.4208247165295412
 40
0.4511973048974674
 40
0.4996539588172661
 40
0.5583694406173488
 40
0.6273452531990963
 40
0.7065840059180531
 40
0.7960894203590179
 40
0.8958673364832343
 40
1.0
 40
1.0
 40
1.0
 40
1.0
 10
4425.849087287669
 20
1929.914105715732
 30
0.0
 10
4425.85023402025
 20
1929.916871980382
 30
0.0
 10
4425.852494291772
 20
1929.922324436613
 30
0.0
 10
4425.855655655708
 20
1929.930182719754
 30
0.0
 10
4425.858483669191
 20
1929.937347482161
 30
0.0
 10
4425.860760381783
 20
1929.943227817251
 30
0.0
 10
4425.862556749621
 20
1929.947935912133
 30
0.0
 10
4425.863934442375
 20
1929.951587506851
 30
0.0
 10
4425.865140912041
 20
1929.95481620666
 30
0.0
 10
4425.866470711813
 20
1929.958406061372
 30
0.0
 10
4425.868112934034
 20
1929.962889460311
 30
0.0
 10
4425.870187352463
 20
1929.968640783122
 30
0.0
 10
4425.872584018111
 20
1929.975410565261
 30
0.0
 10
4425.875284327981
 20
1929.983205400052
 30
0.0
 10
4425.878263841299
 20
1929.992033566207
 30
0.0
 10
4425.881442917408
 20
1930.00170516634
 30
0.0
 10
4425.883568510999
 20
1930.008452763259
 30
0.0
 10
4425.884654005055
 20
1930.011898613105
 30
0.0
  0
SPLINE
  5
191D
330
1F
100
AcDbEntity
  8
SANINDUSA
100
AcDbSpline
210
0.0
220
0.0
230
1.0
 70
     8
 71
     3
 72
    13
 73
     9
 74
     0
 42
0.0000000001
 43
0.0000000001
 40
0.0
 40
0.0
 40
0.0
 40
0.0
 40
0.1828374844076454
 40
0.3657674086973048
 40
0.5261512284632736
 40
0.6865974272668917
 40
0.8432696046104092
 40
1.0
 40
1.0
 40
1.0
 40
1.0
 10
4425.948319305662
 20
1930.025915422047
 30
0.0
 10
4425.94584176038
 20
1930.017350256847
 30
0.0
 10
4425.940885417204
 20
1930.000215596029
 30
0.0
 10
4425.933054226429
 20
1929.975779141862
 30
0.0
 10
4425.925104556621
 20
1929.952534254927
 30
0.0
 10
4425.917119075916
 20
1929.930659938034
 30
0.0
 10
4425.908804804757
 20
1929.909098478943
 30
0.0
 10
4425.902959135885
 20
1929.89497731398
 30
0.0
 10
4425.900035758499
 20
1929.887915419916
 30
0.0
  0
SPLINE
  5
191E
330
1F
100
AcDbEntity
  8
SANINDUSA
100
AcDbSpline
210
0.0
220
0.0
230
1.0
 70
     8
 71
     3
 72
    13
 73
     9
 74
     0
 42
0.0000000001
 43
0.0000000001
 40
0.0
 40
0.0
 40
0.0
 40
0.0
 40
0.1379274655759016
 40
0.2759043686875487
 40
0.419219673459226
 40
0.5625904338443647
 40
0.7811967345458882
 40
1.0
 40
1.0
 40
1.0
 40
1.0
 10
4425.9586628871
 20
1930.025759375224
 30
0.0
 10
4425.956582812819
 20
1930.018480144817
 30
0.0
 10
4425.952421918695
 20
1930.003919074898
 30
0.0
 10
4425.945569722196
 20
1929.981951424503
 30
0.0
 10
4425.938233211874
 20
1929.959826360043
 30
0.0
 10
4425.928966283478
 20
1929.93368551213
 30
0.0
 10
4425.917636510803
 20
1929.903881694427
 30
0.0
 10
4425.908254275476
 20
1929.881781060894
 30
0.0
 10
4425.903561045411
 20
1929.870725768189
 30
0.0
  0
SPLINE
  5
1920
330
1F
100
AcDbEntity
  8
SANINDUSA
100
AcDbSpline
210
0.0
220
0.0
230
1.0
 70
     8
 71
     3
 72
    12
 73
     8
 74
     0
 42
0.0000000001
 43
0.0000000001
 40
0.0
 40
0.0
 40
0.0
 40
0.0
 40
0.2356677900961741
 40
0.4713384880654616
 40
0.7070068698706042
 40
0.9426778339995365
 40
1.0
 40
1.0
 40
1.0
 40
1.0
 10
4425.884499211792
 20
1929.877915429453
 30
0.0
 10
4425.885061382612
 20
1929.877860151912
 30
0.0
 10
4425.886185731191
 20
1929.877749596148
 30
0.0
 10
4425.887683249337
 20
1929.87688752851
 30
0.0
 10
4425.888817295541
 20
1929.875618967298
 30
0.0
 10
4425.889313789624
 20
1929.874431851162
 30
0.0
 10
4425.889428163365
 20
1929.873745557465
 30
0.0
 10
4425.88945053983
 20
1929.873611288647
 30
0.0
  0
SPLINE
  5
1924
330
1F
100
AcDbEntity
  8
SANINDUSA
100
AcDbSpline
210
0.0
220
0.0
230
1.0
 70
    24
 71
     1
 72
     4
 73
     2
 74
     0
 42
0.0000000001
 43
0.0000000001
 40
0.0
 40
0.0
 40
1.0
 40
1.0
 10
4425.88945053983
 20
1929.873611288647
 30
0.0
 10
4425.890290160659
 20
1929.867637070397
 30
0.0
  0
SPLINE
  5
1926
330
1F
100
AcDbEntity
  8
SANINDUSA
100
AcDbSpline
210
0.0
220
0.0
230
1.0
 70
     8
 71
     3
 72
    12
 73
     8
 74
     0
 42
0.0000000001
 43
0.0000000001
 40
0.0
 40
0.0
 40
0.0
 40
0.0
 40
0.2356750313570431
 40
0.4713437509193765
 40
0.7070079141370523
 40
0.9426803292101119
 40
1.0
 40
1.0
 40
1.0
 40
1.0
 10
4425.892270703797
 20
1929.865915420036
 30
0.0
 10
4425.89204582681
 20
1929.865937526951
 30
0.0
 10
4425.891596078861
 20
1929.865981740189
 30
0.0
 10
4425.890997074453
 20
1929.866326577466
 30
0.0
 10
4425.890543453329
 20
1929.866834002092
 30
0.0
 10
4425.89034489069
 20
1929.867308853431
 30
0.0
 10
4425.890299115846
 20
1929.867583365981
 30
0.0
 10
4425.890290160659
 20
1929.867637070397
 30
0.0
  0
SPLINE
  5
1927
330
1F
100
AcDbEntity
  8
SANINDUSA
100
AcDbSpline
210
0.0
220
0.0
230
1.0
 70
    24
 71
     3
 72
     9
 73
     5
 74
     0
 42
0.0000000001
 43
0.0000000001
 40
0.0
 40
0.0
 40
0.0
 40
0.0
 40
0.3892979223422639
 40
1.0
 40
1.0
 40
1.0
 40
1.0
 10
4425.491457195017
 20
1929.865915420036
 30
0.0
 10
4425.504162962643
 20
1929.865915420036
 30
0.0
 10
4425.536800608253
 20
1929.865915420036
 30
0.0
 10
4425.569438251906
 20
1929.865915420036
 30
0.0
 10
4425.589370128695
 20
1929.865915420036
 30
0.0
  0
SPLINE
  5
1928
330
1F
100
AcDbEntity
  8
SANINDUSA
100
AcDbSpline
210
0.0
220
0.0
230
1.0
 70
    24
 71
     3
 72
    28
 73
    24
 74
     0
 42
0.0000000001
 43
0.0000000001
 40
0.0
 40
0.0
 40
0.0
 40
0.0
 40
0.0252324188764267
 40
0.0649016825099576
 40
0.1045702434233629
 40
0.1442074729627228
 40
0.1648156349553347
 40
0.1854243798204463
 40
0.2074646957860507
 40
0.2295945986136809
 40
0.2516359209664543
 40
0.271239902003865
 40
0.290905559393149
 40
0.3105099690089505
 40
0.3302727981132361
 40
0.3500985675058301
 40
0.3698617688839058
 40
0.3897622975763783
 40
0.4097257106997119
 40
0.4297661195475606
 40
0.449771946751145
 40
0.7649101605144839
 40
1.0
 40
1.0
 40
1.0
 40
1.0
 10
4425.799108286384
 20
1929.865915420036
 30
0.0
 10
4425.801589729877
 20
1929.865915420036
 30
0.0
 10
4425.80797238619
 20
1929.865915420036
 30
0.0
 10
4425.818255779357
 20
1929.865915420036
 30
0.0
 10
4425.829952952176
 20
1929.865915420036
 30
0.0
 10
4425.839786975029
 20
1929.865915420036
 30
0.0
 10
4425.847707842121
 20
1929.865915420036
 30
0.0
 10
4425.853769516968
 20
1929.865915420036
 30
0.0
 10
4425.859746610337
 20
1929.865915420036
 30
0.0
 10
4425.865518723203
 20
1929.865915420036
 30
0.0
 10
4425.870672399255
 20
1929.865915420036
 30
0.0
 10
4425.875164862063
 20
1929.865915420036
 30
0.0
 10
4425.879025791988
 20
1929.865915420036
 30
0.0
 10
4425.882396527675
 20
1929.865915420036
 30
0.0
 10
4425.885212073384
 20
1929.865915420036
 30
0.0
 10
4425.88744580827
 20
1929.865915420036
 30
0.0
 10
4425.889086810001
 20
1929.865915420036
 30
0.0
 10
4425.890016974091
 20
1929.865915420036
 30
0.0
 10
4425.890396810423
 20
1929.865915420036
 30
0.0
 10
4425.890472821099
 20
1929.865915420036
 30
0.0
 10
4425.890885203356
 20
1929.865915420036
 30
0.0
 10
4425.892151044877
 20
1929.865915420036
 30
0.0
 10
4425.892234883147
 20
1929.865915420036
 30
0.0
 10
4425.892270703797
 20
1929.865915420036
 30
0.0
  0
SPLINE
  5
1929
330
1F
100
AcDbEntity
  8
SANINDUSA
100
AcDbSpline
210
0.0
220
0.0
230
1.0
 70
     8
 71
     3
 72
    12
 73
     8
 74
     0
 42
0.0000000001
 43
0.0000000001
 40
0.0
 40
0.0
 40
0.0
 40
0.0
 40
0.2341921836411412
 40
0.4683843374924945
 40
0.7025803118411202
 40
0.9367802977831761
 40
0.9999999999999998
 40
0.9999999999999998
 40
0.9999999999999998
 40
0.9999999999999998
 10
4425.709001903419
 20
1929.87401157854
 30
0.0
 10
4425.709210014344
 20
1929.875121998394
 30
0.0
 10
4425.709626236169
 20
1929.877342837962
 30
0.0
 10
4425.711604892632
 20
1929.880176290711
 30
0.0
 10
4425.714330054822
 20
1929.882214140818
 30
0.0
 10
4425.716810873609
 20
1929.883007271355
 30
0.0
 10
4425.718228801949
 20
1929.883108990807
 30
0.0
 10
4425.718530197624
 20
1929.883130612353
 30
0.0
  0
LINE
  5
192A
330
1F
100
AcDbEntity
  8
SANINDUSA
100
AcDbLine
 10
4425.69445576239
 20
1929.881382691244
 30
0.0
 11
4425.648458634499
 21
1929.881382691244
 31
0.0
  0
SPLINE
  5
192B
330
1F
100
AcDbEntity
  8
SANINDUSA
100
AcDbSpline
210
0.0
220
0.0
230
1.0
 70
    24
 71
     1
 72
     4
 73
     2
 74
     0
 42
0.0000000001
 43
0.0000000001
 40
0.0
 40
0.0
 40
1.0
 40
1.0
 10
4425.648458634499
 20
1929.881382691244
 30
0.0
 10
4425.637384464029
 20
1929.89100890098
 30
0.0
  0
SPLINE
  5
192C
330
1F
100
AcDbEntity
  8
SANINDUSA
100
AcDbSpline
210
0.0
220
0.0
230
1.0
 70
     8
 71
     3
 72
    26
 73
    22
 74
     0
 42
0.0000000001
 43
0.0000000001
 40
0.0
 40
0.0
 40
0.0
 40
0.0
 40
0.0459595081066017
 40
0.0929162836262244
 40
0.1457223047955148
 40
0.2000518123763441
 40
0.2530042489879862
 40
0.3074785723923266
 40
0.360677612244402
 40
0.415406415898996
 40
0.468832494486028
 40
0.5238013646373682
 40
0.5773345004939775
 40
0.6324225209671124
 40
0.6859030379309341
 40
0.7409445685954179
 40
0.794244232048814
 40
0.8491026177484863
 40
0.9021744711548482
 40
0.9567959426858552
 40
0.9999999999999998
 40
0.9999999999999998
 40
0.9999999999999998
 40
0.9999999999999998
 10
4425.70745623577
 20
1929.892683389167
 30
0.0
 10
4425.70737362532
 20
1929.89268084086
 30
0.0
 10
4425.707206611872
 20
1929.89267568895
 30
0.0
 10
4425.705970745045
 20
1929.892637811371
 30
0.0
 10
4425.703879264986
 20
1929.892574345788
 30
0.0
 10
4425.700810020634
 20
1929.892482809265
 30
0.0
 10
4425.696915753017
 20
1929.892369339738
 30
0.0
 10
4425.692362041415
 20
1929.892240510596
 30
0.0
 10
4425.687198058716
 20
1929.89209934381
 30
0.0
 10
4425.681651030234
 20
1929.891953621915
 30
0.0
 10
4425.675783927132
 20
1929.891806109077
 30
0.0
 10
4425.669862222088
 20
1929.891664134762
 30
0.0
 10
4425.663954852335
 20
1929.891529411519
 30
0.0
 10
4425.658337564069
 20
1929.891407742324
 30
0.0
 10
4425.653072930709
 20
1929.891299348144
 30
0.0
 10
4425.648411038313
 20
1929.891207968477
 30
0.0
 10
4425.644399679982
 20
1929.891132753202
 30
0.0
 10
4425.64122325412
 20
1929.891075478058
 30
0.0
 10
4425.638929981803
 20
1929.891035339978
 30
0.0
 10
4425.637627580491
 20
1929.891013041558
 30
0.0
 10
4425.637458942143
 20
1929.891010169436
 30
0.0
 10
4425.637384464029
 20
1929.89100890098
 30
0.0
  0
SPLINE
  5
192D
330
1F
100
AcDbEntity
  8
SANINDUSA
100
AcDbSpline
210
0.0
220
0.0
230
1.0
 70
    24
 71
     1
 72
     4
 73
     2
 74
     0
 42
0.0000000001
 43
0.0000000001
 40
0.0
 40
0.0
 40
1.0
 40
1.0
 10
4425.70745623577
 20
1929.892683389167
 30
0.0
 10
4425.69445576239
 20
1929.881382691244
 30
0.0
  0
SPLINE
  5
192F
330
1F
100
AcDbEntity
  8
SANINDUSA
100
AcDbSpline
210
0.0
220
0.0
230
1.0
 70
     8
 71
     3
 72
    15
 73
    11
 74
     0
 42
0.0000000001
 43
0.0000000001
 40
0.0
 40
0.0
 40
0.0
 40
0.0
 40
0.1310608361411047
 40
0.2659221939185528
 40
0.3969832980690642
 40
0.5318456659554825
 40
0.662900427830603
 40
0.7977560669723221
 40
0.8980443108740734
 40
1.0
 40
1.0
 40
1.0
 40
1.0
 10
4425.875112940554
 20
1930.014842195938
 30
0.0
 10
4425.87568432477
 20
1930.016405819976
 30
0.0
 10
4425.876843662289
 20
1930.019578410254
 30
0.0
 10
4425.879549819645
 20
1930.023863586786
 30
0.0
 10
4425.882912302465
 20
1930.027694495231
 30
0.0
 10
4425.886848908912
 20
1930.030869420739
 30
0.0
 10
4425.891298882534
 20
1930.033366592866
 30
0.0
 10
4425.895693769941
 20
1930.034920455086
 30
0.0
 10
4425.899897215084
 20
1930.035771123277
 30
0.0
 10
4425.902462160967
 20
1930.035867059274
 30
0.0
 10
4425.903755207542
 20
1930.035915422755
 30
0.0
  0
SPLINE
  5
1931
330
1F
100
AcDbEntity
  8
SANINDUSA
100
AcDbSpline
210
0.0
220
0.0
230
1.0
 70
     8
 71
     3
 72
    10
 73
     6
 74
     0
 42
0.0000000001
 43
0.0000000001
 40
0.0
 40
0.0
 40
0.0
 40
0.0
 40
0.3427413225723355
 40
0.6712200227236308
 40
1.0
 40
1.0
 40
1.0
 40
1.0
 10
4425.875112463717
 20
1930.014845567326
 30
0.0
 10
4425.871489038555
 20
1930.003600336716
 30
0.0
 10
4425.864392971172
 20
1929.981577827469
 30
0.0
 10
4425.852601465686
 20
1929.949177223441
 30
0.0
 10
4425.844086152198
 20
1929.928182260975
 30
0.0
 10
4425.839826543811
 20
1929.91767996786
 30
0.0
  0
SPLINE
  5
1933
330
1F
100
AcDbEntity
  8
SANINDUSA
100
AcDbSpline
210
0.0
220
0.0
230
1.0
 70
     8
 71
     3
 72
    14
 73
    10
 74
     0
 42
0.0000000001
 43
0.0000000001
 40
0.0
 40
0.0
 40
0.0
 40
0.0
 40
0.1311178113655129
 40
0.2660385041814143
 40
0.3971560140063293
 40
0.5320773902937697
 40
0.6631860542979662
 40
0.7980978493884133
 40
1.0
 40
1.0
 40
1.0
 40
1.0
 10
4425.884659786705
 20
1930.011865990738
 30
0.0
 10
4425.885040721439
 20
1930.01290845315
 30
0.0
 10
4425.885813639366
 20
1930.01502361308
 30
0.0
 10
4425.887617868176
 20
1930.017880766576
 30
0.0
 10
4425.889859645501
 20
1930.020434005493
 30
0.0
 10
4425.892484029975
 20
1930.022554039962
 30
0.0
 10
4425.895451399613
 20
1930.02420657958
 30
0.0
 10
4425.899191168315
 20
1930.025584455059
 30
0.0
 10
4425.902044678857
 20
1930.025791380929
 30
0.0
 10
4425.903755207542
 20
1930.025915422047
 30
0.0
  0
SPLINE
  5
1934
330
1F
100
AcDbEntity
  8
SANINDUSA
100
AcDbSpline
210
0.0
220
0.0
230
1.0
 70
     8
 71
     3
 72
    13
 73
     9
 74
     0
 42
0.0000000001
 43
0.0000000001
 40
0.0
 40
0.0
 40
0.0
 40
0.0
 40
0.1829297832007094
 40
0.3658587194328859
 40
0.5487873248677852
 40
0.7317164870397296
 40
0.9146455659499002
 40
0.9999999999999998
 40
0.9999999999999998
 40
0.9999999999999998
 40
0.9999999999999998
 10
4425.950958897356
 20
1930.035915422755
 30
0.0
 10
4425.951858524737
 20
1930.035826955053
 30
0.0
 10
4425.953657775333
 20
1930.035650020059
 30
0.0
 10
4425.956051689812
 20
1930.03427122521
 30
0.0
 10
4425.957874147457
 20
1930.032239412886
 30
0.0
 10
4425.958906741107
 20
1930.029707256431
 30
0.0
 10
4425.959050424732
 20
1930.027449246904
 30
0.0
 10
4425.958756423599
 20
1930.026167244465
 30
0.0
 10
4425.9586628871
 20
1930.025759375224
 30
0.0
  0
SPLINE
  5
1937
330
1F
100
AcDbEntity
  8
SANINDUSA
100
AcDbSpline
210
0.0
220
0.0
230
1.0
 70
     8
 71
     3
 72
    16
 73
    12
 74
     0
 42
0.0000000001
 43
0.0000000001
 40
0.0
 40
0.0
 40
0.0
 40
0.0
 40
0.1093585594960291
 40
0.2187168041870641
 40
0.3280756298297587
 40
0.4374341689194424
 40
0.5467926112181882
 40
0.6561512801102438
 40
0.7655094423391545
 40
0.8748681678799393
 40
1.0
 40
1.0
 40
1.0
 40
1.0
 10
4425.631040682081
 20
1929.890960814933
 30
0.0
 10
4425.630197186597
 20
1929.890997588983
 30
0.0
 10
4425.628510198057
 20
1929.891071136976
 30
0.0
 10
4425.626046728756
 20
1929.891711856686
 30
0.0
 10
4425.623725483763
 20
1929.892734213573
 30
0.0
 10
4425.62160480202
 20
1929.894132630893
 30
0.0
 10
4425.619755402836
 20
1929.895871509735
 30
0.0
 10
4425.618214923601
 20
1929.897891386751
 30
0.0
 10
4425.617051671202
 20
1929.900145241704
 30
0.0
 10
4425.616204738746
 20
1929.902675548147
 30
0.0
 10
4425.616042694052
 20
1929.904480444493
 30
0.0
 10
4425.615956221704
 20
1929.905443596224
 30
0.0
  0
LINE
  5
1938
330
1F
100
AcDbEntity
  8
SANINDUSA
100
AcDbLine
 10
4425.948319305662
 20
1930.025915422047
 30
0.0
 11
4425.903755207542
 21
1930.025915422047
 31
0.0
  0
SPLINE
  5
1939
330
1F
100
AcDbEntity
  8
SANINDUSA
100
AcDbSpline
210
0.0
220
0.0
230
1.0
 70
     8
 71
     3
 72
     9
 73
     5
 74
     0
 42
0.0000000001
 43
0.0000000001
 40
0.0
 40
0.0
 40
0.0
 40
0.0
 40
0.4944522720044223
 40
1.0
 40
1.0
 40
1.0
 40
1.0
 10
4425.849058796648
 20
1929.913837420324
 30
0.0
 10
4425.848236839942
 20
1929.91205186164
 30
0.0
 10
4425.846574481912
 20
1929.908440676526
 30
0.0
 10
4425.844155844662
 20
1929.905285178251
 30
0.0
 10
4425.842933108095
 20
1929.903689923267
 30
0.0
  0
LINE
  5
193A
330
1F
100
AcDbEntity
  8
SANINDUSA
100
AcDbLine
 10
4425.842933108095
 20
1929.903689923267
 30
0.0
 11
4425.845150073055
 21
1929.887915419916
 31
0.0
  0
SPLINE
  5
193B
330
1F
100
AcDbEntity
  8
SANINDUSA
100
AcDbSpline
210
0.0
220
0.0
230
1.0
 70
     8
 71
     3
 72
    11
 73
     7
 74
     0
 42
0.0000000001
 43
0.0000000001
 40
0.0
 40
0.0
 40
0.0
 40
0.0
 40
0.2905196099101406
 40
0.581040030659953
 40
0.8715577800136706
 40
1.0
 40
1.0
 40
1.0
 40
1.0
 10
4425.903561045411
 20
1929.870725768189
 30
0.0
 10
4425.903121187801
 20
1929.869935473882
 30
0.0
 10
4425.902241471351
 20
1929.868354883062
 30
0.0
 10
4425.900023094715
 20
1929.866717342284
 30
0.0
 10
4425.897913055967
 20
1929.865991107751
 30
0.0
 10
4425.896620624833
 20
1929.865933179369
 30
0.0
 10
4425.896224399093
 20
1929.865915420036
 30
0.0
  0
ARC
  5
193C
330
1F
100
AcDbEntity
  8
SANINDUSA
100
AcDbCircle
 10
4425.840803628019
 20
1929.882915422419
 30
0.0
 40
0.0050000000000002
100
AcDbArc
 50
187.9999999999174
 51
270.0
  0
LINE
  5
193D
330
1F
100
AcDbEntity
  8
SANINDUSA
100
AcDbLine
 10
4425.834954817776
 20
1929.888605433087
 30
0.0
 11
4425.835852284912
 21
1929.882219555358
 31
0.0
  0
SPLINE
  5
193E
330
1F
100
AcDbEntity
  8
SANINDUSA
100
AcDbSpline
210
0.0
220
0.0
230
1.0
 70
     8
 71
     3
 72
    13
 73
     9
 74
     0
 42
0.0000000001
 43
0.0000000001
 40
0.0
 40
0.0
 40
0.0
 40
0.0
 40
0.1833340879431208
 40
0.3666663644497137
 40
0.5499966663253855
 40
0.7333295539349211
 40
0.9166614769029731
 40
1.0
 40
1.0
 40
1.0
 40
1.0
 10
4425.828017492775
 20
1929.892498227338
 30
0.0
 10
4425.828555468709
 20
1929.892670817793
 30
0.0
 10
4425.829631415261
 20
1929.893015996996
 30
0.0
 10
4425.831346814406
 20
1929.89281940793
 30
0.0
 10
4425.832896503712
 20
1929.892106407164
 30
0.0
 10
4425.834117492083
 20
1929.890910368047
 30
0.0
 10
4425.83475701921
 20
1929.889656985759
 30
0.0
 10
4425.834907721153
 20
1929.888855811946
 30
0.0
 10
4425.834954817776
 20
1929.888605433087
 30
0.0
  0
SPLINE
  5
193F
330
1F
100
AcDbEntity
  8
SANINDUSA
100
AcDbSpline
210
0.0
220
0.0
230
1.0
 70
    24
 71
     1
 72
     4
 73
     2
 74
     0
 42
0.0000000001
 43
0.0000000001
 40
0.0
 40
0.0
 40
1.0
 40
1.0
 10
4425.828017492775
 20
1929.892498227338
 30
0.0
 10
4425.822003026489
 20
1929.890445294361
 30
0.0
  0
SPLINE
  5
1940
330
1F
100
AcDbEntity
  8
SANINDUSA
100
AcDbSpline
210
0.0
220
0.0
230
1.0
 70
     8
 71
     3
 72
    11
 73
     7
 74
     0
 42
0.0000000001
 43
0.0000000001
 40
0.0
 40
0.0
 40
0.0
 40
0.0
 40
0.2552693521901514
 40
0.5105376387928428
 40
0.7658085971584501
 40
0.9999999999999998
 40
0.9999999999999998
 40
0.9999999999999998
 40
0.9999999999999998
 10
4425.81823717523
 20
1929.885600002984
 30
0.0
 10
4425.818292338851
 20
1929.886162772566
 30
0.0
 10
4425.818402665864
 20
1929.887288309379
 30
0.0
 10
4425.819266432882
 20
1929.888776930748
 30
0.0
 10
4425.820493852193
 20
1929.889912642842
 30
0.0
 10
4425.82151462214
 20
1929.890272915783
 30
0.0
 10
4425.822003026489
 20
1929.890445294361
 30
0.0
  0
LINE
  5
1941
330
1F
100
AcDbEntity
  8
SANINDUSA
100
AcDbLine
 10
4425.81823717523
 20
1929.885600002984
 30
0.0
 11
4425.81823717523
 21
1929.884915428738
 31
0.0
  0
SPLINE
  5
1942
330
1F
100
AcDbEntity
  8
SANINDUSA
100
AcDbSpline
210
0.0
220
0.0
230
1.0
 70
     8
 71
     3
 72
    13
 73
     9
 74
     0
 42
0.0000000001
 43
0.0000000001
 40
0.0
 40
0.0
 40
0.0
 40
0.0
 40
0.1876786426244926
 40
0.4022920544972685
 40
0.6169044333486492
 40
0.8315177007677993
 40
0.9658375696802927
 40
1.0
 40
1.0
 40
1.0
 40
1.0
 10
4425.81823717523
 20
1929.884915428738
 30
0.0
 10
4425.818194789163
 20
1929.884424389194
 30
0.0
 10
4425.818103933976
 20
1929.883371838385
 30
0.0
 10
4425.817341958061
 20
1929.881904799011
 30
0.0
 10
4425.816122308788
 20
1929.880713104188
 30
0.0
 10
4425.814759119766
 20
1929.880087460221
 30
0.0
 10
4425.81376559741
 20
1929.879924298459
 30
0.0
 10
4425.813326262123
 20
1929.879916915596
 30
0.0
 10
4425.813237179998
 20
1929.879915418605
 30
0.0
  0
LINE
  5
1943
330
1F
100
AcDbEntity
  8
SANINDUSA
100
AcDbLine
 10
4425.813109924082
 20
1929.879915418605
 30
0.0
 11
4425.813237179998
 21
1929.879915418605
 31
0.0
  0
SPLINE
  5
1944
330
1F
100
AcDbEntity
  8
SANINDUSA
100
AcDbSpline
210
0.0
220
0.0
230
1.0
 70
     8
 71
     3
 72
    12
 73
     8
 74
     0
 42
0.0000000001
 43
0.0000000001
 40
0.0
 40
0.0
 40
0.0
 40
0.0
 40
0.2390327668815734
 40
0.47806986776547
 40
0.7171035910071754
 40
0.9561399334482208
 40
1.0
 40
1.0
 40
1.0
 40
1.0
 10
4425.813109924082
 20
1929.879915418605
 30
0.0
 10
4425.812547740655
 20
1929.879970686174
 30
0.0
 10
4425.811423363607
 20
1929.880081222314
 30
0.0
 10
4425.809926031463
 20
1929.880943354234
 30
0.0
 10
4425.808791312023
 20
1929.882211762581
 30
0.0
 10
4425.808309859154
 20
1929.883367666296
 30
0.0
 10
4425.808191852482
 20
1929.884019290331
 30
0.0
 10
4425.808173556808
 20
1929.884120317678
 30
0.0
  0
SPLINE
  5
1945
330
1F
100
AcDbEntity
  8
SANINDUSA
100
AcDbSpline
210
0.0
220
0.0
230
1.0
 70
     8
 71
     3
 72
    12
 73
     8
 74
     0
 42
0.0000000001
 43
0.0000000001
 40
0.0
 40
0.0
 40
0.0
 40
0.0
 40
0.2262811560556246
 40
0.452555544169235
 40
0.6788333985463241
 40
0.9051119366310548
 40
1.0
 40
1.0
 40
1.0
 40
1.0
 10
4425.802841086868
 20
1929.888309496025
 30
0.0
 10
4425.803405856044
 20
1929.88829892509
 30
0.0
 10
4425.804535377506
 20
1929.888277783536
 30
0.0
 10
4425.806096889721
 20
1929.887537113877
 30
0.0
 10
4425.807326269959
 20
1929.886362049288
 30
0.0
 10
4425.807966318815
 20
1929.885129241525
 30
0.0
 10
4425.808126292798
 20
1929.884350419244
 30
0.0
 10
4425.808173556808
 20
1929.884120317678
 30
0.0
  0
LINE
  5
1946
330
1F
100
AcDbEntity
  8
SANINDUSA
100
AcDbLine
 10
4425.706456248645
 20
1929.844915422181
 30
0.0
 11
4425.69445576239
 21
1929.844915422181
 31
0.0
  0
LINE
  5
1947
330
1F
100
AcDbEntity
  8
SANINDUSA
100
AcDbLine
 10
4425.69445576239
 20
1929.881382691244
 30
0.0
 11
4425.69445576239
 21
1929.844915422181
 31
0.0
  0
ARC
  5
1948
330
1F
100
AcDbEntity
  8
SANINDUSA
100
AcDbCircle
 10
4425.61645719433
 20
1932.233725145936
 30
0.0
 40
2.342809715815779
100
AcDbArc
 50
272.226033694815
 51
274.8532433726712
  0
SPLINE
  5
1949
330
1F
100
AcDbEntity
  8
SANINDUSA
100
AcDbSpline
210
0.0
220
0.0
230
1.0
 70
     8
 71
     3
 72
    14
 73
    10
 74
     0
 42
0.0000000001
 43
0.0000000001
 40
0.0
 40
0.0
 40
0.0
 40
0.0
 40
0.1545057127195233
 40
0.3090119779865091
 40
0.4635174218622204
 40
0.6180234933386897
 40
0.7725293241454258
 40
0.9270353129032367
 40
1.0
 40
1.0
 40
1.0
 40
1.0
 10
4425.839826543811
 20
1929.91767996786
 30
0.0
 10
4425.839100913048
 20
1929.916155245021
 30
0.0
 10
4425.837649648928
 20
1929.91310579389
 30
0.0
 10
4425.834548174949
 20
1929.909068624725
 30
0.0
 10
4425.830854801119
 20
1929.905591668004
 30
0.0
 10
4425.826625444861
 20
1929.902774965886
 30
0.0
 10
4425.821980064817
 20
1929.900732599515
 30
0.0
 10
4425.817925907671
 20
1929.899670678413
 30
0.0
 10
4425.815459105036
 20
1929.899401518049
 30
0.0
 10
4425.814667840485
 20
1929.899315180759
 30
0.0
  0
LINE
  5
194A
330
1F
100
AcDbEntity
  8
SANINDUSA
100
AcDbLine
 10
4425.950958897356
 20
1930.035915422755
 30
0.0
 11
4425.903755207542
 21
1930.035915422755
 31
0.0
  0
SPLINE
  5
194B
330
1F
100
AcDbEntity
  8
SANINDUSA
100
AcDbSpline
210
0.0
220
0.0
230
1.0
 70
    24
 71
     3
 72
     9
 73
     5
 74
     0
 42
0.0000000001
 43
0.0000000001
 40
0.0
 40
0.0
 40
0.0
 40
0.0
 40
0.7427740064529301
 40
1.0
 40
1.0
 40
1.0
 40
1.0
 10
4425.709001903419
 20
1929.87401157854
 30
0.0
 10
4425.70837162791
 20
1929.866807621756
 30
0.0
 10
4425.707523085146
 20
1929.857108902197
 30
0.0
 10
4425.706674521318
 20
1929.847410184482
 30
0.0
 10
4425.706456248645
 20
1929.844915422181
 30
0.0
  0
SPLINE
  5
194C
330
1F
100
AcDbEntity
  8
SANINDUSA
100
AcDbSpline
210
0.0
220
0.0
230
1.0
 70
     8
 71
     3
 72
     9
 73
     5
 74
     0
 42
0.0000000001
 43
0.0000000001
 40
0.0
 40
0.0
 40
0.0
 40
0.0
 40
0.4999193815350747
 40
1.0
 40
1.0
 40
1.0
 40
1.0
 10
4425.802841086868
 20
1929.888309496025
 30
0.0
 10
4425.78880315828
 20
1929.887257311792
 30
0.0
 10
4425.760722773508
 20
1929.885152603971
 30
0.0
 10
4425.732595901282
 20
1929.883804682004
 30
0.0
 10
4425.718530197624
 20
1929.883130612353
 30
0.0
  0
LINE
  5
194D
330
1F
100
AcDbEntity
  8
SANINDUSA
100
AcDbLine
 10
4425.892270703797
 20
1929.865915420036
 30
0.0
 11
4425.896224399093
 21
1929.865915420036
 31
0.0
  0
LINE
  5
194E
330
1F
100
AcDbEntity
  8
SANINDUSA
100
AcDbLine
 10
4425.840803642754
 20
1929.877915429453
 30
0.0
 11
4425.884499211792
 21
1929.877915429453
 31
0.0
  0
LINE
  5
194F
330
1F
100
AcDbEntity
  8
SANINDUSA
100
AcDbLine
 10
4425.845150073055
 20
1929.887915419916
 30
0.0
 11
4425.900035758499
 21
1929.887915419916
 31
0.0
  0
LINE
  5
1950
330
1F
100
AcDbEntity
  8
SANINDUSA
100
AcDbLine
 10
4425.648458634499
 20
1929.866507934908
 30
0.0
 11
4425.648458634499
 21
1929.881382691244
 31
0.0
  0
LINE
  5
1951
330
1F
100
AcDbEntity
  8
SANINDUSA
100
AcDbLine
 10
4425.634439532641
 20
1929.867987605313
 30
0.0
 11
4425.648458634499
 21
1929.866507934908
 31
0.0
  0
SPLINE
  5
1952
330
1F
100
AcDbEntity
  8
SANINDUSA
100
AcDbSpline
210
0.0
220
0.0
230
1.0
 70
    24
 71
     3
 72
     9
 73
     5
 74
     0
 42
0.0000000001
 43
0.0000000001
 40
0.0
 40
0.0
 40
0.0
 40
0.0
 40
0.3137028487585152
 40
1.0
 40
1.0
 40
1.0
 40
1.0
 10
4425.634439532641
 20
1929.867987605313
 30
0.0
 10
4425.63439814259
 20
1929.86846071225
 30
0.0
 10
4425.634266202282
 20
1929.869968849452
 30
0.0
 10
4425.634134249537
 20
1929.871476985566
 30
0.0
 10
4425.634043690744
 20
1929.872512015084
 30
0.0
  0
SPLINE
  5
1953
330
1F
100
AcDbEntity
  8
SANINDUSA
100
AcDbSpline
210
0.0
220
0.0
230
1.0
 70
     8
 71
     3
 72
    11
 73
     7
 74
     0
 42
0.0000000001
 43
0.0000000001
 40
0.0
 40
0.0
 40
0.0
 40
0.0
 40
0.2622365928425404
 40
0.524473377271118
 40
0.7867083644556355
 40
0.9999999999999998
 40
0.9999999999999998
 40
0.9999999999999998
 40
0.9999999999999998
 10
4425.626043197695
 20
1929.881446259598
 30
0.0
 10
4425.627125196941
 20
1929.881117300745
 30
0.0
 10
4425.629289196224
 20
1929.880459382798
 30
0.0
 10
4425.631870786167
 20
1929.878181040959
 30
0.0
 10
4425.633550687458
 20
1929.875430914089
 30
0.0
 10
4425.633891032949
 20
1929.873415848186
 30
0.0
 10
4425.634043690744
 20
1929.872512015084
 30
0.0
  0
SPLINE
  5
1954
330
1F
100
AcDbEntity
  8
SANINDUSA
100
AcDbSpline
210
0.0
220
0.0
230
1.0
 70
     8
 71
     3
 72
    15
 73
    11
 74
     0
 42
0.0000000001
 43
0.0000000001
 40
0.0
 40
0.0
 40
0.0
 40
0.0
 40
0.0999074443964559
 40
0.2258962242722433
 40
0.3518848120558774
 40
0.4778735946426164
 40
0.6038620759952205
 40
0.7298509360968591
 40
0.8558391467627771
 40
1.0
 40
1.0
 40
1.0
 40
1.0
 10
4425.626043197695
 20
1929.881446259598
 30
0.0
 10
4425.624959251345
 20
1929.881707447592
 30
0.0
 10
4425.622508389056
 20
1929.882298008005
 30
0.0
 10
4425.618912192871
 20
1929.8839261409
 30
0.0
 10
4425.615376121952
 20
1929.886244821753
 30
0.0
 10
4425.612294216018
 20
1929.889146168812
 30
0.0
 10
4425.60972663897
 20
1929.89251177931
 30
0.0
 10
4425.607787915107
 20
1929.896268430828
 30
0.0
 10
4425.606376353155
 20
1929.900485549747
 30
0.0
 10
4425.606106281465
 20
1929.903493715907
 30
0.0
 10
4425.605962161902
 20
1929.905098977069
 30
0.0
  0
LINE
  5
1955
330
1F
100
AcDbEntity
  8
SANINDUSA
100
AcDbLine
 10
4425.613628921095
 20
1929.972935395817
 30
0.0
 11
4425.603634861294
 21
1929.972590776662
 31
0.0
  0
ARC
  5
1956
330
1F
100
AcDbEntity
  8
SANINDUSA
100
AcDbCircle
 10
4425.61645719433
 20
1932.233725145936
 30
0.0
 40
2.342809715815779
100
AcDbArc
 50
270.3566562909492
 51
270.5118045035579
  0
LINE
  5
1957
330
1F
100
AcDbEntity
  8
SANINDUSA
100
AcDbLine
 10
4425.605962161902
 20
1929.905098977069
 30
0.0
 11
4425.603634861294
 21
1929.972590776662
 31
0.0
  0
LINE
  5
1958
330
1F
100
AcDbEntity
  8
SANINDUSA
100
AcDbLine
 10
4425.615956221704
 20
1929.905443596224
 30
0.0
 11
4425.613628921095
 21
1929.972935395817
 31
0.0
  0
ARC
  5
195B
330
1F
100
AcDbEntity
  8
SANINDUSA
100
AcDbCircle
 10
4425.501460476571
 20
1929.882915422419
 30
0.0
 40
0.005
100
AcDbArc
 50
270.0
 51
357.9999999962464
  0
ARC
  5
195C
330
1F
100
AcDbEntity
  8
SANINDUSA
100
AcDbCircle
 10
4425.483457194331
 20
1929.87991542242
 30
0.0
 40
0.0020000000000002
100
AcDbArc
 50
180.0
 51
270.0
  0
LINE
  5
195D
330
1F
100
AcDbEntity
  8
SANINDUSA
100
AcDbLine
 10
4425.481457195241
 20
1929.879915418605
 30
0.0
 11
4425.481457195241
 21
1930.033915421496
 31
0.0
  0
ARC
  5
195E
330
1F
100
AcDbEntity
  8
SANINDUSA
100
AcDbCircle
 10
4425.483457194331
 20
1930.03391542242
 30
0.0
 40
0.0020000000000002
100
AcDbArc
 50
90.0
 51
180.0
  0
LINE
  5
195F
330
1F
100
AcDbEntity
  8
SANINDUSA
100
AcDbLine
 10
4425.528959083368
 20
1930.023915421719
 30
0.0
 11
4425.528959083368
 21
1930.035915422755
 31
0.0
  0
LINE
  5
1960
330
1F
100
AcDbEntity
  8
SANINDUSA
100
AcDbLine
 10
4425.528959083368
 20
1930.023915421719
 30
0.0
 11
4425.516215796579
 21
1930.023915421719
 31
0.0
  0
ARC
  5
1961
330
1F
100
AcDbEntity
  8
SANINDUSA
100
AcDbCircle
 10
4425.516215796664
 20
1930.01891542242
 30
0.0
 40
0.0050000000000001
100
AcDbArc
 50
90.0
 51
177.9999999962464
  0
LINE
  5
1962
330
1F
100
AcDbEntity
  8
SANINDUSA
100
AcDbLine
 10
4425.511218842581
 20
1930.019089920948
 30
0.0
 11
4425.506457430772
 21
1929.882740932087
 31
0.0
  0
LINE
  5
1963
330
1F
100
AcDbEntity
  8
SANINDUSA
100
AcDbLine
 10
4425.528959083368
 20
1930.035915422755
 30
0.0
 11
4425.483457193705
 21
1930.035915422755
 31
0.0
  0
LINE
  5
1964
330
1F
100
AcDbEntity
  8
SANINDUSA
100
AcDbLine
 10
4425.483457193705
 20
1929.877915429453
 30
0.0
 11
4425.501460476775
 21
1929.877915429453
 31
0.0
  0
LINE
  5
1965
330
1F
100
AcDbEntity
  8
SANINDUSA
100
AcDbLine
 10
4425.563955304209
 20
1930.035915422755
 30
0.0
 11
4425.563955304209
 21
1930.023915421719
 31
0.0
  0
LINE
  5
1966
330
1F
100
AcDbEntity
  8
SANINDUSA
100
AcDbLine
 10
4425.528959083368
 20
1930.023915421719
 30
0.0
 11
4425.563955304209
 21
1930.023915421719
 31
0.0
  0
LINE
  5
1967
330
1F
100
AcDbEntity
  8
SANINDUSA
100
AcDbLine
 10
4425.528959083368
 20
1930.035915422755
 30
0.0
 11
4425.563955304209
 21
1930.035915422755
 31
0.0
  0
SPLINE
  5
1968
330
1F
100
AcDbEntity
  8
SANINDUSA
100
AcDbSpline
210
0.0
220
0.0
230
1.0
 70
     8
 71
     3
 72
    11
 73
     7
 74
     0
 42
0.0000000001
 43
0.0000000001
 40
0.0
 40
0.0
 40
0.0
 40
0.0
 40
0.3065466273508388
 40
0.6130939621138263
 40
0.9196380735374825
 40
1.0
 40
1.0
 40
1.0
 40
1.0
 10
4425.632313025181
 20
1929.848100962619
 30
0.0
 10
4425.632866635506
 20
1929.847987005991
 30
0.0
 10
4425.633973857435
 20
1929.847759092473
 30
0.0
 10
4425.635367941442
 20
1929.846744212818
 30
0.0
 10
4425.63613149812
 20
1929.845704029069
 30
0.0
 10
4425.636401957791
 20
1929.845051048789
 30
0.0
 10
4425.636458133343
 20
1929.844915422181
 30
0.0
  0
LINE
  5
1969
330
1F
100
AcDbEntity
  8
SANINDUSA
100
AcDbLine
 10
4425.632313025181
 20
1929.848100962619
 30
0.0
 11
4425.613688093607
 21
1929.850066753606
 31
0.0
  0
ARC
  5
196A
330
1F
100
AcDbEntity
  8
SANINDUSA
100
AcDbCircle
 10
4425.616837000637
 20
1929.87990103952
 30
0.0
 40
0.0300000000000001
100
AcDbArc
 50
181.974934010882
 51
263.9749339850705
  0
LINE
  5
196B
330
1F
100
AcDbEntity
  8
SANINDUSA
100
AcDbLine
 10
4425.586854820136
 20
1929.878867166619
 30
0.0
 11
4425.582019631747
 21
1930.019087734203
 31
0.0
  0
ARC
  5
196C
330
1F
100
AcDbEntity
  8
SANINDUSA
100
AcDbCircle
 10
4425.577022598846
 20
1930.01891542242
 30
0.0
 40
0.0050000000000001
100
AcDbArc
 50
1.974934010881976
 51
90.0
  0
LINE
  5
196D
330
1F
100
AcDbEntity
  8
SANINDUSA
100
AcDbLine
 10
4425.602704544547
 20
1929.999569843094
 30
0.0
 11
4425.612698604349
 21
1929.999914465974
 31
0.0
  0
LINE
  5
196E
330
1F
100
AcDbEntity
  8
SANINDUSA
100
AcDbLine
 10
4425.601865042929
 20
1930.023915421719
 30
0.0
 11
4425.591859099451
 21
1930.023915421719
 31
0.0
  0
LINE
  5
196F
330
1F
100
AcDbEntity
  8
SANINDUSA
100
AcDbLine
 10
4425.596848879937
 20
1929.879211800675
 30
0.0
 11
4425.591859099451
 21
1930.023915421719
 31
0.0
  0
ARC
  5
1970
330
1F
100
AcDbEntity
  8
SANINDUSA
100
AcDbCircle
 10
4425.616837000637
 20
1929.87990103952
 30
0.0
 40
0.0200000000000003
100
AcDbArc
 50
181.974934010882
 51
263.9749339850705
  0
LINE
  5
1971
330
1F
100
AcDbEntity
  8
SANINDUSA
100
AcDbLine
 10
4425.648458634499
 20
1929.856452392916
 30
0.0
 11
4425.6147377314
 21
1929.860011520366
 31
0.0
  0
LINE
  5
1972
330
1F
100
AcDbEntity
  8
SANINDUSA
100
AcDbLine
 10
4425.648458634499
 20
1929.844915422181
 30
0.0
 11
4425.648458634499
 21
1929.856452392916
 31
0.0
  0
LINE
  5
1973
330
1F
100
AcDbEntity
  8
SANINDUSA
100
AcDbLine
 10
4425.648458634499
 20
1929.844915422181
 30
0.0
 11
4425.636458133343
 21
1929.844915422181
 31
0.0
  0
LINE
  5
1974
330
1F
100
AcDbEntity
  8
SANINDUSA
100
AcDbLine
 10
4425.577022601847
 20
1930.023915421719
 30
0.0
 11
4425.563955304209
 21
1930.023915421719
 31
0.0
  0
LINE
  5
1975
330
1F
100
AcDbEntity
  8
SANINDUSA
100
AcDbLine
 10
4425.602704544547
 20
1929.999569843094
 30
0.0
 11
4425.601865042929
 21
1930.023915421719
 31
0.0
  0
LINE
  5
1976
330
1F
100
AcDbEntity
  8
SANINDUSA
100
AcDbLine
 10
4425.612698604349
 20
1929.999914465974
 30
0.0
 11
4425.611723546866
 21
1930.028191119934
 31
0.0
  0
SPLINE
  5
1977
330
1F
100
AcDbEntity
  8
SANINDUSA
100
AcDbSpline
210
0.0
220
0.0
230
1.0
 70
     8
 71
     3
 72
    12
 73
     8
 74
     0
 42
0.0000000001
 43
0.0000000001
 40
0.0
 40
0.0
 40
0.0
 40
0.0
 40
0.2195067259584845
 40
0.4390130357929442
 40
0.6585193535097146
 40
0.8780259344615039
 40
1.0
 40
1.0
 40
1.0
 40
1.0
 10
4425.603728299026
 20
1930.035915422755
 30
0.0
 10
4425.604627710084
 20
1930.035826985512
 30
0.0
 10
4425.606426530498
 20
1930.035650111194
 30
0.0
 10
4425.608823650514
 20
1930.034270854578
 30
0.0
 10
4425.610633924927
 20
1930.03224079693
 30
0.0
 10
4425.611552392125
 20
1930.030078102503
 30
0.0
 10
4425.611678501603
 20
1930.028687744371
 30
0.0
 10
4425.611723546866
 20
1930.028191119934
 30
0.0
  0
LINE
  5
1978
330
1F
100
AcDbEntity
  8
SANINDUSA
100
AcDbLine
 10
4425.603728299026
 20
1930.035915422755
 30
0.0
 11
4425.563955304209
 21
1930.035915422755
 31
0.0
  0
LWPOLYLINE
  5
1979
330
1F
100
AcDbEntity
  8
SANINDUSA
100
AcDbPolyline
 90
       20
 70
   128
 43
0.0
 10
4425.602704544547
 20
1929.999569843094
 10
4425.602712181393
 20
1929.999348508696
 10
4425.602731992486
 20
1929.998773957173
 10
4425.602763456288
 20
1929.997861477117
 10
4425.602805738334
 20
1929.996635368596
 10
4425.602857706134
 20
1929.995128268878
 10
4425.60291798133
 20
1929.993380295615
 10
4425.6029849546
 20
1929.991437988858
 10
4425.603056852702
 20
1929.989353051911
 10
4425.603131745938
 20
1929.987180995325
 10
4425.603207659904
 20
1929.984979631881
 10
4425.603282553139
 20
1929.98280756412
 10
4425.603354451243
 20
1929.980722630898
 10
4425.603421424511
 20
1929.978780324141
 10
4425.603481699709
 20
1929.977032350878
 10
4425.603533667509
 20
1929.975525254885
 10
4425.603575949554
 20
1929.974299142639
 10
4425.603607413355
 20
1929.973386662583
 10
4425.603627224449
 20
1929.97281211106
 10
4425.603634861294
 20
1929.972590776662
  0
LWPOLYLINE
  5
197A
330
1F
100
AcDbEntity
  8
SANINDUSA
100
AcDbPolyline
 90
       20
 70
   128
 43
0.0
 10
4425.613628921095
 20
1929.972935395817
 10
4425.61362128425
 20
1929.973156730215
 10
4425.613601473156
 20
1929.973731289188
 10
4425.613570009354
 20
1929.974643769244
 10
4425.61352772731
 20
1929.97586987404
 10
4425.61347575951
 20
1929.977376977484
 10
4425.613415484312
 20
1929.979124943296
 10
4425.613348511044
 20
1929.981067250053
 10
4425.613276612941
 20
1929.983152190725
 10
4425.613201719705
 20
1929.985324251036
 10
4425.613125805739
 20
1929.98752561448
 10
4425.613050912503
 20
1929.989697674791
 10
4425.612979014401
 20
1929.991782611738
 10
4425.612912041131
 20
1929.993724918494
 10
4425.612851765935
 20
1929.995472891758
 10
4425.612799798135
 20
1929.996979991476
 10
4425.61275751609
 20
1929.998206099997
 10
4425.612726052288
 20
1929.999118580053
 10
4425.612706241194
 20
1929.999693131576
 10
4425.612698604349
 20
1929.999914465974
  0
LINE
  5
197E
330
1F
100
AcDbEntity
  8
SANINDUSA
100
AcDbLine
 10
4425.648458634499
 20
1929.844915422181
 30
0.0
 11
4425.69445576239
 21
1929.844915422181
 31
0.0
  0
LINE
  5
1997
330
1F
100
AcDbEntity
  8
SANINDUSA
100
AcDbLine
 10
4425.501460476775
 20
1929.877915429453
 30
0.0
 11
4425.511417971687
 21
1929.877915429453
 31
0.0
  0
SPLINE
  5
199B
330
1F
100
AcDbEntity
  8
SANINDUSA
100
AcDbSpline
210
0.0
220
0.0
230
1.0
 70
    24
 71
     3
 72
    40
 73
    36
 74
     0
 42
0.0000000001
 43
0.0000000001
 40
0.0
 40
0.0
 40
0.0
 40
0.0
 40
0.0134237625818229
 40
0.0909390074733606
 40
0.1410286517103058
 40
0.1914364266369517
 40
0.2425778329929365
 40
0.3155363398533313
 40
0.3892066358921237
 40
0.4360714904458687
 40
0.4825471782966856
 40
0.5289255457647241
 40
0.5695160253279186
 40
0.6103785446661023
 40
0.6516942490130649
 40
0.6936384546960265
 40
0.73637750267938
 40
0.7800703433834166
 40
0.8061338946611073
 40
0.8335833261164099
 40
0.8624378840392584
 40
0.8927152865403094
 40
0.901839383223427
 40
0.9117946490079193
 40
0.9225812830287033
 40
0.9341990197734199
 40
0.9466479833197849
 40
0.969686615920888
 40
0.9862580923342775
 40
0.996362834985635
 40
0.9989896536285133
 40
0.9996971496787828
 40
0.9998990499297462
 40
0.9999624077144243
 40
1.0
 40
1.0
 40
1.0
 40
1.0
 10
4425.903219868425
 20
1930.035915422755
 30
0.0
 10
4425.903198135308
 20
1930.035915422755
 30
0.0
 10
4425.903050904744
 20
1930.035915422755
 30
0.0
 10
4425.90213688816
 20
1930.035915422755
 30
0.0
 10
4425.900735759861
 20
1930.035915422755
 30
0.0
 10
4425.899198979867
 20
1930.035915422755
 30
0.0
 10
4425.897119319669
 20
1930.035915422755
 30
0.0
 10
4425.894335739628
 20
1930.035915422755
 30
0.0
 10
4425.891157525071
 20
1930.035915422755
 30
0.0
 10
4425.888151632244
 20
1930.035915422755
 30
0.0
 10
4425.885478055744
 20
1930.035915422755
 30
0.0
 10
4425.882786393202
 20
1930.035915422755
 30
0.0
 10
4425.880101664724
 20
1930.035915422755
 30
0.0
 10
4425.877441772376
 20
1930.035915422755
 30
0.0
 10
4425.874683170637
 20
1930.035915422755
 30
0.0
 10
4425.871826082133
 20
1930.035915422755
 30
0.0
 10
4425.868870690865
 20
1930.035915422755
 30
0.0
 10
4425.866252714405
 20
1930.035915422755
 30
0.0
 10
4425.863978816528
 20
1930.035915422755
 30
0.0
 10
4425.86204707336
 20
1930.035915422755
 30
0.0
 10
4425.860013225629
 20
1930.035915422755
 30
0.0
 10
4425.858408384755
 20
1930.035915422755
 30
0.0
 10
4425.857247680436
 20
1930.035915422755
 30
0.0
 10
4425.856545290523
 20
1930.035915422755
 30
0.0
 10
4425.855784232623
 20
1930.035915422755
 30
0.0
 10
4425.854964514999
 20
1930.035915422755
 30
0.0
 10
4425.853856641157
 20
1930.035915422755
 30
0.0
 10
4425.852632264249
 20
1930.035915422755
 30
0.0
 10
4425.851463019599
 20
1930.035915422755
 30
0.0
 10
4425.850773840828
 20
1930.035915422755
 30
0.0
 10
4425.850457767378
 20
1930.035915422755
 30
0.0
 10
4425.850374598991
 20
1930.035915422755
 30
0.0
 10
4425.850351720737
 20
1930.035915422755
 30
0.0
 10
4425.850344597978
 20
1930.035915422755
 30
0.0
 10
4425.850342223728
 20
1930.035915422755
 30
0.0
 10
4425.850341339592
 20
1930.035915422755
 30
0.0
  0
SPLINE
  5
199D
330
1F
100
AcDbEntity
  8
SANINDUSA
100
AcDbSpline
210
0.0
220
0.0
230
1.0
 70
    24
 71
     3
 72
    19
 73
    15
 74
     0
 42
0.0000000001
 43
0.0000000001
 40
0.0
 40
0.0
 40
0.0
 40
0.0
 40
0.0831433550145471
 40
0.165544720161837
 40
0.2486858287879333
 40
0.331709155044051
 40
0.4141275571799996
 40
0.4974030656547594
 40
0.5802552015590217
 40
0.6638868956237932
 40
0.7471013374400197
 40
0.8307736439619787
 40
0.9155062501128513
 40
1.0
 40
1.0
 40
1.0
 40
1.0
 10
4425.641577844504
 20
1930.035915422755
 30
0.0
 10
4425.639917812055
 20
1930.035915422755
 30
0.0
 10
4425.636612561659
 20
1930.035915422755
 30
0.0
 10
4425.631732842579
 20
1930.035915422755
 30
0.0
 10
4425.627032092598
 20
1930.035915422755
 30
0.0
 10
4425.622576988724
 20
1930.035915422755
 30
0.0
 10
4425.61845513964
 20
1930.035915422755
 30
0.0
 10
4425.614741643211
 20
1930.035915422755
 30
0.0
 10
4425.611472423798
 20
1930.035915422755
 30
0.0
 10
4425.6087233187
 20
1930.035915422755
 30
0.0
 10
4425.606521051146
 20
1930.035915422755
 30
0.0
 10
4425.604935089095
 20
1930.035915422755
 30
0.0
 10
4425.603920910708
 20
1930.035915422755
 30
0.0
 10
4425.603792442477
 20
1930.035915422755
 30
0.0
 10
4425.603728299026
 20
1930.035915422755
 30
0.0
  0
LINE
  5
199E
330
1F
100
AcDbEntity
  8
SANINDUSA
100
AcDbLine
 10
4425.511417971687
 20
1929.877915429453
 30
0.0
 11
4425.586902786974
 21
1929.877915429453
 31
0.0
  0
LINE
  5
19A5
330
1F
100
AcDbEntity
  8
SANINDUSA
100
AcDbLine
 10
4425.481457195241
 20
1929.879915418605
 30
0.0
 11
4425.481457195241
 21
1929.873889627437
 31
0.0
  0
LINE
  5
19A9
330
1F
100
AcDbEntity
  8
SANINDUSA
100
AcDbLine
 10
4425.481457195241
 20
1929.873889627437
 30
0.0
 11
4425.481457195241
 21
1929.867915424089
 31
0.0
  0
LINE
  5
19AB
330
1F
100
AcDbEntity
  8
SANINDUSA
100
AcDbLine
 10
4425.483457193705
 20
1929.865915420036
 30
0.0
 11
4425.491457195017
 21
1929.865915420036
 31
0.0
  0
ARC
  5
19AC
330
1F
100
AcDbEntity
  8
SANINDUSA
100
AcDbCircle
 10
4425.483457194331
 20
1929.86791542242
 30
0.0
 40
0.0020000000000002
100
AcDbArc
 50
180.0
 51
270.0
  0
SPLINE
  5
19AF
330
1F
100
AcDbEntity
  8
SANINDUSA
100
AcDbSpline
210
0.0
220
0.0
230
1.0
 70
     8
 71
     3
 72
    13
 73
     9
 74
     0
 42
0.0000000001
 43
0.0000000001
 40
0.0
 40
0.0
 40
0.0
 40
0.0
 40
0.0032499987986872
 40
0.2191373477759193
 40
0.4350263384737615
 40
0.6509152017954161
 40
0.8667999376338253
 40
1.0
 40
1.0
 40
1.0
 40
1.0
 10
4425.76143421698
 20
1929.215871813277
 30
0.0
 10
4425.761434134914
 20
1929.215863389376
 30
0.0
 10
4425.76142860142
 20
1929.215295391793
 30
0.0
 10
4425.76121886623
 20
1929.214161818745
 30
0.0
 10
4425.760369263175
 20
1929.212676535158
 30
0.0
 10
4425.759076194824
 20
1929.211562785981
 30
0.0
 10
4425.757686146591
 20
1929.210992916898
 30
0.0
 10
4425.75678012539
 20
1929.21093684425
 30
0.0
 10
4425.756434415464
 20
1929.210915448646
 30
0.0
  0
SPLINE
  5
19B2
330
1F
100
AcDbEntity
  8
SANINDUSA
100
AcDbSpline
210
0.0
220
0.0
230
1.0
 70
    24
 71
     3
 72
     9
 73
     5
 74
     0
 42
0.0000000001
 43
0.0000000001
 40
0.0
 40
0.0
 40
0.0
 40
0.0
 40
0.9630700707820089
 40
1.0
 40
1.0
 40
1.0
 40
1.0
 10
4425.76147900987
 20
1929.221002700309
 30
0.0
 10
4425.761464699247
 20
1929.219355565126
 30
0.0
 10
4425.761449839867
 20
1929.217645268821
 30
0.0
 10
4425.761434773384
 20
1929.215934974332
 30
0.0
 10
4425.76143421698
 20
1929.215871813277
 30
0.0
  0
SPLINE
  5
19B4
330
1F
100
AcDbEntity
  8
SANINDUSA
100
AcDbSpline
210
0.0
220
0.0
230
1.0
 70
     8
 71
     3
 72
    13
 73
     9
 74
     0
 42
0.0000000001
 43
0.0000000001
 40
0.0
 40
0.0
 40
0.0
 40
0.0
 40
0.054273613321628
 40
0.2701227438062305
 40
0.485977482455698
 40
0.7018288938159875
 40
0.9176792959204751
 40
1.0
 40
1.0
 40
1.0
 40
1.0
 10
4425.76147900987
 20
1929.221002700309
 30
0.0
 10
4425.761488873447
 20
1929.221284000569
 30
0.0
 10
4425.761537965008
 20
1929.222684047356
 30
0.0
 10
4425.762222761412
 20
1929.225170182019
 30
0.0
 10
4425.764146118261
 20
1929.227996427811
 30
0.0
 10
4425.766902800136
 20
1929.230014985034
 30
0.0
 10
4425.769505437876
 20
1929.230838009386
 30
0.0
 10
4425.77105170974
 20
1929.23089867945
 30
0.0
 10
4425.771478612904
 20
1929.230915429572
 30
0.0
  0
SPLINE
  5
19B7
330
1F
100
AcDbEntity
  8
SANINDUSA
100
AcDbSpline
210
0.0
220
0.0
230
1.0
 70
     8
 71
     3
 72
    22
 73
    18
 74
     0
 42
0.0000000001
 43
0.0000000001
 40
0.0
 40
0.0
 40
0.0
 40
0.0
 40
0.125
 40
0.125
 40
0.25
 40
0.25
 40
0.375
 40
0.375
 40
0.5
 40
0.5
 40
0.625
 40
0.625
 40
0.75
 40
0.75
 40
0.875
 40
0.875
 40
1.0
 40
1.0
 40
1.0
 40
1.0
 10
4425.770178106168
 20
1929.865590547594
 30
0.0
 10
4425.77012221202
 20
1929.865907539043
 30
0.0
 10
4425.770097245059
 20
1929.866229762552
 30
0.0
 10
4425.770108646103
 20
1929.866866765276
 30
0.0
 10
4425.770144547744
 20
1929.867184397437
 30
0.0
 10
4425.770279070057
 20
1929.867816075105
 30
0.0
 10
4425.770375559954
 20
1929.868120382749
 30
0.0
 10
4425.7706246773
 20
1929.868706850905
 30
0.0
 10
4425.770779297821
 20
1929.868991746658
 30
0.0
 10
4425.771138384773
 20
1929.869523342223
 30
0.0
 10
4425.771341223145
 20
1929.869768989906
 30
0.0
 10
4425.77179286747
 20
1929.870220523295
 30
0.0
 10
4425.772044223624
 20
1929.870427552018
 30
0.0
 10
4425.77257393385
 20
1929.870784307577
 30
0.0
 10
4425.772853896545
 20
1929.87093631708
 30
0.0
 10
4425.773444445365
 20
1929.87118688697
 30
0.0
 10
4425.773753692203
 20
1929.871284052872
 30
0.0
 10
4425.7740653604
 20
1929.87135011527
 30
0.0
  0
SPLINE
  5
19BB
330
1F
100
AcDbEntity
  8
SANINDUSA
100
AcDbSpline
210
0.0
220
0.0
230
1.0
 70
    24
 71
     3
 72
     9
 73
     5
 74
     0
 42
0.0000000001
 43
0.0000000001
 40
0.0
 40
0.0
 40
0.0
 40
0.0
 40
0.1341955327384094
 40
1.0
 40
1.0
 40
1.0
 40
1.0
 10
4425.78598763514
 20
1929.775930317621
 30
0.0
 10
4425.785280445932
 20
1929.77994098503
 30
0.0
 10
4425.780010604291
 20
1929.809827728113
 30
0.0
 10
4425.774740756724
 20
1929.839714470151
 30
0.0
 10
4425.770178099159
 20
1929.865590544919
 30
0.0
  0
SPLINE
  5
19BF
330
1F
100
AcDbEntity
  8
SANINDUSA
100
AcDbSpline
210
0.0
220
0.0
230
1.0
 70
     8
 71
     3
 72
    20
 73
    16
 74
     0
 42
0.0000000001
 43
0.0000000001
 40
0.0
 40
0.0
 40
0.0
 40
0.0
 40
0.1250000000000009
 40
0.1250000000000009
 40
0.2500000000000018
 40
0.2500000000000018
 40
0.4999999999999991
 40
0.4999999999999991
 40
0.6249999999999992
 40
0.6249999999999992
 40
0.7499999999999995
 40
0.7499999999999995
 40
0.8749999999999998
 40
0.8749999999999998
 40
1.0
 40
1.0
 40
1.0
 40
1.0
 10
4425.78591822223
 20
1929.87891542242
 30
0.0
 10
4425.785561083209
 20
1929.878439237064
 30
0.0
 10
4425.785181889215
 20
1929.877977839519
 30
0.0
 10
4425.784378213141
 20
1929.877085409992
 30
0.0
 10
4425.78395404159
 20
1929.876655233199
 30
0.0
 10
4425.782639155332
 20
1929.875436186346
 30
0.0
 10
4425.781698486285
 20
1929.874709055057
 30
0.0
 10
4425.780192163827
 20
1929.873745641871
 30
0.0
 10
4425.779674076963
 20
1929.873445842148
 30
0.0
 10
4425.778604900194
 20
1929.872890313201
 30
0.0
 10
4425.778058990597
 20
1929.872637359587
 30
0.0
 10
4425.776949133291
 20
1929.872182403972
 30
0.0
 10
4425.77638449679
 20
1929.871980042995
 30
0.0
 10
4425.775235677578
 20
1929.871625892374
 30
0.0
 10
4425.774650641402
 20
1929.871474173697
 30
0.0
 10
4425.7740653604
 20
1929.87135011527
 30
0.0
  0
SPLINE
  5
19C1
330
1F
100
AcDbEntity
  8
SANINDUSA
100
AcDbSpline
210
0.0
220
0.0
230
1.0
 70
    24
 71
     3
 72
     9
 73
     5
 74
     0
 42
0.0000000001
 43
0.0000000001
 40
0.0
 40
0.0
 40
0.0
 40
0.0
 40
0.9201594962754395
 40
1.0
 40
1.0
 40
1.0
 40
1.0
 10
4425.781478990796
 20
1929.220915439109
 30
0.0
 10
4425.781452241306
 20
1929.21784824358
 30
0.0
 10
4425.781423170812
 20
1929.214514913281
 30
0.0
 10
4425.781394054275
 20
1929.211181583384
 30
0.0
 10
4425.781391729596
 20
1929.210915448646
 30
0.0
  0
SPLINE
  5
19C3
330
1F
100
AcDbEntity
  8
SANINDUSA
100
AcDbSpline
210
0.0
220
0.0
230
1.0
 70
     8
 71
     3
 72
    11
 73
     7
 74
     0
 42
0.0000000001
 43
0.0000000001
 40
0.0
 40
0.0
 40
0.0
 40
0.0
 40
0.0073889450517966
 40
0.3709780730269885
 40
0.7345726006936323
 40
1.0
 40
1.0
 40
1.0
 40
1.0
 10
4425.785918225531
 20
1929.878915416578
 30
0.0
 10
4425.785925069113
 20
1929.878924499382
 30
0.0
 10
4425.786268666088
 20
1929.879380521327
 30
0.0
 10
4425.787113007112
 20
1929.880163745514
 30
0.0
 10
4425.788538548466
 20
1929.880815162254
 30
0.0
 10
4425.789508812737
 20
1929.880885669007
 30
0.0
 10
4425.789918233636
 20
1929.880915420632
 30
0.0
  0
SPLINE
  5
19C4
330
1F
100
AcDbEntity
  8
SANINDUSA
100
AcDbSpline
210
0.0
220
0.0
230
1.0
 70
    24
 71
     3
 72
     9
 73
     5
 74
     0
 42
0.0000000001
 43
0.0000000001
 40
0.0
 40
0.0
 40
0.0
 40
0.0
 40
0.8891330123049241
 40
1.0
 40
1.0
 40
1.0
 40
1.0
 10
4425.787064184431
 20
1929.860915424804
 30
0.0
 10
4425.786981646578
 20
1929.851454165741
 30
0.0
 10
4425.786888816989
 20
1929.840813171727
 30
0.0
 10
4425.786795894372
 20
1929.830172178523
 30
0.0
 10
4425.786785592321
 20
1929.828992443661
 30
0.0
  0
SPLINE
  5
19C5
330
1F
100
AcDbEntity
  8
SANINDUSA
100
AcDbSpline
210
0.0
220
0.0
230
1.0
 70
     8
 71
     3
 72
    13
 73
     9
 74
     0
 42
0.0000000001
 43
0.0000000001
 40
0.0
 40
0.0
 40
0.0
 40
0.0
 40
0.1139483903180795
 40
0.3298232958276838
 40
0.5456854130523475
 40
0.7615500797041824
 40
0.977416543882833
 40
0.9999999999999998
 40
0.9999999999999998
 40
0.9999999999999998
 40
0.9999999999999998
 10
4425.793322225097
 20
1929.202897968272
 30
0.0
 10
4425.793314875233
 20
1929.202779780712
 30
0.0
 10
4425.793293601071
 20
1929.20243768715
 30
0.0
 10
4425.793085669573
 20
1929.201896135583
 30
0.0
 10
4425.792651098221
 20
1929.201369366749
 30
0.0
 10
4425.792064399362
 20
1929.20101736008
 30
0.0
 10
4425.791592913536
 20
1929.200918527257
 30
0.0
 10
4425.791345694612
 20
1929.200915669257
 30
0.0
 10
4425.791322280649
 20
1929.200915398578
 30
0.0
  0
SPLINE
  5
19C6
330
1F
100
AcDbEntity
  8
SANINDUSA
100
AcDbSpline
210
0.0
220
0.0
230
1.0
 70
     8
 71
     3
 72
    13
 73
     9
 74
     0
 42
0.0000000001
 43
0.0000000001
 40
0.0
 40
0.0
 40
0.0
 40
0.0
 40
0.0769863667806638
 40
0.2904423174454859
 40
0.5039045186146061
 40
0.7173628649493474
 40
0.9308219080454597
 40
1.0
 40
1.0
 40
1.0
 40
1.0
 10
4425.797221650365
 20
1929.880915420632
 30
0.0
 10
4425.797302389355
 20
1929.880912419578
 30
0.0
 10
4425.797606988992
 20
1929.880901097668
 30
0.0
 10
4425.798124083771
 20
1929.880741700419
 30
0.0
 10
4425.798678325911
 20
1929.880341810024
 30
0.0
 10
4425.799066628901
 20
1929.879779246561
 30
0.0
 10
4425.799212405363
 20
1929.87926698927
 30
0.0
 10
4425.799219787875
 20
1929.878970528801
 30
0.0
 10
4425.799221594814
 20
1929.878897967318
 30
0.0
  0
SPLINE
  5
19C8
330
1F
100
AcDbEntity
  8
SANINDUSA
100
AcDbSpline
210
0.0
220
0.0
230
1.0
 70
     8
 71
     3
 72
    13
 73
     9
 74
     0
 42
0.0000000001
 43
0.0000000001
 40
0.0
 40
0.0
 40
0.0
 40
0.0
 40
0.0793874361057175
 40
0.2939331234253377
 40
0.508475917297218
 40
0.6427568882662007
 40
0.8572818406016528
 40
1.0
 40
1.0
 40
1.0
 40
1.0
 10
4425.711851541881
 20
1929.200915398578
 30
0.0
 10
4425.711768699638
 20
1929.200918556837
 30
0.0
 10
4425.711461975048
 20
1929.200930250336
 30
0.0
 10
4425.710943508199
 20
1929.201091884853
 30
0.0
 10
4425.710458853497
 20
1929.201444083764
 30
0.0
 10
4425.710095053775
 20
1929.201909077517
 30
0.0
 10
4425.709886073071
 20
1929.20239302945
 30
0.0
 10
4425.709861385556
 20
1929.202766308098
 30
0.0
 10
4425.709851522927
 20
1929.202915432433
 30
0.0
  0
LINE
  5
19C9
330
1F
100
AcDbEntity
  8
SANINDUSA
100
AcDbLine
 10
4425.656841252926
 20
1929.200915398578
 30
0.0
 11
4425.711851541881
 21
1929.200915398578
 31
0.0
  0
LINE
  5
19CB
330
1F
100
AcDbEntity
  8
SANINDUSA
100
AcDbLine
 10
4425.709851522927
 20
1929.202915432433
 30
0.0
 11
4425.709851522927
 21
1929.20891541479
 31
0.0
  0
SPLINE
  5
19CD
330
1F
100
AcDbEntity
  8
SANINDUSA
100
AcDbSpline
210
0.0
220
0.0
230
1.0
 70
     8
 71
     3
 72
    13
 73
     9
 74
     0
 42
0.0000000001
 43
0.0000000001
 40
0.0
 40
0.0
 40
0.0
 40
0.0
 40
0.1132002480801487
 40
0.3278635052571079
 40
0.5425268636359088
 40
0.7571855649366185
 40
0.9718516732920614
 40
0.9999999999999998
 40
0.9999999999999998
 40
0.9999999999999998
 40
0.9999999999999998
 10
4425.709851522927
 20
1929.20891541479
 30
0.0
 10
4425.709857821724
 20
1929.209033545141
 30
0.0
 10
4425.70987606502
 20
1929.209375687772
 30
0.0
 10
4425.710079149246
 20
1929.209918928603
 30
0.0
 10
4425.710508972422
 20
1929.210449619407
 30
0.0
 10
4425.711092584529
 20
1929.210806598426
 30
0.0
 10
4425.711569045127
 20
1929.210911378048
 30
0.0
 10
4425.711822195372
 20
1929.210915025781
 30
0.0
 10
4425.711851541881
 20
1929.210915448646
 30
0.0
  0
LINE
  5
19CE
330
1F
100
AcDbEntity
  8
SANINDUSA
100
AcDbLine
 10
4425.711851541881
 20
1929.210915448646
 30
0.0
 11
4425.656841252926
 21
1929.210915448646
 31
0.0
  0
SPLINE
  5
19CF
330
1F
100
AcDbEntity
  8
SANINDUSA
100
AcDbSpline
210
0.0
220
0.0
230
1.0
 70
     8
 71
     3
 72
    26
 73
    22
 74
     0
 42
0.0000000001
 43
0.0000000001
 40
0.0
 40
0.0
 40
0.0
 40
0.0
 40
0.1250000000000369
 40
0.1250000000000369
 40
0.1875000000000553
 40
0.1875000000000553
 40
0.2500000000000737
 40
0.2500000000000737
 40
0.3750000000001022
 40
0.3750000000001022
 40
0.5000000000001308
 40
0.5000000000001308
 40
0.5625000000001299
 40
0.5625000000001299
 40
0.625000000000129
 40
0.625000000000129
 40
0.7500000000000861
 40
0.7500000000000861
 40
0.8750000000000429
 40
0.8750000000000429
 40
1.0
 40
1.0
 40
1.0
 40
1.0
 10
4425.781609519755
 20
1929.235871789742
 30
0.0
 10
4425.781606686263
 20
1929.235547103777
 30
0.0
 10
4425.781572546062
 20
1929.235225231337
 30
0.0
 10
4425.7814739239
 20
1929.234746683567
 30
0.0
 10
4425.781432797754
 20
1929.23458710442
 30
0.0
 10
4425.781335974634
 20
1929.234275597196
 30
0.0
 10
4425.781280258944
 20
1929.234123166908
 30
0.0
 10
4425.781091688025
 20
1929.233675623739
 30
0.0
 10
4425.780937616861
 20
1929.23339016395
 30
0.0
 10
4425.780570404
 20
1929.232846121024
 30
0.0
 10
4425.780363087096
 20
1929.232596241194
 30
0.0
 10
4425.780018571496
 20
1929.232254020393
 30
0.0
 10
4425.77989807143
 20
1929.232145375059
 30
0.0
 10
4425.779645503264
 20
1929.231939175801
 30
0.0
 10
4425.779512870215
 20
1929.231841332171
 30
0.0
 10
4425.779105750204
 20
1929.23157077243
 30
0.0
 10
4425.778819971713
 20
1929.231418744959
 30
0.0
 10
4425.778220022663
 20
1929.231170713998
 30
0.0
 10
4425.777903752599
 20
1929.231074756934
 30
0.0
 10
4425.777263299132
 20
1929.230947584892
 30
0.0
 10
4425.776934355109
 20
1929.23091542242
 30
0.0
 10
4425.776609710083
 20
1929.23091542242
 30
0.0
  0
SPLINE
  5
19D0
330
1F
100
AcDbEntity
  8
SANINDUSA
100
AcDbSpline
210
0.0
220
0.0
230
1.0
 70
    24
 71
     3
 72
     9
 73
     5
 74
     0
 42
0.0000000001
 43
0.0000000001
 40
0.0
 40
0.0
 40
0.0
 40
0.0
 40
0.8749728250807159
 40
1.0
 40
1.0
 40
1.0
 40
1.0
 10
4425.786290694956
 20
1929.772282811384
 30
0.0
 10
4425.78492537294
 20
1929.615834457217
 30
0.0
 10
4425.78336495646
 20
1929.437030785055
 30
0.0
 10
4425.781804610603
 20
1929.258227112277
 30
0.0
 10
4425.781609524969
 20
1929.235871794204
 30
0.0
  0
SPLINE
  5
19D1
330
1F
100
AcDbEntity
  8
SANINDUSA
100
AcDbSpline
210
0.0
220
0.0
230
1.0
 70
     8
 71
     3
 72
     9
 73
     5
 74
     0
 42
0.0000000001
 43
0.0000000001
 40
0.0
 40
0.0
 40
0.0
 40
0.0
 40
0.8749061884011425
 40
1.0
 40
1.0
 40
1.0
 40
1.0
 10
4425.78598763514
 20
1929.775930317621
 30
0.0
 10
4425.786131014942
 20
1929.774869245768
 30
0.0
 10
4425.786294895143
 20
1929.773656462197
 30
0.0
 10
4425.786291161954
 20
1929.772435541062
 30
0.0
 10
4425.786290694956
 20
1929.772282811384
 30
0.0
  0
SPLINE
  5
19D2
330
1F
100
AcDbEntity
  8
SANINDUSA
100
AcDbSpline
210
0.0
220
0.0
230
1.0
 70
    24
 71
     3
 72
     9
 73
     5
 74
     0
 42
0.0000000001
 43
0.0000000001
 40
0.0
 40
0.0
 40
0.0
 40
0.0
 40
0.8756403751941746
 40
1.0
 40
1.0
 40
1.0
 40
1.0
 10
4425.799221594814
 20
1929.878897967318
 30
0.0
 10
4425.797499686594
 20
1929.681587003048
 30
0.0
 10
4425.79553323065
 20
1929.456253670028
 30
0.0
 10
4425.793566773029
 20
1929.230920337021
 30
0.0
 10
4425.793322225097
 20
1929.202897968272
 30
0.0
  0
SPLINE
  5
19D3
330
1F
100
AcDbEntity
  8
SANINDUSA
100
AcDbSpline
210
0.0
220
0.0
230
1.0
 70
    24
 71
     3
 72
     9
 73
     5
 74
     0
 42
0.0000000001
 43
0.0000000001
 40
0.0
 40
0.0
 40
0.0
 40
0.0
 40
0.1201092367143513
 40
1.0
 40
1.0
 40
1.0
 40
1.0
 10
4425.786785592321
 20
1929.828992443661
 30
0.0
 10
4425.786560237439
 20
1929.830270526252
 30
0.0
 10
4425.784683988063
 20
1929.840911527942
 30
0.0
 10
4425.782807666497
 20
1929.851552516904
 30
0.0
 10
4425.781156708483
 20
1929.860915424804
 30
0.0
  0
SPLINE
  5
19D4
330
1F
100
AcDbEntity
  8
SANINDUSA
100
AcDbSpline
210
0.0
220
0.0
230
1.0
 70
    24
 71
     3
 72
     9
 73
     5
 74
     0
 42
0.0000000001
 43
0.0000000001
 40
0.0
 40
0.0
 40
0.0
 40
0.0
 40
0.9202250824445108
 40
1.0
 40
1.0
 40
1.0
 40
1.0
 10
4425.771478612904
 20
1929.220915439109
 30
0.0
 10
4425.771451807197
 20
1929.217848025433
 30
0.0
 10
4425.771422677686
 20
1929.214514695649
 30
0.0
 10
4425.7713936661
 20
1929.211181364837
 30
0.0
 10
4425.771391351704
 20
1929.210915448646
 30
0.0
  0
LINE
  5
19D5
330
1F
100
AcDbEntity
  8
SANINDUSA
100
AcDbLine
 10
4425.771478612904
 20
1929.230915429572
 30
0.0
 11
4425.776609708552
 21
1929.230915429572
 31
0.0
  0
LINE
  5
19D6
330
1F
100
AcDbEntity
  8
SANINDUSA
100
AcDbLine
 10
4425.771391351704
 20
1929.210915448646
 30
0.0
 11
4425.781391729596
 21
1929.210915448646
 31
0.0
  0
LINE
  5
19D7
330
1F
100
AcDbEntity
  8
SANINDUSA
100
AcDbLine
 10
4425.771478612904
 20
1929.220915439109
 30
0.0
 11
4425.781478990796
 21
1929.220915439109
 31
0.0
  0
LINE
  5
19D8
330
1F
100
AcDbEntity
  8
SANINDUSA
100
AcDbLine
 10
4425.787064184431
 20
1929.860915424804
 30
0.0
 11
4425.781156708483
 21
1929.860915424804
 31
0.0
  0
LINE
  5
19D9
330
1F
100
AcDbEntity
  8
SANINDUSA
100
AcDbLine
 10
4425.711851541881
 20
1929.210915448646
 30
0.0
 11
4425.756434415464
 21
1929.210915448646
 31
0.0
  0
LINE
  5
19DA
330
1F
100
AcDbEntity
  8
SANINDUSA
100
AcDbLine
 10
4425.791322280649
 20
1929.200915398578
 30
0.0
 11
4425.711851541881
 21
1929.200915398578
 31
0.0
  0
LINE
  5
19DB
330
1F
100
AcDbEntity
  8
SANINDUSA
100
AcDbLine
 10
4425.797221650365
 20
1929.880915420632
 30
0.0
 11
4425.789918233636
 21
1929.880915420632
 31
0.0
  0
LINE
  5
1A02
330
1F
100
AcDbEntity
  8
SANINDUSA
100
AcDbLine
 10
4425.597156119529
 20
1929.200915398578
 30
0.0
 11
4425.656841252926
 21
1929.200915398578
 31
0.0
  0
LINE
  5
1A07
330
1F
100
AcDbEntity
  8
SANINDUSA
100
AcDbLine
 10
4425.656841252926
 20
1929.210915448646
 30
0.0
 11
4425.598112520758
 21
1929.210915448646
 31
0.0
  0
ARC
  5
1A09
330
1F
100
AcDbEntity
  8
SANINDUSA
100
AcDbCircle
 10
4425.598112522234
 20
1929.20791542242
 30
0.0
 40
0.003
100
AcDbArc
 50
90.0
 51
180.4999999998483
  0
ARC
  5
1A0A
330
1F
100
AcDbEntity
  8
SANINDUSA
100
AcDbCircle
 10
4425.597156118494
 20
1929.20291542242
 30
0.0
 40
0.0020000000000002
100
AcDbArc
 50
180.4999999998483
 51
270.0
  0
LINE
  5
1A0C
330
1F
100
AcDbEntity
  8
SANINDUSA
100
AcDbLine
 10
4425.595112633888
 20
1929.207889261226
 30
0.0
 11
4425.595156197433
 21
1929.202897968272
 31
0.0
  0
LWPOLYLINE
  5
1A1F
330
1F
100
AcDbEntity
  8
SANINDUSA
100
AcDbPolyline
 90
        9
 70
   128
 43
0.0
 10
4425.595043432895
 20
1929.215819420795
 10
4425.595056963149
 20
1929.214268627147
 10
4425.595069956962
 20
1929.212779464702
 10
4425.595081922594
 20
1929.211408438663
 10
4425.595092405561
 20
1929.210207762698
 10
4425.595100996081
 20
1929.209222974757
 10
4425.595107381228
 20
1929.208491566161
 10
4425.595111307685
 20
1929.20804125307
 10
4425.595112633888
 20
1929.207889261226
  0
LINE
  5
1A20
330
1F
100
AcDbEntity
  8
SANINDUSA
100
AcDbLine
 10
4425.589353029613
 20
1929.86787475882
 30
0.0
 11
4425.595043432895
 21
1929.215819420795
 31
0.0
  0
LINE
  5
1A41
330
1F
100
AcDbEntity
  8
SANINDUSA
100
AcDbLine
 10
4425.50122493431
 20
1930.01943891593
 30
0.0
 11
4425.496632032766
 21
1929.887915429453
 31
0.0
  0
LINE
  5
1A42
330
1F
100
AcDbEntity
  8
SANINDUSA
100
AcDbLine
 10
4425.491457195241
 20
1929.887915429453
 30
0.0
 11
4425.491457195241
 21
1930.025915422755
 31
0.0
  0
LINE
  5
1A43
330
1F
100
AcDbEntity
  8
SANINDUSA
100
AcDbLine
 10
4425.502949297681
 20
1930.025915422755
 30
0.0
 11
4425.491457195241
 21
1930.025915422755
 31
0.0
  0
ARC
  5
1A44
330
1F
100
AcDbEntity
  8
SANINDUSA
100
AcDbCircle
 10
4425.516215796664
 20
1930.01891542242
 30
0.0
 40
0.0150000000000001
100
AcDbArc
 50
152.1818592837198
 51
177.9999999962464
  0
SPLINE
  5
1CCF
330
1F
100
AcDbEntity
  8
SANINDUSA
100
AcDbSpline
210
0.0
220
0.0
230
1.0
 70
     8
 71
     3
 72
    13
 73
     9
 74
     0
 42
0.0000000001
 43
0.0000000001
 40
0.0
 40
0.0
 40
0.0
 40
0.0
 40
0.0116722704087257
 40
0.0274484775088786
 40
0.0558659825082878
 40
0.1043083942408694
 40
0.7528874677611606
 40
1.0
 40
1.0
 40
1.0
 40
1.0
 10
4423.971197163271
 20
1929.516876019421
 30
0.0
 10
4423.971235491924
 20
1929.51842506952
 30
0.0
 10
4423.971325625474
 20
1929.522067811276
 30
0.0
 10
4423.971236606627
 20
1929.529484080465
 30
0.0
 10
4423.971298617595
 20
1929.541780598269
 30
0.0
 10
4423.971324431989
 20
1929.638077899783
 30
0.0
 10
4423.971618319806
 20
1929.763404297364
 30
0.0
 10
4423.971605270397
 20
1929.882301001771
 30
0.0
 10
4423.971601670192
 20
1929.915103436796
 30
0.0
  0
ARC
  5
1CD0
330
1F
100
AcDbEntity
  8
SANINDUSA
100
AcDbCircle
 10
4423.969624960687
 20
1929.915103476705
 30
0.0
 40
0.0020000000322692
100
AcDbArc
 50
0.5302022781767311
 51
90.00000020844082
  0
SPLINE
  5
1CD1
330
1F
100
AcDbEntity
  8
SANINDUSA
100
AcDbSpline
210
0.0
220
0.0
230
1.0
 70
     8
 71
     3
 72
    12
 73
     8
 74
     0
 42
0.0000000001
 43
0.0000000001
 40
0.0
 40
0.0
 40
0.0
 40
0.0
 40
0.5107205492142171
 40
0.81540524013246
 40
0.9677451505636803
 40
0.9868305505109006
 40
0.9999999999999998
 40
0.9999999999999998
 40
0.9999999999999998
 40
0.9999999999999998
 10
4423.424471830533
 20
1929.91510339349
 30
0.0
 10
4423.424533872785
 20
1929.84730910663
 30
0.0
 10
4423.424632928085
 20
1929.73907023345
 30
0.0
 10
4423.424527037012
 20
1929.610608084954
 30
0.0
 10
4423.424999963161
 20
1929.547409545535
 30
0.0
 10
4423.424749870718
 20
1929.522904833937
 30
0.0
 10
4423.424845809099
 20
1929.518624067498
 30
0.0
 10
4423.424884980128
 20
1929.516876257839
 30
0.0
  0
ARC
  5
1CD2
330
1F
100
AcDbEntity
  8
SANINDUSA
100
AcDbCircle
 10
4423.426455722398
 20
1929.915103476705
 30
0.0
 40
0.0020000000322691
100
AcDbArc
 50
89.99999979155916
 51
180.531873094317
  0
SPLINE
  5
1CD3
330
1F
100
AcDbEntity
  8
SANINDUSA
100
AcDbSpline
210
0.0
220
0.0
230
1.0
 70
     8
 71
     3
 72
    32
 73
    28
 74
     0
 42
0.0000000001
 43
0.0000000001
 40
0.0
 40
0.0
 40
0.0
 40
0.0
 40
0.0383698370318926
 40
0.0799492627392276
 40
0.1183955285866692
 40
0.1557257172853792
 40
0.1947904868663642
 40
0.2357786543868154
 40
0.2771160633255515
 40
0.3187125244215132
 40
0.3604566105007297
 40
0.4022135051548907
 40
0.4438446190423893
 40
0.485243995608305
 40
0.5262469999645131
 40
0.5670944246560023
 40
0.6082766613773288
 40
0.6496332226591345
 40
0.6911133152073756
 40
0.7326586942741188
 40
0.7741906845355402
 40
0.81565015021097
 40
0.8570925752816517
 40
0.8976032511425659
 40
0.9357996086249254
 40
0.9768847928203756
 40
1.0
 40
1.0
 40
1.0
 40
1.0
 10
4423.893177156852
 20
1929.439856983605
 30
0.0
 10
4423.894723040961
 20
1929.439930553226
 30
0.0
 10
4423.897944120445
 20
1929.440083846475
 30
0.0
 10
4423.902694180251
 20
1929.44059755151
 30
0.0
 10
4423.907369468337
 20
1929.441347886692
 30
0.0
 10
4423.911888450954
 20
1929.442376414704
 30
0.0
 10
4423.916433608344
 20
1929.443709659265
 30
0.0
 10
4423.921041309351
 20
1929.445372643299
 30
0.0
 10
4423.925629827282
 20
1929.447360902189
 30
0.0
 10
4423.930112963436
 20
1929.449644551772
 30
0.0
 10
4423.934459552465
 20
1929.45221196807
 30
0.0
 10
4423.938638046148
 20
1929.455047309331
 30
0.0
 10
4423.942618502388
 20
1929.458131951228
 30
0.0
 10
4423.946372091705
 20
1929.461443336834
 30
0.0
 10
4423.949882307026
 20
1929.464967105034
 30
0.0
 10
4423.953157884982
 20
1929.468698141306
 30
0.0
 10
4423.95620222405
 20
1929.472638223309
 30
0.0
 10
4423.959008184829
 20
1929.476782326353
 30
0.0
 10
4423.961556480629
 20
1929.481106714058
 30
0.0
 10
4423.963831358618
 20
1929.485588897956
 30
0.0
 10
4423.965819707603
 20
1929.490204575874
 30
0.0
 10
4423.967508374103
 20
1929.494933475424
 30
0.0
 10
4423.96888932969
 20
1929.499718796552
 30
0.0
 10
4423.969901991806
 20
1929.504461585803
 30
0.0
 10
4423.970602118082
 20
1929.509243331457
 30
0.0
 10
4423.97101450273
 20
1929.513355043029
 30
0.0
 10
4423.971126259064
 20
1929.515941955111
 30
0.0
 10
4423.971166496681
 20
1929.516873367014
 30
0.0
  0
SPLINE
  5
1CD4
330
1F
100
AcDbEntity
  8
SANINDUSA
100
AcDbSpline
210
0.0
220
0.0
230
1.0
 70
     8
 71
     3
 72
    16
 73
    12
 74
     0
 42
0.0000000001
 43
0.0000000001
 40
0.0
 40
0.0
 40
0.0
 40
0.0
 40
0.0066045832446396
 40
0.0211684998102328
 40
0.044742283531257
 40
0.0828389540304297
 40
0.4425117659674825
 40
0.8326972734466853
 40
0.9694723525628525
 40
0.9878014616252498
 40
1.0
 40
1.0
 40
1.0
 40
1.0
 10
4423.502908354209
 20
1929.439880348625
 30
0.0
 10
4423.503767199835
 20
1929.439854134976
 30
0.0
 10
4423.506519905465
 20
1929.439770117013
 30
0.0
 10
4423.512341180289
 20
1929.439858977041
 30
0.0
 10
4423.522257906195
 20
1929.439806346241
 30
0.0
 10
4423.577070199907
 20
1929.439729610723
 30
0.0
 10
4423.679572806363
 20
1929.439616884115
 30
0.0
 10
4423.794914274655
 20
1929.439409924538
 30
0.0
 10
4423.865848954471
 20
1929.439986180016
 30
0.0
 10
4423.887613510743
 20
1929.439777734819
 30
0.0
 10
4423.891584364343
 20
1929.439845472948
 30
0.0
 10
4423.893171077178
 20
1929.439872540417
 30
0.0
  0
SPLINE
  5
1CD5
330
1F
100
AcDbEntity
  8
SANINDUSA
100
AcDbSpline
210
0.0
220
0.0
230
1.0
 70
     8
 71
     3
 72
    32
 73
    28
 74
     0
 42
0.0000000001
 43
0.0000000001
 40
0.0
 40
0.0
 40
0.0
 40
0.0
 40
0.0360779276796121
 40
0.0772631571559817
 40
0.1154033784808103
 40
0.1523716213706609
 40
0.1907174058272784
 40
0.2317598175392011
 40
0.2729993627725414
 40
0.3144003703762447
 40
0.3559087635361483
 40
0.3974611827734761
 40
0.4389820331999366
 40
0.4804151425020279
 40
0.5217269463797426
 40
0.56265399233103
 40
0.6037087366125721
 40
0.6450840869086562
 40
0.6866821790385021
 40
0.7283931483950916
 40
0.7700721617881449
 40
0.8115906985803633
 40
0.852848312316386
 40
0.8939365704668992
 40
0.9323584438813842
 40
0.9737463461773581
 40
0.9999999999999998
 40
0.9999999999999998
 40
0.9999999999999998
 40
0.9999999999999998
 10
4423.42490605037
 20
1929.516871549072
 30
0.0
 10
4423.424982795777
 20
1929.515418383224
 30
0.0
 10
4423.425147150903
 20
1929.512306336925
 30
0.0
 10
4423.425676729793
 20
1929.507679385353
 30
0.0
 10
4423.426449210021
 20
1929.503051155865
 30
0.0
 10
4423.427496286607
 20
1929.498593802049
 30
0.0
 10
4423.428850430148
 20
1929.494098187284
 30
0.0
 10
4423.430531378381
 20
1929.489529785558
 30
0.0
 10
4423.432546314091
 20
1929.484963400954
 30
0.0
 10
4423.434851565846
 20
1929.480515328902
 30
0.0
 10
4423.437437637653
 20
1929.476209668736
 30
0.0
 10
4423.440291892449
 20
1929.472071011734
 30
0.0
 10
4423.443399637647
 20
1929.468122985472
 30
0.0
 10
4423.446744743331
 20
1929.464386933496
 30
0.0
 10
4423.450304542948
 20
1929.460888815235
 30
0.0
 10
4423.454069799646
 20
1929.457636359064
 30
0.0
 10
4423.458033180306
 20
1929.454624438414
 30
0.0
 10
4423.462198912539
 20
1929.451850076873
 30
0.0
 10
4423.466551968499
 20
1929.449326755582
 30
0.0
 10
4423.471064851276
 20
1929.447074276419
 30
0.0
 10
4423.47570697419
 20
1929.445109810438
 30
0.0
 10
4423.480446956896
 20
1929.44344967647
 30
0.0
 10
4423.48525891814
 20
1929.442096113854
 30
0.0
 10
4423.490031026114
 20
1929.441102046591
 30
0.0
 10
4423.494860391373
 20
1929.440418976883
 30
0.0
 10
4423.499121334046
 20
1929.440014421601
 30
0.0
 10
4423.501847398529
 20
1929.439908239389
 30
0.0
 10
4423.502905463384
 20
1929.439867026987
 30
0.0
  0
SPLINE
  5
1CD7
330
1F
100
AcDbEntity
  8
SANINDUSA
100
AcDbSpline
210
0.0
220
0.0
230
1.0
 70
    24
 71
     3
 72
    13
 73
     9
 74
     0
 42
0.0000000001
 43
0.0000000001
 40
0.0
 40
0.0
 40
0.0
 40
0.0
 40
0.1090428444751473
 40
0.3237764711686277
 40
0.5385101881497132
 40
0.7532419397862416
 40
0.9679767456583919
 40
1.0
 40
1.0
 40
1.0
 40
1.0
 10
4423.96953982632
 20
1929.917103476705
 30
0.0
 10
4423.969555712928
 20
1929.917103476705
 30
0.0
 10
4423.96960288439
 20
1929.917103476705
 30
0.0
 10
4423.96894401202
 20
1929.917103476705
 30
0.0
 10
4423.967684691708
 20
1929.917103476705
 30
0.0
 10
4423.965934906319
 20
1929.917103476705
 30
0.0
 10
4423.964496651222
 20
1929.917103476705
 30
0.0
 10
4423.963725089524
 20
1929.917103476705
 30
0.0
 10
4423.963624959395
 20
1929.917103476705
 30
0.0
  0
SPLINE
  5
1CDA
330
1F
100
AcDbEntity
  8
SANINDUSA
100
AcDbSpline
210
0.0
220
0.0
230
1.0
 70
    24
 71
     3
 72
    13
 73
     9
 74
     0
 42
0.0000000001
 43
0.0000000001
 40
0.0
 40
0.0
 40
0.0
 40
0.0
 40
0.1090429329175076
 40
0.3237765382950934
 40
0.5385102339602755
 40
0.7532419642810954
 40
0.9679767488372339
 40
1.0
 40
1.0
 40
1.0
 40
1.0
 10
4423.426540856765
 20
1929.917103476705
 30
0.0
 10
4423.426524970131
 20
1929.917103476705
 30
0.0
 10
4423.426477798625
 20
1929.917103476705
 30
0.0
 10
4423.427136671047
 20
1929.917103476705
 30
0.0
 10
4423.428395991382
 20
1929.917103476705
 30
0.0
 10
4423.430145776765
 20
1929.917103476705
 30
0.0
 10
4423.431584031864
 20
1929.917103476705
 30
0.0
 10
4423.43235559356
 20
1929.917103476705
 30
0.0
 10
4423.432455723689
 20
1929.917103476705
 30
0.0
  0
SPLINE
  5
1CDF
330
1F
100
AcDbEntity
  8
SANINDUSA
100
AcDbSpline
210
0.0
220
0.0
230
1.0
 70
    24
 71
     3
 72
     8
 73
     4
 74
     0
 42
0.0000000001
 43
0.0000000001
 40
0.0
 40
0.0
 40
0.0
 40
0.0
 40
1.0
 40
1.0
 40
1.0
 40
1.0
 10
4423.875124849206
 20
1929.786837121471
 30
0.0
 10
4423.816096679985
 20
1929.786837121471
 30
0.0
 10
4423.757068510764
 20
1929.786837121471
 30
0.0
 10
4423.698040341543
 20
1929.786837121471
 30
0.0
  0
SPLINE
  5
1CE2
330
1F
100
AcDbEntity
  8
SANINDUSA
100
AcDbSpline
210
0.0
220
0.0
230
1.0
 70
    24
 71
     3
 72
     8
 73
     4
 74
     0
 42
0.0000000001
 43
0.0000000001
 40
0.0
 40
0.0
 40
0.0
 40
0.0
 40
1.0
 40
1.0
 40
1.0
 40
1.0
 10
4423.520955833879
 20
1929.786837121471
 30
0.0
 10
4423.5799840031
 20
1929.786837121471
 30
0.0
 10
4423.639012172322
 20
1929.786837121471
 30
0.0
 10
4423.698040341543
 20
1929.786837121471
 30
0.0
  0
CIRCLE
  5
1CEF
330
1F
100
AcDbEntity
  8
SANINDUSA
100
AcDbCircle
 10
4423.698040341543
 20
1929.852103476706
 30
0.0
 40
0.0175
  0
SPLINE
  5
1CF1
330
1F
100
AcDbEntity
  8
SANINDUSA
100
AcDbSpline
210
0.0
220
0.0
230
1.0
 70
     8
 71
     3
 72
     8
 73
     4
 74
     0
 42
0.0000000001
 43
0.0000000001
 40
0.0
 40
0.0
 40
0.0
 40
0.0
 40
1.0
 40
1.0
 40
1.0
 40
1.0
 10
4423.698040341531
 20
1929.523447740102
 30
0.0
 10
4423.756480091088
 20
1929.523447679088
 30
0.0
 10
4423.814920050681
 20
1929.523483225936
 30
0.0
 10
4423.873358515527
 20
1929.523553602257
 30
0.0
  0
SPLINE
  5
1CF4
330
1F
100
AcDbEntity
  8
SANINDUSA
100
AcDbSpline
210
0.0
220
0.0
230
1.0
 70
     8
 71
     3
 72
    15
 73
    11
 74
     0
 42
0.0000000001
 43
0.0000000001
 40
0.0
 40
0.0
 40
0.0
 40
0.0
 40
0.1253629704501879
 40
0.2506437854668961
 40
0.3758315730424356
 40
0.5009155126644468
 40
0.6258848870754527
 40
0.7507290708733291
 40
0.8754375576092904
 40
1.0
 40
1.0
 40
1.0
 40
1.0
 10
4423.522722167557
 20
1929.523553602257
 30
0.0
 10
4423.530048282763
 20
1929.523545102477
 30
0.0
 10
4423.544695712076
 20
1929.523528108488
 30
0.0
 10
4423.566659049338
 20
1929.523506859083
 30
0.0
 10
4423.588606097652
 20
1929.523488698789
 30
0.0
 10
4423.610534961941
 20
1929.523473921998
 30
0.0
 10
4423.632443758596
 20
1929.523462412594
 30
0.0
 10
4423.65433062332
 20
1929.523454262879
 30
0.0
 10
4423.6761937133
 20
1929.52344916028
 30
0.0
 10
4423.690760977049
 20
1929.523448532652
 30
0.0
 10
4423.698040341546
 20
1929.523448219021
 30
0.0
  0
SPLINE
  5
1CF5
330
1F
100
AcDbEntity
  8
SANINDUSA
100
AcDbSpline
210
0.0
220
0.0
230
1.0
 70
    24
 71
     3
 72
     8
 73
     4
 74
     0
 42
0.0000000001
 43
0.0000000001
 40
0.0
 40
0.0
 40
0.0
 40
0.0
 40
1.0
 40
1.0
 40
1.0
 40
1.0
 10
4423.905336345628
 20
1929.548235260269
 30
0.0
 10
4423.905440216397
 20
1929.617821015227
 30
0.0
 10
4423.905529666405
 20
1929.68740744038
 30
0.0
 10
4423.905610507031
 20
1929.756994193445
 30
0.0
  0
SPLINE
  5
1CF9
330
1F
100
AcDbEntity
  8
SANINDUSA
100
AcDbSpline
210
0.0
220
0.0
230
1.0
 70
    24
 71
     3
 72
    11
 73
     7
 74
     0
 42
0.0000000001
 43
0.0000000001
 40
0.0
 40
0.0
 40
0.0
 40
0.0
 40
0.2438561383538324
 40
0.4918210893632982
 40
0.74387566694387
 40
1.0
 40
1.0
 40
1.0
 40
1.0
 10
4423.490470176054
 20
1929.756994193445
 30
0.0
 10
4423.49049017691
 20
1929.740025131482
 30
0.0
 10
4423.490530515624
 20
1929.705801090226
 30
0.0
 10
4423.49059612577
 20
1929.654037511139
 30
0.0
 10
4423.490666556082
 20
1929.601420253728
 30
0.0
 10
4423.490718272275
 20
1929.56605799109
 30
0.0
 10
4423.490744337456
 20
1929.548235260269
 30
0.0
  0
SPLINE
  5
1CFB
330
1F
100
AcDbEntity
  8
SANINDUSA
100
AcDbSpline
210
0.0
220
0.0
230
1.0
 70
     8
 71
     3
 72
    22
 73
    18
 74
     0
 42
0.0000000001
 43
0.0000000001
 40
0.0
 40
0.0
 40
0.0
 40
0.0
 40
0.125
 40
0.125
 40
0.25
 40
0.25
 40
0.375
 40
0.375
 40
0.5
 40
0.5
 40
0.625
 40
0.625
 40
0.75
 40
0.75
 40
0.875
 40
0.875
 40
1.0
 40
1.0
 40
1.0
 40
1.0
 10
4423.873358515527
 20
1929.523553602257
 30
0.0
 10
4423.875244987704
 20
1929.523447806477
 30
0.0
 10
4423.877165265507
 20
1929.523448726421
 30
0.0
 10
4423.880947138896
 20
1929.523704006081
 30
0.0
 10
4423.88282636612
 20
1929.523956242135
 30
0.0
 10
4423.886562647271
 20
1929.524782173671
 30
0.0
 10
4423.888359351217
 20
1929.525333705959
 30
0.0
 10
4423.891823713853
 20
1929.52676486262
 30
0.0
 10
4423.89350547197
 20
1929.527662088527
 30
0.0
 10
4423.896594695672
 20
1929.52975687854
 30
0.0
 10
4423.898016643501
 20
1929.530958517924
 30
0.0
 10
4423.900578103331
 20
1929.533732588953
 30
0.0
 10
4423.901689153765
 20
1929.535267220344
 30
0.0
 10
4423.903504038655
 20
1929.538597891551
 30
0.0
 10
4423.904214148865
 20
1929.540421873022
 30
0.0
 10
4423.905142291872
 20
1929.544222152982
 30
0.0
 10
4423.90536460508
 20
1929.546208068481
 30
0.0
 10
4423.905336345628
 20
1929.548235260269
 30
0.0
  0
SPLINE
  5
1CFC
330
1F
100
AcDbEntity
  8
SANINDUSA
100
AcDbSpline
210
0.0
220
0.0
230
1.0
 70
     8
 71
     3
 72
    56
 73
    52
 74
     0
 42
0.0000000001
 43
0.0000000001
 40
0.0
 40
0.0
 40
0.0
 40
0.0
 40
0.0088347217596421
 40
0.017693167605678
 40
0.0265793072330753
 40
0.0354970754774128
 40
0.0444503676737144
 40
0.0534430352648492
 40
0.0624788816800268
 40
0.0715616585002612
 40
0.0806950619238291
 40
0.0898827295410441
 40
0.0991282374239354
 40
0.1084350975330617
 40
0.1178067554402079
 40
0.1272465883628969
 40
0.1367579035036608
 40
0.1463439366849151
 40
0.1560078512679315
 40
0.1657527373427833
 40
0.1755816111747816
 40
0.1854974148917442
 40
0.1955030163956841
 40
0.2056012094820883
 40
0.2157947141495963
 40
0.2260861770830191
 40
0.2364781722927363
 40
0.2469732018939147
 40
0.3046166884696796
 40
0.3652920898360549
 40
0.429289806897658
 40
0.4968577296116427
 40
0.5385376151987692
 40
0.581065608464081
 40
0.6244674818234023
 40
0.6779734503507838
 40
0.7520324597379146
 40
0.8042027347770471
 40
0.8425758993207479
 40
0.8671696506886704
 40
0.8779959961658674
 40
0.891962602491804
 40
0.9055337731185051
 40
0.91871047196637
 40
0.9314937320937223
 40
0.9438846637938443
 40
0.9558844640444553
 40
0.96749442756408
 40
0.9787159597848905
 40
0.9895505921212267
 40
1.0
 40
1.0
 40
1.0
 40
1.0
 10
4423.490744337456
 20
1929.548235260269
 30
0.0
 10
4423.490743056603
 20
1929.54809315758
 30
0.0
 10
4423.490740491454
 20
1929.54780857061
 30
0.0
 10
4423.490745962713
 20
1929.547380512436
 30
0.0
 10
4423.490758442366
 20
1929.546951062739
 30
0.0
 10
4423.490778752127
 20
1929.54652024509
 30
0.0
 10
4423.490806871976
 20
1929.546088161988
 30
0.0
 10
4423.490843008413
 20
1929.545654900862
 30
0.0
 10
4423.490887306576
 20
1929.545220559494
 30
0.0
 10
4423.490939927656
 20
1929.544785239269
 30
0.0
 10
4423.491001027839
 20
1929.544349047092
 30
0.0
 10
4423.491070763806
 20
1929.543912094965
 30
0.0
 10
4423.491149291061
 20
1929.543474500196
 30
0.0
 10
4423.491236764186
 20
1929.543036385431
 30
0.0
 10
4423.49133333657
 20
1929.542597878726
 30
0.0
 10
4423.491439160281
 20
1929.542159113614
 30
0.0
 10
4423.491554385884
 20
1929.541720229159
 30
0.0
 10
4423.491679162276
 20
1929.541281370017
 30
0.0
 10
4423.491813636506
 20
1929.540842686482
 30
0.0
 10
4423.491957953596
 20
1929.540404334541
 30
0.0
 10
4423.492112256357
 20
1929.539966475908
 30
0.0
 10
4423.49227668519
 20
1929.539529278082
 30
0.0
 10
4423.49245137794
 20
1929.53909291431
 30
0.0
 10
4423.492636469498
 20
1929.538657563901
 30
0.0
 10
4423.492832092382
 20
1929.538223411134
 30
0.0
 10
4423.493038373547
 20
1929.537790649536
 30
0.0
 10
4423.4932554455
 20
1929.537359465738
 30
0.0
 10
4423.493823976547
 20
1929.536288620587
 30
0.0
 10
4423.494871865991
 20
1929.534613162021
 30
0.0
 10
4423.49660062859
 20
1929.532464446383
 30
0.0
 10
4423.498657326546
 20
1929.530455022369
 30
0.0
 10
4423.500696074769
 20
1929.528893807277
 30
0.0
 10
4423.50259067041
 20
1929.527703916112
 30
0.0
 10
4423.504246758167
 20
1929.526814524126
 30
0.0
 10
4423.506116715478
 20
1929.525968242402
 30
0.0
 10
4423.508479365659
 20
1929.525104005308
 30
0.0
 10
4423.51105486938
 20
1929.524405253262
 30
0.0
 10
4423.513480406429
 20
1929.523951150548
 30
0.0
 10
4423.515205433376
 20
1929.52372652603
 30
0.0
 10
4423.516321400064
 20
1929.52362464926
 30
0.0
 10
4423.517071580928
 20
1929.523572492383
 30
0.0
 10
4423.51765920108
 20
1929.523536500205
 30
0.0
 10
4423.518285102695
 20
1929.523508213569
 30
0.0
 10
4423.518895712718
 20
1929.523488935153
 30
0.0
 10
4423.519490508449
 20
1929.523478236226
 30
0.0
 10
4423.520069293452
 20
1929.523475293904
 30
0.0
 10
4423.520631828792
 20
1929.523479416604
 30
0.0
 10
4423.521177910282
 20
1929.52348985283
 30
0.0
 10
4423.521707399609
 20
1929.523506046637
 30
0.0
 10
4423.522220025963
 20
1929.523526844817
 30
0.0
 10
4423.522556818921
 20
1929.523544791383
 30
0.0
 10
4423.522722167557
 20
1929.523553602257
 30
0.0
  0
SPLINE
  5
1CFD
330
1F
100
AcDbEntity
  8
SANINDUSA
100
AcDbSpline
210
0.0
220
0.0
230
1.0
 70
     8
 71
     3
 72
    18
 73
    14
 74
     0
 42
0.0000000001
 43
0.0000000001
 40
0.0
 40
0.0
 40
0.0
 40
0.0
 40
0.125
 40
0.125
 40
0.25
 40
0.25
 40
0.375
 40
0.375
 40
0.5
 40
0.5
 40
0.75
 40
0.75
 40
1.0
 40
1.0
 40
1.0
 40
1.0
 10
4423.905610507031
 20
1929.756994193445
 30
0.0
 10
4423.905616397042
 20
1929.758973743941
 30
0.0
 10
4423.905424126175
 20
1929.7609174974
 30
0.0
 10
4423.904659985902
 20
1929.764739961546
 30
0.0
 10
4423.904077923522
 20
1929.766639988837
 30
0.0
 10
4423.90255825735
 20
1929.770253753694
 30
0.0
 10
4423.901626958188
 20
1929.771967576984
 30
0.0
 10
4423.899419454534
 20
1929.775215041326
 30
0.0
 10
4423.898138624139
 20
1929.776745055872
 30
0.0
 10
4423.893937071284
 20
1929.780862194185
 30
0.0
 10
4423.8905474816
 20
1929.783078957683
 30
0.0
 10
4423.88320761245
 20
1929.786051928629
 30
0.0
 10
4423.879165684794
 20
1929.786843547162
 30
0.0
 10
4423.875124849206
 20
1929.786837121471
 30
0.0
  0
SPLINE
  5
1CFE
330
1F
100
AcDbEntity
  8
SANINDUSA
100
AcDbSpline
210
0.0
220
0.0
230
1.0
 70
     8
 71
     3
 72
    57
 73
    53
 74
     0
 42
0.0000000001
 43
0.0000000001
 40
0.0
 40
0.0
 40
0.0
 40
0.0
 40
0.0119616844891045
 40
0.0238036982836789
 40
0.0355260567116368
 40
0.0471287757013539
 40
0.0586118718140816
 40
0.0699753622770165
 40
0.0812192650171041
 40
0.0923435986957002
 40
0.103348382744159
 40
0.1142336374004746
 40
0.1249993837470836
 40
0.1356456437499635
 40
0.1461724402991375
 40
0.1565797972507668
 40
0.1668677394709306
 40
0.1770362928813136
 40
0.1870854845069509
 40
0.1970153425262015
 40
0.2068258963232163
 40
0.2165171765430608
 40
0.2260892151497693
 40
0.235542045487573
 40
0.244875702345608
 40
0.2540902220263718
 40
0.3193626276225056
 40
0.3827645169143717
 40
0.4443106774341592
 40
0.5040176283208764
 40
0.5271206481639422
 40
0.5501616227312941
 40
0.5731418108946775
 40
0.5960624881458962
 40
0.6189249462406197
 40
0.641730492806242
 40
0.664480450914843
 40
0.687176158622462
 40
0.7098189684759885
 40
0.7324102469891042
 40
0.754951374088755
 40
0.7774437425338069
 40
0.7998887573075379
 40
0.8222878349858076
 40
0.8446424030827015
 40
0.8669538993756454
 40
0.8892237712119445
 40
0.9114534747987985
 40
0.9336444744789199
 40
0.955798241993866
 40
0.9779162557372355
 40
1.0
 40
1.0
 40
1.0
 40
1.0
 10
4423.520955833879
 20
1929.786837121471
 30
0.0
 10
4423.52076684624
 20
1929.786836439381
 30
0.0
 10
4423.520390761687
 20
1929.786835082023
 30
0.0
 10
4423.519829620981
 20
1929.786820273343
 30
0.0
 10
4423.519274482922
 20
1929.786796457453
 30
0.0
 10
4423.518725506272
 20
1929.786763024197
 30
0.0
 10
4423.518182842368
 20
1929.786720515014
 30
0.0
 10
4423.517646631703
 20
1929.786669166622
 30
0.0
 10
4423.517117005106
 20
1929.786609294925
 30
0.0
 10
4423.516594083729
 20
1929.786541193392
 30
0.0
 10
4423.516077979344
 20
1929.786465159539
 30
0.0
 10
4423.515568794555
 20
1929.786381487634
 30
0.0
 10
4423.515066623052
 20
1929.786290470333
 30
0.0
 10
4423.514571549843
 20
1929.786192397969
 30
0.0
 10
4423.514083651502
 20
1929.786087558481
 30
0.0
 10
4423.513602996407
 20
1929.785976237184
 30
0.0
 10
4423.513129644989
 20
1929.785858716602
 30
0.0
 10
4423.512663649977
 20
1929.785735276291
 30
0.0
 10
4423.512205056637
 20
1929.785606192685
 30
0.0
 10
4423.511753903032
 20
1929.78547173895
 30
0.0
 10
4423.511310220211
 20
1929.785332184826
 30
0.0
 10
4423.510874032663
 20
1929.785187796596
 30
0.0
 10
4423.510445357769
 20
1929.785038836595
 30
0.0
 10
4423.510024208943
 20
1929.78488556449
 30
0.0
 10
4423.509610585252
 20
1929.784728232095
 30
0.0
 10
4423.508379290349
 20
1929.784239655053
 30
0.0
 10
4423.506399121778
 20
1929.783319247056
 30
0.0
 10
4423.503808360623
 20
1929.781784048371
 30
0.0
 10
4423.501450395023
 20
1929.78005574516
 30
0.0
 10
4423.499743797511
 20
1929.778534817848
 30
0.0
 10
4423.49856990487
 20
1929.777341570683
 30
0.0
 10
4423.497832306413
 20
1929.776534666536
 30
0.0
 10
4423.497126625874
 20
1929.77570346315
 30
0.0
 10
4423.49645357409
 20
1929.774849164547
 30
0.0
 10
4423.495813841404
 20
1929.77397301898
 30
0.0
 10
4423.495208062505
 20
1929.773076285269
 30
0.0
 10
4423.494636825463
 20
1929.772160239364
 30
0.0
 10
4423.494100669063
 20
1929.771226170171
 30
0.0
 10
4423.493600083357
 20
1929.770275378266
 30
0.0
 10
4423.493135509438
 20
1929.769309173851
 30
0.0
 10
4423.4927073395
 20
1929.768328874937
 30
0.0
 10
4423.492315916958
 20
1929.767335805489
 30
0.0
 10
4423.491961536456
 20
1929.766331293603
 30
0.0
 10
4423.491644444641
 20
1929.765316669711
 30
0.0
 10
4423.491364838377
 20
1929.764293264801
 30
0.0
 10
4423.491122872786
 20
1929.763262408693
 30
0.0
 10
4423.490918632985
 20
1929.762225428231
 30
0.0
 10
4423.490752241259
 20
1929.761183645958
 30
0.0
 10
4423.49062346036
 20
1929.760138377098
 30
0.0
 10
4423.490533172673
 20
1929.759090933031
 30
0.0
 10
4423.490477876401
 20
1929.758042600745
 30
0.0
 10
4423.49047274151
 20
1929.75734348187
 30
0.0
 10
4423.490470176054
 20
1929.756994193445
 30
0.0
  0
LINE
  5
1CFF
330
1F
100
AcDbEntity
  8
SANINDUSA
100
AcDbLine
 10
4423.432455723689
 20
1929.917103476705
 30
0.0
 11
4423.963624959395
 21
1929.917103476705
 31
0.0
  0
SPLINE
  5
1D00
330
1F
100
AcDbEntity
  8
SANINDUSA
100
AcDbSpline
210
0.0
220
0.0
230
1.0
 70
     8
 71
     3
 72
    14
 73
    10
 74
     0
 42
0.0000000001
 43
0.0000000001
 40
0.0
 40
0.0
 40
0.0
 40
0.0
 40
0.25
 40
0.25
 40
0.5
 40
0.5
 40
0.75
 40
0.75
 40
1.0
 40
1.0
 40
1.0
 40
1.0
 10
4423.905336075956
 20
1929.548235608276
 30
0.0
 10
4423.90328563101
 20
1929.550881685831
 30
0.0
 10
4423.901226502805
 20
1929.553651395843
 30
0.0
 10
4423.89709071014
 20
1929.559437629118
 30
0.0
 10
4423.895013852781
 20
1929.562454467028
 30
0.0
 10
4423.890843796876
 20
1929.568731947858
 30
0.0
 10
4423.888749933219
 20
1929.571993594652
 30
0.0
 10
4423.884545107202
 20
1929.578759486559
 30
0.0
 10
4423.882434220736
 20
1929.582263580242
 30
0.0
 10
4423.880313303856
 20
1929.585889492093
 30
0.0
  0
SPLINE
  5
1D01
330
1F
100
AcDbEntity
  8
SANINDUSA
100
AcDbSpline
210
0.0
220
0.0
230
1.0
 70
     8
 71
     3
 72
    10
 73
     6
 74
     0
 42
0.0000000001
 43
0.0000000001
 40
0.0
 40
0.0
 40
0.0
 40
0.0
 40
0.5
 40
0.5
 40
1.0
 40
1.0
 40
1.0
 40
1.0
 10
4423.880313303856
 20
1929.585889492093
 30
0.0
 10
4423.88031371644
 20
1929.613687324827
 30
0.0
 10
4423.880338249394
 20
1929.64151932219
 30
0.0
 10
4423.880427225119
 20
1929.697237308492
 30
0.0
 10
4423.880491729756
 20
1929.725116672868
 30
0.0
 10
4423.880575827736
 20
1929.753008134856
 30
0.0
  0
SPLINE
  5
1D02
330
1F
100
AcDbEntity
  8
SANINDUSA
100
AcDbSpline
210
0.0
220
0.0
230
1.0
 70
     8
 71
     3
 72
    10
 73
     6
 74
     0
 42
0.0000000001
 43
0.0000000001
 40
0.0
 40
0.0
 40
0.0
 40
0.0
 40
0.5
 40
0.5
 40
1.0
 40
1.0
 40
1.0
 40
1.0
 10
4423.880575827736
 20
1929.753008134856
 30
0.0
 10
4423.885555754342
 20
1929.753565469488
 30
0.0
 10
4423.890141465222
 20
1929.754183714607
 30
0.0
 10
4423.8984959164
 20
1929.755518548264
 30
0.0
 10
4423.902262265213
 20
1929.75623492069
 30
0.0
 10
4423.905610507031
 20
1929.756994193445
 30
0.0
  0
SPLINE
  5
1D03
330
1F
100
AcDbEntity
  8
SANINDUSA
100
AcDbSpline
210
0.0
220
0.0
230
1.0
 70
     8
 71
     3
 72
    10
 73
     6
 74
     0
 42
0.0000000001
 43
0.0000000001
 40
0.0
 40
0.0
 40
0.0
 40
0.0
 40
0.5000000000000002
 40
0.5000000000000002
 40
1.0
 40
1.0
 40
1.0
 40
1.0
 10
4423.51576737923
 20
1929.585889492093
 30
0.0
 10
4423.515766966644
 20
1929.613687324827
 30
0.0
 10
4423.515742433691
 20
1929.64151932219
 30
0.0
 10
4423.515653457966
 20
1929.697237308492
 30
0.0
 10
4423.515588953328
 20
1929.725116672868
 30
0.0
 10
4423.51550485535
 20
1929.753008134856
 30
0.0
  0
SPLINE
  5
1D04
330
1F
100
AcDbEntity
  8
SANINDUSA
100
AcDbSpline
210
0.0
220
0.0
230
1.0
 70
     8
 71
     3
 72
    14
 73
    10
 74
     0
 42
0.0000000001
 43
0.0000000001
 40
0.0
 40
0.0
 40
0.0
 40
0.0
 40
0.25
 40
0.25
 40
0.5
 40
0.5
 40
0.75
 40
0.75
 40
1.0
 40
1.0
 40
1.0
 40
1.0
 10
4423.490744607128
 20
1929.548235608276
 30
0.0
 10
4423.492795052075
 20
1929.550881685831
 30
0.0
 10
4423.49485418028
 20
1929.553651395843
 30
0.0
 10
4423.498989972946
 20
1929.559437629118
 30
0.0
 10
4423.501066830303
 20
1929.562454467028
 30
0.0
 10
4423.505236886209
 20
1929.568731947858
 30
0.0
 10
4423.507330749866
 20
1929.571993594652
 30
0.0
 10
4423.511535575883
 20
1929.578759486559
 30
0.0
 10
4423.513646462349
 20
1929.582263580242
 30
0.0
 10
4423.51576737923
 20
1929.585889492093
 30
0.0
  0
SPLINE
  5
1D05
330
1F
100
AcDbEntity
  8
SANINDUSA
100
AcDbSpline
210
0.0
220
0.0
230
1.0
 70
     8
 71
     3
 72
    10
 73
     6
 74
     0
 42
0.0000000001
 43
0.0000000001
 40
0.0
 40
0.0
 40
0.0
 40
0.0
 40
0.5
 40
0.5
 40
1.0
 40
1.0
 40
1.0
 40
1.0
 10
4423.51550485535
 20
1929.753008134856
 30
0.0
 10
4423.510524928743
 20
1929.753565469488
 30
0.0
 10
4423.505939217863
 20
1929.754183714607
 30
0.0
 10
4423.497584766685
 20
1929.755518548264
 30
0.0
 10
4423.493818417871
 20
1929.75623492069
 30
0.0
 10
4423.490470176054
 20
1929.756994193445
 30
0.0
  0
SPLINE
  5
1D06
330
1F
100
AcDbEntity
  8
SANINDUSA
100
AcDbSpline
210
0.0
220
0.0
230
1.0
 70
     8
 71
     3
 72
    10
 73
     6
 74
     0
 42
0.0000000001
 43
0.0000000001
 40
0.0
 40
0.0
 40
0.0
 40
0.0
 40
0.3685201343185185
 40
0.7370888563261929
 40
1.0
 40
1.0
 40
1.0
 40
1.0
 10
4423.851715510295
 20
1929.558961517992
 30
0.0
 10
4423.854398206133
 20
1929.554192630277
 30
0.0
 10
4423.859763951509
 20
1929.54465422609
 30
0.0
 10
4423.86696676408
 20
1929.533007584931
 30
0.0
 10
4423.871479619921
 20
1929.526332641823
 30
0.0
 10
4423.873358508155
 20
1929.52355358738
 30
0.0
  0
ARC
  5
1D07
330
1F
100
AcDbEntity
  8
SANINDUSA
100
AcDbCircle
 10
4423.848721162621
 20
1929.590791105379
 30
0.0
 40
0.0319701227897714
100
AcDbArc
 50
275.3742463183333
 51
351.1807152829939
  0
ARC
  5
1D08
330
1F
100
AcDbEntity
  8
SANINDUSA
100
AcDbCircle
 10
4423.547359520464
 20
1929.590791105379
 30
0.0
 40
0.0319701227897714
100
AcDbArc
 50
188.8192847170061
 51
264.6257536816667
  0
SPLINE
  5
1D09
330
1F
100
AcDbEntity
  8
SANINDUSA
100
AcDbSpline
210
0.0
220
0.0
230
1.0
 70
     8
 71
     3
 72
    10
 73
     6
 74
     0
 42
0.0000000001
 43
0.0000000001
 40
0.0
 40
0.0
 40
0.0
 40
0.0
 40
0.3685201343185185
 40
0.7370888563261929
 40
1.0
 40
1.0
 40
1.0
 40
1.0
 10
4423.54436517279
 20
1929.558961517992
 30
0.0
 10
4423.541682476953
 20
1929.554192630277
 30
0.0
 10
4423.536316731576
 20
1929.54465422609
 30
0.0
 10
4423.529113919004
 20
1929.533007584931
 30
0.0
 10
4423.524601063165
 20
1929.526332641823
 30
0.0
 10
4423.522722174928
 20
1929.52355358738
 30
0.0
  0
SPLINE
  5
1D0A
330
1F
100
AcDbEntity
  8
SANINDUSA
100
AcDbSpline
210
0.0
220
0.0
230
1.0
 70
     8
 71
     3
 72
    12
 73
     8
 74
     0
 42
0.0000000001
 43
0.0000000001
 40
0.0
 40
0.0
 40
0.0
 40
0.0
 40
0.25
 40
0.25
 40
0.5
 40
0.5
 40
1.0
 40
1.0
 40
1.0
 40
1.0
 10
4423.875124849206
 20
1929.786837121471
 30
0.0
 10
4423.87330207383
 20
1929.786488426709
 30
0.0
 10
4423.871358751898
 20
1929.786140554486
 30
0.0
 10
4423.867232955705
 20
1929.785446441875
 30
0.0
 10
4423.865050139734
 20
1929.785100153329
 30
0.0
 10
4423.858149641293
 20
1929.784064172098
 30
0.0
 10
4423.853078614969
 20
1929.783377267817
 30
0.0
 10
4423.847558813596
 20
1929.78269460032
 30
0.0
  0
SPLINE
  5
1D0B
330
1F
100
AcDbEntity
  8
SANINDUSA
100
AcDbSpline
210
0.0
220
0.0
230
1.0
 70
     8
 71
     3
 72
    32
 73
    28
 74
     0
 42
0.0000000001
 43
0.0000000001
 40
0.0
 40
0.0
 40
0.0
 40
0.0
 40
0.1249999999999981
 40
0.1249999999999981
 40
0.1874999999999971
 40
0.1874999999999971
 40
0.2187499999999975
 40
0.2187499999999975
 40
0.249999999999998
 40
0.249999999999998
 40
0.3749999999999988
 40
0.3749999999999988
 40
0.4999999999999997
 40
0.4999999999999997
 40
0.6250000000000006
 40
0.6250000000000006
 40
0.7500000000000014
 40
0.7500000000000014
 40
0.8750000000000021
 40
0.8750000000000021
 40
0.9375000000000019
 40
0.9375000000000019
 40
0.9687500000000017
 40
0.9687500000000017
 40
0.9843750000000008
 40
0.9843750000000008
 40
1.0
 40
1.0
 40
1.0
 40
1.0
 10
4423.856447440575
 20
1929.781327257343
 30
0.0
 10
4423.858077347808
 20
1929.780820672954
 30
0.0
 10
4423.859650107253
 20
1929.780190927274
 30
0.0
 10
4423.861930322709
 20
1929.779076193668
 30
0.0
 10
4423.862677158004
 20
1929.778676085423
 30
0.0
 10
4423.863777740059
 20
1929.778033521472
 30
0.0
 10
4423.86414131802
 20
1929.777812257416
 30
0.0
 10
4423.86486188846
 20
1929.777355533637
 30
0.0
 10
4423.865219338245
 20
1929.777119718916
 30
0.0
 10
4423.866973729403
 20
1929.775916429566
 30
0.0
 10
4423.868285369985
 20
1929.774869322085
 30
0.0
 10
4423.870740027654
 20
1929.772620130679
 30
0.0
 10
4423.871883017269
 20
1929.771417858002
 30
0.0
 10
4423.874001008805
 20
1929.768859577355
 30
0.0
 10
4423.874950106116
 20
1929.76753499807
 30
0.0
 10
4423.876644933129
 20
1929.764801672277
 30
0.0
 10
4423.877390559237
 20
1929.763392883082
 30
0.0
 10
4423.878678917311
 20
1929.760491171517
 30
0.0
 10
4423.879215828574
 20
1929.759008887936
 30
0.0
 10
4423.879852191592
 20
1929.756769104832
 30
0.0
 10
4423.880036540751
 20
1929.756018647058
 30
0.0
 10
4423.88027064788
 20
1929.754890769796
 30
0.0
 10
4423.880341638832
 20
1929.754514341985
 30
0.0
 10
4423.880437471484
 20
1929.753949493346
 30
0.0
 10
4423.880467643031
 20
1929.753761160306
 30
0.0
 10
4423.880524428375
 20
1929.753384474471
 30
0.0
 10
4423.880551278503
 20
1929.753194313988
 30
0.0
 10
4423.880575827736
 20
1929.753008134856
 30
0.0
  0
SPLINE
  5
1D0C
330
1F
100
AcDbEntity
  8
SANINDUSA
100
AcDbSpline
210
0.0
220
0.0
230
1.0
 70
     8
 71
     3
 72
    10
 73
     6
 74
     0
 42
0.0000000001
 43
0.0000000001
 40
0.0
 40
0.0
 40
0.0
 40
0.0
 40
0.5
 40
0.5
 40
1.0
 40
1.0
 40
1.0
 40
1.0
 10
4423.847558813596
 20
1929.78269460032
 30
0.0
 10
4423.849073340084
 20
1929.782688587821
 30
0.0
 10
4423.850571072411
 20
1929.78256995205
 30
0.0
 10
4423.853533976808
 20
1929.782114352257
 30
0.0
 10
4423.854999149803
 20
1929.781777394309
 30
0.0
 10
4423.856447440575
 20
1929.781327257343
 30
0.0
  0
SPLINE
  5
1D0D
330
1F
100
AcDbEntity
  8
SANINDUSA
100
AcDbSpline
210
0.0
220
0.0
230
1.0
 70
     8
 71
     3
 72
    32
 73
    28
 74
     0
 42
0.0000000001
 43
0.0000000001
 40
0.0
 40
0.0
 40
0.0
 40
0.0
 40
0.1250000000000069
 40
0.1250000000000069
 40
0.1875000000000099
 40
0.1875000000000099
 40
0.2187500000000106
 40
0.2187500000000106
 40
0.2500000000000111
 40
0.2500000000000111
 40
0.3750000000000093
 40
0.3750000000000093
 40
0.5000000000000075
 40
0.5000000000000075
 40
0.6250000000000055
 40
0.6250000000000055
 40
0.7500000000000038
 40
0.7500000000000038
 40
0.8750000000000019
 40
0.8750000000000019
 40
0.9375000000000001
 40
0.9375000000000001
 40
0.9687500000000001
 40
0.9687500000000001
 40
0.9843750000000001
 40
0.9843750000000001
 40
1.0
 40
1.0
 40
1.0
 40
1.0
 10
4423.539633242511
 20
1929.781327257343
 30
0.0
 10
4423.538003335277
 20
1929.780820672954
 30
0.0
 10
4423.536430575832
 20
1929.780190927274
 30
0.0
 10
4423.534150360377
 20
1929.779076193668
 30
0.0
 10
4423.53340352508
 20
1929.778676085423
 30
0.0
 10
4423.532302943026
 20
1929.778033521472
 30
0.0
 10
4423.531939365065
 20
1929.777812257416
 30
0.0
 10
4423.531218794625
 20
1929.777355533637
 30
0.0
 10
4423.53086134484
 20
1929.777119718916
 30
0.0
 10
4423.529106953682
 20
1929.775916429566
 30
0.0
 10
4423.527795313099
 20
1929.774869322085
 30
0.0
 10
4423.525340655432
 20
1929.772620130679
 30
0.0
 10
4423.524197665816
 20
1929.771417858002
 30
0.0
 10
4423.52207967428
 20
1929.768859577355
 30
0.0
 10
4423.52113057697
 20
1929.76753499807
 30
0.0
 10
4423.519435749956
 20
1929.764801672277
 30
0.0
 10
4423.518690123848
 20
1929.763392883082
 30
0.0
 10
4423.517401765773
 20
1929.760491171517
 30
0.0
 10
4423.516864854511
 20
1929.759008887936
 30
0.0
 10
4423.516228491493
 20
1929.756769104832
 30
0.0
 10
4423.516044142334
 20
1929.756018647058
 30
0.0
 10
4423.515810035204
 20
1929.754890769796
 30
0.0
 10
4423.515739044254
 20
1929.754514341985
 30
0.0
 10
4423.515643211602
 20
1929.753949493346
 30
0.0
 10
4423.515613040055
 20
1929.753761160306
 30
0.0
 10
4423.515556254709
 20
1929.753384474471
 30
0.0
 10
4423.515529404582
 20
1929.753194313988
 30
0.0
 10
4423.51550485535
 20
1929.753008134856
 30
0.0
  0
SPLINE
  5
1D0E
330
1F
100
AcDbEntity
  8
SANINDUSA
100
AcDbSpline
210
0.0
220
0.0
230
1.0
 70
     8
 71
     3
 72
    12
 73
     8
 74
     0
 42
0.0000000001
 43
0.0000000001
 40
0.0
 40
0.0
 40
0.0
 40
0.0
 40
0.25
 40
0.25
 40
0.5
 40
0.5
 40
1.0
 40
1.0
 40
1.0
 40
1.0
 10
4423.520955833879
 20
1929.786837121471
 30
0.0
 10
4423.522778609256
 20
1929.786488426709
 30
0.0
 10
4423.524721931186
 20
1929.786140554486
 30
0.0
 10
4423.528847727379
 20
1929.785446441875
 30
0.0
 10
4423.531030543351
 20
1929.785100153329
 30
0.0
 10
4423.537931041791
 20
1929.784064172098
 30
0.0
 10
4423.543002068117
 20
1929.783377267817
 30
0.0
 10
4423.54852186949
 20
1929.78269460032
 30
0.0
  0
SPLINE
  5
1D0F
330
1F
100
AcDbEntity
  8
SANINDUSA
100
AcDbSpline
210
0.0
220
0.0
230
1.0
 70
     8
 71
     3
 72
    10
 73
     6
 74
     0
 42
0.0000000001
 43
0.0000000001
 40
0.0
 40
0.0
 40
0.0
 40
0.0
 40
0.5
 40
0.5
 40
1.0
 40
1.0
 40
1.0
 40
1.0
 10
4423.54852186949
 20
1929.78269460032
 30
0.0
 10
4423.547007343001
 20
1929.782688587821
 30
0.0
 10
4423.545509610675
 20
1929.78256995205
 30
0.0
 10
4423.542546706277
 20
1929.782114352257
 30
0.0
 10
4423.541081533282
 20
1929.781777394309
 30
0.0
 10
4423.539633242511
 20
1929.781327257343
 30
0.0
  0
SPLINE
  5
1D10
330
1F
100
AcDbEntity
  8
SANINDUSA
100
AcDbSpline
210
0.0
220
0.0
230
1.0
 70
     8
 71
     3
 72
    10
 73
     6
 74
     0
 42
0.0000000001
 43
0.0000000001
 40
0.0
 40
0.0
 40
0.0
 40
0.0
 40
0.5000000000000001
 40
0.5000000000000001
 40
1.0
 40
1.0
 40
1.0
 40
1.0
 10
4423.847558813596
 20
1929.78269460032
 30
0.0
 10
4423.82264952188
 20
1929.782664552932
 30
0.0
 10
4423.797731997559
 20
1929.782642013849
 30
0.0
 10
4423.747889620463
 20
1929.782611961392
 30
0.0
 10
4423.722966131379
 20
1929.782604447921
 30
0.0
 10
4423.698040341543
 20
1929.782604447921
 30
0.0
  0
SPLINE
  5
1D11
330
1F
100
AcDbEntity
  8
SANINDUSA
100
AcDbSpline
210
0.0
220
0.0
230
1.0
 70
     8
 71
     3
 72
    10
 73
     6
 74
     0
 42
0.0000000001
 43
0.0000000001
 40
0.0
 40
0.0
 40
0.0
 40
0.0
 40
0.5
 40
0.5
 40
1.0
 40
1.0
 40
1.0
 40
1.0
 10
4423.54852186949
 20
1929.78269460032
 30
0.0
 10
4423.573431161206
 20
1929.782664552932
 30
0.0
 10
4423.598348685525
 20
1929.782642013849
 30
0.0
 10
4423.648191062622
 20
1929.782611961392
 30
0.0
 10
4423.673114551706
 20
1929.782604447921
 30
0.0
 10
4423.698040341543
 20
1929.782604447921
 30
0.0
  0
SPLINE
  5
1D13
330
1F
100
AcDbEntity
  8
SANINDUSA
100
AcDbSpline
210
0.0
220
0.0
230
1.0
 70
     8
 71
     3
 72
    10
 73
     6
 74
     0
 42
0.0000000001
 43
0.0000000001
 40
0.0
 40
0.0
 40
0.0
 40
0.0
 40
0.4850182302494205
 40
0.9701511702522362
 40
1.0
 40
1.0
 40
1.0
 40
1.0
 10
4423.698040341543
 20
1929.558734126272
 30
0.0
 10
4423.722889552148
 20
1929.558744395788
 30
0.0
 10
4423.772593850349
 20
1929.558764937247
 30
0.0
 10
4423.823815833517
 20
1929.55887991715
 30
0.0
 10
4423.850187011891
 20
1929.558957047447
 30
0.0
 10
4423.851715510295
 20
1929.558961517992
 30
0.0
  0
SPLINE
  5
1D15
330
1F
100
AcDbEntity
  8
SANINDUSA
100
AcDbSpline
210
0.0
220
0.0
230
1.0
 70
     8
 71
     3
 72
    10
 73
     6
 74
     0
 42
0.0000000001
 43
0.0000000001
 40
0.0
 40
0.0
 40
0.0
 40
0.0
 40
0.4850182302494191
 40
0.970151170252236
 40
1.0
 40
1.0
 40
1.0
 40
1.0
 10
4423.698040341543
 20
1929.558734126272
 30
0.0
 10
4423.673191130936
 20
1929.558744395788
 30
0.0
 10
4423.623486832735
 20
1929.558764937247
 30
0.0
 10
4423.572264849567
 20
1929.55887991715
 30
0.0
 10
4423.545893671195
 20
1929.558957047447
 30
0.0
 10
4423.54436517279
 20
1929.558961517992
 30
0.0
  0
SPLINE
  5
1D2B
330
1F
100
AcDbEntity
  8
SANINDUSA
100
AcDbSpline
210
0.0
220
0.0
230
1.0
 70
     8
 71
     3
 72
    70
 73
    66
 74
     0
 42
0.0000000001
 43
0.0000000001
 40
0.0
 40
0.0
 40
0.0
 40
0.0
 40
0.0625000000000015
 40
0.0625000000000015
 40
0.0937500000000022
 40
0.0937500000000022
 40
0.1250000000000028
 40
0.1250000000000028
 40
0.1875000000000045
 40
0.1875000000000045
 40
0.2031250000000048
 40
0.2031250000000048
 40
0.2187500000000051
 40
0.2187500000000051
 40
0.2500000000000057
 40
0.2500000000000057
 40
0.2812500000000063
 40
0.2812500000000063
 40
0.2968750000000066
 40
0.2968750000000066
 40
0.3125000000000069
 40
0.3125000000000069
 40
0.3750000000000069
 40
0.3750000000000069
 40
0.406250000000007
 40
0.406250000000007
 40
0.4218750000000066
 40
0.4218750000000066
 40
0.4375000000000063
 40
0.4375000000000063
 40
0.500000000000004
 40
0.500000000000004
 40
0.5156250000000039
 40
0.5156250000000039
 40
0.5312500000000037
 40
0.5312500000000037
 40
0.5625000000000041
 40
0.5625000000000041
 40
0.625000000000005
 40
0.625000000000005
 40
0.6406250000000053
 40
0.6406250000000053
 40
0.6562500000000055
 40
0.6562500000000055
 40
0.6875000000000055
 40
0.6875000000000055
 40
0.7187500000000054
 40
0.7187500000000054
 40
0.7343750000000052
 40
0.7343750000000052
 40
0.7500000000000048
 40
0.7500000000000048
 40
0.8125000000000033
 40
0.8125000000000033
 40
0.8437500000000028
 40
0.8437500000000028
 40
0.8593750000000024
 40
0.8593750000000024
 40
0.8750000000000021
 40
0.8750000000000021
 40
0.937500000000001
 40
0.937500000000001
 40
0.9687500000000003
 40
0.9687500000000003
 40
1.0
 40
1.0
 40
1.0
 40
1.0
 10
4423.698040341543
 20
1929.691103476706
 30
0.0
 10
4423.695734749638
 20
1929.691103476706
 30
0.0
 10
4423.693463291432
 20
1929.691331403342
 30
0.0
 10
4423.690105780787
 20
1929.692005011642
 30
0.0
 10
4423.688994878741
 20
1929.692285260865
 30
0.0
 10
4423.68679053058
 20
1929.692960313122
 30
0.0
 10
4423.685714454184
 20
1929.693349785366
 30
0.0
 10
4423.682561713731
 20
1929.694668461826
 30
0.0
 10
4423.680559832662
 20
1929.69574652074
 30
0.0
 10
4423.678184253341
 20
1929.697346447004
 30
0.0
 10
4423.677714510961
 20
1929.697679938275
 30
0.0
 10
4423.676792961116
 20
1929.698369278305
 30
0.0
 10
4423.676342556396
 20
1929.6987239886
 30
0.0
 10
4423.675021812902
 20
1929.69981762134
 30
0.0
 10
4423.674181872422
 20
1929.700585975566
 30
0.0
 10
4423.672581544153
 20
1929.702199710525
 30
0.0
 10
4423.671821158267
 20
1929.703045093094
 30
0.0
 10
4423.670740811189
 20
1929.704371488451
 30
0.0
 10
4423.670390751876
 20
1929.704823357677
 30
0.0
 10
4423.669711062556
 20
1929.705746877918
 30
0.0
 10
4423.669380567077
 20
1929.706219883695
 30
0.0
 10
4423.667793611438
 20
1929.708615021793
 30
0.0
 10
4423.666729891737
 20
1929.710626463434
 30
0.0
 10
4423.665432786264
 20
1929.713781870395
 30
0.0
 10
4423.665050525833
 20
1929.714856881247
 30
0.0
 10
4423.664554305823
 20
1929.716505142069
 30
0.0
 10
4423.664401505116
 20
1929.717061865714
 30
0.0
 10
4423.66412491733
 20
1929.718176196843
 30
0.0
 10
4423.664000774798
 20
1929.718734750321
 30
0.0
 10
4423.663449549221
 20
1929.721534333104
 30
0.0
 10
4423.663228958431
 20
1929.7237956158
 30
0.0
 10
4423.66322868721
 20
1929.726649240449
 30
0.0
 10
4423.66324252938
 20
1929.727221328493
 30
0.0
 10
4423.663298513225
 20
1929.728368280489
 30
0.0
 10
4423.663340815281
 20
1929.728944038952
 30
0.0
 10
4423.663509001337
 20
1929.730656949125
 30
0.0
 10
4423.663676155362
 20
1929.731785467202
 30
0.0
 10
4423.664338352772
 20
1929.735131816348
 30
0.0
 10
4423.664992588157
 20
1929.73731081901
 30
0.0
 10
4423.666085267675
 20
1929.739967518089
 30
0.0
 10
4423.666317906157
 20
1929.740495749437
 30
0.0
 10
4423.66680583118
 20
1929.741533726673
 30
0.0
 10
4423.667061695538
 20
1929.74204496218
 30
0.0
 10
4423.667864420496
 20
1929.743555782715
 30
0.0
 10
4423.668446330508
 20
1929.74453253549
 30
0.0
 10
4423.669702683549
 20
1929.746425760226
 30
0.0
 10
4423.670377124911
 20
1929.74734223328
 30
0.0
 10
4423.671459451371
 20
1929.748670906753
 30
0.0
 10
4423.671832025177
 20
1929.749106111598
 30
0.0
 10
4423.672601247952
 20
1929.74996083663
 30
0.0
 10
4423.672997664114
 20
1929.750379950085
 30
0.0
 10
4423.675017832331
 20
1929.75241300011
 30
0.0
 10
4423.676771487007
 20
1929.75386023953
 30
0.0
 10
4423.679604420033
 20
1929.755767275282
 30
0.0
 10
4423.680582712226
 20
1929.756358671421
 30
0.0
 10
4423.682102898612
 20
1929.757177025728
 30
0.0
 10
4423.682616878866
 20
1929.757437411279
 30
0.0
 10
4423.683651417571
 20
1929.757929788719
 30
0.0
 10
4423.684173118934
 20
1929.758162404388
 30
0.0
 10
4423.6868034565
 20
1929.759258625489
 30
0.0
 10
4423.688976957765
 20
1929.759923579836
 30
0.0
 10
4423.692342389004
 20
1929.760598890027
 30
0.0
 10
4423.693487230693
 20
1929.760770019884
 30
0.0
 10
4423.69576571721
 20
1929.760995540184
 30
0.0
 10
4423.69690366398
 20
1929.761051320876
 30
0.0
 10
4423.698040341543
 20
1929.761051320876
 30
0.0
  0
SPLINE
  5
1D2E
330
1F
100
AcDbEntity
  8
SANINDUSA
100
AcDbSpline
210
0.0
220
0.0
230
1.0
 70
     8
 71
     3
 72
    70
 73
    66
 74
     0
 42
0.0000000001
 43
0.0000000001
 40
0.0
 40
0.0
 40
0.0
 40
0.0
 40
0.0625000000000007
 40
0.0625000000000007
 40
0.093750000000001
 40
0.093750000000001
 40
0.1250000000000013
 40
0.1250000000000013
 40
0.1875000000000023
 40
0.1875000000000023
 40
0.2031250000000024
 40
0.2031250000000024
 40
0.2187500000000025
 40
0.2187500000000025
 40
0.2500000000000026
 40
0.2500000000000026
 40
0.2812500000000027
 40
0.2812500000000027
 40
0.2968750000000024
 40
0.2968750000000024
 40
0.3125000000000022
 40
0.3125000000000022
 40
0.3750000000000026
 40
0.3750000000000026
 40
0.4062500000000028
 40
0.4062500000000028
 40
0.4218750000000033
 40
0.4218750000000033
 40
0.4375000000000038
 40
0.4375000000000038
 40
0.5000000000000048
 40
0.5000000000000048
 40
0.5156250000000045
 40
0.5156250000000045
 40
0.5312500000000043
 40
0.5312500000000043
 40
0.5625000000000044
 40
0.5625000000000044
 40
0.6250000000000054
 40
0.6250000000000054
 40
0.6406250000000055
 40
0.6406250000000055
 40
0.6562500000000059
 40
0.6562500000000059
 40
0.6875000000000057
 40
0.6875000000000057
 40
0.7187500000000055
 40
0.7187500000000055
 40
0.734375000000005
 40
0.734375000000005
 40
0.7500000000000046
 40
0.7500000000000046
 40
0.8125000000000037
 40
0.8125000000000037
 40
0.8437500000000033
 40
0.8437500000000033
 40
0.8593750000000031
 40
0.8593750000000031
 40
0.8750000000000028
 40
0.8750000000000028
 40
0.9375000000000014
 40
0.9375000000000014
 40
0.9687500000000007
 40
0.9687500000000007
 40
1.0
 40
1.0
 40
1.0
 40
1.0
 10
4423.698040341543
 20
1929.691103476706
 30
0.0
 10
4423.700345933447
 20
1929.691103476706
 30
0.0
 10
4423.702617391653
 20
1929.691331403342
 30
0.0
 10
4423.705974902298
 20
1929.692005011642
 30
0.0
 10
4423.707085804344
 20
1929.692285260865
 30
0.0
 10
4423.709290152506
 20
1929.692960313122
 30
0.0
 10
4423.710366228901
 20
1929.693349785366
 30
0.0
 10
4423.713518969354
 20
1929.694668461826
 30
0.0
 10
4423.715520850424
 20
1929.69574652074
 30
0.0
 10
4423.717896429743
 20
1929.697346447004
 30
0.0
 10
4423.718366172124
 20
1929.697679938275
 30
0.0
 10
4423.719287721969
 20
1929.698369278305
 30
0.0
 10
4423.719738126688
 20
1929.6987239886
 30
0.0
 10
4423.721058870182
 20
1929.69981762134
 30
0.0
 10
4423.721898810663
 20
1929.700585975566
 30
0.0
 10
4423.723499138931
 20
1929.702199710525
 30
0.0
 10
4423.724259524819
 20
1929.703045093094
 30
0.0
 10
4423.725339871896
 20
1929.704371488451
 30
0.0
 10
4423.725689931209
 20
1929.704823357677
 30
0.0
 10
4423.726369620529
 20
1929.705746877918
 30
0.0
 10
4423.726700116008
 20
1929.706219883695
 30
0.0
 10
4423.728287071646
 20
1929.708615021793
 30
0.0
 10
4423.729350791349
 20
1929.710626463434
 30
0.0
 10
4423.730647896822
 20
1929.713781870395
 30
0.0
 10
4423.731030157251
 20
1929.714856881247
 30
0.0
 10
4423.731526377261
 20
1929.716505142069
 30
0.0
 10
4423.731679177969
 20
1929.717061865714
 30
0.0
 10
4423.731955765755
 20
1929.718176196843
 30
0.0
 10
4423.732079908287
 20
1929.718734750321
 30
0.0
 10
4423.732631133865
 20
1929.721534333104
 30
0.0
 10
4423.732851724655
 20
1929.7237956158
 30
0.0
 10
4423.732851995874
 20
1929.726649240449
 30
0.0
 10
4423.732838153705
 20
1929.727221328493
 30
0.0
 10
4423.732782169859
 20
1929.728368280489
 30
0.0
 10
4423.732739867804
 20
1929.728944038952
 30
0.0
 10
4423.732571681749
 20
1929.730656949125
 30
0.0
 10
4423.732404527724
 20
1929.731785467202
 30
0.0
 10
4423.731742330313
 20
1929.735131816348
 30
0.0
 10
4423.731088094928
 20
1929.73731081901
 30
0.0
 10
4423.72999541541
 20
1929.739967518089
 30
0.0
 10
4423.729762776928
 20
1929.740495749437
 30
0.0
 10
4423.729274851906
 20
1929.741533726673
 30
0.0
 10
4423.729018987547
 20
1929.74204496218
 30
0.0
 10
4423.728216262589
 20
1929.743555782715
 30
0.0
 10
4423.727634352577
 20
1929.74453253549
 30
0.0
 10
4423.726377999535
 20
1929.746425760226
 30
0.0
 10
4423.725703558174
 20
1929.74734223328
 30
0.0
 10
4423.724621231713
 20
1929.748670906753
 30
0.0
 10
4423.724248657907
 20
1929.749106111598
 30
0.0
 10
4423.723479435132
 20
1929.74996083663
 30
0.0
 10
4423.723083018971
 20
1929.750379950085
 30
0.0
 10
4423.721062850755
 20
1929.75241300011
 30
0.0
 10
4423.719309196079
 20
1929.75386023953
 30
0.0
 10
4423.716476263051
 20
1929.755767275282
 30
0.0
 10
4423.715497970859
 20
1929.756358671421
 30
0.0
 10
4423.713977784473
 20
1929.757177025728
 30
0.0
 10
4423.71346380422
 20
1929.757437411279
 30
0.0
 10
4423.712429265514
 20
1929.757929788719
 30
0.0
 10
4423.711907564152
 20
1929.758162404388
 30
0.0
 10
4423.709277226585
 20
1929.759258625489
 30
0.0
 10
4423.70710372532
 20
1929.759923579836
 30
0.0
 10
4423.703738294082
 20
1929.760598890027
 30
0.0
 10
4423.702593452392
 20
1929.760770019884
 30
0.0
 10
4423.700314965876
 20
1929.760995540184
 30
0.0
 10
4423.699177019105
 20
1929.761051320876
 30
0.0
 10
4423.698040341543
 20
1929.761051320876
 30
0.0
  0
CIRCLE
  5
1D2F
330
1F
100
AcDbEntity
  8
SANINDUSA
100
AcDbCircle
 10
4423.698040341543
 20
1929.727103476706
 30
0.0
 40
0.023
  0
LINE
  5
251A
330
1F
100
AcDbEntity
  8
SANINDUSA
100
AcDbLine
 10
4425.850341339592
 20
1930.035915422755
 30
0.0
 11
4425.641577844504
 21
1930.035915422755
 31
0.0
  0
LINE
  5
2F7E
330
1F
100
AcDbEntity
  8
SANINDUSA
100
AcDbLine
 10
4424.681722025938
 20
1930.035915422755
 30
0.0
 11
4424.150552790232
 21
1930.035915422755
 31
0.0
  0
LINE
  5
2FFD
330
1F
100
AcDbEntity
  8
SANINDUSA
100
AcDbLine
 10
4424.187027688689
 20
1929.865915420036
 30
0.0
 11
4424.645247127481
 21
1929.865915420036
 31
0.0
  0
SPLINE
  5
31D6
330
1F
100
AcDbEntity
  8
SANINDUSA
100
AcDbSpline
210
0.0
220
0.0
230
1.0
 70
     8
 71
     3
 72
    13
 73
     9
 74
     0
 42
0.0000000001
 43
0.0000000001
 40
0.0
 40
0.0
 40
0.0
 40
0.0
 40
0.1627153740934473
 40
0.332376510909227
 40
0.5020050988533584
 40
0.671631200812159
 40
0.8412847938657135
 40
0.9999999999999998
 40
0.9999999999999998
 40
0.9999999999999998
 40
0.9999999999999998
 10
4425.317292384916
 20
1929.870717320161
 30
0.0
 10
4425.32080505765
 20
1929.878927662494
 30
0.0
 10
4425.327980347103
 20
1929.895698818589
 30
0.0
 10
4425.338064182308
 20
1929.921341096703
 30
0.0
 10
4425.34773043853
 20
1929.94754658004
 30
0.0
 10
4425.356757056223
 20
1929.973978737399
 30
0.0
 10
4425.365040454485
 20
1930.000027090034
 30
0.0
 10
4425.369990824137
 20
1930.017355495552
 30
0.0
 10
4425.372383557373
 20
1930.025731082576
 30
0.0
  0
ARC
  5
31D9
330
1F
100
AcDbEntity
  8
SANINDUSA
100
AcDbCircle
 10
4425.364707955173
 20
1930.027915424869
 30
0.0
 40
0.0079999999999998
100
AcDbArc
 50
344.1097691935409
 51
90.0
  0
ARC
  5
31DA
330
1F
100
AcDbEntity
  8
SANINDUSA
100
AcDbCircle
 10
4425.309973464947
 20
1929.873915424869
 30
0.0
 40
0.0079999999999998
100
AcDbArc
 50
270.0
 51
336.4263353130493
  0
LINE
  5
31DD
330
1F
100
AcDbEntity
  8
SANINDUSA
100
AcDbLine
 10
4425.006364390368
 20
1929.202897969204
 30
0.0
 11
4425.000578329081
 21
1929.865915424692
 31
0.0
  0
SPLINE
  5
31E0
330
1F
100
AcDbEntity
  8
SANINDUSA
100
AcDbSpline
210
0.0
220
0.0
230
1.0
 70
    24
 71
     3
 72
    21
 73
    17
 74
     0
 42
0.0000000001
 43
0.0000000001
 40
0.0
 40
0.0
 40
0.0
 40
0.0
 40
0.0728137319162301
 40
0.1458595908050171
 40
0.2186732204920419
 40
0.2914871168405366
 40
0.3645331360555025
 40
0.4373469390092092
 40
0.5101578747859451
 40
0.5832010384501043
 40
0.6560118766449095
 40
0.728821700695332
 40
0.80186367769804
 40
0.8746734413044904
 40
0.937336703463149
 40
1.0
 40
1.0
 40
1.0
 40
1.0
 10
4425.202530518287
 20
1929.200915399509
 30
0.0
 10
4425.202244980435
 20
1929.200915399509
 30
0.0
 10
4425.202054281209
 20
1929.200915399509
 30
0.0
 10
4425.200847184053
 20
1929.200915399509
 30
0.0
 10
4425.198988468039
 20
1929.200915399509
 30
0.0
 10
4425.196408434731
 20
1929.200915399509
 30
0.0
 10
4425.193183028265
 20
1929.200915399509
 30
0.0
 10
4425.18934623984
 20
1929.200915399509
 30
0.0
 10
4425.184927659993
 20
1929.200915399509
 30
0.0
 10
4425.180003535754
 20
1929.200915399509
 30
0.0
 10
4425.174633286496
 20
1929.200915399509
 30
0.0
 10
4425.168871229076
 20
1929.200915399509
 30
0.0
 10
4425.162804643067
 20
1929.200915399509
 30
0.0
 10
4425.156797671288
 20
1929.200915399509
 30
0.0
 10
4425.150960189554
 20
1929.200915399509
 30
0.0
 10
4425.147225266517
 20
1929.200915399509
 30
0.0
 10
4425.145357804487
 20
1929.200915399509
 30
0.0
  0
ARC
  5
31E3
330
1F
100
AcDbEntity
  8
SANINDUSA
100
AcDbCircle
 10
4425.008364314885
 20
1929.202915424869
 30
0.0
 40
0.0020000000000001
100
AcDbArc
 50
180.4999999998483
 51
270.0
  0
LINE
  5
31E5
330
1F
100
AcDbEntity
  8
SANINDUSA
100
AcDbLine
 10
4425.145357804487
 20
1929.200915399509
 30
0.0
 11
4425.008364312464
 21
1929.200915399509
 31
0.0
  0
SPLINE
  5
31E7
330
1F
100
AcDbEntity
  8
SANINDUSA
100
AcDbSpline
210
0.0
220
0.0
230
1.0
 70
    24
 71
     3
 72
     9
 73
     5
 74
     0
 42
0.0000000001
 43
0.0000000001
 40
0.0
 40
0.0
 40
0.0
 40
0.0
 40
0.1245592804157537
 40
1.0
 40
1.0
 40
1.0
 40
1.0
 10
4425.204530440384
 20
1929.202897969204
 30
0.0
 10
4425.204770676929
 20
1929.23042629492
 30
0.0
 10
4425.206699369385
 20
1929.451432113391
 30
0.0
 10
4425.20862805724
 20
1929.672437931903
 30
0.0
 10
4425.210316509121
 20
1929.865915424692
 30
0.0
  0
SPLINE
  5
31E8
330
1F
100
AcDbEntity
  8
SANINDUSA
100
AcDbSpline
210
0.0
220
0.0
230
1.0
 70
     8
 71
     3
 72
    12
 73
     8
 74
     0
 42
0.0000000001
 43
0.0000000001
 40
0.0
 40
0.0
 40
0.0
 40
0.0
 40
0.2158951996364152
 40
0.4317793387654917
 40
0.6476764484011617
 40
0.8635639368627757
 40
1.0
 40
1.0
 40
1.0
 40
1.0
 10
4425.204530440384
 20
1929.202897969204
 30
0.0
 10
4425.204506375719
 20
1929.202673315162
 30
0.0
 10
4425.204458247618
 20
1929.202224018587
 30
0.0
 10
4425.204108176068
 20
1929.201627742586
 30
0.0
 10
4425.20359678351
 20
1929.20117977799
 30
0.0
 10
4425.203037855249
 20
1929.20094758031
 30
0.0
 10
4425.202672140172
 20
1929.200924382702
 30
0.0
 10
4425.202530518287
 20
1929.200915399509
 30
0.0
  0
SPLINE
  5
31EB
330
1F
100
AcDbEntity
  8
SANINDUSA
100
AcDbSpline
210
0.0
220
0.0
230
1.0
 70
    24
 71
     3
 72
    21
 73
    17
 74
     0
 42
0.0000000001
 43
0.0000000001
 40
0.0
 40
0.0
 40
0.0
 40
0.0
 40
0.0509624499142468
 40
0.1019248490863666
 40
0.1755422857413877
 40
0.2493959763525719
 40
0.323015380816507
 40
0.3967787579671706
 40
0.4707785743365416
 40
0.544542723284204
 40
0.6182514201111877
 40
0.6921942094245776
 40
0.7659017263978998
 40
0.8438421111286736
 40
0.9220603613699458
 40
0.9999999999999998
 40
0.9999999999999998
 40
0.9999999999999998
 40
0.9999999999999998
 10
4425.295206241423
 20
1930.035915422755
 30
0.0
 10
4425.297052443585
 20
1930.035915422755
 30
0.0
 10
4425.300744846071
 20
1930.035915422755
 30
0.0
 10
4425.307047440245
 20
1930.035915422755
 30
0.0
 10
4425.31404776688
 20
1930.035915422755
 30
0.0
 10
4425.321581757712
 20
1930.035915422755
 30
0.0
 10
4425.328767151529
 20
1930.035915422755
 30
0.0
 10
4425.335494784913
 20
1930.035915422755
 30
0.0
 10
4425.341693762798
 20
1930.035915422755
 30
0.0
 10
4425.347283575862
 20
1930.035915422755
 30
0.0
 10
4425.352170811762
 20
1930.035915422755
 30
0.0
 10
4425.35631761283
 20
1930.035915422755
 30
0.0
 10
4425.359744790503
 20
1930.035915422755
 30
0.0
 10
4425.362295417881
 20
1930.035915422755
 30
0.0
 10
4425.364001974194
 20
1930.035915422755
 30
0.0
 10
4425.364295090701
 20
1930.035915422755
 30
0.0
 10
4425.364441387468
 20
1930.035915422755
 30
0.0
  0
SPLINE
  5
31EF
330
1F
100
AcDbEntity
  8
SANINDUSA
100
AcDbSpline
210
0.0
220
0.0
230
1.0
 70
    24
 71
     3
 72
    13
 73
     9
 74
     0
 42
0.0000000001
 43
0.0000000001
 40
0.0
 40
0.0
 40
0.0
 40
0.0
 40
0.1942076049302757
 40
0.3884156453623171
 40
0.5826234813583171
 40
0.776831915519015
 40
0.971037772254146
 40
1.0
 40
1.0
 40
1.0
 40
1.0
 10
4424.895206235463
 20
1930.026923235076
 30
0.0
 10
4424.895206235463
 20
1930.027599618392
 30
0.0
 10
4424.895206235463
 20
1930.02895238654
 30
0.0
 10
4424.895206235463
 20
1930.03089437148
 30
0.0
 10
4424.895206235463
 20
1930.032493394253
 30
0.0
 10
4424.895206235463
 20
1930.033574973603
 30
0.0
 10
4424.895206235463
 20
1930.033901521545
 30
0.0
 10
4424.895206235463
 20
1930.033913828929
 30
0.0
 10
4424.895206235463
 20
1930.033915426152
 30
0.0
  0
ARC
  5
31F0
330
1F
100
AcDbEntity
  8
SANINDUSA
100
AcDbCircle
 10
4424.897206241377
 20
1930.033915424869
 30
0.0
 40
0.0019999999999999
100
AcDbArc
 50
90.0
 51
180.0
  0
SPLINE
  5
31F3
330
1F
100
AcDbEntity
  8
SANINDUSA
100
AcDbSpline
210
0.0
220
0.0
230
1.0
 70
    24
 71
     3
 72
    12
 73
     8
 74
     0
 42
0.0000000001
 43
0.0000000001
 40
0.0
 40
0.0
 40
0.0
 40
0.0
 40
0.4974827495366666
 40
0.7481508744904827
 40
0.8740739599550694
 40
0.9370426540291461
 40
1.0
 40
1.0
 40
1.0
 40
1.0
 10
4424.897206239516
 20
1930.035915422755
 30
0.0
 10
4424.963205866009
 20
1930.035915422755
 30
0.0
 10
4425.062460922234
 20
1930.035915422755
 30
0.0
 10
4425.178421625705
 20
1930.035915422755
 30
0.0
 10
4425.236736863539
 20
1930.035915422755
 30
0.0
 10
4425.270148719341
 20
1930.035915422755
 30
0.0
 10
4425.28685423588
 20
1930.035915422755
 30
0.0
 10
4425.295206241423
 20
1930.035915422755
 30
0.0
  0
SPLINE
  5
31FB
330
1F
100
AcDbEntity
  8
SANINDUSA
100
AcDbSpline
210
0.0
220
0.0
230
1.0
 70
    24
 71
     3
 72
    13
 73
     9
 74
     0
 42
0.0000000001
 43
0.0000000001
 40
0.0
 40
0.0
 40
0.0
 40
0.0
 40
0.1533804035909918
 40
0.3068245716703023
 40
0.4602049739826828
 40
0.6136492077652478
 40
0.8067609804733992
 40
1.0
 40
1.0
 40
1.0
 40
1.0
 10
4424.895206235463
 20
1929.872148040253
 30
0.0
 10
4424.895206235463
 20
1929.879939103744
 30
0.0
 10
4424.895206235463
 20
1929.895524469689
 30
0.0
 10
4424.895206235463
 20
1929.919077124378
 30
0.0
 10
4424.895206235463
 20
1929.942749262654
 30
0.0
 10
4424.895206235463
 20
1929.968593806646
 30
0.0
 10
4424.895206235463
 20
1929.996632092262
 30
0.0
 10
4424.895206235463
 20
1930.016823970702
 30
0.0
 10
4424.895206235463
 20
1930.026923235076
 30
0.0
  0
SPLINE
  5
31FD
330
1F
100
AcDbEntity
  8
SANINDUSA
100
AcDbSpline
210
0.0
220
0.0
230
1.0
 70
    24
 71
     3
 72
    25
 73
    21
 74
     0
 42
0.0000000001
 43
0.0000000001
 40
0.0
 40
0.0
 40
0.0
 40
0.0
 40
0.052905332059761
 40
0.1057900606988452
 40
0.1601528453213024
 40
0.2145153912249184
 40
0.2674572561242358
 40
0.3203986927663565
 40
0.3749046791158111
 40
0.4294103838005567
 40
0.4819285906567569
 40
0.5344466746357885
 40
0.5884994362217452
 40
0.6425521229322411
 40
0.6949157086357605
 40
0.7472794286223752
 40
0.8011811704791135
 40
0.8550828484839239
 40
0.9270785583405361
 40
1.0
 40
1.0
 40
1.0
 40
1.0
 10
4425.307944841796
 20
1929.865915424692
 30
0.0
 10
4425.307883275369
 20
1929.865915424692
 30
0.0
 10
4425.307760166488
 20
1929.865915424692
 30
0.0
 10
4425.307137680257
 20
1929.865915424692
 30
0.0
 10
4425.306126588313
 20
1929.865915424692
 30
0.0
 10
4425.304739182606
 20
1929.865915424692
 30
0.0
 10
4425.303001853801
 20
1929.865915424692
 30
0.0
 10
4425.300921470777
 20
1929.865915424692
 30
0.0
 10
4425.298481972812
 20
1929.865915424692
 30
0.0
 10
4425.295727602187
 20
1929.865915424692
 30
0.0
 10
4425.292712124083
 20
1929.865915424692
 30
0.0
 10
4425.28943992962
 20
1929.865915424692
 30
0.0
 10
4425.285884561334
 20
1929.865915424692
 30
0.0
 10
4425.282106245775
 20
1929.865915424692
 30
0.0
 10
4425.27817188804
 20
1929.865915424692
 30
0.0
 10
4425.274077758029
 20
1929.865915424692
 30
0.0
 10
4425.269803299006
 20
1929.865915424692
 30
0.0
 10
4425.264882906474
 20
1929.865915424692
 30
0.0
 10
4425.259325040217
 20
1929.865915424692
 30
0.0
 10
4425.255239007473
 20
1929.865915424692
 30
0.0
 10
4425.253182940299
 20
1929.865915424692
 30
0.0
  0
SPLINE
  5
31FF
330
1F
100
AcDbEntity
  8
SANINDUSA
100
AcDbSpline
210
0.0
220
0.0
230
1.0
 70
    24
 71
     3
 72
    10
 73
     6
 74
     0
 42
0.0000000001
 43
0.0000000001
 40
0.0
 40
0.0
 40
0.0
 40
0.0
 40
0.2198381538690894
 40
0.5000987534844485
 40
1.0
 40
1.0
 40
1.0
 40
1.0
 10
4425.253182940299
 20
1929.865915424692
 30
0.0
 10
4425.227097192561
 20
1929.865915424692
 30
0.0
 10
4425.167756037724
 20
1929.865915424692
 30
0.0
 10
4425.049097155052
 20
1929.865915424692
 30
0.0
 10
4424.956523985998
 20
1929.865915424692
 30
0.0
 10
4424.897206239516
 20
1929.865915424692
 30
0.0
  0
ARC
  5
3201
330
1F
100
AcDbEntity
  8
SANINDUSA
100
AcDbCircle
 10
4424.897206241377
 20
1929.867915424869
 30
0.0
 40
0.0019999999999999
100
AcDbArc
 50
180.0
 51
270.0
  0
SPLINE
  5
3202
330
1F
100
AcDbEntity
  8
SANINDUSA
100
AcDbSpline
210
0.0
220
0.0
230
1.0
 70
    24
 71
     3
 72
    11
 73
     7
 74
     0
 42
0.0000000001
 43
0.0000000001
 40
0.0
 40
0.0
 40
0.0
 40
0.0
 40
0.2651639222238055
 40
0.5303287141542027
 40
0.795494090553545
 40
1.0
 40
1.0
 40
1.0
 40
1.0
 10
4424.895206235463
 20
1929.86791542502
 30
0.0
 10
4424.895206235463
 20
1929.867981611355
 30
0.0
 10
4424.895206235463
 20
1929.868113984242
 30
0.0
 10
4424.895206235463
 20
1929.869150552958
 30
0.0
 10
4424.895206235463
 20
1929.870549544643
 30
0.0
 10
4424.895206235463
 20
1929.871663150225
 30
0.0
 10
4424.895206235463
 20
1929.872148040253
 30
0.0
  0
ENDSEC
  0
SECTION
  2
OBJECTS
  0
DICTIONARY
  5
C
330
0
100
AcDbDictionary
281
     1
  3
ACAD_2007HEADERVARS_RT
350
328F
  3
ACAD_BACKGROUND
350
3249
  3
ACAD_COLOR
350
EE6
  3
ACAD_GROUP
350
D
  3
ACAD_LAYOUT
350
1A
  3
ACAD_MATERIAL
350
EE5
  3
ACAD_MLEADERSTYLE
350
10A8
  3
ACAD_MLINESTYLE
350
17
  3
ACAD_PLOTSETTINGS
350
19
  3
ACAD_PLOTSTYLENAME
350
E
  3
ACAD_SCALELIST
350
1096
  3
ACAD_TABLESTYLE
350
EE7
  3
ACAD_VISUALSTYLE
350
1082
  3
ACDB_RECOMPOSE_DATA
350
328D
  3
AcDbVariableDictionary
350
3D
  3
AEC_PROPERTY_SET_DEFS
350
1333
  3
ASE_INDEX_DICTIONARY
350
1066
  3
Autodesk_PNP
350
10B2
  3
DWGPROPS
350
328E
  0
DICTIONARY
  5
2607
330
8
100
AcDbDictionary
280
     1
281
     1
  0
DICTIONARY
  5
1051
330
2
100
AcDbDictionary
280
     1
281
     1
  3
ACAD_LAYERFILTERS
360
1065
  3
ACAD_LAYERSTATES
360
1B65
  3
ACLYDICTIONARY
360
1064
  0
DICTIONARY
  5
2478
330
10
100
AcDbDictionary
280
     1
281
     1
  3
ADSK_XREC_LAYER_RECONCILED
360
2479
  0
DICTIONARY
  5
247A
330
2F
100
AcDbDictionary
280
     1
281
     1
  3
ADSK_XREC_LAYER_RECONCILED
360
247B
  0
DICTIONARY
  5
247C
330
30
100
AcDbDictionary
280
     1
281
     1
  3
ADSK_XREC_LAYER_RECONCILED
360
247D
  0
DICTIONARY
  5
247E
330
31
100
AcDbDictionary
280
     1
281
     1
  3
ADSK_XREC_LAYER_RECONCILED
360
247F
  0
DICTIONARY
  5
2480
330
32
100
AcDbDictionary
280
     1
281
     1
  3
ADSK_XREC_LAYER_RECONCILED
360
2481
  0
DICTIONARY
  5
2482
330
33
100
AcDbDictionary
280
     1
281
     1
  3
ADSK_XREC_LAYER_RECONCILED
360
2483
  0
DICTIONARY
  5
2484
330
34
100
AcDbDictionary
280
     1
281
     1
  3
ADSK_XREC_LAYER_RECONCILED
360
2485
  0
DICTIONARY
  5
2486
330
35
100
AcDbDictionary
280
     1
281
     1
  3
ADSK_XREC_LAYER_RECONCILED
360
2487
  0
DICTIONARY
  5
2488
330
36
100
AcDbDictionary
280
     1
281
     1
  3
ADSK_XREC_LAYER_RECONCILED
360
2489
  0
DICTIONARY
  5
248A
330
37
100
AcDbDictionary
280
     1
281
     1
  3
ADSK_XREC_LAYER_RECONCILED
360
248B
  0
DICTIONARY
  5
248C
330
5D6
100
AcDbDictionary
280
     1
281
     1
  3
ADSK_XREC_LAYER_RECONCILED
360
248D
  0
DICTIONARY
  5
248E
330
8AF
100
AcDbDictionary
280
     1
281
     1
  3
ADSK_XREC_LAYER_RECONCILED
360
248F
  0
DICTIONARY
  5
2490
330
8F8
100
AcDbDictionary
280
     1
281
     1
  3
ADSK_XREC_LAYER_RECONCILED
360
2491
  0
DICTIONARY
  5
2492
330
91D
100
AcDbDictionary
280
     1
281
     1
  3
ADSK_XREC_LAYER_RECONCILED
360
2493
  0
DICTIONARY
  5
2494
330
C7B
100
AcDbDictionary
280
     1
281
     1
  3
ADSK_XREC_LAYER_RECONCILED
360
2495
  0
DICTIONARY
  5
2496
330
1060
100
AcDbDictionary
280
     1
281
     1
  3
ADSK_XREC_LAYER_RECONCILED
360
2497
  0
DICTIONARY
  5
1A3F
330
1F
100
AcDbDictionary
280
     1
281
     1
  3
ACAD_SORTENTS
360
1A40
  0
DICTIONARY
  5
328F
102
{ACAD_REACTORS
330
C
102
}
330
C
100
AcDbDictionary
281
     1
  3
DIMJOGANG
350
3290
  0
DICTIONARY
  5
3249
102
{ACAD_REACTORS
330
C
102
}
330
C
100
AcDbDictionary
281
     1
  0
DICTIONARY
  5
EE6
102
{ACAD_REACTORS
330
C
102
}
330
C
100
AcDbDictionary
281
     1
  0
DICTIONARY
  5
D
102
{ACAD_REACTORS
330
C
102
}
330
C
100
AcDbDictionary
281
     1
  0
DICTIONARY
  5
1A
102
{ACAD_REACTORS
330
C
102
}
330
C
100
AcDbDictionary
281
     1
  3
Layout1
350
1E
  3
Layout2
350
26
  3
Model
350
22
  0
DICTIONARY
  5
EE5
102
{ACAD_REACTORS
330
C
102
}
330
C
100
AcDbDictionary
281
     1
  3
ByBlock
350
1072
  3
ByLayer
350
106A
  3
Global
350
107A
  0
DICTIONARY
  5
10A8
102
{ACAD_REACTORS
330
C
102
}
330
C
100
AcDbDictionary
281
     1
  3
Standard
350
10A9
  0
DICTIONARY
  5
17
102
{ACAD_REACTORS
330
C
102
}
330
C
100
AcDbDictionary
281
     1
  3
Standard
350
18
  0
DICTIONARY
  5
19
102
{ACAD_REACTORS
330
C
102
}
330
C
100
AcDbDictionary
281
     1
  0
ACDBDICTIONARYWDFLT
  5
E
102
{ACAD_REACTORS
330
C
102
}
330
C
100
AcDbDictionary
281
     1
  3
Normal
350
F
100
AcDbDictionaryWithDefault
340
F
  0
DICTIONARY
  5
1096
102
{ACAD_REACTORS
330
C
102
}
330
C
100
AcDbDictionary
281
     1
  3
A0
350
1097
  3
A1
350
1098
  3
A2
350
1099
  3
A3
350
109A
  3
A4
350
109B
  3
A5
350
109C
  3
A6
350
109D
  3
A7
350
109E
  3
A8
350
109F
  3
A9
350
10A0
  3
B0
350
10A1
  3
B1
350
10A2
  3
B2
350
10A3
  3
B3
350
10A4
  3
B4
350
10A5
  3
B5
350
10A6
  3
B6
350
10A7
  0
DICTIONARY
  5
EE7
102
{ACAD_REACTORS
330
C
102
}
330
C
100
AcDbDictionary
281
     1
  3
Standard
350
EE8
  0
DICTIONARY
  5
1082
102
{ACAD_REACTORS
330
C
102
}
330
C
100
AcDbDictionary
281
     1
  3
2dWireframe
350
1088
  3
3D Hidden
350
108A
  3
3dWireframe
350
1089
  3
Basic
350
1087
  3
Brighten
350
108E
  3
ColorChange
350
1092
  3
Conceptual
350
108B
  3
Dim
350
108D
  3
EdgeColorOff
350
1095
  3
Facepattern
350
1091
  3
Flat
350
1083
  3
FlatWithEdges
350
1084
  3
Gouraud
350
1085
  3
GouraudWithEdges
350
1086
  3
JitterOff
350
1093
  3
Linepattern
350
1090
  3
OverhangOff
350
1094
  3
Realistic
350
108C
  3
Thicken
350
108F
  0
XRECORD
  5
328D
102
{ACAD_REACTORS
330
C
102
}
330
C
100
AcDbXrecord
280
     1
 90
        1
330
EE8
  0
DICTIONARY
  5
3D
102
{ACAD_REACTORS
330
C
102
}
330
C
100
AcDbDictionary
281
     1
  3
CANNOSCALE
350
263B
  3
CMLEADERSTYLE
350
263A
  3
CTABLESTYLE
350
1049
  3
DIMASSOC
350
3F
  3
HIDETEXT
350
3E
  3
INDEXCTL
350
263D
  3
SORTENTS
350
263C
  3
XCLIPFRAME
350
328B
  0
DICTIONARY
  5
1333
102
{ACAD_REACTORS
330
C
102
}
330
C
100
AcDbDictionary
281
     1
  0
DICTIONARY
  5
1066
102
{ACAD_REACTORS
330
C
102
}
330
C
100
AcDbDictionary
281
     1
  3
ASEBlockHierarchyIndexRecord
350
1067
1001
DCO15
1040
1602247867.484
  0
DICTIONARY
  5
10B2
102
{ACAD_REACTORS
330
C
102
}
330
C
100
AcDbDictionary
281
     1
  0
XRECORD
  5
328E
102
{ACAD_REACTORS
330
C
102
}
330
C
100
AcDbXrecord
280
     1
  1
DWGPROPS COOKIE
  2

  3

  4

  6

  7

  8
Julio
  9

300
=
301
=
302
=
303
=
304
=
305
=
306
=
307
=
308
=
309
=
 40
1.233578194444444
 41
2455097.426161563
 42
2455296.528917997
  1

 90
        0
  0
DICTIONARY
  5
1065
102
{ACAD_REACTORS
330
1051
102
}
330
1051
100
AcDbDictionary
281
     1
  0
DICTIONARY
  5
1B65
102
{ACAD_REACTORS
330
1051
102
}
330
1051
100
AcDbDictionary
281
     1
  0
DICTIONARY
  5
1064
102
{ACAD_REACTORS
330
1051
102
}
330
1051
100
AcDbDictionary
281
     1
1001
ACAD
1000
<All
  0
XRECORD
  5
2479
102
{ACAD_REACTORS
330
2478
102
}
330
2478
100
AcDbXrecord
280
     1
290
     1
  0
XRECORD
  5
247B
102
{ACAD_REACTORS
330
247A
102
}
330
247A
100
AcDbXrecord
280
     1
290
     1
  0
XRECORD
  5
247D
102
{ACAD_REACTORS
330
247C
102
}
330
247C
100
AcDbXrecord
280
     1
290
     1
  0
XRECORD
  5
247F
102
{ACAD_REACTORS
330
247E
102
}
330
247E
100
AcDbXrecord
280
     1
290
     1
  0
XRECORD
  5
2481
102
{ACAD_REACTORS
330
2480
102
}
330
2480
100
AcDbXrecord
280
     1
290
     1
  0
XRECORD
  5
2483
102
{ACAD_REACTORS
330
2482
102
}
330
2482
100
AcDbXrecord
280
     1
290
     1
  0
XRECORD
  5
2485
102
{ACAD_REACTORS
330
2484
102
}
330
2484
100
AcDbXrecord
280
     1
290
     1
  0
XRECORD
  5
2487
102
{ACAD_REACTORS
330
2486
102
}
330
2486
100
AcDbXrecord
280
     1
290
     1
  0
XRECORD
  5
2489
102
{ACAD_REACTORS
330
2488
102
}
330
2488
100
AcDbXrecord
280
     1
290
     1
  0
XRECORD
  5
248B
102
{ACAD_REACTORS
330
248A
102
}
330
248A
100
AcDbXrecord
280
     1
290
     1
  0
XRECORD
  5
248D
102
{ACAD_REACTORS
330
248C
102
}
330
248C
100
AcDbXrecord
280
     1
290
     1
  0
XRECORD
  5
248F
102
{ACAD_REACTORS
330
248E
102
}
330
248E
100
AcDbXrecord
280
     1
290
     1
  0
XRECORD
  5
2491
102
{ACAD_REACTORS
330
2490
102
}
330
2490
100
AcDbXrecord
280
     1
290
     1
  0
XRECORD
  5
2493
102
{ACAD_REACTORS
330
2492
102
}
330
2492
100
AcDbXrecord
280
     1
290
     1
  0
XRECORD
  5
2495
102
{ACAD_REACTORS
330
2494
102
}
330
2494
100
AcDbXrecord
280
     1
290
     1
  0
XRECORD
  5
2497
102
{ACAD_REACTORS
330
2496
102
}
330
2496
100
AcDbXrecord
280
     1
290
     1
  0
SORTENTSTABLE
  5
1A40
102
{ACAD_REACTORS
330
1A3F
102
}
330
1A3F
100
AcDbSortentsTable
330
1F
331
1937
  5
1937
331
1933
  5
1933
331
192F
  5
192F
331
196E
  5
1973
331
192B
  5
192B
331
196A
  5
196F
331
19BF
  5
19C4
331
19BB
  5
19C0
331
19B7
  5
19BC
331
1927
  5
1927
331
1966
  5
196B
331
1962
  5
1964
331
195E
  5
195F
331
19AF
  5
19B4
331
1A0A
  5
1A0F
331
19AB
  5
19B0
331
1A02
  5
1A07
331
1956
  5
1956
331
1952
  5
1952
331
1833
  5
1833
331
194E
  5
194E
331
194A
  5
194A
331
19DA
  5
19DF
331
199B
  5
19A0
331
19D6
  5
19DB
331
1997
  5
199C
331
19D2
  5
19D7
331
1A41
  5
1965
331
1946
  5
1946
331
1827
  5
1827
331
1942
  5
1942
331
193E
  5
193E
331
181F
  5
181F
331
193A
  5
193A
331
19CE
  5
19D3
331
1977
  5
197C
331
19C6
  5
19CB
331
1973
  5
1978
331
196D
  5
1972
331
192A
  5
192A
331
1969
  5
196E
331
19B2
  5
19B7
331
1807
  5
1807
331
1926
  5
1926
331
1965
  5
196A
331
1961
  5
1962
331
195D
  5
195D
331
191E
  5
191E
331
1A09
  5
1A0E
331
1836
  5
1836
331
1955
  5
1955
331
1951
  5
1951
331
182E
  5
182E
331
194D
  5
194D
331
1949
  5
1949
331
199E
  5
19A3
331
19D9
  5
19DE
331
19D5
  5
19DA
331
19D1
  5
19D6
331
1A44
  5
1963
331
1945
  5
1945
331
1941
  5
1941
331
181E
  5
181E
331
193D
  5
193D
331
181A
  5
181A
331
1939
  5
1939
331
197E
  5
1983
331
19CD
  5
19D2
331
197A
  5
197F
331
19C9
  5
19CE
331
1976
  5
197B
331
19C5
  5
19CA
331
1972
  5
1977
331
19C1
  5
19C6
331
1A20
  5
1A25
331
1931
  5
1931
331
192D
  5
192D
331
196C
  5
1971
331
1929
  5
1929
331
1968
  5
196D
331
1964
  5
1968
331
1960
  5
1961
331
191D
  5
191D
331
195C
  5
195C
331
1919
  5
1919
331
1958
  5
1958
331
1A0C
  5
1A11
331
19A9
  5
19AE
331
19A5
  5
19AA
331
1954
  5
1954
331
1835
  5
1835
331
1950
  5
1950
331
1831
  5
1831
331
194C
  5
194C
331
182D
  5
182D
331
1948
  5
1948
331
1829
  5
1829
331
199D
  5
19A2
331
19D8
  5
19DD
331
19D4
  5
19D9
331
19D0
  5
19D5
331
1A43
  5
1967
331
1944
  5
1944
331
1940
  5
1940
331
193C
  5
193C
331
1938
  5
1938
331
1979
  5
197E
331
19C8
  5
19CD
331
1975
  5
197A
331
19C4
  5
19C9
331
1971
  5
1976
331
1934
  5
1934
331
196F
  5
1974
331
192C
  5
192C
331
196B
  5
1970
331
1811
  5
1811
331
1928
  5
1928
331
1A1F
  5
1A24
331
19B4
  5
19B9
331
1967
  5
196C
331
1924
  5
1924
331
1963
  5
1966
331
1920
  5
1920
331
195F
  5
1960
331
195B
  5
195B
331
19AC
  5
19B1
331
1A07
  5
1A0C
331
1957
  5
1957
331
1953
  5
1953
331
1834
  5
1834
331
194F
  5
194F
331
1830
  5
1830
331
194B
  5
194B
331
19DB
  5
19E0
331
19D7
  5
19DC
331
19D3
  5
19D8
331
1A42
  5
195E
331
1947
  5
1947
331
1943
  5
1943
331
193F
  5
193F
331
193B
  5
193B
331
181C
  5
181C
331
19CF
  5
19D4
331
19CB
  5
19D0
331
1978
  5
197D
331
1974
  5
1979
331
19C3
  5
19C8
331
1970
  5
1975
  0
XRECORD
  5
3290
102
{ACAD_REACTORS
330
328F
102
}
330
328F
100
AcDbXrecord
280
     1
 40
1.570796326794896
  0
LAYOUT
  5
1E
102
{ACAD_XDICTIONARY
360
3291
102
}
102
{ACAD_REACTORS
330
1A
102
}
330
1A
100
AcDbPlotSettings
  1

  2
Ploter HP500
  4

  6

 40
0.0
 41
0.0
 42
0.0
 43
0.0
 44
0.0
 45
0.0
 46
0.0
 47
0.0
 48
0.0
 49
0.0
140
0.0
141
0.0
142
1.0
143
1.0
 70
   688
 72
     0
 73
     0
 74
     5
  7
sanindusa.ctb
 75
    16
147
1.0
148
0.0
149
0.0
100
AcDbLayout
  1
Layout1
 70
     1
 71
     1
 10
0.0
 20
0.0
 11
420.0
 21
297.0
 12
0.0
 22
0.0
 32
0.0
 14
1.000000000000000E+20
 24
1.000000000000000E+20
 34
1.000000000000000E+20
 15
-1.000000000000000E+20
 25
-1.000000000000000E+20
 35
-1.000000000000000E+20
146
0.0
 13
0.0
 23
0.0
 33
0.0
 16
1.0
 26
0.0
 36
0.0
 17
0.0
 27
1.0
 37
0.0
 76
     0
330
1B
  0
LAYOUT
  5
26
102
{ACAD_XDICTIONARY
360
3295
102
}
102
{ACAD_REACTORS
330
1A
102
}
330
1A
100
AcDbPlotSettings
  1

  2
Ploter HP500
  4

  6

 40
0.0
 41
0.0
 42
0.0
 43
0.0
 44
0.0
 45
0.0
 46
0.0
 47
0.0
 48
0.0
 49
0.0
140
0.0
141
0.0
142
1.0
143
1.0
 70
   688
 72
     0
 73
     0
 74
     5
  7
sanindusa.ctb
 75
    16
147
1.0
148
0.0
149
0.0
100
AcDbLayout
  1
Layout2
 70
     1
 71
     2
 10
0.0
 20
0.0
 11
12.0
 21
9.0
 12
0.0
 22
0.0
 32
0.0
 14
0.0
 24
0.0
 34
0.0
 15
0.0
 25
0.0
 35
0.0
146
0.0
 13
0.0
 23
0.0
 33
0.0
 16
1.0
 26
0.0
 36
0.0
 17
0.0
 27
1.0
 37
0.0
 76
     0
330
23
  0
LAYOUT
  5
22
102
{ACAD_XDICTIONARY
360
3293
102
}
102
{ACAD_REACTORS
330
1A
102
}
330
1A
100
AcDbPlotSettings
  1

  2
Ploter HP500
  4
User268
  6

 40
4.995333194732666
 41
16.97565841674804
 42
4.995330810546875
 43
16.97567749023437
 44
209.9733276367187
 45
296.9259948730469
 46
0.0
 47
0.0
 48
0.0
 49
0.0
140
0.0
141
0.0
142
1.0
143
1.0
 70
 11952
 72
     1
 73
     1
 74
     0
  7
sanindusa.ctb
 75
     0
147
1.0
148
-427.5957866592534
149
7.362384574453926
100
AcDbLayout
  1
Model
 70
     1
 71
     0
 10
0.0
 20
0.0
 11
12.0
 21
9.0
 12
0.0
 22
0.0
 32
0.0
 14
0.0
 24
0.0
 34
0.0
 15
0.0
 25
0.0
 35
0.0
146
0.0
 13
0.0
 23
0.0
 33
0.0
 16
1.0
 26
0.0
 36
0.0
 17
0.0
 27
1.0
 37
0.0
 76
     0
330
1F
331
1068
  0
MATERIAL
  5
1072
102
{ACAD_XDICTIONARY
360
1073
102
}
102
{ACAD_REACTORS
330
EE5
102
}
330
EE5
100
AcDbMaterial
  1
ByBlock
 72
     0
 43
0.0008202099737533
 43
0.0
 43
0.0
 43
0.0
 43
0.0
 43
0.0008202099737533
 43
0.0
 43
0.0
 43
0.0
 43
0.0
 43
1.0
 43
0.0
 43
0.0
 43
0.0
 43
0.0
 43
1.0
 77
     0
 47
0.0008202099737533
 47
0.0
 47
0.0
 47
0.0
 47
0.0
 47
0.0008202099737533
 47
0.0
 47
0.0
 47
0.0
 47
0.0
 47
1.0
 47
0.0
 47
0.0
 47
0.0
 47
0.0
 47
1.0
171
     0
 49
0.0008202099737533
 49
0.0
 49
0.0
 49
0.0
 49
0.0
 49
0.0008202099737533
 49
0.0
 49
0.0
 49
0.0
 49
0.0
 49
1.0
 49
0.0
 49
0.0
 49
0.0
 49
0.0
 49
1.0
175
     0
142
0.0008202099737533
142
0.0
142
0.0
142
0.0
142
0.0
142
0.0008202099737533
142
0.0
142
0.0
142
0.0
142
0.0
142
1.0
142
0.0
142
0.0
142
0.0
142
0.0
142
1.0
179
     0
144
0.0008202099737533
144
0.0
144
0.0
144
0.0
144
0.0
144
0.0008202099737533
144
0.0
144
0.0
144
0.0
144
0.0
144
1.0
144
0.0
144
0.0
144
0.0
144
0.0
144
1.0
147
0.0008202099737533
147
0.0
147
0.0
147
0.0
147
0.0
147
0.0008202099737533
147
0.0
147
0.0
147
0.0
147
0.0
147
1.0
147
0.0
147
0.0
147
0.0
147
0.0
147
1.0
  0
MATERIAL
  5
106A
102
{ACAD_XDICTIONARY
360
106B
102
}
102
{ACAD_REACTORS
330
EE5
102
}
330
EE5
100
AcDbMaterial
  1
ByLayer
 72
     0
 43
0.0008202099737533
 43
0.0
 43
0.0
 43
0.0
 43
0.0
 43
0.0008202099737533
 43
0.0
 43
0.0
 43
0.0
 43
0.0
 43
1.0
 43
0.0
 43
0.0
 43
0.0
 43
0.0
 43
1.0
 77
     0
 47
0.0008202099737533
 47
0.0
 47
0.0
 47
0.0
 47
0.0
 47
0.0008202099737533
 47
0.0
 47
0.0
 47
0.0
 47
0.0
 47
1.0
 47
0.0
 47
0.0
 47
0.0
 47
0.0
 47
1.0
171
     0
 49
0.0008202099737533
 49
0.0
 49
0.0
 49
0.0
 49
0.0
 49
0.0008202099737533
 49
0.0
 49
0.0
 49
0.0
 49
0.0
 49
1.0
 49
0.0
 49
0.0
 49
0.0
 49
0.0
 49
1.0
175
     0
142
0.0008202099737533
142
0.0
142
0.0
142
0.0
142
0.0
142
0.0008202099737533
142
0.0
142
0.0
142
0.0
142
0.0
142
1.0
142
0.0
142
0.0
142
0.0
142
0.0
142
1.0
179
     0
144
0.0008202099737533
144
0.0
144
0.0
144
0.0
144
0.0
144
0.0008202099737533
144
0.0
144
0.0
144
0.0
144
0.0
144
1.0
144
0.0
144
0.0
144
0.0
144
0.0
144
1.0
147
0.0008202099737533
147
0.0
147
0.0
147
0.0
147
0.0
147
0.0008202099737533
147
0.0
147
0.0
147
0.0
147
0.0
147
1.0
147
0.0
147
0.0
147
0.0
147
0.0
147
1.0
  0
MATERIAL
  5
107A
102
{ACAD_XDICTIONARY
360
107B
102
}
102
{ACAD_REACTORS
330
EE5
102
}
330
EE5
100
AcDbMaterial
  1
Global
 72
     0
 43
0.0008202099737533
 43
0.0
 43
0.0
 43
0.0
 43
0.0
 43
0.0008202099737533
 43
0.0
 43
0.0
 43
0.0
 43
0.0
 43
1.0
 43
0.0
 43
0.0
 43
0.0
 43
0.0
 43
1.0
 77
     0
 47
0.0008202099737533
 47
0.0
 47
0.0
 47
0.0
 47
0.0
 47
0.0008202099737533
 47
0.0
 47
0.0
 47
0.0
 47
0.0
 47
1.0
 47
0.0
 47
0.0
 47
0.0
 47
0.0
 47
1.0
171
     0
 49
0.0008202099737533
 49
0.0
 49
0.0
 49
0.0
 49
0.0
 49
0.0008202099737533
 49
0.0
 49
0.0
 49
0.0
 49
0.0
 49
1.0
 49
0.0
 49
0.0
 49
0.0
 49
0.0
 49
1.0
175
     0
142
0.0008202099737533
142
0.0
142
0.0
142
0.0
142
0.0
142
0.0008202099737533
142
0.0
142
0.0
142
0.0
142
0.0
142
1.0
142
0.0
142
0.0
142
0.0
142
0.0
142
1.0
179
     0
144
0.0008202099737533
144
0.0
144
0.0
144
0.0
144
0.0
144
0.0008202099737533
144
0.0
144
0.0
144
0.0
144
0.0
144
1.0
144
0.0
144
0.0
144
0.0
144
0.0
144
1.0
147
0.0008202099737533
147
0.0
147
0.0
147
0.0
147
0.0
147
0.0008202099737533
147
0.0
147
0.0
147
0.0
147
0.0
147
1.0
147
0.0
147
0.0
147
0.0
147
0.0
147
1.0
  0
MLEADERSTYLE
  5
10A9
102
{ACAD_REACTORS
330
10A8
102
}
330
10A8
100
AcDbMLeaderStyle
170
     2
171
     1
172
     0
 90
        2
 40
0.0
 41
0.0
173
     1
 91
-1056964608
340
14
 92
       -2
290
     1
 42
2.0
291
     1
 43
0.36
  3
Standard
 44
4.0
300

342
11
174
     1
178
     6
175
     1
176
     0
 93
-1056964608
 45
4.0
292
     0
297
     0
 46
4.0
 94
-1056964608
 47
1.0
 49
1.0
140
1.0
293
     1
141
0.0
294
     1
177
     0
142
1.0
295
     0
296
     0
143
0.125
1001
ACAD_MLEADERVER
1070
     2
  0
MLINESTYLE
  5
18
102
{ACAD_REACTORS
330
17
102
}
330
17
100
AcDbMlineStyle
  2
STANDARD
 70
     0
  3

 62
   256
 51
90.0
 52
90.0
 71
     2
 49
0.5
 62
   256
  6
BYLAYER
 49
-0.5
 62
   256
  6
BYLAYER
  0
ACDBPLACEHOLDER
  5
F
102
{ACAD_REACTORS
330
E
102
}
330
E
  0
SCALE
  5
1097
102
{ACAD_REACTORS
330
1096
102
}
330
1096
100
AcDbScale
 70
     0
300
1:1
140
1.0
141
1.0
290
     1
  0
SCALE
  5
1098
102
{ACAD_REACTORS
330
1096
102
}
330
1096
100
AcDbScale
 70
     0
300
1:2
140
1.0
141
2.0
290
     0
  0
SCALE
  5
1099
102
{ACAD_REACTORS
330
1096
102
}
330
1096
100
AcDbScale
 70
     0
300
1:4
140
1.0
141
4.0
290
     0
  0
SCALE
  5
109A
102
{ACAD_REACTORS
330
1096
102
}
330
1096
100
AcDbScale
 70
     0
300
1:5
140
1.0
141
5.0
290
     0
  0
SCALE
  5
109B
102
{ACAD_REACTORS
330
1096
102
}
330
1096
100
AcDbScale
 70
     0
300
1:8
140
1.0
141
8.0
290
     0
  0
SCALE
  5
109C
102
{ACAD_REACTORS
330
1096
102
}
330
1096
100
AcDbScale
 70
     0
300
1:10
140
1.0
141
10.0
290
     0
  0
SCALE
  5
109D
102
{ACAD_REACTORS
330
1096
102
}
330
1096
100
AcDbScale
 70
     0
300
1:16
140
1.0
141
16.0
290
     0
  0
SCALE
  5
109E
102
{ACAD_REACTORS
330
1096
102
}
330
1096
100
AcDbScale
 70
     0
300
1:20
140
1.0
141
20.0
290
     0
  0
SCALE
  5
109F
102
{ACAD_REACTORS
330
1096
102
}
330
1096
100
AcDbScale
 70
     0
300
1:30
140
1.0
141
30.0
290
     0
  0
SCALE
  5
10A0
102
{ACAD_REACTORS
330
1096
102
}
330
1096
100
AcDbScale
 70
     0
300
1:40
140
1.0
141
40.0
290
     0
  0
SCALE
  5
10A1
102
{ACAD_REACTORS
330
1096
102
}
330
1096
100
AcDbScale
 70
     0
300
1:50
140
1.0
141
50.0
290
     0
  0
SCALE
  5
10A2
102
{ACAD_REACTORS
330
1096
102
}
330
1096
100
AcDbScale
 70
     0
300
1:100
140
1.0
141
100.0
290
     0
  0
SCALE
  5
10A3
102
{ACAD_REACTORS
330
1096
102
}
330
1096
100
AcDbScale
 70
     0
300
2:1
140
2.0
141
1.0
290
     0
  0
SCALE
  5
10A4
102
{ACAD_REACTORS
330
1096
102
}
330
1096
100
AcDbScale
 70
     0
300
4:1
140
4.0
141
1.0
290
     0
  0
SCALE
  5
10A5
102
{ACAD_REACTORS
330
1096
102
}
330
1096
100
AcDbScale
 70
     0
300
8:1
140
8.0
141
1.0
290
     0
  0
SCALE
  5
10A6
102
{ACAD_REACTORS
330
1096
102
}
330
1096
100
AcDbScale
 70
     0
300
10:1
140
10.0
141
1.0
290
     0
  0
SCALE
  5
10A7
102
{ACAD_REACTORS
330
1096
102
}
330
1096
100
AcDbScale
 70
     0
300
100:1
140
100.0
141
1.0
290
     0
  0
TABLESTYLE
  5
EE8
102
{ACAD_XDICTIONARY
360
2601
102
}
102
{ACAD_REACTORS
330
EE7
102
}
330
EE7
100
AcDbTableStyle
  3
Standard
 70
     0
 71
     0
 40
1.5
 41
1.5
280
     0
281
     0
  7
Standard
140
4.5
170
     2
 62
     0
 63
     7
283
     0
274
    -2
284
     1
 64
     0
275
    -2
285
     1
 65
     0
276
    -2
286
     1
 66
     0
277
    -2
287
     1
 67
     0
278
    -2
288
     1
 68
     0
279
    -2
289
     1
 69
     0
  7
Standard
140
6.0
170
     5
 62
     0
 63
     7
283
     0
274
    -2
284
     1
 64
     0
275
    -2
285
     1
 65
     0
276
    -2
286
     1
 66
     0
277
    -2
287
     1
 67
     0
278
    -2
288
     1
 68
     0
279
    -2
289
     1
 69
     0
  7
Standard
140
4.5
170
     5
 62
     0
 63
     7
283
     0
274
    -2
284
     1
 64
     0
275
    -2
285
     1
 65
     0
276
    -2
286
     1
 66
     0
277
    -2
287
     1
 67
     0
278
    -2
288
     1
 68
     0
279
    -2
289
     1
 69
     0
  0
VISUALSTYLE
  5
1088
102
{ACAD_XDICTIONARY
360
32A5
102
}
102
{ACAD_REACTORS
330
1082
102
}
330
1082
100
AcDbVisualStyle
  2
2dWireframe
 70
     4
 71
     0
 72
     2
 73
     0
 90
        0
 40
-0.6
 41
-30.0
 62
     5
 63
     7
 74
     1
 91
        4
 64
     7
 65
   257
 75
     1
175
     1
 42
1.0
 92
        0
 66
   257
 43
1.0
 76
     1
 77
     6
 78
     2
 67
     7
 79
     5
170
     0
171
     0
290
     0
174
     0
 93
        1
 44
0.0
173
     0
291
     0
 45
0.0
1001
ACAD
1000
AcDbSavedByObjectVersion
1070
     0
  0
VISUALSTYLE
  5
108A
102
{ACAD_XDICTIONARY
360
32A9
102
}
102
{ACAD_REACTORS
330
1082
102
}
330
1082
100
AcDbVisualStyle
  2
3D Hidden
 70
     6
 71
     1
 72
     2
 73
     2
 90
        0
 40
-0.6
 41
-30.0
 62
     5
 63
     7
 74
     2
 91
        2
 64
     7
 65
   257
 75
     2
175
     1
 42
179.0
 92
        0
 66
   257
 43
1.0
 76
     1
 77
     6
 78
     2
 67
     7
 79
     3
170
     0
171
     0
290
     0
174
     0
 93
        1
 44
0.0
173
     0
291
     0
 45
0.0
1001
ACAD
1000
AcDbSavedByObjectVersion
1070
     0
  0
VISUALSTYLE
  5
1089
102
{ACAD_XDICTIONARY
360
32A7
102
}
102
{ACAD_REACTORS
330
1082
102
}
330
1082
100
AcDbVisualStyle
  2
3dWireframe
 70
     5
 71
     0
 72
     2
 73
     0
 90
        0
 40
-0.6
 41
-30.0
 62
     5
 63
     7
 74
     1
 91
        4
 64
     7
 65
   257
 75
     1
175
     1
 42
1.0
 92
        0
 66
   257
 43
1.0
 76
     1
 77
     6
 78
     2
 67
     7
 79
     5
170
     0
171
     0
290
     0
174
     0
 93
        1
 44
0.0
173
     0
291
     0
 45
0.0
1001
ACAD
1000
AcDbSavedByObjectVersion
1070
     0
  0
VISUALSTYLE
  5
1087
102
{ACAD_XDICTIONARY
360
32A3
102
}
102
{ACAD_REACTORS
330
1082
102
}
330
1082
100
AcDbVisualStyle
  2
Basic
 70
     7
 71
     1
 72
     0
 73
     1
 90
        0
 40
-0.6
 41
-30.0
 62
     5
 63
     7
 74
     0
 91
        4
 64
     7
 65
   257
 75
     1
175
     1
 42
1.0
 92
        8
 66
     7
 43
1.0
 76
     1
 77
     6
 78
     2
 67
     7
 79
     5
170
     0
171
     0
290
     0
174
     0
 93
        1
 44
0.0
173
     0
291
     1
 45
0.0
1001
ACAD
1000
AcDbSavedByObjectVersion
1070
     0
  0
VISUALSTYLE
  5
108E
102
{ACAD_XDICTIONARY
360
32B1
102
}
102
{ACAD_REACTORS
330
1082
102
}
330
1082
100
AcDbVisualStyle
  2
Brighten
 70
    12
 71
     2
 72
     2
 73
     0
 90
        0
 40
-0.6
 41
-30.0
 62
     5
 63
     7
 74
     1
 91
        4
 64
     7
 65
   257
 75
     1
175
     1
 42
1.0
 92
        8
 66
     7
 43
1.0
 76
     1
 77
     6
 78
     2
 67
     7
 79
     5
170
     0
171
     0
290
     0
174
     0
 93
        1
 44
50.0
173
     0
291
     1
 45
0.0
1001
ACAD
1000
AcDbSavedByObjectVersion
1070
     0
  0
VISUALSTYLE
  5
1092
102
{ACAD_XDICTIONARY
360
32B9
102
}
102
{ACAD_REACTORS
330
1082
102
}
330
1082
100
AcDbVisualStyle
  2
ColorChange
 70
    16
 71
     2
 72
     2
 73
     3
 90
        0
 40
-0.6
 41
-30.0
 62
     5
 63
     8
 74
     1
 91
        4
 64
     7
 65
   257
 75
     1
175
     1
 42
1.0
 92
        8
 66
     8
 43
1.0
 76
     1
 77
     6
 78
     2
 67
     7
 79
     5
170
     0
171
     0
290
     0
174
     0
 93
        1
 44
0.0
173
     0
291
     1
 45
0.0
1001
ACAD
1000
AcDbSavedByObjectVersion
1070
     0
  0
VISUALSTYLE
  5
108B
102
{ACAD_XDICTIONARY
360
32AB
102
}
102
{ACAD_REACTORS
330
1082
102
}
330
1082
100
AcDbVisualStyle
  2
Conceptual
 70
     9
 71
     3
 72
     2
 73
     0
 90
        0
 40
-0.6
 41
-30.0
 62
     5
 63
     7
 74
     2
 91
        2
 64
     7
 65
   257
 75
     1
175
     1
 42
179.0
 92
        8
 66
     7
 43
1.0
 76
     1
 77
     6
 78
     2
 67
     7
 79
     3
170
     0
171
     0
290
     0
174
     0
 93
        1
 44
0.0
173
     0
291
     0
 45
0.0
1001
ACAD
1000
AcDbSavedByObjectVersion
1070
     0
  0
VISUALSTYLE
  5
108D
102
{ACAD_XDICTIONARY
360
32AF
102
}
102
{ACAD_REACTORS
330
1082
102
}
330
1082
100
AcDbVisualStyle
  2
Dim
 70
    11
 71
     2
 72
     2
 73
     0
 90
        0
 40
-0.6
 41
-30.0
 62
     5
 63
     7
 74
     1
 91
        4
 64
     7
 65
   257
 75
     1
175
     1
 42
1.0
 92
        8
 66
     7
 43
1.0
 76
     1
 77
     6
 78
     2
 67
     7
 79
     5
170
     0
171
     0
290
     0
174
     0
 93
        1
 44
-50.0
173
     0
291
     1
 45
0.0
1001
ACAD
1000
AcDbSavedByObjectVersion
1070
     0
  0
VISUALSTYLE
  5
1095
102
{ACAD_XDICTIONARY
360
32BF
102
}
102
{ACAD_REACTORS
330
1082
102
}
330
1082
100
AcDbVisualStyle
  2
EdgeColorOff
 70
    22
 71
     2
 72
     2
 73
     0
 90
        0
 40
-0.6
 41
-30.0
 62
     5
 63
     7
 74
     1
 91
        4
 64
     7
 65
   257
 75
     1
175
     1
 42
1.0
 92
        8
 66
     7
 43
1.0
 76
     1
 77
     6
 78
     2
 67
     7
 79
     5
170
     0
171
     0
290
     0
174
     0
 93
        1
 44
0.0
173
     0
291
     1
 45
0.0
1001
ACAD
1000
AcDbSavedByObjectVersion
1070
     0
  0
VISUALSTYLE
  5
1091
102
{ACAD_XDICTIONARY
360
32B7
102
}
102
{ACAD_REACTORS
330
1082
102
}
330
1082
100
AcDbVisualStyle
  2
Facepattern
 70
    15
 71
     2
 72
     2
 73
     0
 90
        0
 40
-0.6
 41
-30.0
 62
     5
 63
     7
 74
     1
 91
        4
 64
     7
 65
   257
 75
     1
175
     1
 42
1.0
 92
        8
 66
     7
 43
1.0
 76
     1
 77
     6
 78
     2
 67
     7
 79
     5
170
     0
171
     0
290
     0
174
     0
 93
        1
 44
0.0
173
     0
291
     1
 45
0.0
1001
ACAD
1000
AcDbSavedByObjectVersion
1070
     0
  0
VISUALSTYLE
  5
1083
102
{ACAD_XDICTIONARY
360
329B
102
}
102
{ACAD_REACTORS
330
1082
102
}
330
1082
100
AcDbVisualStyle
  2
Flat
 70
     0
 71
     2
 72
     1
 73
     1
 90
        2
 40
-0.6
 41
30.0
 62
     5
 63
     7
 74
     0
 91
        4
 64
     7
 65
   257
 75
     1
175
     1
 42
1.0
 92
        8
 66
     7
 43
1.0
 76
     1
 77
     6
 78
     2
 67
     7
 79
     5
170
     0
171
     0
290
     0
174
     0
 93
       13
 44
0.0
173
     0
291
     1
 45
0.0
1001
ACAD
1000
AcDbSavedByObjectVersion
1070
     0
  0
VISUALSTYLE
  5
1084
102
{ACAD_XDICTIONARY
360
329D
102
}
102
{ACAD_REACTORS
330
1082
102
}
330
1082
100
AcDbVisualStyle
  2
FlatWithEdges
 70
     1
 71
     2
 72
     1
 73
     1
 90
        2
 40
-0.6
 41
30.0
 62
     5
 63
     7
 74
     1
 91
        4
 64
     7
 65
   257
 75
     1
175
     1
 42
1.0
 92
        0
 66
   257
 43
1.0
 76
     1
 77
     6
 78
     2
 67
     7
 79
     5
170
     0
171
     0
290
     0
174
     0
 93
       13
 44
0.0
173
     0
291
     1
 45
0.0
1001
ACAD
1000
AcDbSavedByObjectVersion
1070
     0
  0
VISUALSTYLE
  5
1085
102
{ACAD_XDICTIONARY
360
329F
102
}
102
{ACAD_REACTORS
330
1082
102
}
330
1082
100
AcDbVisualStyle
  2
Gouraud
 70
     2
 71
     2
 72
     2
 73
     1
 90
        2
 40
-0.6
 41
30.0
 62
     5
 63
     7
 74
     0
 91
        4
 64
     7
 65
   257
 75
     1
175
     1
 42
1.0
 92
        0
 66
     7
 43
1.0
 76
     1
 77
     6
 78
     2
 67
     7
 79
     5
170
     0
171
     0
290
     0
174
     0
 93
       13
 44
0.0
173
     0
291
     1
 45
0.0
1001
ACAD
1000
AcDbSavedByObjectVersion
1070
     0
  0
VISUALSTYLE
  5
1086
102
{ACAD_XDICTIONARY
360
32A1
102
}
102
{ACAD_REACTORS
330
1082
102
}
330
1082
100
AcDbVisualStyle
  2
GouraudWithEdges
 70
     3
 71
     2
 72
     2
 73
     1
 90
        2
 40
-0.6
 41
30.0
 62
     5
 63
     7
 74
     1
 91
        4
 64
     7
 65
   257
 75
     1
175
     1
 42
1.0
 92
        0
 66
   257
 43
1.0
 76
     1
 77
     6
 78
     2
 67
     7
 79
     5
170
     0
171
     0
290
     0
174
     0
 93
       13
 44
0.0
173
     0
291
     1
 45
0.0
1001
ACAD
1000
AcDbSavedByObjectVersion
1070
     0
  0
VISUALSTYLE
  5
1093
102
{ACAD_XDICTIONARY
360
32BB
102
}
102
{ACAD_REACTORS
330
1082
102
}
330
1082
100
AcDbVisualStyle
  2
JitterOff
 70
    20
 71
     2
 72
     2
 73
     0
 90
        0
 40
-0.6
 41
-30.0
 62
     5
 63
     7
 74
     1
 91
        4
 64
     7
 65
   257
 75
     1
175
     1
 42
1.0
 92
       10
 66
     7
 43
1.0
 76
     1
 77
     6
 78
     2
 67
     7
 79
     5
170
     0
171
     0
290
     0
174
     0
 93
        1
 44
0.0
173
     0
291
     1
 45
0.0
1001
ACAD
1000
AcDbSavedByObjectVersion
1070
     0
  0
VISUALSTYLE
  5
1090
102
{ACAD_XDICTIONARY
360
32B5
102
}
102
{ACAD_REACTORS
330
1082
102
}
330
1082
100
AcDbVisualStyle
  2
Linepattern
 70
    14
 71
     2
 72
     2
 73
     0
 90
        0
 40
-0.6
 41
-30.0
 62
     5
 63
     7
 74
     1
 91
        4
 64
     7
 65
   257
 75
     7
175
     7
 42
1.0
 92
        8
 66
     7
 43
1.0
 76
     1
 77
     6
 78
     2
 67
     7
 79
     5
170
     0
171
     0
290
     0
174
     0
 93
        1
 44
0.0
173
     0
291
     1
 45
0.0
1001
ACAD
1000
AcDbSavedByObjectVersion
1070
     0
  0
VISUALSTYLE
  5
1094
102
{ACAD_XDICTIONARY
360
32BD
102
}
102
{ACAD_REACTORS
330
1082
102
}
330
1082
100
AcDbVisualStyle
  2
OverhangOff
 70
    21
 71
     2
 72
     2
 73
     0
 90
        0
 40
-0.6
 41
-30.0
 62
     5
 63
     7
 74
     1
 91
        4
 64
     7
 65
   257
 75
     1
175
     1
 42
1.0
 92
        9
 66
     7
 43
1.0
 76
     1
 77
     6
 78
     2
 67
     7
 79
     5
170
     0
171
     0
290
     0
174
     0
 93
        1
 44
0.0
173
     0
291
     1
 45
0.0
1001
ACAD
1000
AcDbSavedByObjectVersion
1070
     0
  0
VISUALSTYLE
  5
108C
102
{ACAD_XDICTIONARY
360
32AD
102
}
102
{ACAD_REACTORS
330
1082
102
}
330
1082
100
AcDbVisualStyle
  2
Realistic
 70
     8
 71
     2
 72
     2
 73
     0
 90
        0
 40
-0.6
 41
-30.0
 62
     5
 63
     7
 74
     1
 91
        0
 64
     7
 65
   257
 75
     1
175
     1
 42
1.0
 92
        8
 66
     8
 43
1.0
 76
     1
 77
     6
 78
     2
 67
     7
 79
     5
170
     0
171
     0
290
     0
174
     0
 93
       13
 44
0.0
173
     0
291
     0
 45
0.0
1001
ACAD
1000
AcDbSavedByObjectVersion
1070
     0
  0
VISUALSTYLE
  5
108F
102
{ACAD_XDICTIONARY
360
32B3
102
}
102
{ACAD_REACTORS
330
1082
102
}
330
1082
100
AcDbVisualStyle
  2
Thicken
 70
    13
 71
     2
 72
     2
 73
     0
 90
        0
 40
-0.6
 41
-30.0
 62
     5
 63
     7
 74
     1
 91
        4
 64
     7
 65
   257
 75
     1
175
     1
 42
1.0
 92
       12
 66
     7
 43
1.0
 76
     1
 77
     6
 78
     2
 67
     7
 79
     5
170
     0
171
     0
290
     0
174
     0
 93
        1
 44
0.0
173
     0
291
     1
 45
0.0
1001
ACAD
1000
AcDbSavedByObjectVersion
1070
     0
  0
DICTIONARYVAR
  5
263B
102
{ACAD_REACTORS
330
3D
102
}
330
3D
100
DictionaryVariables
280
     0
  1
1:1
  0
DICTIONARYVAR
  5
263A
102
{ACAD_REACTORS
330
3D
102
}
330
3D
100
DictionaryVariables
280
     0
  1
STANDARD
  0
DICTIONARYVAR
  5
1049
102
{ACAD_REACTORS
330
3D
102
}
330
3D
100
DictionaryVariables
280
     0
  1
STANDARD
  0
DICTIONARYVAR
  5
3F
102
{ACAD_REACTORS
330
3D
102
}
330
3D
100
DictionaryVariables
280
     0
  1
2
  0
DICTIONARYVAR
  5
3E
102
{ACAD_REACTORS
330
3D
102
}
330
3D
100
DictionaryVariables
280
     0
  1
1
  0
DICTIONARYVAR
  5
263D
102
{ACAD_REACTORS
330
3D
102
}
330
3D
100
DictionaryVariables
280
     0
  1
0
  0
DICTIONARYVAR
  5
263C
102
{ACAD_REACTORS
330
3D
102
}
330
3D
100
DictionaryVariables
280
     0
  1
127
  0
DICTIONARYVAR
  5
328B
102
{ACAD_REACTORS
330
3D
102
}
330
3D
100
DictionaryVariables
280
     0
  1
2
  0
XRECORD
  5
1067
102
{ACAD_REACTORS
330
1066
102
}
330
1066
100
AcDbXrecord
280
     1
  0
DICTIONARY
  5
3291
330
1E
100
AcDbDictionary
280
     1
281
     1
  3
ACAD_XREC_ROUNDTRIP
360
3292
  0
DICTIONARY
  5
3295
330
26
100
AcDbDictionary
280
     1
281
     1
  3
ACAD_XREC_ROUNDTRIP
360
3296
  0
DICTIONARY
  5
3293
330
22
100
AcDbDictionary
280
     1
281
     1
  3
ACAD_XREC_ROUNDTRIP
360
3294
  0
DICTIONARY
  5
1073
330
1072
100
AcDbDictionary
280
     1
281
     1
  3
ACAD_XREC_ROUNDTRIP
360
3299
  3
BUMPTILE
360
1075
  3
DIFFUSETILE
360
1074
  3
OPACITYTILE
360
1078
  3
REFLECTIONTILE
360
1077
  3
REFRACTIONTILE
360
1079
  3
SPECULARTILE
360
1076
  0
DICTIONARY
  5
106B
330
106A
100
AcDbDictionary
280
     1
281
     1
  3
ACAD_XREC_ROUNDTRIP
360
3298
  3
BUMPTILE
360
106D
  3
DIFFUSETILE
360
106C
  3
OPACITYTILE
360
1070
  3
REFLECTIONTILE
360
106F
  3
REFRACTIONTILE
360
1071
  3
SPECULARTILE
360
106E
  0
DICTIONARY
  5
107B
330
107A
100
AcDbDictionary
280
     1
281
     1
  3
ACAD_XREC_ROUNDTRIP
360
329A
  3
BUMPTILE
360
107D
  3
DIFFUSETILE
360
107C
  3
OPACITYTILE
360
1080
  3
REFLECTIONTILE
360
107F
  3
REFRACTIONTILE
360
1081
  3
SPECULARTILE
360
107E
  0
DICTIONARY
  5
2601
330
EE8
100
AcDbDictionary
280
     1
281
     1
  3
ACAD_ROUNDTRIP_2008_TABLESTYLE_CELLSTYLEMAP
360
328C
  3
ACAD_XREC_ROUNDTRIP
360
3297
  0
DICTIONARY
  5
32A5
330
1088
100
AcDbDictionary
280
     1
281
     1
  3
ACAD_XREC_ROUNDTRIP
360
32A6
  0
DICTIONARY
  5
32A9
330
108A
100
AcDbDictionary
280
     1
281
     1
  3
ACAD_XREC_ROUNDTRIP
360
32AA
  0
DICTIONARY
  5
32A7
330
1089
100
AcDbDictionary
280
     1
281
     1
  3
ACAD_XREC_ROUNDTRIP
360
32A8
  0
DICTIONARY
  5
32A3
330
1087
100
AcDbDictionary
280
     1
281
     1
  3
ACAD_XREC_ROUNDTRIP
360
32A4
  0
DICTIONARY
  5
32B1
330
108E
100
AcDbDictionary
280
     1
281
     1
  3
ACAD_XREC_ROUNDTRIP
360
32B2
  0
DICTIONARY
  5
32B9
330
1092
100
AcDbDictionary
280
     1
281
     1
  3
ACAD_XREC_ROUNDTRIP
360
32BA
  0
DICTIONARY
  5
32AB
330
108B
100
AcDbDictionary
280
     1
281
     1
  3
ACAD_XREC_ROUNDTRIP
360
32AC
  0
DICTIONARY
  5
32AF
330
108D
100
AcDbDictionary
280
     1
281
     1
  3
ACAD_XREC_ROUNDTRIP
360
32B0
  0
DICTIONARY
  5
32BF
330
1095
100
AcDbDictionary
280
     1
281
     1
  3
ACAD_XREC_ROUNDTRIP
360
32C0
  0
DICTIONARY
  5
32B7
330
1091
100
AcDbDictionary
280
     1
281
     1
  3
ACAD_XREC_ROUNDTRIP
360
32B8
  0
DICTIONARY
  5
329B
330
1083
100
AcDbDictionary
280
     1
281
     1
  3
ACAD_XREC_ROUNDTRIP
360
329C
  0
DICTIONARY
  5
329D
330
1084
100
AcDbDictionary
280
     1
281
     1
  3
ACAD_XREC_ROUNDTRIP
360
329E
  0
DICTIONARY
  5
329F
330
1085
100
AcDbDictionary
280
     1
281
     1
  3
ACAD_XREC_ROUNDTRIP
360
32A0
  0
DICTIONARY
  5
32A1
330
1086
100
AcDbDictionary
280
     1
281
     1
  3
ACAD_XREC_ROUNDTRIP
360
32A2
  0
DICTIONARY
  5
32BB
330
1093
100
AcDbDictionary
280
     1
281
     1
  3
ACAD_XREC_ROUNDTRIP
360
32BC
  0
DICTIONARY
  5
32B5
330
1090
100
AcDbDictionary
280
     1
281
     1
  3
ACAD_XREC_ROUNDTRIP
360
32B6
  0
DICTIONARY
  5
32BD
330
1094
100
AcDbDictionary
280
     1
281
     1
  3
ACAD_XREC_ROUNDTRIP
360
32BE
  0
DICTIONARY
  5
32AD
330
108C
100
AcDbDictionary
280
     1
281
     1
  3
ACAD_XREC_ROUNDTRIP
360
32AE
  0
DICTIONARY
  5
32B3
330
108F
100
AcDbDictionary
280
     1
281
     1
  3
ACAD_XREC_ROUNDTRIP
360
32B4
  0
XRECORD
  5
3292
102
{ACAD_REACTORS
330
3291
102
}
330
3291
100
AcDbXrecord
280
     1
102
SHADEPLOT
 70
     0
102
SHADEPLOTRESLEVEL
 70
     2
102
SHADEPLOTCUSTOMDPI
 70
   300
  0
XRECORD
  5
3296
102
{ACAD_REACTORS
330
3295
102
}
330
3295
100
AcDbXrecord
280
     1
102
SHADEPLOT
 70
     0
102
SHADEPLOTRESLEVEL
 70
     2
102
SHADEPLOTCUSTOMDPI
 70
   300
  0
XRECORD
  5
3294
102
{ACAD_REACTORS
330
3293
102
}
330
3293
100
AcDbXrecord
280
     1
102
SHADEPLOT
 70
     0
102
SHADEPLOTRESLEVEL
 70
     2
102
SHADEPLOTCUSTOMDPI
 70
   300
  0
XRECORD
  5
3299
102
{ACAD_REACTORS
330
1073
102
}
330
1073
100
AcDbXrecord
280
     1
102
MATERIAL
148
0.0
149
0.0
149
0.0
 93
        0
 94
      127
282
     0
 72
     0
 77
     0
171
     0
175
     0
179
     0
273
     0
  0
XRECORD
  5
1075
102
{ACAD_REACTORS
330
1073
102
}
330
1073
100
AcDbXrecord
280
     1
270
     1
271
     1
  0
XRECORD
  5
1074
102
{ACAD_REACTORS
330
1073
102
}
330
1073
100
AcDbXrecord
280
     1
270
     1
271
     1
  0
XRECORD
  5
1078
102
{ACAD_REACTORS
330
1073
102
}
330
1073
100
AcDbXrecord
280
     1
270
     1
271
     1
  0
XRECORD
  5
1077
102
{ACAD_REACTORS
330
1073
102
}
330
1073
100
AcDbXrecord
280
     1
270
     1
271
     1
  0
XRECORD
  5
1079
102
{ACAD_REACTORS
330
1073
102
}
330
1073
100
AcDbXrecord
280
     1
270
     1
271
     1
  0
XRECORD
  5
1076
102
{ACAD_REACTORS
330
1073
102
}
330
1073
100
AcDbXrecord
280
     1
270
     1
271
     1
  0
XRECORD
  5
3298
102
{ACAD_REACTORS
330
106B
102
}
330
106B
100
AcDbXrecord
280
     1
102
MATERIAL
148
0.0
149
0.0
149
0.0
 93
        0
 94
      127
282
     0
 72
     0
 77
     0
171
     0
175
     0
179
     0
273
     0
  0
XRECORD
  5
106D
102
{ACAD_REACTORS
330
106B
102
}
330
106B
100
AcDbXrecord
280
     1
270
     1
271
     1
  0
XRECORD
  5
106C
102
{ACAD_REACTORS
330
106B
102
}
330
106B
100
AcDbXrecord
280
     1
270
     1
271
     1
  0
XRECORD
  5
1070
102
{ACAD_REACTORS
330
106B
102
}
330
106B
100
AcDbXrecord
280
     1
270
     1
271
     1
  0
XRECORD
  5
106F
102
{ACAD_REACTORS
330
106B
102
}
330
106B
100
AcDbXrecord
280
     1
270
     1
271
     1
  0
XRECORD
  5
1071
102
{ACAD_REACTORS
330
106B
102
}
330
106B
100
AcDbXrecord
280
     1
270
     1
271
     1
  0
XRECORD
  5
106E
102
{ACAD_REACTORS
330
106B
102
}
330
106B
100
AcDbXrecord
280
     1
270
     1
271
     1
  0
XRECORD
  5
329A
102
{ACAD_REACTORS
330
107B
102
}
330
107B
100
AcDbXrecord
280
     1
102
MATERIAL
148
0.0
149
0.0
149
0.0
 93
        0
 94
      127
282
     0
 72
     0
 77
     0
171
     0
175
     0
179
     0
273
     0
  0
XRECORD
  5
107D
102
{ACAD_REACTORS
330
107B
102
}
330
107B
100
AcDbXrecord
280
     1
270
     1
271
     1
  0
XRECORD
  5
107C
102
{ACAD_REACTORS
330
107B
102
}
330
107B
100
AcDbXrecord
280
     1
270
     1
271
     1
  0
XRECORD
  5
1080
102
{ACAD_REACTORS
330
107B
102
}
330
107B
100
AcDbXrecord
280
     1
270
     1
271
     1
  0
XRECORD
  5
107F
102
{ACAD_REACTORS
330
107B
102
}
330
107B
100
AcDbXrecord
280
     1
270
     1
271
     1
  0
XRECORD
  5
1081
102
{ACAD_REACTORS
330
107B
102
}
330
107B
100
AcDbXrecord
280
     1
270
     1
271
     1
  0
XRECORD
  5
107E
102
{ACAD_REACTORS
330
107B
102
}
330
107B
100
AcDbXrecord
280
     1
270
     1
271
     1
  0
CELLSTYLEMAP
  5
328C
102
{ACAD_REACTORS
330
2601
102
}
330
2601
100
AcDbCellStyleMap
 90
        3
300
CELLSTYLE
  1
TABLEFORMAT_BEGIN
 90
        5
170
     1
 91
        0
 92
    32768
 62
   257
 93
        1
300
CONTENTFORMAT
  1
CONTENTFORMAT_BEGIN
 90
        0
 91
        0
 92
        4
 93
        0
300

 40
0.0
140
1.0
 94
        5
 62
     0
340
11
144
6.0
309
CONTENTFORMAT_END
171
     1
301
MARGIN
  1
CELLMARGIN_BEGIN
 40
1.5
 40
1.5
 40
1.5
 40
1.5
 40
0.18
 40
0.18
309
CELLMARGIN_END
 94
        6
 95
        1
302
GRIDFORMAT
  1
GRIDFORMAT_BEGIN
 90
        0
 91
        1
 62
     0
 92
       -2
340
0
 93
        0
 40
0.045
309
GRIDFORMAT_END
 95
        2
302
GRIDFORMAT
  1
GRIDFORMAT_BEGIN
 90
        0
 91
        1
 62
     0
 92
       -2
340
0
 93
        0
 40
0.045
309
GRIDFORMAT_END
 95
        4
302
GRIDFORMAT
  1
GRIDFORMAT_BEGIN
 90
        0
 91
        1
 62
     0
 92
       -2
340
0
 93
        0
 40
0.045
309
GRIDFORMAT_END
 95
        8
302
GRIDFORMAT
  1
GRIDFORMAT_BEGIN
 90
        0
 91
        1
 62
     0
 92
       -2
340
0
 93
        0
 40
0.045
309
GRIDFORMAT_END
 95
       16
302
GRIDFORMAT
  1
GRIDFORMAT_BEGIN
 90
        0
 91
        1
 62
     0
 92
       -2
340
0
 93
        0
 40
0.045
309
GRIDFORMAT_END
 95
       32
302
GRIDFORMAT
  1
GRIDFORMAT_BEGIN
 90
        0
 91
        1
 62
     0
 92
       -2
340
0
 93
        0
 40
0.045
309
GRIDFORMAT_END
309
TABLEFORMAT_END
  1
CELLSTYLE_BEGIN
 90
        1
 91
        1
300
_TITLE
309
CELLSTYLE_END
300
CELLSTYLE
  1
TABLEFORMAT_BEGIN
 90
        5
170
     1
 91
        0
 92
        0
 62
   257
 93
        1
300
CONTENTFORMAT
  1
CONTENTFORMAT_BEGIN
 90
        0
 91
        0
 92
        4
 93
        0
300

 40
0.0
140
1.0
 94
        5
 62
     0
340
11
144
4.5
309
CONTENTFORMAT_END
171
     1
301
MARGIN
  1
CELLMARGIN_BEGIN
 40
1.5
 40
1.5
 40
1.5
 40
1.5
 40
0.18
 40
0.18
309
CELLMARGIN_END
 94
        6
 95
        1
302
GRIDFORMAT
  1
GRIDFORMAT_BEGIN
 90
        0
 91
        1
 62
     0
 92
       -2
340
0
 93
        0
 40
0.045
309
GRIDFORMAT_END
 95
        2
302
GRIDFORMAT
  1
GRIDFORMAT_BEGIN
 90
        0
 91
        1
 62
     0
 92
       -2
340
0
 93
        0
 40
0.045
309
GRIDFORMAT_END
 95
        4
302
GRIDFORMAT
  1
GRIDFORMAT_BEGIN
 90
        0
 91
        1
 62
     0
 92
       -2
340
0
 93
        0
 40
0.045
309
GRIDFORMAT_END
 95
        8
302
GRIDFORMAT
  1
GRIDFORMAT_BEGIN
 90
        0
 91
        1
 62
     0
 92
       -2
340
0
 93
        0
 40
0.045
309
GRIDFORMAT_END
 95
       16
302
GRIDFORMAT
  1
GRIDFORMAT_BEGIN
 90
        0
 91
        1
 62
     0
 92
       -2
340
0
 93
        0
 40
0.045
309
GRIDFORMAT_END
 95
       32
302
GRIDFORMAT
  1
GRIDFORMAT_BEGIN
 90
        0
 91
        1
 62
     0
 92
       -2
340
0
 93
        0
 40
0.045
309
GRIDFORMAT_END
309
TABLEFORMAT_END
  1
CELLSTYLE_BEGIN
 90
        2
 91
        1
300
_HEADER
309
CELLSTYLE_END
300
CELLSTYLE
  1
TABLEFORMAT_BEGIN
 90
        5
170
     1
 91
        0
 92
        0
 62
   257
 93
        1
300
CONTENTFORMAT
  1
CONTENTFORMAT_BEGIN
 90
        0
 91
        0
 92
        4
 93
        0
300

 40
0.0
140
1.0
 94
        2
 62
     0
340
11
144
4.5
309
CONTENTFORMAT_END
171
     1
301
MARGIN
  1
CELLMARGIN_BEGIN
 40
1.5
 40
1.5
 40
1.5
 40
1.5
 40
0.18
 40
0.18
309
CELLMARGIN_END
 94
        6
 95
        1
302
GRIDFORMAT
  1
GRIDFORMAT_BEGIN
 90
        0
 91
        1
 62
     0
 92
       -2
340
0
 93
        0
 40
0.045
309
GRIDFORMAT_END
 95
        2
302
GRIDFORMAT
  1
GRIDFORMAT_BEGIN
 90
        0
 91
        1
 62
     0
 92
       -2
340
0
 93
        0
 40
0.045
309
GRIDFORMAT_END
 95
        4
302
GRIDFORMAT
  1
GRIDFORMAT_BEGIN
 90
        0
 91
        1
 62
     0
 92
       -2
340
0
 93
        0
 40
0.045
309
GRIDFORMAT_END
 95
        8
302
GRIDFORMAT
  1
GRIDFORMAT_BEGIN
 90
        0
 91
        1
 62
     0
 92
       -2
340
0
 93
        0
 40
0.045
309
GRIDFORMAT_END
 95
       16
302
GRIDFORMAT
  1
GRIDFORMAT_BEGIN
 90
        0
 91
        1
 62
     0
 92
       -2
340
0
 93
        0
 40
0.045
309
GRIDFORMAT_END
 95
       32
302
GRIDFORMAT
  1
GRIDFORMAT_BEGIN
 90
        0
 91
        1
 62
     0
 92
       -2
340
0
 93
        0
 40
0.045
309
GRIDFORMAT_END
309
TABLEFORMAT_END
  1
CELLSTYLE_BEGIN
 90
        3
 91
        2
300
_DATA
309
CELLSTYLE_END
  0
XRECORD
  5
3297
102
{ACAD_REACTORS
330
2601
102
}
330
2601
100
AcDbXrecord
280
     1
102
ACAD_ROUNDTRIP_PRE2007_TABLESTYLE
 90
        4
 91
        0
  1

 92
        4
 93
        0
  2

 94
        4
 95
        0
  3

  0
XRECORD
  5
32A6
102
{ACAD_REACTORS
330
32A5
102
}
330
32A5
100
AcDbXrecord
280
     1
102
RTVSPropertyOp0
 70
     1
102
RTVSPropertyOp1
 70
     1
102
RTVSPropertyOp2
 70
     1
102
RTVSPropertyOp3
 70
     1
102
RTVSPropertyOp4
 70
     1
102
RTVSPropertyOp5
 70
     1
102
RTVSPropertyOp6
 70
     1
102
RTVSPropertyOp7
 70
     1
102
RTVSPropertyOp8
 70
     1
102
RTVSPropertyOp9
 70
     1
102
RTVSPropertyOp10
 70
     1
102
RTVSPropertyOp11
 70
     1
102
RTVSPropertyOp12
 70
     1
102
RTVSPropertyOp13
 70
     1
102
RTVSPropertyOp14
 70
     1
102
RTVSPropertyOp15
 70
     1
102
RTVSPropertyOp16
 70
     1
102
RTVSPropertyOp17
 70
     1
102
RTVSPropertyOp18
 70
     1
102
RTVSPropertyOp19
 70
     1
102
RTVSPropertyOp20
 70
     1
102
RTVSPropertyOp21
 70
     1
102
RTVSPropertyOp22
 70
     1
102
RTVSPropertyOp23
 70
     1
102
RTVSPropertyOp24
 70
     1
102
RTVSPropertyOp25
 70
     1
102
RTVSPropertyOp26
 70
     1
102
RTVSPropertyOp27
 70
     1
  0
XRECORD
  5
32AA
102
{ACAD_REACTORS
330
32A9
102
}
330
32A9
100
AcDbXrecord
280
     1
102
RTVSPropertyOp0
 70
     1
102
RTVSPropertyOp1
 70
     1
102
RTVSPropertyOp2
 70
     1
102
RTVSPropertyOp3
 70
     1
102
RTVSPropertyOp4
 70
     1
102
RTVSPropertyOp5
 70
     1
102
RTVSPropertyOp6
 70
     1
102
RTVSPropertyOp7
 70
     1
102
RTVSPropertyOp8
 70
     1
102
RTVSPropertyOp9
 70
     1
102
RTVSPropertyOp10
 70
     1
102
RTVSPropertyOp11
 70
     1
102
RTVSPropertyOp12
 70
     1
102
RTVSPropertyOp13
 70
     1
102
RTVSPropertyOp14
 70
     1
102
RTVSPropertyOp15
 70
     1
102
RTVSPropertyOp16
 70
     1
102
RTVSPropertyOp17
 70
     1
102
RTVSPropertyOp18
 70
     1
102
RTVSPropertyOp19
 70
     1
102
RTVSPropertyOp20
 70
     1
102
RTVSPropertyOp21
 70
     1
102
RTVSPropertyOp22
 70
     1
102
RTVSPropertyOp23
 70
     1
102
RTVSPropertyOp24
 70
     1
102
RTVSPropertyOp25
 70
     1
102
RTVSPropertyOp26
 70
     1
102
RTVSPropertyOp27
 70
     1
  0
XRECORD
  5
32A8
102
{ACAD_REACTORS
330
32A7
102
}
330
32A7
100
AcDbXrecord
280
     1
102
RTVSPropertyOp0
 70
     1
102
RTVSPropertyOp1
 70
     1
102
RTVSPropertyOp2
 70
     1
102
RTVSPropertyOp3
 70
     1
102
RTVSPropertyOp4
 70
     1
102
RTVSPropertyOp5
 70
     1
102
RTVSPropertyOp6
 70
     1
102
RTVSPropertyOp7
 70
     1
102
RTVSPropertyOp8
 70
     1
102
RTVSPropertyOp9
 70
     1
102
RTVSPropertyOp10
 70
     1
102
RTVSPropertyOp11
 70
     1
102
RTVSPropertyOp12
 70
     1
102
RTVSPropertyOp13
 70
     1
102
RTVSPropertyOp14
 70
     1
102
RTVSPropertyOp15
 70
     1
102
RTVSPropertyOp16
 70
     1
102
RTVSPropertyOp17
 70
     1
102
RTVSPropertyOp18
 70
     1
102
RTVSPropertyOp19
 70
     1
102
RTVSPropertyOp20
 70
     1
102
RTVSPropertyOp21
 70
     1
102
RTVSPropertyOp22
 70
     1
102
RTVSPropertyOp23
 70
     1
102
RTVSPropertyOp24
 70
     1
102
RTVSPropertyOp25
 70
     1
102
RTVSPropertyOp26
 70
     1
102
RTVSPropertyOp27
 70
     1
  0
XRECORD
  5
32A4
102
{ACAD_REACTORS
330
32A3
102
}
330
32A3
100
AcDbXrecord
280
     1
102
RTVSPropertyOp0
 70
     1
102
RTVSPropertyOp1
 70
     1
102
RTVSPropertyOp2
 70
     1
102
RTVSPropertyOp3
 70
     1
102
RTVSPropertyOp4
 70
     1
102
RTVSPropertyOp5
 70
     1
102
RTVSPropertyOp6
 70
     1
102
RTVSPropertyOp7
 70
     1
102
RTVSPropertyOp8
 70
     1
102
RTVSPropertyOp9
 70
     1
102
RTVSPropertyOp10
 70
     1
102
RTVSPropertyOp11
 70
     1
102
RTVSPropertyOp12
 70
     1
102
RTVSPropertyOp13
 70
     1
102
RTVSPropertyOp14
 70
     1
102
RTVSPropertyOp15
 70
     1
102
RTVSPropertyOp16
 70
     1
102
RTVSPropertyOp17
 70
     1
102
RTVSPropertyOp18
 70
     1
102
RTVSPropertyOp19
 70
     1
102
RTVSPropertyOp20
 70
     1
102
RTVSPropertyOp21
 70
     1
102
RTVSPropertyOp22
 70
     1
102
RTVSPropertyOp23
 70
     1
102
RTVSPropertyOp24
 70
     1
102
RTVSPropertyOp25
 70
     1
102
RTVSPropertyOp26
 70
     1
102
RTVSPropertyOp27
 70
     1
  0
XRECORD
  5
32B2
102
{ACAD_REACTORS
330
32B1
102
}
330
32B1
100
AcDbXrecord
280
     1
102
RTVSPropertyOp0
 70
     1
102
RTVSPropertyOp1
 70
     1
102
RTVSPropertyOp2
 70
     1
102
RTVSPropertyOp3
 70
     1
102
RTVSPropertyOp4
 70
     1
102
RTVSPropertyOp5
 70
     1
102
RTVSPropertyOp6
 70
     1
102
RTVSPropertyOp7
 70
     1
102
RTVSPropertyOp8
 70
     1
102
RTVSPropertyOp9
 70
     1
102
RTVSPropertyOp10
 70
     1
102
RTVSPropertyOp11
 70
     1
102
RTVSPropertyOp12
 70
     1
102
RTVSPropertyOp13
 70
     1
102
RTVSPropertyOp14
 70
     1
102
RTVSPropertyOp15
 70
     1
102
RTVSPropertyOp16
 70
     1
102
RTVSPropertyOp17
 70
     1
102
RTVSPropertyOp18
 70
     1
102
RTVSPropertyOp19
 70
     1
102
RTVSPropertyOp20
 70
     1
102
RTVSPropertyOp21
 70
     1
102
RTVSPropertyOp22
 70
     1
102
RTVSPropertyOp23
 70
     1
102
RTVSPropertyOp24
 70
     1
102
RTVSPropertyOp25
 70
     1
102
RTVSPropertyOp26
 70
     1
102
RTVSPropertyOp27
 70
     1
  0
XRECORD
  5
32BA
102
{ACAD_REACTORS
330
32B9
102
}
330
32B9
100
AcDbXrecord
280
     1
102
RTVSPropertyOp0
 70
     1
102
RTVSPropertyOp1
 70
     1
102
RTVSPropertyOp2
 70
     1
102
RTVSPropertyOp3
 70
     1
102
RTVSPropertyOp4
 70
     1
102
RTVSPropertyOp5
 70
     1
102
RTVSPropertyOp6
 70
     1
102
RTVSPropertyOp7
 70
     1
102
RTVSPropertyOp8
 70
     1
102
RTVSPropertyOp9
 70
     1
102
RTVSPropertyOp10
 70
     1
102
RTVSPropertyOp11
 70
     1
102
RTVSPropertyOp12
 70
     1
102
RTVSPropertyOp13
 70
     1
102
RTVSPropertyOp14
 70
     1
102
RTVSPropertyOp15
 70
     1
102
RTVSPropertyOp16
 70
     1
102
RTVSPropertyOp17
 70
     1
102
RTVSPropertyOp18
 70
     1
102
RTVSPropertyOp19
 70
     1
102
RTVSPropertyOp20
 70
     1
102
RTVSPropertyOp21
 70
     1
102
RTVSPropertyOp22
 70
     1
102
RTVSPropertyOp23
 70
     1
102
RTVSPropertyOp24
 70
     1
102
RTVSPropertyOp25
 70
     1
102
RTVSPropertyOp26
 70
     1
102
RTVSPropertyOp27
 70
     1
  0
XRECORD
  5
32AC
102
{ACAD_REACTORS
330
32AB
102
}
330
32AB
100
AcDbXrecord
280
     1
102
RTVSPropertyOp0
 70
     1
102
RTVSPropertyOp1
 70
     1
102
RTVSPropertyOp2
 70
     1
102
RTVSPropertyOp3
 70
     1
102
RTVSPropertyOp4
 70
     1
102
RTVSPropertyOp5
 70
     1
102
RTVSPropertyOp6
 70
     1
102
RTVSPropertyOp7
 70
     1
102
RTVSPropertyOp8
 70
     1
102
RTVSPropertyOp9
 70
     1
102
RTVSPropertyOp10
 70
     1
102
RTVSPropertyOp11
 70
     1
102
RTVSPropertyOp12
 70
     1
102
RTVSPropertyOp13
 70
     1
102
RTVSPropertyOp14
 70
     1
102
RTVSPropertyOp15
 70
     1
102
RTVSPropertyOp16
 70
     1
102
RTVSPropertyOp17
 70
     1
102
RTVSPropertyOp18
 70
     1
102
RTVSPropertyOp19
 70
     1
102
RTVSPropertyOp20
 70
     1
102
RTVSPropertyOp21
 70
     1
102
RTVSPropertyOp22
 70
     1
102
RTVSPropertyOp23
 70
     1
102
RTVSPropertyOp24
 70
     1
102
RTVSPropertyOp25
 70
     1
102
RTVSPropertyOp26
 70
     1
102
RTVSPropertyOp27
 70
     1
  0
XRECORD
  5
32B0
102
{ACAD_REACTORS
330
32AF
102
}
330
32AF
100
AcDbXrecord
280
     1
102
RTVSPropertyOp0
 70
     1
102
RTVSPropertyOp1
 70
     1
102
RTVSPropertyOp2
 70
     1
102
RTVSPropertyOp3
 70
     1
102
RTVSPropertyOp4
 70
     1
102
RTVSPropertyOp5
 70
     1
102
RTVSPropertyOp6
 70
     1
102
RTVSPropertyOp7
 70
     1
102
RTVSPropertyOp8
 70
     1
102
RTVSPropertyOp9
 70
     1
102
RTVSPropertyOp10
 70
     1
102
RTVSPropertyOp11
 70
     1
102
RTVSPropertyOp12
 70
     1
102
RTVSPropertyOp13
 70
     1
102
RTVSPropertyOp14
 70
     1
102
RTVSPropertyOp15
 70
     1
102
RTVSPropertyOp16
 70
     1
102
RTVSPropertyOp17
 70
     1
102
RTVSPropertyOp18
 70
     1
102
RTVSPropertyOp19
 70
     1
102
RTVSPropertyOp20
 70
     1
102
RTVSPropertyOp21
 70
     1
102
RTVSPropertyOp22
 70
     1
102
RTVSPropertyOp23
 70
     1
102
RTVSPropertyOp24
 70
     1
102
RTVSPropertyOp25
 70
     1
102
RTVSPropertyOp26
 70
     1
102
RTVSPropertyOp27
 70
     1
  0
XRECORD
  5
32C0
102
{ACAD_REACTORS
330
32BF
102
}
330
32BF
100
AcDbXrecord
280
     1
102
RTVSPropertyOp0
 70
     0
102
RTVSPropertyOp1
 70
     0
102
RTVSPropertyOp2
 70
     0
102
RTVSPropertyOp3
 70
     0
102
RTVSPropertyOp4
 70
     0
102
RTVSPropertyOp5
 70
     0
102
RTVSPropertyOp6
 70
     0
102
RTVSPropertyOp7
 70
     0
102
RTVSPropertyOp8
 70
     0
102
RTVSPropertyOp9
 70
     0
102
RTVSPropertyOp10
 70
     0
102
RTVSPropertyOp11
 70
     0
102
RTVSPropertyOp12
 70
     0
102
RTVSPropertyOp13
 70
     0
102
RTVSPropertyOp14
 70
     2
102
RTVSPropertyOp15
 70
     0
102
RTVSPropertyOp16
 70
     0
102
RTVSPropertyOp17
 70
     0
102
RTVSPropertyOp18
 70
     0
102
RTVSPropertyOp19
 70
     0
102
RTVSPropertyOp20
 70
     0
102
RTVSPropertyOp21
 70
     0
102
RTVSPropertyOp22
 70
     0
102
RTVSPropertyOp23
 70
     0
102
RTVSPropertyOp24
 70
     0
102
RTVSPropertyOp25
 70
     0
102
RTVSPropertyOp26
 70
     0
102
RTVSPropertyOp27
 70
     0
  0
XRECORD
  5
32B8
102
{ACAD_REACTORS
330
32B7
102
}
330
32B7
100
AcDbXrecord
280
     1
102
RTVSPropertyOp0
 70
     1
102
RTVSPropertyOp1
 70
     1
102
RTVSPropertyOp2
 70
     1
102
RTVSPropertyOp3
 70
     1
102
RTVSPropertyOp4
 70
     1
102
RTVSPropertyOp5
 70
     1
102
RTVSPropertyOp6
 70
     1
102
RTVSPropertyOp7
 70
     1
102
RTVSPropertyOp8
 70
     1
102
RTVSPropertyOp9
 70
     1
102
RTVSPropertyOp10
 70
     1
102
RTVSPropertyOp11
 70
     1
102
RTVSPropertyOp12
 70
     1
102
RTVSPropertyOp13
 70
     1
102
RTVSPropertyOp14
 70
     1
102
RTVSPropertyOp15
 70
     1
102
RTVSPropertyOp16
 70
     1
102
RTVSPropertyOp17
 70
     1
102
RTVSPropertyOp18
 70
     1
102
RTVSPropertyOp19
 70
     1
102
RTVSPropertyOp20
 70
     1
102
RTVSPropertyOp21
 70
     1
102
RTVSPropertyOp22
 70
     1
102
RTVSPropertyOp23
 70
     1
102
RTVSPropertyOp24
 70
     1
102
RTVSPropertyOp25
 70
     1
102
RTVSPropertyOp26
 70
     1
102
RTVSPropertyOp27
 70
     1
  0
XRECORD
  5
329C
102
{ACAD_REACTORS
330
329B
102
}
330
329B
100
AcDbXrecord
280
     1
102
RTVSPropertyOp0
 70
     1
102
RTVSPropertyOp1
 70
     1
102
RTVSPropertyOp2
 70
     1
102
RTVSPropertyOp3
 70
     1
102
RTVSPropertyOp4
 70
     1
102
RTVSPropertyOp5
 70
     1
102
RTVSPropertyOp6
 70
     1
102
RTVSPropertyOp7
 70
     1
102
RTVSPropertyOp8
 70
     1
102
RTVSPropertyOp9
 70
     1
102
RTVSPropertyOp10
 70
     1
102
RTVSPropertyOp11
 70
     1
102
RTVSPropertyOp12
 70
     1
102
RTVSPropertyOp13
 70
     1
102
RTVSPropertyOp14
 70
     1
102
RTVSPropertyOp15
 70
     1
102
RTVSPropertyOp16
 70
     1
102
RTVSPropertyOp17
 70
     1
102
RTVSPropertyOp18
 70
     1
102
RTVSPropertyOp19
 70
     1
102
RTVSPropertyOp20
 70
     1
102
RTVSPropertyOp21
 70
     1
102
RTVSPropertyOp22
 70
     1
102
RTVSPropertyOp23
 70
     1
102
RTVSPropertyOp24
 70
     1
102
RTVSPropertyOp25
 70
     1
102
RTVSPropertyOp26
 70
     1
102
RTVSPropertyOp27
 70
     1
  0
XRECORD
  5
329E
102
{ACAD_REACTORS
330
329D
102
}
330
329D
100
AcDbXrecord
280
     1
102
RTVSPropertyOp0
 70
     1
102
RTVSPropertyOp1
 70
     1
102
RTVSPropertyOp2
 70
     1
102
RTVSPropertyOp3
 70
     1
102
RTVSPropertyOp4
 70
     1
102
RTVSPropertyOp5
 70
     1
102
RTVSPropertyOp6
 70
     1
102
RTVSPropertyOp7
 70
     1
102
RTVSPropertyOp8
 70
     1
102
RTVSPropertyOp9
 70
     1
102
RTVSPropertyOp10
 70
     1
102
RTVSPropertyOp11
 70
     1
102
RTVSPropertyOp12
 70
     1
102
RTVSPropertyOp13
 70
     1
102
RTVSPropertyOp14
 70
     1
102
RTVSPropertyOp15
 70
     1
102
RTVSPropertyOp16
 70
     1
102
RTVSPropertyOp17
 70
     1
102
RTVSPropertyOp18
 70
     1
102
RTVSPropertyOp19
 70
     1
102
RTVSPropertyOp20
 70
     1
102
RTVSPropertyOp21
 70
     1
102
RTVSPropertyOp22
 70
     1
102
RTVSPropertyOp23
 70
     1
102
RTVSPropertyOp24
 70
     1
102
RTVSPropertyOp25
 70
     1
102
RTVSPropertyOp26
 70
     1
102
RTVSPropertyOp27
 70
     1
  0
XRECORD
  5
32A0
102
{ACAD_REACTORS
330
329F
102
}
330
329F
100
AcDbXrecord
280
     1
102
RTVSPropertyOp0
 70
     1
102
RTVSPropertyOp1
 70
     1
102
RTVSPropertyOp2
 70
     1
102
RTVSPropertyOp3
 70
     1
102
RTVSPropertyOp4
 70
     1
102
RTVSPropertyOp5
 70
     1
102
RTVSPropertyOp6
 70
     1
102
RTVSPropertyOp7
 70
     1
102
RTVSPropertyOp8
 70
     1
102
RTVSPropertyOp9
 70
     1
102
RTVSPropertyOp10
 70
     1
102
RTVSPropertyOp11
 70
     1
102
RTVSPropertyOp12
 70
     1
102
RTVSPropertyOp13
 70
     1
102
RTVSPropertyOp14
 70
     1
102
RTVSPropertyOp15
 70
     1
102
RTVSPropertyOp16
 70
     1
102
RTVSPropertyOp17
 70
     1
102
RTVSPropertyOp18
 70
     1
102
RTVSPropertyOp19
 70
     1
102
RTVSPropertyOp20
 70
     1
102
RTVSPropertyOp21
 70
     1
102
RTVSPropertyOp22
 70
     1
102
RTVSPropertyOp23
 70
     1
102
RTVSPropertyOp24
 70
     1
102
RTVSPropertyOp25
 70
     1
102
RTVSPropertyOp26
 70
     1
102
RTVSPropertyOp27
 70
     1
  0
XRECORD
  5
32A2
102
{ACAD_REACTORS
330
32A1
102
}
330
32A1
100
AcDbXrecord
280
     1
102
RTVSPropertyOp0
 70
     1
102
RTVSPropertyOp1
 70
     1
102
RTVSPropertyOp2
 70
     1
102
RTVSPropertyOp3
 70
     1
102
RTVSPropertyOp4
 70
     1
102
RTVSPropertyOp5
 70
     1
102
RTVSPropertyOp6
 70
     1
102
RTVSPropertyOp7
 70
     1
102
RTVSPropertyOp8
 70
     1
102
RTVSPropertyOp9
 70
     1
102
RTVSPropertyOp10
 70
     1
102
RTVSPropertyOp11
 70
     1
102
RTVSPropertyOp12
 70
     1
102
RTVSPropertyOp13
 70
     1
102
RTVSPropertyOp14
 70
     1
102
RTVSPropertyOp15
 70
     1
102
RTVSPropertyOp16
 70
     1
102
RTVSPropertyOp17
 70
     1
102
RTVSPropertyOp18
 70
     1
102
RTVSPropertyOp19
 70
     1
102
RTVSPropertyOp20
 70
     1
102
RTVSPropertyOp21
 70
     1
102
RTVSPropertyOp22
 70
     1
102
RTVSPropertyOp23
 70
     1
102
RTVSPropertyOp24
 70
     1
102
RTVSPropertyOp25
 70
     1
102
RTVSPropertyOp26
 70
     1
102
RTVSPropertyOp27
 70
     1
  0
XRECORD
  5
32BC
102
{ACAD_REACTORS
330
32BB
102
}
330
32BB
100
AcDbXrecord
280
     1
102
RTVSPropertyOp0
 70
     0
102
RTVSPropertyOp1
 70
     0
102
RTVSPropertyOp2
 70
     0
102
RTVSPropertyOp3
 70
     0
102
RTVSPropertyOp4
 70
     0
102
RTVSPropertyOp5
 70
     0
102
RTVSPropertyOp6
 70
     0
102
RTVSPropertyOp7
 70
     0
102
RTVSPropertyOp8
 70
     0
102
RTVSPropertyOp9
 70
     0
102
RTVSPropertyOp10
 70
     0
102
RTVSPropertyOp11
 70
     0
102
RTVSPropertyOp12
 70
     0
102
RTVSPropertyOp13
 70
     0
102
RTVSPropertyOp14
 70
     2
102
RTVSPropertyOp15
 70
     0
102
RTVSPropertyOp16
 70
     0
102
RTVSPropertyOp17
 70
     0
102
RTVSPropertyOp18
 70
     0
102
RTVSPropertyOp19
 70
     0
102
RTVSPropertyOp20
 70
     0
102
RTVSPropertyOp21
 70
     0
102
RTVSPropertyOp22
 70
     0
102
RTVSPropertyOp23
 70
     0
102
RTVSPropertyOp24
 70
     0
102
RTVSPropertyOp25
 70
     0
102
RTVSPropertyOp26
 70
     0
102
RTVSPropertyOp27
 70
     0
  0
XRECORD
  5
32B6
102
{ACAD_REACTORS
330
32B5
102
}
330
32B5
100
AcDbXrecord
280
     1
102
RTVSPropertyOp0
 70
     1
102
RTVSPropertyOp1
 70
     1
102
RTVSPropertyOp2
 70
     1
102
RTVSPropertyOp3
 70
     1
102
RTVSPropertyOp4
 70
     1
102
RTVSPropertyOp5
 70
     1
102
RTVSPropertyOp6
 70
     1
102
RTVSPropertyOp7
 70
     1
102
RTVSPropertyOp8
 70
     1
102
RTVSPropertyOp9
 70
     1
102
RTVSPropertyOp10
 70
     1
102
RTVSPropertyOp11
 70
     1
102
RTVSPropertyOp12
 70
     1
102
RTVSPropertyOp13
 70
     1
102
RTVSPropertyOp14
 70
     1
102
RTVSPropertyOp15
 70
     1
102
RTVSPropertyOp16
 70
     1
102
RTVSPropertyOp17
 70
     1
102
RTVSPropertyOp18
 70
     1
102
RTVSPropertyOp19
 70
     1
102
RTVSPropertyOp20
 70
     1
102
RTVSPropertyOp21
 70
     1
102
RTVSPropertyOp22
 70
     1
102
RTVSPropertyOp23
 70
     1
102
RTVSPropertyOp24
 70
     1
102
RTVSPropertyOp25
 70
     1
102
RTVSPropertyOp26
 70
     1
102
RTVSPropertyOp27
 70
     1
  0
XRECORD
  5
32BE
102
{ACAD_REACTORS
330
32BD
102
}
330
32BD
100
AcDbXrecord
280
     1
102
RTVSPropertyOp0
 70
     0
102
RTVSPropertyOp1
 70
     0
102
RTVSPropertyOp2
 70
     0
102
RTVSPropertyOp3
 70
     0
102
RTVSPropertyOp4
 70
     0
102
RTVSPropertyOp5
 70
     0
102
RTVSPropertyOp6
 70
     0
102
RTVSPropertyOp7
 70
     0
102
RTVSPropertyOp8
 70
     0
102
RTVSPropertyOp9
 70
     0
102
RTVSPropertyOp10
 70
     0
102
RTVSPropertyOp11
 70
     0
102
RTVSPropertyOp12
 70
     0
102
RTVSPropertyOp13
 70
     0
102
RTVSPropertyOp14
 70
     2
102
RTVSPropertyOp15
 70
     0
102
RTVSPropertyOp16
 70
     0
102
RTVSPropertyOp17
 70
     0
102
RTVSPropertyOp18
 70
     0
102
RTVSPropertyOp19
 70
     0
102
RTVSPropertyOp20
 70
     0
102
RTVSPropertyOp21
 70
     0
102
RTVSPropertyOp22
 70
     0
102
RTVSPropertyOp23
 70
     0
102
RTVSPropertyOp24
 70
     0
102
RTVSPropertyOp25
 70
     0
102
RTVSPropertyOp26
 70
     0
102
RTVSPropertyOp27
 70
     0
  0
XRECORD
  5
32AE
102
{ACAD_REACTORS
330
32AD
102
}
330
32AD
100
AcDbXrecord
280
     1
102
RTVSPropertyOp0
 70
     1
102
RTVSPropertyOp1
 70
     1
102
RTVSPropertyOp2
 70
     1
102
RTVSPropertyOp3
 70
     1
102
RTVSPropertyOp4
 70
     1
102
RTVSPropertyOp5
 70
     1
102
RTVSPropertyOp6
 70
     1
102
RTVSPropertyOp7
 70
     1
102
RTVSPropertyOp8
 70
     1
102
RTVSPropertyOp9
 70
     1
102
RTVSPropertyOp10
 70
     1
102
RTVSPropertyOp11
 70
     1
102
RTVSPropertyOp12
 70
     1
102
RTVSPropertyOp13
 70
     1
102
RTVSPropertyOp14
 70
     1
102
RTVSPropertyOp15
 70
     1
102
RTVSPropertyOp16
 70
     1
102
RTVSPropertyOp17
 70
     1
102
RTVSPropertyOp18
 70
     1
102
RTVSPropertyOp19
 70
     1
102
RTVSPropertyOp20
 70
     1
102
RTVSPropertyOp21
 70
     1
102
RTVSPropertyOp22
 70
     1
102
RTVSPropertyOp23
 70
     1
102
RTVSPropertyOp24
 70
     1
102
RTVSPropertyOp25
 70
     1
102
RTVSPropertyOp26
 70
     1
102
RTVSPropertyOp27
 70
     1
  0
XRECORD
  5
32B4
102
{ACAD_REACTORS
330
32B3
102
}
330
32B3
100
AcDbXrecord
280
     1
102
RTVSPropertyOp0
 70
     1
102
RTVSPropertyOp1
 70
     1
102
RTVSPropertyOp2
 70
     1
102
RTVSPropertyOp3
 70
     1
102
RTVSPropertyOp4
 70
     1
102
RTVSPropertyOp5
 70
     1
102
RTVSPropertyOp6
 70
     1
102
RTVSPropertyOp7
 70
     1
102
RTVSPropertyOp8
 70
     1
102
RTVSPropertyOp9
 70
     1
102
RTVSPropertyOp10
 70
     1
102
RTVSPropertyOp11
 70
     1
102
RTVSPropertyOp12
 70
     1
102
RTVSPropertyOp13
 70
     1
102
RTVSPropertyOp14
 70
     1
102
RTVSPropertyOp15
 70
     1
102
RTVSPropertyOp16
 70
     1
102
RTVSPropertyOp17
 70
     1
102
RTVSPropertyOp18
 70
     1
102
RTVSPropertyOp19
 70
     1
102
RTVSPropertyOp20
 70
     1
102
RTVSPropertyOp21
 70
     1
102
RTVSPropertyOp22
 70
     1
102
RTVSPropertyOp23
 70
     1
102
RTVSPropertyOp24
 70
     1
102
RTVSPropertyOp25
 70
     1
102
RTVSPropertyOp26
 70
     1
102
RTVSPropertyOp27
 70
     1
  0
ENDSEC
  0
EOF
