  0
SECTION
  2
HEADER
  9
$ACADVER
  1
AC1015
  9
$ACADMAINTVER
 70
    20
  9
$DWGCODEPAGE
  3
ANSI_1252
  9
$INSBASE
 10
0.0
 20
0.0
 30
0.0
  9
$EXTMIN
 10
4519.719876958971
 20
3037.35100080025
 30
0.0
  9
$EXTMAX
 10
4522.267515863517
 20
3038.273500800699
 30
0.0
  9
$LIMMIN
 10
0.0
 20
0.0
  9
$LIMMAX
 10
420.0
 20
297.0
  9
$ORTHOMODE
 70
     1
  9
$REGENMODE
 70
     1
  9
$FILLMODE
 70
     1
  9
$QTEXTMODE
 70
     0
  9
$MIRRTEXT
 70
     1
  9
$LTSCALE
 40
1.0
  9
$ATTMODE
 70
     1
  9
$TEXTSIZE
 40
2.5
  9
$TRACEWID
 40
1.0
  9
$TEXTSTYLE
  7
SANINDUSA
  9
$CLAYER
  8
0
  9
$CELTYPE
  6
ByLayer
  9
$CECOLOR
 62
   256
  9
$CELTSCALE
 40
1.0
  9
$DISPSILH
 70
     0
  9
$DIMSCALE
 40
10.0
  9
$DIMASZ
 40
2.0
  9
$DIMEXO
 40
1.0
  9
$DIMDLI
 40
1.0
  9
$DIMRND
 40
0.0
  9
$DIMDLE
 40
0.0
  9
$DIMEXE
 40
1.0
  9
$DIMTP
 40
0.0
  9
$DIMTM
 40
0.0
  9
$DIMTXT
 40
2.0
  9
$DIMCEN
 40
0.0
  9
$DIMTSZ
 40
0.0
  9
$DIMTOL
 70
     0
  9
$DIMLIM
 70
     0
  9
$DIMTIH
 70
     0
  9
$DIMTOH
 70
     0
  9
$DIMSE1
 70
     0
  9
$DIMSE2
 70
     0
  9
$DIMTAD
 70
     1
  9
$DIMZIN
 70
     8
  9
$DIMBLK
  1

  9
$DIMASO
 70
     1
  9
$DIMSHO
 70
     1
  9
$DIMPOST
  1

  9
$DIMAPOST
  1

  9
$DIMALT
 70
     0
  9
$DIMALTD
 70
     3
  9
$DIMALTF
 40
0.03937007874016
  9
$DIMLFAC
 40
1.0
  9
$DIMTOFL
 70
     1
  9
$DIMTVP
 40
0.0
  9
$DIMTIX
 70
     0
  9
$DIMSOXD
 70
     0
  9
$DIMSAH
 70
     0
  9
$DIMBLK1
  1

  9
$DIMBLK2
  1

  9
$DIMSTYLE
  2
SANINDUSA
  9
$DIMCLRD
 70
   256
  9
$DIMCLRE
 70
   256
  9
$DIMCLRT
 70
   256
  9
$DIMTFAC
 40
1.0
  9
$DIMGAP
 40
1.0
  9
$DIMJUST
 70
     0
  9
$DIMSD1
 70
     0
  9
$DIMSD2
 70
     0
  9
$DIMTOLJ
 70
     0
  9
$DIMTZIN
 70
     8
  9
$DIMALTZ
 70
     0
  9
$DIMALTTZ
 70
     0
  9
$DIMUPT
 70
     0
  9
$DIMDEC
 70
     0
  9
$DIMTDEC
 70
     0
  9
$DIMALTU
 70
     2
  9
$DIMALTTD
 70
     3
  9
$DIMTXSTY
  7
SANINDUSA
  9
$DIMAUNIT
 70
     0
  9
$DIMADEC
 70
     1
  9
$DIMALTRND
 40
0.0
  9
$DIMAZIN
 70
     0
  9
$DIMDSEP
 70
    44
  9
$DIMATFIT
 70
     3
  9
$DIMFRAC
 70
     0
  9
$DIMLDRBLK
  1

  9
$DIMLUNIT
 70
     2
  9
$DIMLWD
 70
    -1
  9
$DIMLWE
 70
    -1
  9
$DIMTMOVE
 70
     0
  9
$LUNITS
 70
     2
  9
$LUPREC
 70
     4
  9
$SKETCHINC
 40
1.0
  9
$FILLETRAD
 40
0.0
  9
$AUNITS
 70
     0
  9
$AUPREC
 70
     0
  9
$MENU
  1
.
  9
$ELEVATION
 40
0.0
  9
$PELEVATION
 40
0.0
  9
$THICKNESS
 40
0.0
  9
$LIMCHECK
 70
     0
  9
$CHAMFERA
 40
10.0
  9
$CHAMFERB
 40
10.0
  9
$CHAMFERC
 40
20.0
  9
$CHAMFERD
 40
0.0
  9
$SKPOLY
 70
     0
  9
$TDCREATE
 40
2455097.494448241
  9
$TDUCREATE
 40
2455097.452781574
  9
$TDUPDATE
 40
2456111.685559896
  9
$TDUUPDATE
 40
2456111.643893229
  9
$TDINDWG
 40
0.0261317130
  9
$TDUSRTIMER
 40
0.0261315278
  9
$USRTIMER
 70
     1
  9
$ANGBASE
 50
0.0
  9
$ANGDIR
 70
     0
  9
$PDMODE
 70
     0
  9
$PDSIZE
 40
0.0
  9
$PLINEWID
 40
0.0
  9
$SPLFRAME
 70
     0
  9
$SPLINETYPE
 70
     6
  9
$SPLINESEGS
 70
     8
  9
$HANDSEED
  5
1E62
  9
$SURFTAB1
 70
     6
  9
$SURFTAB2
 70
     6
  9
$SURFTYPE
 70
     6
  9
$SURFU
 70
     6
  9
$SURFV
 70
     6
  9
$UCSBASE
  2

  9
$UCSNAME
  2

  9
$UCSORG
 10
0.0
 20
0.0
 30
0.0
  9
$UCSXDIR
 10
1.0
 20
0.0
 30
0.0
  9
$UCSYDIR
 10
0.0
 20
1.0
 30
0.0
  9
$UCSORTHOREF
  2

  9
$UCSORTHOVIEW
 70
     0
  9
$UCSORGTOP
 10
0.0
 20
0.0
 30
0.0
  9
$UCSORGBOTTOM
 10
0.0
 20
0.0
 30
0.0
  9
$UCSORGLEFT
 10
0.0
 20
0.0
 30
0.0
  9
$UCSORGRIGHT
 10
0.0
 20
0.0
 30
0.0
  9
$UCSORGFRONT
 10
0.0
 20
0.0
 30
0.0
  9
$UCSORGBACK
 10
0.0
 20
0.0
 30
0.0
  9
$PUCSBASE
  2

  9
$PUCSNAME
  2

  9
$PUCSORG
 10
0.0
 20
0.0
 30
0.0
  9
$PUCSXDIR
 10
1.0
 20
0.0
 30
0.0
  9
$PUCSYDIR
 10
0.0
 20
1.0
 30
0.0
  9
$PUCSORTHOREF
  2

  9
$PUCSORTHOVIEW
 70
     0
  9
$PUCSORGTOP
 10
0.0
 20
0.0
 30
0.0
  9
$PUCSORGBOTTOM
 10
0.0
 20
0.0
 30
0.0
  9
$PUCSORGLEFT
 10
0.0
 20
0.0
 30
0.0
  9
$PUCSORGRIGHT
 10
0.0
 20
0.0
 30
0.0
  9
$PUCSORGFRONT
 10
0.0
 20
0.0
 30
0.0
  9
$PUCSORGBACK
 10
0.0
 20
0.0
 30
0.0
  9
$USERI1
 70
     0
  9
$USERI2
 70
     0
  9
$USERI3
 70
     0
  9
$USERI4
 70
     0
  9
$USERI5
 70
     0
  9
$USERR1
 40
0.0
  9
$USERR2
 40
0.0
  9
$USERR3
 40
0.0
  9
$USERR4
 40
0.0
  9
$USERR5
 40
0.0
  9
$WORLDVIEW
 70
     1
  9
$SHADEDGE
 70
     3
  9
$SHADEDIF
 70
    70
  9
$TILEMODE
 70
     1
  9
$MAXACTVP
 70
    64
  9
$PINSBASE
 10
0.0
 20
0.0
 30
0.0
  9
$PLIMCHECK
 70
     0
  9
$PEXTMIN
 10
1.000000000000000E+20
 20
1.000000000000000E+20
 30
1.000000000000000E+20
  9
$PEXTMAX
 10
-1.000000000000000E+20
 20
-1.000000000000000E+20
 30
-1.000000000000000E+20
  9
$PLIMMIN
 10
0.0
 20
0.0
  9
$PLIMMAX
 10
420.0
 20
297.0
  9
$UNITMODE
 70
     0
  9
$VISRETAIN
 70
     1
  9
$PLINEGEN
 70
     0
  9
$PSLTSCALE
 70
     1
  9
$TREEDEPTH
 70
  3020
  9
$CMLSTYLE
  2
Standard
  9
$CMLJUST
 70
     0
  9
$CMLSCALE
 40
20.0
  9
$PROXYGRAPHICS
 70
     1
  9
$MEASUREMENT
 70
     1
  9
$CELWEIGHT
370
    -1
  9
$ENDCAPS
280
     0
  9
$JOINSTYLE
280
     0
  9
$LWDISPLAY
290
     0
  9
$INSUNITS
 70
     4
  9
$HYPERLINKBASE
  1

  9
$STYLESHEET
  1
sanindusa.ctb
  9
$XEDIT
290
     1
  9
$CEPSNTYPE
380
     0
  9
$PSTYLEMODE
290
     1
  9
$FINGERPRINTGUID
  2
{F42CDC90-47AE-4185-AC88-6257AFB7AD4A}
  9
$VERSIONGUID
  2
{98B56982-0001-4C84-B6D9-C81B5F666343}
  9
$EXTNAMES
290
     1
  9
$PSVPSCALE
 40
0.0
  9
$OLESTARTUP
290
     0
  0
ENDSEC
  0
SECTION
  2
CLASSES
  0
CLASS
  1
ACDBDICTIONARYWDFLT
  2
AcDbDictionaryWithDefault
  3
ObjectDBX Classes
 90
        0
280
     0
281
     0
  0
CLASS
  1
ACDBPLACEHOLDER
  2
AcDbPlaceHolder
  3
ObjectDBX Classes
 90
        0
280
     0
281
     0
  0
CLASS
  1
LAYOUT
  2
AcDbLayout
  3
ObjectDBX Classes
 90
        0
280
     0
281
     0
  0
CLASS
  1
DICTIONARYVAR
  2
AcDbDictionaryVar
  3
ObjectDBX Classes
 90
        0
280
     0
281
     0
  0
CLASS
  1
DIMASSOC
  2
AcDbDimAssoc
  3
"AcDbDimAssoc|Product Desc:     AcDim ARX App For Dimension|Company:          Autodesk, Inc.|WEB Address:      www.autodesk.com"
 90
    32768
280
     0
281
     0
  0
CLASS
  1
TABLESTYLE
  2
AcDbTableStyle
  3
ObjectDBX Classes
 90
     4095
280
     0
281
     0
  0
CLASS
  1
MATERIAL
  2
AcDbMaterial
  3
ObjectDBX Classes
 90
     1153
280
     0
281
     0
  0
CLASS
  1
VISUALSTYLE
  2
AcDbVisualStyle
  3
ObjectDBX Classes
 90
     4095
280
     0
281
     0
  0
CLASS
  1
SCALE
  2
AcDbScale
  3
ObjectDBX Classes
 90
     1153
280
     0
281
     0
  0
CLASS
  1
MLEADERSTYLE
  2
AcDbMLeaderStyle
  3
ACDB_MLEADERSTYLE_CLASS
 90
     4095
280
     0
281
     0
  0
CLASS
  1
SORTENTSTABLE
  2
AcDbSortentsTable
  3
ObjectDBX Classes
 90
    32768
280
     0
281
     0
  0
CLASS
  1
AEC_REFEDIT_STATUS_TRACKER
  2
AecDbRefEditStatusTracker
  3
AecArchBase60|Product Desc: Autodesk Architectural Desktop 2007 |Company: Autodesk,Inc. |WEB Address: www.autodesk.com
 90
      129
280
     0
281
     0
  0
CLASS
  1
NPOCOLLECTION
  2
AcDbImpNonPersistentObjectsCollection
  3
ObjectDBX Classes
 90
     1153
280
     0
281
     0
  0
CLASS
  1
CELLSTYLEMAP
  2
AcDbCellStyleMap
  3
ObjectDBX Classes
 90
     1152
280
     0
281
     0
  0
CLASS
  1
SOLID_BACKGROUND
  2
AcDbSolidBackground
  3
SCENEOE
 90
    36863
280
     0
281
     0
  0
ENDSEC
  0
SECTION
  2
TABLES
  0
TABLE
  2
VPORT
  5
8
102
{ACAD_XDICTIONARY
360
1B34
102
}
330
0
100
AcDbSymbolTable
 70
     1
  0
VPORT
  5
1068
330
8
100
AcDbSymbolTableRecord
100
AcDbViewportTableRecord
  2
*Active
 70
     0
 10
0.0
 20
0.0
 11
1.0
 21
1.0
 12
4520.993696411244
 22
3037.812250800474
 13
0.0
 23
0.0
 14
10.0
 24
10.0
 15
10.0
 25
10.0
 16
0.0
 26
0.0
 36
1.0
 17
0.0
 27
0.0
 37
0.0
 40
1.554160780870341
 41
1.645464025026068
 42
50.0
 43
0.0
 44
0.0
 50
0.0
 51
0.0
 71
     0
 72
   100
 73
     1
 74
     2
 75
     0
 76
     0
 77
     0
 78
     0
281
     0
 65
     1
110
0.0
120
0.0
130
0.0
111
1.0
121
0.0
131
0.0
112
0.0
122
1.0
132
0.0
 79
     0
146
0.0
  0
ENDTAB
  0
TABLE
  2
LTYPE
  5
5
330
0
100
AcDbSymbolTable
 70
     6
  0
LTYPE
  5
14
330
5
100
AcDbSymbolTableRecord
100
AcDbLinetypeTableRecord
  2
ByBlock
 70
     0
  3

 72
    65
 73
     0
 40
0.0
  0
LTYPE
  5
15
330
5
100
AcDbSymbolTableRecord
100
AcDbLinetypeTableRecord
  2
ByLayer
 70
     0
  3

 72
    65
 73
     0
 40
0.0
  0
LTYPE
  5
16
330
5
100
AcDbSymbolTableRecord
100
AcDbLinetypeTableRecord
  2
Continuous
 70
     0
  3
Solid line
 72
    65
 73
     0
 40
0.0
  0
LTYPE
  5
2D
330
5
100
AcDbSymbolTableRecord
100
AcDbLinetypeTableRecord
  2
DASHDOT
 70
     0
  3
Dash dot __ . __ . __ . __ . __ . __ . __ . __
 72
    65
 73
     4
 40
25.4
 49
12.7
 74
     0
 49
-6.349999999999999
 74
     0
 49
0.0
 74
     0
 49
-6.349999999999999
 74
     0
  0
LTYPE
  5
2E
330
5
100
AcDbSymbolTableRecord
100
AcDbLinetypeTableRecord
  2
HIDDEN
 70
     0
  3
Hidden __ __ __ __ __ __ __ __ __ __ __ __ __ _
 72
    65
 73
     2
 40
9.524999999999998
 49
6.349999999999999
 74
     0
 49
-3.174999999999999
 74
     0
  0
LTYPE
  5
C75
330
5
100
AcDbSymbolTableRecord
100
AcDbLinetypeTableRecord
  2
AM_ISO02W050
 70
     0
  3
__ __ __ __ __ __ __ __ __ __ __ __ __ __ __
 72
    65
 73
     2
 40
7.5
 49
6.0
 74
     0
 49
-1.5
 74
     0
  0
LTYPE
  5
C76
330
5
100
AcDbSymbolTableRecord
100
AcDbLinetypeTableRecord
  2
AM_ISO08W050
 70
     0
  3
____ . ____ . ____ . ____ . ____ . ____ . ____
 72
    65
 73
     4
 40
18.0
 49
12.0
 74
     0
 49
-1.5
 74
     0
 49
3.0
 74
     0
 49
-1.5
 74
     0
  0
ENDTAB
  0
TABLE
  2
LAYER
  5
2
102
{ACAD_XDICTIONARY
360
1051
102
}
330
0
100
AcDbSymbolTable
 70
    17
  0
LAYER
  5
10
102
{ACAD_XDICTIONARY
360
1B0E
102
}
330
2
100
AcDbSymbolTableRecord
100
AcDbLayerTableRecord
  2
0
 70
     0
 62
     7
  6
Continuous
370
    -3
390
F
  0
LAYER
  5
2F
102
{ACAD_XDICTIONARY
360
1B10
102
}
330
2
100
AcDbSymbolTableRecord
100
AcDbLayerTableRecord
  2
1
 70
     0
 62
     1
  6
Continuous
370
    -3
390
F
  0
LAYER
  5
30
102
{ACAD_XDICTIONARY
360
1B12
102
}
330
2
100
AcDbSymbolTableRecord
100
AcDbLayerTableRecord
  2
2
 70
     0
 62
     2
  6
Continuous
370
    -3
390
F
  0
LAYER
  5
31
102
{ACAD_XDICTIONARY
360
1B14
102
}
330
2
100
AcDbSymbolTableRecord
100
AcDbLayerTableRecord
  2
3
 70
     0
 62
     3
  6
Continuous
370
    -3
390
F
  0
LAYER
  5
32
102
{ACAD_XDICTIONARY
360
1B16
102
}
330
2
100
AcDbSymbolTableRecord
100
AcDbLayerTableRecord
  2
4
 70
     0
 62
     4
  6
Continuous
370
    -3
390
F
  0
LAYER
  5
33
102
{ACAD_XDICTIONARY
360
1B18
102
}
330
2
100
AcDbSymbolTableRecord
100
AcDbLayerTableRecord
  2
5
 70
     0
 62
     5
  6
Continuous
370
    -3
390
F
  0
LAYER
  5
34
102
{ACAD_XDICTIONARY
360
1B1A
102
}
330
2
100
AcDbSymbolTableRecord
100
AcDbLayerTableRecord
  2
6
 70
     0
 62
     6
  6
Continuous
370
    -3
390
F
  0
LAYER
  5
35
102
{ACAD_XDICTIONARY
360
1B1C
102
}
330
2
100
AcDbSymbolTableRecord
100
AcDbLayerTableRecord
  2
7
 70
     0
 62
     7
  6
Continuous
370
    -3
390
F
  0
LAYER
  5
36
102
{ACAD_XDICTIONARY
360
1B1E
102
}
330
2
100
AcDbSymbolTableRecord
100
AcDbLayerTableRecord
  2
cen
 70
     0
 62
     7
  6
DASHDOT
370
    -3
390
F
  0
LAYER
  5
37
102
{ACAD_XDICTIONARY
360
1B20
102
}
330
2
100
AcDbSymbolTableRecord
100
AcDbLayerTableRecord
  2
hid
 70
     0
 62
     7
  6
HIDDEN
370
    -3
390
F
  0
LAYER
  5
5D6
102
{ACAD_XDICTIONARY
360
1B22
102
}
330
2
100
AcDbSymbolTableRecord
100
AcDbLayerTableRecord
  2
hatch
 70
     0
 62
     9
  6
Continuous
370
    -3
390
F
  0
LAYER
  5
8AF
102
{ACAD_XDICTIONARY
360
1B24
102
}
330
2
100
AcDbSymbolTableRecord
100
AcDbLayerTableRecord
  2
9
 70
     0
 62
     9
  6
Continuous
370
    -3
390
F
  0
LAYER
  5
8F8
102
{ACAD_XDICTIONARY
360
1B26
102
}
330
2
100
AcDbSymbolTableRecord
100
AcDbLayerTableRecord
  2
leg fin
 70
     0
 62
     9
  6
Continuous
370
    -3
390
F
  0
LAYER
  5
91D
102
{ACAD_XDICTIONARY
360
1B28
102
}
330
2
100
AcDbSymbolTableRecord
100
AcDbLayerTableRecord
  2
cotas
 70
     0
 62
     1
  6
Continuous
370
    -3
390
F
  0
LAYER
  5
92F
330
2
100
AcDbSymbolTableRecord
100
AcDbLayerTableRecord
  2
Defpoints
 70
     0
 62
     7
  6
Continuous
290
     0
370
    -3
390
F
  0
LAYER
  5
C7B
102
{ACAD_XDICTIONARY
360
1B2A
102
}
330
2
100
AcDbSymbolTableRecord
100
AcDbLayerTableRecord
  2
SANINDUSA
 70
     0
 62
     3
  6
Continuous
370
    -3
390
F
  0
LAYER
  5
1060
102
{ACAD_XDICTIONARY
360
1B2C
102
}
330
2
100
AcDbSymbolTableRecord
100
AcDbLayerTableRecord
  2
hid1
 70
     0
 62
     9
  6
HIDDEN
370
    -3
390
F
1001
AcAecLayerStandard
1000

1000

  0
ENDTAB
  0
TABLE
  2
STYLE
  5
3
330
0
100
AcDbSymbolTable
 70
     4
  0
STYLE
  5
11
330
3
100
AcDbSymbolTableRecord
100
AcDbTextStyleTableRecord
  2
Standard
 70
     0
 40
0.0
 41
1.0
 50
0.0
 71
     0
 42
2.5
  3
Avgardn.ttf
  4

1001
ACAD
1000
AvantGarde Bk BT
1071
       34
  0
STYLE
  5
2C
330
3
100
AcDbSymbolTableRecord
100
AcDbTextStyleTableRecord
  2

 70
     1
 40
0.0
 41
1.0
 50
0.0
 71
     0
 42
2.5
  3
ltypeshp.shx
  4

  0
STYLE
  5
91F
330
3
100
AcDbSymbolTableRecord
100
AcDbTextStyleTableRecord
  2
SANINDUSA
 70
     0
 40
0.0
 41
1.0
 50
0.0
 71
     0
 42
2.5
  3
verdana.TTF
  4

1001
ACAD
1000
Verdana
1071
       34
  0
STYLE
  5
C7C
330
3
100
AcDbSymbolTableRecord
100
AcDbTextStyleTableRecord
  2
futura
 70
     0
 40
0.0
 41
1.0
 50
0.0
 71
     0
 42
2.5
  3
ZURCHN.TTF
  4

1001
ACAD
1000
Zurich BT
1071
       34
  0
ENDTAB
  0
TABLE
  2
VIEW
  5
6
330
0
100
AcDbSymbolTable
 70
     0
  0
ENDTAB
  0
TABLE
  2
UCS
  5
7
330
0
100
AcDbSymbolTable
 70
     0
  0
ENDTAB
  0
TABLE
  2
APPID
  5
9
330
0
100
AcDbSymbolTable
 70
    16
  0
APPID
  5
12
330
9
100
AcDbSymbolTableRecord
100
AcDbRegAppTableRecord
  2
ACAD
 70
     0
  0
APPID
  5
3A
330
9
100
AcDbSymbolTableRecord
100
AcDbRegAppTableRecord
  2
DCO15
 70
     0
  0
APPID
  5
EEE
330
9
100
AcDbSymbolTableRecord
100
AcDbRegAppTableRecord
  2
ACAD_DSTYLE_DIMTEXT_FILL
 70
     0
  0
APPID
  5
EEF
330
9
100
AcDbSymbolTableRecord
100
AcDbRegAppTableRecord
  2
ACAD_DSTYLE_DIMEXT_LENGTH
 70
     0
  0
APPID
  5
EF0
330
9
100
AcDbSymbolTableRecord
100
AcDbRegAppTableRecord
  2
ACAD_DSTYLE_DIMEXT_ENABLED
 70
     0
  0
APPID
  5
EF1
330
9
100
AcDbSymbolTableRecord
100
AcDbRegAppTableRecord
  2
ACAD_DSTYLE_DIM_LINETYPE
 70
     0
  0
APPID
  5
EF2
330
9
100
AcDbSymbolTableRecord
100
AcDbRegAppTableRecord
  2
ACAD_DSTYLE_DIM_EXT1_LINETYPE
 70
     0
  0
APPID
  5
EF3
330
9
100
AcDbSymbolTableRecord
100
AcDbRegAppTableRecord
  2
ACAD_DSTYLE_DIM_EXT2_LINETYPE
 70
     0
  0
APPID
  5
FAF
330
9
100
AcDbSymbolTableRecord
100
AcDbRegAppTableRecord
  2
ACAD_DSTYLE_DIMJOGGED_JOGANGLE_SYMBOL
 70
     0
  0
APPID
  5
1013
330
9
100
AcDbSymbolTableRecord
100
AcDbRegAppTableRecord
  2
ACAD_DSTYLE_DIMARC_LENGTH_SYMBOL
 70
     0
  0
APPID
  5
1061
330
9
100
AcDbSymbolTableRecord
100
AcDbRegAppTableRecord
  2
AcAecLayerStandard
 70
     0
  0
APPID
  5
117F
330
9
100
AcDbSymbolTableRecord
100
AcDbRegAppTableRecord
  2
ACAD_DSTYLE_DIMJAG
 70
     0
  0
APPID
  5
1180
330
9
100
AcDbSymbolTableRecord
100
AcDbRegAppTableRecord
  2
ACAD_DSTYLE_DIMTALN
 70
     0
  0
APPID
  5
1181
330
9
100
AcDbSymbolTableRecord
100
AcDbRegAppTableRecord
  2
ACAD_DSTYLE_DIMRADIAL_EXTENSION
 70
     0
  0
APPID
  5
1B66
330
9
100
AcDbSymbolTableRecord
100
AcDbRegAppTableRecord
  2
ACAD_MLEADERVER
 70
     0
  0
APPID
  5
1D58
330
9
100
AcDbSymbolTableRecord
100
AcDbRegAppTableRecord
  2
ACAD_EXEMPT_FROM_CAD_STANDARDS
 70
     0
  0
ENDTAB
  0
TABLE
  2
DIMSTYLE
  5
A
330
0
100
AcDbSymbolTable
 70
     4
100
AcDbDimStyleTable
 71
     1
340
921
  0
DIMSTYLE
105
45
330
A
100
AcDbSymbolTableRecord
100
AcDbDimStyleTableRecord
  2
STANDARD
 70
     0
289
     0
340
11
  0
DIMSTYLE
105
921
330
A
100
AcDbSymbolTableRecord
100
AcDbDimStyleTableRecord
  2
SANINDUSA
 70
     0
 40
10.0
 41
2.0
 42
1.0
 43
1.0
 44
1.0
 73
     0
 74
     0
 77
     1
 78
     8
140
2.0
141
0.0
143
0.03937007874016
147
1.0
171
     3
172
     1
176
   256
177
   256
178
   256
179
     1
271
     0
272
     0
274
     3
278
    44
283
     0
284
     8
340
91F
371
    -1
372
    -1
1001
ACAD_DSTYLE_DIMJAG
1070
   388
1040
1.5
1001
ACAD_DSTYLE_DIMTALN
1070
   392
1070
     0
1001
ACAD_DSTYLE_DIMJOGGED_JOGANGLE_SYMBOL
1070
   384
1040
1.570796326794896
  0
DIMSTYLE
105
C7D
330
A
100
AcDbSymbolTableRecord
100
AcDbDimStyleTableRecord
  2
AM_ISO
 70
     0
  4
"
 41
2.5
 42
1.0
 43
10.0
 44
1.0
 47
0.1
 48
0.1
 73
     0
 74
     0
 77
     1
 78
     8
 79
     2
140
3.5
141
0.0
143
0.0393701
146
0.71
147
1.5
172
     1
176
   256
177
   256
178
     2
271
     2
272
     3
274
     4
283
     0
284
     8
340
11
371
    -1
372
    -1
  0
ENDTAB
  0
TABLE
  2
BLOCK_RECORD
  5
1
330
0
100
AcDbSymbolTable
 70
    37
  0
BLOCK_RECORD
  5
1F
330
1
100
AcDbSymbolTableRecord
100
AcDbBlockTableRecord
  2
*Model_Space
340
22
  0
BLOCK_RECORD
  5
1B
330
1
100
AcDbSymbolTableRecord
100
AcDbBlockTableRecord
  2
*Paper_Space
340
1E
  0
BLOCK_RECORD
  5
23
330
1
100
AcDbSymbolTableRecord
100
AcDbBlockTableRecord
  2
*Paper_Space0
340
26
  0
BLOCK_RECORD
  5
919
330
1
100
AcDbSymbolTableRecord
100
AcDbBlockTableRecord
  2
_DotSmall
340
0
  0
BLOCK_RECORD
  5
922
330
1
100
AcDbSymbolTableRecord
100
AcDbBlockTableRecord
  2
base para cotas
340
0
310
2800000020000000200000000100080000000000000400000000000000000000000000000000000000000000000080000080000000808000800000008000800080800000C0C0C000C0DCC000F0CAA6000020400000206000002080000020A0000020C0000020E00000400000004020000040400000406000004080000040A0
310
000040C0000040E00000600000006020000060400000606000006080000060A0000060C0000060E00000800000008020000080400000806000008080000080A0000080C0000080E00000A0000000A0200000A0400000A0600000A0800000A0A00000A0C00000A0E00000C0000000C0200000C0400000C0600000C0800000C0
310
A00000C0C00000C0E00000E0000000E0200000E0400000E0600000E0800000E0A00000E0C00000E0E00040000000400020004000400040006000400080004000A0004000C0004000E00040200000402020004020400040206000402080004020A0004020C0004020E000404000004040200040404000404060004040800040
310
40A0004040C0004040E00040600000406020004060400040606000406080004060A0004060C0004060E00040800000408020004080400040806000408080004080A0004080C0004080E00040A0000040A0200040A0400040A0600040A0800040A0A00040A0C00040A0E00040C0000040C0200040C0400040C0600040C08000
310
40C0A00040C0C00040C0E00040E0000040E0200040E0400040E0600040E0800040E0A00040E0C00040E0E00080000000800020008000400080006000800080008000A0008000C0008000E00080200000802020008020400080206000802080008020A0008020C0008020E00080400000804020008040400080406000804080
310
008040A0008040C0008040E00080600000806020008060400080606000806080008060A0008060C0008060E00080800000808020008080400080806000808080008080A0008080C0008080E00080A0000080A0200080A0400080A0600080A0800080A0A00080A0C00080A0E00080C0000080C0200080C0400080C0600080C0
310
800080C0A00080C0C00080C0E00080E0000080E0200080E0400080E0600080E0800080E0A00080E0C00080E0E000C0000000C0002000C0004000C0006000C0008000C000A000C000C000C000E000C0200000C0202000C0204000C0206000C0208000C020A000C020C000C020E000C0400000C0402000C0404000C0406000C0
310
408000C040A000C040C000C040E000C0600000C0602000C0604000C0606000C0608000C060A000C060C000C060E000C0800000C0802000C0804000C0806000C0808000C080A000C080C000C080E000C0A00000C0A02000C0A04000C0A06000C0A08000C0A0A000C0A0C000C0A0E000C0C00000C0C02000C0C04000C0C06000
310
C0C08000C0C0A000F0FBFF00A4A0A000808080000000FF0000FF000000FFFF00FF000000FF00FF00FFFF0000FFFFFF00A4A4A4A4A4A4A4A4A4A4A4A4A4A4A4A4A4A4A4A4A4A4A4A4A4A4A4A4A4A4A4A4A4A4A4A4A4A4A4A4A4A4A4A4A4A4A4A4A4A4A4A4A4A4A4A4A4A4A4A4A4A4A4A4A4A4A4A4A4A4A4A4A4A4A4A4A4A4A4
310
A4A4A4A4A4A4A4A4A4A4A4A4A4A4A4A4A4A4A4A4A4A4A4A4A4A4A4A4A4A4A4A4A4A4A4A4A4A4A4A4A4A4A4A4A4A4A4A4A4A4A4A4A4A4A4A4A4A4A4A4A4A4A4A4A4A4A4A4A4A4A4A4A4A4A4A4A4A4A4A4A4A4A4A4A4A4A4A4A4A4A4A4A4A4A4A4A4A4A4A4A4A4A4A4A4A4A4A4A4A4A4A4A4A4A4A4A4A4A4A4A4A4A4A4A4A4A4
310
A4A4A4A4A4A4A4A4A4A4A4A4A4A4A4A4A4A4A4A4A4A4A4A4A4A4A4A4A4A4A4A4A4A4A4A4A4A4A4A4A4A4A4A4A4A4A4A4A4A4A4A4A4A4A4A4A4A4A4A4A4A4A4A4A4A4A4A4A4A4A4A4A4A4A4A4A4A4A4A4A4A4A4A4A4A4A4A4A4A4A4A4A4A4A4A4A4A4A4A4A4A4A4A4A4A4A4A4A4A4A4A4A4A4A4A4A4A4A4A4A4A4A4A4A4A4A4
310
A4A4A4A4A4A4A4A4A4A4A4A4A4A4A4A4A4A4A4A4A4A4A4A4A4A4A4A4A4A4A4A4A4A4A4A4A4A4A4A4A4A4A4A4A4A4A4A4A4A4A4A4A4A4A4A4A4A4A4A4A4A4A4A4A4A4A4A4A4A4A4A4A4A4A4A4A4A4A4A4A4A4A4A4A4A4A4A4A4A4A4A4A4A4A4A4A4A4A4A4A4A4A4A4A4A4A4A4A4A4A4A4A4A4A4A4F9F9F9F9F9F9F9F9F9F9F9
310
F9F9F9F9F9F9F9F9F9F9F9F9F9F9F9F9F9F9F9A4A4F9F9F9F9F9F9F9F9F9F9F9F9F9F9F9F9F9F9F9F9F9F9F9F9F9F9F9F9F9F9A4A4F9F9F9F9F9F9F9F9F9F9F9F9F9F9F9F9F9F9F9F9F9F9F9F9F9F9F9F9F9F9A4A4F9A4A4A4A4A4A4A4A4A4A4A4A4A4A4A4A4A4A4A4A4A4A4A4A4A4A4A4A4F9A4A4A4A4A4A4A4A4A4A4A4A4
310
A4A4A4A4A4A4A4A4A4A4A4A4A4A4A4A4A4A4A4A4A4A4A4A4A4A4A4A4A4A4A4A4A4A4A4A4A4A4A4A4A4A4A4A4A4A4A4A4A4A4A4A4A4A4A4A4A4A4A4A4A4A4A4A4A4A4A4A4A4A4A4A4A4A4A4A4A4A4A4A4A4A4A4A4A4A4A4A4A4A4A4A4A4A4A4A4A4A4A4A4A4A4A4A4A4A4A4A4A4A4A4A4A4A4A4A4A4A4A4A4A4A4A4A4A4A4A4
310
A4A4A4A4A4A4A4A4A4A4A4A4A4A4A4A4A4A4A4A4A4A4A4A4A4A4A4A4A4A4A4A4A4A4A4A4A4A4A4A4A4A4A4A4A4A4A4A4A4A4A4A4A4A4A4A4A4A4A4A4A4A4A4A4A4A4A4A4A4A4A4A4A4A4A4A4A4A4A4A4A4A4A4A4A4A4A4A4A4A4A4A4A4A4A4A4A4A4A4A4A4A4A4A4A4A4A4A4A4A4A4A4A4A4A4A4A4A4A4A4A4A4A4A4A4A4A4
310
A4A4A4A4A4A4A4A4A4A4A4A4A4A4A4A4A4A4A4A4A4A4A4A4A4A4A4A4A4A4A4A4A4A4A4A4A4A4A4A4A4A4A4A4A4A4A4A4A4A4A4A4A4A4A4A4A4A4A4A4A4A4A4A4A4A4A4A4A4A4A4A4A4A4A4A4A4A4A4A4A4A4A4A4A4A4A4A4A4A4A4A4A4A4A4A4A4A4A4A4A4A4A4A4A4A4A4A4A4A4A4A4A4A4A4A4A4A4A4A4A4A4A4A4A4A4A4
310
A4A4A4A4A4A4A4A4A4A4A4A4A4A4A4A4A4A4A4A4A4A4A4A4A4A4A4A4A4A4A4A4A4A4A4A4A4A4A4A4A4A4A4A4A4A4A4A4A4A4A4A4A4A4A4A4
1001
ACAD
1000
DesignCenter Data
1002
{
1070
     1
1070
     4
1002
}
  0
BLOCK_RECORD
  5
AA8
330
1
100
AcDbSymbolTableRecord
100
AcDbBlockTableRecord
  2
_CLOSED
340
0
  0
BLOCK_RECORD
  5
B79
330
1
100
AcDbSymbolTableRecord
100
AcDbBlockTableRecord
  2
nota revisoes
340
0
1001
ACAD
1000
DesignCenter Data
1002
{
1070
     1
1070
     4
1002
}
  0
BLOCK_RECORD
  5
B8E
330
1
100
AcDbSymbolTableRecord
100
AcDbBlockTableRecord
  2
a3l
340
0
1001
ACAD
1000
DesignCenter Data
1002
{
1070
     1
1070
     4
1002
}
  0
BLOCK_RECORD
  5
B9E
330
1
100
AcDbSymbolTableRecord
100
AcDbBlockTableRecord
  2
legenda desenvolvimento
340
0
1001
ACAD
1000
DesignCenter Data
1002
{
1070
     1
1070
     4
1002
}
  0
ENDTAB
  0
ENDSEC
  0
SECTION
  2
BLOCKS
  0
BLOCK
  5
20
330
1F
100
AcDbEntity
  8
0
100
AcDbBlockBegin
  2
*Model_Space
 70
     0
 10
0.0
 20
0.0
 30
0.0
  3
*Model_Space
  1

  0
ENDBLK
  5
21
330
1F
100
AcDbEntity
  8
0
100
AcDbBlockEnd
  0
BLOCK
  5
1C
330
1B
100
AcDbEntity
 67
     1
  8
0
100
AcDbBlockBegin
  2
*Paper_Space
 70
     0
 10
0.0
 20
0.0
 30
0.0
  3
*Paper_Space
  1

  0
ENDBLK
  5
1D
330
1B
100
AcDbEntity
 67
     1
  8
0
100
AcDbBlockEnd
  0
BLOCK
  5
24
330
23
100
AcDbEntity
 67
     1
  8
0
100
AcDbBlockBegin
  2
*Paper_Space0
 70
     0
 10
0.0
 20
0.0
 30
0.0
  3
*Paper_Space0
  1

  0
ENDBLK
  5
25
330
23
100
AcDbEntity
 67
     1
  8
0
100
AcDbBlockEnd
  0
BLOCK
  5
91B
330
919
100
AcDbEntity
  8
0
100
AcDbBlockBegin
  2
_DotSmall
 70
     0
 10
0.0
 20
0.0
 30
0.0
  3
_DotSmall
  1

  0
LWPOLYLINE
  5
91A
330
919
100
AcDbEntity
  8
0
  6
ByBlock
 62
     0
100
AcDbPolyline
 90
        2
 70
     1
 43
0.5
 10
-0.0625
 20
0.0
 42
1.0
 10
0.0625
 20
0.0
 42
1.0
  0
ENDBLK
  5
91C
330
919
100
AcDbEntity
  8
0
100
AcDbBlockEnd
  0
BLOCK
  5
92A
330
922
100
AcDbEntity
  8
0
100
AcDbBlockBegin
  2
base para cotas
 70
     0
 10
0.0
 20
0.0
 30
0.0
  3
base para cotas
  1

  0
LINE
  5
B36
330
922
100
AcDbEntity
  8
cotas
100
AcDbLine
 10
0.0
 20
-30.0
 30
0.0
 11
327.1260136525398
 21
-30.0
 31
0.0
  0
LINE
  5
B37
330
922
100
AcDbEntity
  8
cotas
100
AcDbLine
 10
0.0
 20
-25.0
 30
0.0
 11
327.1260136525398
 21
-25.0
 31
0.0
  0
LINE
  5
B38
330
922
100
AcDbEntity
  8
cotas
100
AcDbLine
 10
0.0
 20
-20.0
 30
0.0
 11
327.1260136525398
 21
-20.0
 31
0.0
  0
LINE
  5
B39
330
922
100
AcDbEntity
  8
cotas
100
AcDbLine
 10
0.0
 20
-15.0
 30
0.0
 11
327.1260136525398
 21
-15.0
 31
0.0
  0
LINE
  5
B3A
330
922
100
AcDbEntity
  8
cotas
100
AcDbLine
 10
0.0
 20
-10.0
 30
0.0
 11
327.1260136525398
 21
-10.0
 31
0.0
  0
LINE
  5
B3B
330
922
100
AcDbEntity
  8
cotas
100
AcDbLine
 10
0.0
 20
0.0
 30
0.0
 11
0.0
 21
-30.0
 31
0.0
  0
LINE
  5
B3C
330
922
100
AcDbEntity
  8
cotas
100
AcDbLine
 10
327.1260136525398
 20
-30.0
 30
0.0
 11
327.1260136525398
 21
0.0
 31
0.0
  0
ENDBLK
  5
92B
330
922
100
AcDbEntity
  8
0
100
AcDbBlockEnd
  0
BLOCK
  5
AAD
330
AA8
100
AcDbEntity
  8
0
100
AcDbBlockBegin
  2
_CLOSED
 70
     0
 10
0.0
 20
0.0
 30
0.0
  3
_CLOSED
  1

  0
LINE
  5
AA9
330
AA8
100
AcDbEntity
  8
0
100
AcDbLine
 10
-1.0
 20
0.166667
 30
0.0
 11
0.0
 21
0.0
 31
0.0
  0
LINE
  5
AAA
330
AA8
100
AcDbEntity
  8
0
100
AcDbLine
 10
0.0
 20
0.0
 30
0.0
 11
-1.0
 21
-0.166667
 31
0.0
  0
LINE
  5
AAB
330
AA8
100
AcDbEntity
  8
0
100
AcDbLine
 10
-1.0
 20
0.166667
 30
0.0
 11
-1.0
 21
-0.166667
 31
0.0
  0
LINE
  5
AAC
330
AA8
100
AcDbEntity
  8
0
100
AcDbLine
 10
0.0
 20
0.0
 30
0.0
 11
-1.0
 21
0.0
 31
0.0
  0
ENDBLK
  5
AAE
330
AA8
100
AcDbEntity
  8
0
100
AcDbBlockEnd
  0
BLOCK
  5
B7C
330
B79
100
AcDbEntity
  8
0
100
AcDbBlockBegin
  2
nota revisoes
 70
     0
 10
0.0
 20
0.0
 30
0.0
  3
nota revisoes
  1

  0
CIRCLE
  5
B7A
330
B79
100
AcDbEntity
  8
4
100
AcDbCircle
 10
0.0
 20
0.0
 30
0.0
 40
13.69426055101189
  0
TEXT
  5
B7B
330
B79
100
AcDbEntity
  8
4
100
AcDbText
 10
-5.496248358154345
 20
-5.354545554066362
 30
0.0
 40
12.0
  1
1
  7
SANINDUSA
 72
     1
 11
-0.249774214433728
 21
-5.354545554066362
 31
0.0
100
AcDbText
  0
ENDBLK
  5
B7D
330
B79
100
AcDbEntity
  8
0
100
AcDbBlockEnd
  0
BLOCK
  5
B9C
330
B8E
100
AcDbEntity
  8
0
100
AcDbBlockBegin
  2
a3l
 70
     0
 10
0.0
 20
0.0
 30
0.0
  3
a3l
  1

  0
LINE
  5
B8F
330
B8E
100
AcDbEntity
  8
1
100
AcDbLine
 10
-364.2925296599447
 20
-362.1188951399395
 30
0.0
 11
-364.2925296599447
 21
-65.11889513993946
 31
0.0
  0
LINE
  5
B90
330
B8E
100
AcDbEntity
  8
4
100
AcDbLine
 10
-369.2925296599447
 20
-357.1188951399395
 30
0.0
 11
-369.2925296599447
 21
-70.11889513993946
 31
0.0
  0
LINE
  5
B91
330
B8E
100
AcDbEntity
  8
1
100
AcDbLine
 10
-784.2925296599446
 20
-65.11889513993946
 30
0.0
 11
-784.2925296599446
 21
-362.1188951399395
 31
0.0
  0
LINE
  5
B92
330
B8E
100
AcDbEntity
  8
4
100
AcDbLine
 10
-759.2925296599446
 20
-357.1188951399395
 30
0.0
 11
-759.2925296599446
 21
-70.11889513993946
 31
0.0
  0
LINE
  5
B93
330
B8E
100
AcDbEntity
  8
1
100
AcDbLine
 10
-784.2925296599446
 20
-362.1188951399395
 30
0.0
 11
-364.2925296599447
 21
-362.1188951399395
 31
0.0
  0
LINE
  5
B94
330
B8E
100
AcDbEntity
  8
4
100
AcDbLine
 10
-759.2925296599446
 20
-357.1188951399395
 30
0.0
 11
-369.2925296599447
 21
-357.1188951399395
 31
0.0
  0
LINE
  5
B95
330
B8E
100
AcDbEntity
  8
1
100
AcDbLine
 10
-654.2925296599446
 20
-357.1188951399395
 30
0.0
 11
-654.2925296599446
 21
-362.1188951399395
 31
0.0
  0
LINE
  5
B96
330
B8E
100
AcDbEntity
  8
1
100
AcDbLine
 10
-364.2925296599447
 20
-65.11889513993946
 30
0.0
 11
-784.2925296599446
 21
-65.11889513993946
 31
0.0
  0
LINE
  5
B97
330
B8E
100
AcDbEntity
  8
4
100
AcDbLine
 10
-369.2925296599447
 20
-70.11889513993946
 30
0.0
 11
-759.2925296599446
 21
-70.11889513993946
 31
0.0
  0
LINE
  5
B98
330
B8E
100
AcDbEntity
  8
1
100
AcDbLine
 10
-654.2925296599446
 20
-65.11889513993946
 30
0.0
 11
-654.2925296599446
 21
-70.11889513993946
 31
0.0
  0
LINE
  5
B99
330
B8E
100
AcDbEntity
  8
1
100
AcDbLine
 10
-549.2925296599446
 20
-70.11889513993946
 30
0.0
 11
-549.2925296599446
 21
-65.11889513993946
 31
0.0
  0
LINE
  5
B9A
330
B8E
100
AcDbEntity
  8
1
100
AcDbLine
 10
-369.2925296599447
 20
-65.11889513993946
 30
0.0
 11
-364.2925296599447
 21
-65.11889513993946
 31
0.0
  0
LINE
  5
B9B
330
B8E
100
AcDbEntity
  8
1
100
AcDbLine
 10
-549.2925296599446
 20
-357.1188951399395
 30
0.0
 11
-549.2925296599446
 21
-362.1188951399395
 31
0.0
  0
ENDBLK
  5
B9D
330
B8E
100
AcDbEntity
  8
0
100
AcDbBlockEnd
  0
BLOCK
  5
C13
330
B9E
100
AcDbEntity
  8
0
100
AcDbBlockBegin
  2
legenda desenvolvimento
 70
     2
 10
0.0
 20
0.0
 30
0.0
  3
legenda desenvolvimento
  1

  0
ATTDEF
  5
B9F
330
B9E
100
AcDbEntity
  8
1
100
AcDbText
 10
-108.606245802552
 20
55.5
 30
0.0
 40
4.0
  1
XXXXXXXXXXXXXX
 41
0.8
  7
SANINDUSA
 72
     4
 11
-87.5
 21
57.5
 31
0.0
100
AcDbAttributeDefinition
  3
Nome do Produto:
  2
PRODUTO
 70
     0
  0
ATTDEF
  5
BA0
330
B9E
100
AcDbEntity
  8
1
100
AcDbText
 10
-97.9997966101695
 20
41.25
 30
0.0
 40
3.0
  1
XXXXXXXXX
 41
0.8
  7
futura
 72
     4
 11
-87.5
 21
42.75
 31
0.0
100
AcDbAttributeDefinition
  3
Nome da Peça:
  2
PECA
 70
     0
  0
ATTDEF
  5
BA1
330
B9E
100
AcDbEntity
  8
1
100
AcDbText
 10
-133.4422431161853
 20
21.11745296763252
 30
0.0
 40
2.5
  1
X
 41
0.8
  7
SANINDUSA
 72
     4
 11
-132.5
 21
22.36745296763252
 31
0.0
100
AcDbAttributeDefinition
  3
Cod. TESTE:
  2
TESTE
 70
     0
  0
ATTDEF
  5
BA2
330
B9E
100
AcDbEntity
  8
1
100
AcDbText
 10
-124.3844862323707
 20
21.11745296763252
 30
0.0
 40
2.5
  1
XX
 41
0.8
  7
SANINDUSA
 72
     4
 11
-122.5
 21
22.36745296763252
 31
0.0
100
AcDbAttributeDefinition
  3
Cod. Ano:
  2
ANO
 70
     0
  0
ATTDEF
  5
BA3
330
B9E
100
AcDbEntity
  8
1
100
AcDbText
 10
-112.526889953052
 20
21.11745296763252
 30
0.0
 40
2.5
  1
XXX
 41
0.8
  7
SANINDUSA
 72
     4
 11
-109.700160604496
 21
22.36745296763252
 31
0.0
100
AcDbAttributeDefinition
  3
Cod. Sequência:
  2
SEQUENCIA
 70
     0
  0
ATTDEF
  5
BA4
330
B9E
100
AcDbEntity
  8
1
100
AcDbText
 10
-99.35382430979316
 20
21.11745296763252
 30
0.0
 40
2.5
  1
XX
 41
0.8
  7
SANINDUSA
 72
     4
 11
-97.46933807742244
 21
22.36745296763252
 31
0.0
100
AcDbAttributeDefinition
  3
Cod. Tipo:
  2
TIPO
 70
     0
  0
ATTDEF
  5
BA5
330
B9E
100
AcDbEntity
  8
1
100
AcDbText
 10
-87.42035911468438
 20
21.11745296763252
 30
0.0
 40
2.5
  1
XXX
 41
0.8
  7
SANINDUSA
 72
     4
 11
-84.59362976612828
 21
22.36745296763252
 31
0.0
100
AcDbAttributeDefinition
  3
Cod. Produto:
  2
PRODUTO
 70
     0
  0
ATTDEF
  5
BA6
330
B9E
100
AcDbEntity
  8
1
100
AcDbText
 10
-74.62051971917853
 20
21.11745296763252
 30
0.0
 40
2.5
  1
XXX
 41
0.8
  7
SANINDUSA
 72
     4
 11
-71.79379037062244
 21
22.36745296763252
 31
0.0
100
AcDbAttributeDefinition
  3
Cod. Peça:
  2
PECA
 70
     0
  0
ATTDEF
  5
BA7
330
B9E
100
AcDbEntity
  8
1
100
AcDbText
 10
-61.10603446650329
 20
21.11745296763252
 30
0.0
 40
2.5
  1
XX
 41
0.8
  7
SANINDUSA
 72
     4
 11
-59.22154823413257
 21
22.36745296763252
 31
0.0
100
AcDbAttributeDefinition
  3
Cod. Revisão:
  2
REV
 70
     0
  0
ATTDEF
  5
BA8
330
B9E
100
AcDbEntity
  8
1
100
AcDbText
 10
-48.43615325006194
 20
21.11745296763252
 30
0.0
 40
2.5
  1
XX
 41
0.8
  7
SANINDUSA
 72
     4
 11
-46.55166701769121
 21
22.36745296763252
 31
0.0
100
AcDbAttributeDefinition
  3
Cod. Alteração:
  2
ALT
 70
     0
  0
ATTDEF
  5
BA9
330
B9E
100
AcDbEntity
  8
1
100
AcDbText
 10
-35.19086635325722
 20
23.98875083948959
 30
0.0
 40
3.0
  1
1/XXX
 41
0.8
  7
SANINDUSA
 72
     4
 11
-30.0
 21
25.25
 31
0.0
100
AcDbAttributeDefinition
  3
Escala geral:
  2
ESCALA
 70
     0
  0
ATTDEF
  5
BAA
330
B9E
100
AcDbEntity
  8
1
100
AcDbText
 10
-15.65345869711215
 20
23.75
 30
0.0
 40
3.0
  1
XXXXX
 41
0.8
  7
SANINDUSA
 72
     4
 11
-10.0
 21
25.25
 31
0.0
100
AcDbAttributeDefinition
  3
Folha:
  2
FOLHA
 70
     0
  0
ATTDEF
  5
BAB
330
B9E
100
AcDbEntity
  8
1
100
AcDbText
 10
-178.5146998822042
 20
56.9531347542807
 30
0.0
 40
2.0
  1
xx
 41
0.8
  7
SANINDUSA
 72
     4
 11
-177.2123493113513
 21
57.70330265219877
 31
0.0
100
AcDbAttributeDefinition
  3
revisão
  2
REV.
 70
     0
  0
ATTDEF
  5
BAC
330
B9E
100
AcDbEntity
  8
1
100
AcDbText
 10
-172.7849640077129
 20
56.9531347542807
 30
0.0
 40
2.0
  1
xx
 41
0.8
  7
SANINDUSA
 72
     4
 11
-171.48261343686
 21
57.70330265219877
 31
0.0
100
AcDbAttributeDefinition
  3
alteração
  2
ALT.
 70
     0
  0
ATTDEF
  5
BAD
330
B9E
100
AcDbEntity
  8
1
100
AcDbText
 10
-168.007199951307
 20
56.70330265219877
 30
0.0
 40
2.0
  1
xx/xx/xxxx
 41
0.8
  7
SANINDUSA
 11
-168.007199951307
 21
57.70330265219877
 31
0.0
100
AcDbAttributeDefinition
  3
data
  2
DATA
 70
     0
 74
     2
  0
ATTDEF
  5
BAE
330
B9E
100
AcDbEntity
  8
1
100
AcDbText
 10
-168.5396372253371
 20
13.15916722632639
 30
0.0
 40
2.0
  1
XX/XX/XXXX
 41
0.8
  7
SANINDUSA
 72
     4
 11
-161.5099528734231
 21
14.0
 31
0.0
100
AcDbAttributeDefinition
  3
Data projecto
  2
DATA_PROJ
 70
     0
  0
ATTDEF
  5
BAF
330
B9E
100
AcDbEntity
  8
1
100
AcDbText
 10
-150.8658110728766
 20
13.24983210208193
 30
0.0
 40
2.0
  1
xxxxxxxx
 41
0.8
  7
SANINDUSA
 72
     4
 11
-145.6564087894649
 21
14.0
 31
0.0
100
AcDbAttributeDefinition
  3
nome de quem projectou
  2
NOME
 70
     0
  0
ATTDEF
  5
BB0
330
B9E
100
AcDbEntity
  8
1
100
AcDbText
 10
-168.5396372253371
 20
9.159167226326394
 30
0.0
 40
2.0
  1
XX/XX/XXXX
 41
0.8
  7
SANINDUSA
 72
     4
 11
-161.5099528734231
 21
10.0
 31
0.0
100
AcDbAttributeDefinition
  3
Data desenhou
  2
DATA_DES
 70
     0
  0
ATTDEF
  5
BB1
330
B9E
100
AcDbEntity
  8
1
100
AcDbText
 10
-151.516986358303
 20
9.249832102081933
 30
0.0
 40
2.0
  1
xxxxxxxxx
 41
0.8
  7
SANINDUSA
 72
     4
 11
-145.6564087894649
 21
10.0
 31
0.0
100
AcDbAttributeDefinition
  3
nome
  2
NOME
 70
     0
  0
ATTDEF
  5
BB2
330
B9E
100
AcDbEntity
  8
1
100
AcDbText
 10
-127.2924214135946
 20
14.1979876583216
 30
0.0
 40
2.0
  1
Vitreous China
 41
0.8
  7
SANINDUSA
 72
     4
 11
-119.231709526422
 21
15.22216495852308
 31
0.0
100
AcDbAttributeDefinition
  3
Nome do Material:
  2
MATERIAL
 70
     0
  0
ATTDEF
  5
BB3
330
B9E
100
AcDbEntity
  8
1
100
AcDbText
 10
-103.1563452122093
 20
14.38019043949261
 30
0.0
 40
2.0
  1
Branco
 41
0.8
  7
SANINDUSA
 72
     4
 11
-99.33418268702462
 21
15.35937109765245
 31
0.0
100
AcDbAttributeDefinition
  3
cor da peça
  2
COR
 70
     0
  0
ATTDEF
  5
BB4
330
B9E
100
AcDbEntity
  8
1
100
AcDbText
 10
-116.7235057085292
 20
5.975822699798522
 30
0.0
 40
2.0
  1
Vidrado
 41
0.8
  7
SANINDUSA
 72
     4
 11
-112.5
 21
7.0
 31
0.0
100
AcDbAttributeDefinition
  3
Tipo de acabamento:
  2
ACABAMENTO
 70
     0
  0
ATTDEF
  5
BB5
330
B9E
100
AcDbEntity
  8
1
100
AcDbText
 10
-79.18527869967246
 20
16.65066409850533
 30
0.0
 40
2.0
  1
XXXXXXX
 41
0.8
  7
SANINDUSA
 72
     4
 11
-73.90871724903445
 21
17.65066409850533
 31
0.0
100
AcDbAttributeDefinition
  3
Normas
  2
NORMAS
 70
     0
  0
ATTDEF
  5
BB6
330
B9E
100
AcDbEntity
  8
1
100
AcDbText
 10
-30.55312290127603
 20
14.0
 30
0.0
 40
2.0
  1
XXXXXXXXXXXXXX
 41
0.8
  7
SANINDUSA
 72
     4
 11
-20.0
 21
15.0
 31
0.0
100
AcDbAttributeDefinition
  3
Substitui o desenho:
  2
SUBSTITUI
 70
     0
  0
ATTDEF
  5
BB7
330
B9E
100
AcDbEntity
  8
1
100
AcDbText
 10
-31.30691739422431
 20
6.0
 30
0.0
 40
2.0
  1
XXXXXXXXXXXXXXX
 41
0.8
  7
SANINDUSA
 72
     4
 11
-20.0
 21
7.0
 31
0.0
100
AcDbAttributeDefinition
  3
Substituido por:
  2
SUBSTITUIDO
 70
     0
  0
ATTDEF
  5
BB8
330
B9E
100
AcDbEntity
  8
1
100
AcDbText
 10
-110.0220608548302
 20
1.478208457928303
 30
0.0
 40
2.0
  1
XXXXXXXXXXXXXXXXXXXXXXXXXXXXXXXXXX
 41
0.8
  7
SANINDUSA
 11
-110.0220608548302
 21
2.478208457928303
 31
0.0
100
AcDbAttributeDefinition
  3
Localização do desenho:
  2
LOC-DWG
 70
     0
 74
     2
  0
LINE
  5
BB9
330
B9E
100
AcDbEntity
  8
3
100
AcDbLine
 10
-135.0
 20
4.0
 30
0.0
 11
0.0000000000004547
 21
4.0
 31
0.0
  0
LINE
  5
BBA
330
B9E
100
AcDbEntity
  8
3
100
AcDbLine
 10
-90.00000000000046
 20
12.0
 30
0.0
 11
-135.0
 21
12.0
 31
0.0
  0
LINE
  5
BBB
330
B9E
100
AcDbEntity
  8
3
100
AcDbLine
 10
-135.0
 20
32.5
 30
0.0
 11
-40.0
 21
32.5
 31
0.0
  0
TEXT
  5
BBC
330
B9E
100
AcDbEntity
  8
1
100
AcDbText
 10
-134.0
 20
1.25
 30
0.0
 40
2.0
  1
Localização do des.:
 41
0.8
  7
SANINDUSA
 11
-134.0
 21
2.25
 31
0.0
100
AcDbText
 73
     2
  0
LINE
  5
BBD
330
B9E
100
AcDbEntity
  8
3
100
AcDbLine
 10
-180.0
 20
65.0
 30
0.0
 11
0.0
 21
65.0
 31
0.0
  0
LINE
  5
BBE
330
B9E
100
AcDbEntity
  8
leg fin
100
AcDbLine
 10
-40.0
 20
25.05956924886846
 30
0.0
 11
-135.0
 21
25.05956924886846
 31
0.0
  0
LINE
  5
BBF
330
B9E
100
AcDbEntity
  8
leg fin
100
AcDbLine
 10
-40.0
 20
28.5
 30
0.0
 11
-135.0
 21
28.5
 31
0.0
  0
LINE
  5
BC0
330
B9E
100
AcDbEntity
  8
3
100
AcDbLine
 10
-135.0
 20
50.0
 30
0.0
 11
-40.0
 21
50.0
 31
0.0
  0
TEXT
  5
BC1
330
B9E
100
AcDbEntity
  8
1
100
AcDbText
 10
-134.0
 20
29.75
 30
0.0
 40
2.0
  1
Desenho nº:
 41
0.8
  7
SANINDUSA
 11
-134.0
 21
30.75
 31
0.0
100
AcDbText
 73
     2
  0
TEXT
  5
BC2
330
B9E
100
AcDbEntity
  8
1
100
AcDbText
 10
-134.0
 20
9.25
 30
0.0
 40
2.0
  1
Acabamento:
 41
0.8
  7
SANINDUSA
 11
-134.0
 21
10.25
 31
0.0
100
AcDbText
 73
     2
  0
LINE
  5
BC3
330
B9E
100
AcDbEntity
  8
3
100
AcDbLine
 10
-180.0
 20
20.0
 30
0.0
 11
0.0
 21
20.0
 31
0.0
  0
LINE
  5
BC4
330
B9E
100
AcDbEntity
  8
1
100
AcDbLine
 10
-174.5810776056337
 20
55.5
 30
0.0
 11
-174.5810776056337
 21
65.0
 31
0.0
  0
LINE
  5
BC5
330
B9E
100
AcDbEntity
  8
1
100
AcDbLine
 10
-168.9210461879161
 20
55.5
 30
0.0
 11
-168.9210461879161
 21
65.0
 31
0.0
  0
LINE
  5
BC6
330
B9E
100
AcDbEntity
  8
1
100
AcDbLine
 10
-154.0988595589306
 20
55.5
 30
0.0
 11
-154.0988595589306
 21
65.0
 31
0.0
  0
LINE
  5
BC7
330
B9E
100
AcDbEntity
  8
3
100
AcDbLine
 10
-180.0
 20
65.0
 30
0.0
 11
-180.0
 21
0.0
 31
0.0
  0
LINE
  5
BC8
330
B9E
100
AcDbEntity
  8
3
100
AcDbLine
 10
-135.0
 20
0.0
 30
0.0
 11
-135.0
 21
65.0
 31
0.0
  0
TEXT
  5
BC9
330
B9E
100
AcDbEntity
  8
1
100
AcDbText
 10
-179.0
 20
9.75
 30
0.0
 40
1.5
  1
Des.
 41
0.8
  7
SANINDUSA
 11
-179.0
 21
10.5
 31
0.0
100
AcDbText
 73
     2
  0
LINE
  5
BCA
330
B9E
100
AcDbEntity
  8
1
100
AcDbLine
 10
-168.9210461879161
 20
20.0
 30
0.0
 11
-168.9210461879161
 21
0.0
 31
0.0
  0
LINE
  5
BCB
330
B9E
100
AcDbEntity
  8
1
100
AcDbLine
 10
-154.0988595589306
 20
20.0
 30
0.0
 11
-154.0988595589306
 21
0.0
 31
0.0
  0
LINE
  5
BCC
330
B9E
100
AcDbEntity
  8
1
100
AcDbLine
 10
-180.0
 20
4.0
 30
0.0
 11
-135.0
 21
4.0
 31
0.0
  0
LINE
  5
BCD
330
B9E
100
AcDbEntity
  8
1
100
AcDbLine
 10
-180.0
 20
8.0
 30
0.0
 11
-135.0
 21
8.0
 31
0.0
  0
TEXT
  5
BCE
330
B9E
100
AcDbEntity
  8
1
100
AcDbText
 10
-179.0
 20
1.73257823687436
 30
0.0
 40
1.5
  1
Aprov.
 41
0.8
  7
SANINDUSA
 11
-179.0
 21
2.48257823687436
 31
0.0
100
AcDbText
 73
     2
  0
TEXT
  5
BCF
330
B9E
100
AcDbEntity
  8
1
100
AcDbText
 10
-179.0
 20
5.75
 30
0.0
 40
1.5
  1
Ver.
 41
0.8
  7
SANINDUSA
 11
-179.0
 21
6.5
 31
0.0
100
AcDbText
 73
     2
  0
LINE
  5
BD0
330
B9E
100
AcDbEntity
  8
1
100
AcDbLine
 10
-180.0
 20
16.0
 30
0.0
 11
-135.0
 21
16.0
 31
0.0
  0
LINE
  5
BD1
330
B9E
100
AcDbEntity
  8
1
100
AcDbLine
 10
-180.0
 20
12.0
 30
0.0
 11
-135.0
 21
12.0
 31
0.0
  0
TEXT
  5
BD2
330
B9E
100
AcDbEntity
  8
1
100
AcDbText
 10
-179.0
 20
13.75
 30
0.0
 40
1.5
  1
Proj.
 41
0.8
  7
SANINDUSA
 11
-179.0
 21
14.5
 31
0.0
100
AcDbText
 73
     2
  0
TEXT
  5
BD3
330
B9E
100
AcDbEntity
  8
1
100
AcDbText
 10
-167.9210461879161
 20
17.75
 30
0.0
 40
1.5
  1
Data
 41
0.8
  7
SANINDUSA
 11
-167.9210461879161
 21
18.5
 31
0.0
100
AcDbText
 73
     2
  0
TEXT
  5
BD4
330
B9E
100
AcDbEntity
  8
1
100
AcDbText
 10
-153.0988595589306
 20
17.75
 30
0.0
 40
1.5
  1
Nome
 41
0.8
  7
SANINDUSA
 11
-153.0988595589306
 21
18.5
 31
0.0
100
AcDbText
 73
     2
  0
LINE
  5
BD5
330
B9E
100
AcDbEntity
  8
leg fin
100
AcDbLine
 10
-130.0
 20
20.0
 30
0.0
 11
-130.0
 21
28.5
 31
0.0
  0
TEXT
  5
BD6
330
B9E
100
AcDbEntity
  8
1
100
AcDbText
 10
-134.0
 20
17.25
 30
0.0
 40
2.0
  1
Material:
 41
0.8
  7
SANINDUSA
 11
-134.0
 21
18.25
 31
0.0
100
AcDbText
 73
     2
  0
TEXT
  5
BD7
330
B9E
100
AcDbEntity
  8
1
100
AcDbText
 10
-129.0
 20
26.43288406845113
 30
0.0
 40
1.5
  1
Ano:
 41
0.8
  7
SANINDUSA
 11
-129.0
 21
27.18288406845113
 31
0.0
100
AcDbText
 73
     2
  0
LINE
  5
BD8
330
B9E
100
AcDbEntity
  8
1
100
AcDbLine
 10
-180.0
 20
55.5
 30
0.0
 11
-135.0
 21
55.5
 31
0.0
  0
TEXT
  5
BD9
330
B9E
100
AcDbEntity
  8
1
100
AcDbText
 10
-179.0
 20
52.67772246885193
 30
0.0
 40
1.5
  1
descrição
 41
0.8
  7
SANINDUSA
 11
-179.0
 21
53.42772246885193
 31
0.0
100
AcDbText
 73
     2
  0
TEXT
  5
BDA
330
B9E
100
AcDbEntity
  8
1
100
AcDbText
 10
-134.0
 20
47.25
 30
0.0
 40
2.0
  1
Peça:
 41
0.8
  7
SANINDUSA
 11
-134.0
 21
48.25
 31
0.0
100
AcDbText
 73
     2
  0
LINE
  5
BDB
330
B9E
100
AcDbEntity
  8
1
100
AcDbLine
 10
-180.0
 20
59.5
 30
0.0
 11
-135.0
 21
59.5
 31
0.0
  0
TEXT
  5
BDC
330
B9E
100
AcDbEntity
  8
1
100
AcDbText
 10
-173.5810776056337
 20
62.75
 30
0.0
 40
1.5
  1
Alt.
 41
0.8
  7
SANINDUSA
 11
-173.5810776056337
 21
63.5
 31
0.0
100
AcDbText
 73
     2
  0
TEXT
  5
BDD
330
B9E
100
AcDbEntity
  8
1
100
AcDbText
 10
-179.0
 20
62.75
 30
0.0
 40
1.5
  1
Rev.
 41
0.8
  7
SANINDUSA
 11
-179.0
 21
63.5
 31
0.0
100
AcDbText
 73
     2
  0
TEXT
  5
BDE
330
B9E
100
AcDbEntity
  8
1
100
AcDbText
 10
-167.9210461879161
 20
62.75
 30
0.0
 40
1.5
  1
Data
 41
0.8
  7
SANINDUSA
 11
-167.9210461879161
 21
63.5
 31
0.0
100
AcDbText
 73
     2
  0
TEXT
  5
BDF
330
B9E
100
AcDbEntity
  8
1
100
AcDbText
 10
-153.0988595589306
 20
62.75
 30
0.0
 40
1.5
  1
Nome
 41
0.8
  7
SANINDUSA
 11
-153.0988595589306
 21
63.5
 31
0.0
100
AcDbText
 73
     2
  0
TEXT
  5
BE0
330
B9E
100
AcDbEntity
  8
1
100
AcDbText
 10
-134.0
 20
62.25
 30
0.0
 40
2.0
  1
Produto:
 41
0.8
  7
SANINDUSA
 11
-134.0
 21
63.25
 31
0.0
100
AcDbText
 73
     2
  0
LINE
  5
BE1
330
B9E
100
AcDbEntity
  8
3
100
AcDbLine
 10
-40.0
 20
4.0
 30
0.0
 11
-40.0
 21
65.0
 31
0.0
  0
LWPOLYLINE
  5
BE2
102
{ACAD_REACTORS
330
BEC
102
}
330
B9E
100
AcDbEntity
  8
9
100
AcDbPolyline
 90
       12
 70
     1
 43
0.0
 10
-3.038714600644652
 20
58.90010174665076
 10
-5.726962862472191
 20
58.90010174665076
 10
-5.726962862472191
 20
58.5001017466509
 10
-3.038748516195028
 20
58.5001017466509
 42
-0.4142135623731731
 10
-2.638748516194482
 20
58.1001017466508
 10
-2.638748516194482
 20
57.42799728675596
 10
-5.21497371544865
 20
57.42799728675596
 42
0.4142135623731289
 10
-6.014973715448377
 20
56.627997286756
 10
-6.014973715448377
 20
55.92380871629643
 42
0.4142135623731132
 10
-5.21497371544865
 20
55.12380871629648
 10
-2.23871460064447
 20
55.12380871629648
 10
-2.23871460064447
 20
58.10010174665103
 42
0.4142135623730717
  0
LWPOLYLINE
  5
BE3
102
{ACAD_REACTORS
330
BEC
102
}
330
B9E
100
AcDbEntity
  8
9
100
AcDbPolyline
 90
       20
 70
     1
 43
0.0
 10
-10.01531287095122
 20
57.82799728675581
 10
-10.01531287095122
 20
58.10010174665103
 42
-0.4142135623730744
 10
-9.615312870951584
 20
58.5001017466509
 10
-6.92703069357276
 20
58.5001017466509
 10
-6.92703069357276
 20
58.90010174665076
 10
-9.615346786501959
 20
58.90010174665076
 42
0.4142135623730883
 10
-10.41534678650168
 20
58.1001017466508
 10
-10.41534678650168
 20
57.82796337120567
 42
0.4142135623730717
 10
-9.615346786501959
 20
57.02796337120571
 10
-7.423079531965413
 20
57.02796337120571
 42
-0.4142135623730847
 10
-7.023079531965322
 20
56.62796337120562
 10
-7.023079531965322
 20
55.90786840766487
 42
-0.4142135623730744
 10
-7.423079531965413
 20
55.507868407665
 10
-10.41534678650168
 20
55.507868407665
 10
-10.41534678650168
 20
55.12380871629648
 10
-7.445787917283723
 20
55.12380871629648
 42
0.4114777732064574
 10
-6.645822882998345
 20
55.9163291493976
 10
-6.639238813324936
 20
56.62051771985716
 42
0.4169546541682913
 10
-7.439203847610315
 20
57.42799728675596
 10
-9.615312870951584
 20
57.42799728675596
 42
-0.4142135623731576
  0
LWPOLYLINE
  5
BE4
102
{ACAD_REACTORS
330
BEC
102
}
330
B9E
100
AcDbEntity
  8
9
100
AcDbPolyline
 90
       12
 70
     1
 43
0.0
 10
-14.41561811090378
 20
58.90010174665076
 10
-14.79964388672215
 20
58.90010174665076
 10
-14.79964388672215
 20
55.92380871629643
 42
0.4142135623731133
 10
-13.99964388672242
 20
55.12380871629648
 10
-11.8233508563676
 20
55.12380871629648
 42
0.4142135623730872
 10
-11.02335085636741
 20
55.92380871629643
 10
-11.02335085636741
 20
58.90010174665076
 10
-11.42338477191788
 20
58.90010174665076
 10
-11.42338477191788
 20
55.91567577726095
 42
-0.4131711701795318
 10
-11.82196067063523
 20
55.51567831234956
 10
-14.0141940096214
 20
55.50787335710947
 42
-0.4152567234624407
 10
-14.41561811090378
 20
55.90787082202087
  0
LWPOLYLINE
  5
BE5
102
{ACAD_REACTORS
330
BEC
102
}
330
B9E
100
AcDbEntity
  8
9
100
AcDbPolyline
 90
        6
 70
     1
 43
0.0
 10
-15.80771578768872
 20
55.507868407665
 10
-18.39994912667453
 20
55.507868407665
 42
-0.4142135623731731
 10
-18.79994912667462
 20
55.90786840766487
 10
-18.79994912667462
 20
58.10010174665103
 42
-0.4142135623730744
 10
-18.39994912667453
 20
58.5001017466509
 10
-15.80771578768872
 20
58.5001017466509
  0
LWPOLYLINE
  5
BE6
102
{ACAD_REACTORS
330
BEC
102
}
330
B9E
100
AcDbEntity
  8
9
100
AcDbPolyline
 90
        8
 70
     1
 43
0.0
 10
-15.4236900118708
 20
59.87619128370352
 10
-15.80771578768872
 20
59.87619128370352
 10
-15.80771578768872
 20
58.90010174665076
 10
-18.39176256411201
 20
58.90010174665076
 42
0.4131164467977967
 10
-19.19175694739761
 20
58.1030995310698
 10
-19.1999120763262
 20
55.92680650071542
 42
0.4153115297271718
 10
-18.39991769304061
 20
55.12380871629648
 10
-15.4236900118708
 20
55.12380871629648
  0
LWPOLYLINE
  5
BE7
102
{ACAD_REACTORS
330
BEC
102
}
330
B9E
100
AcDbEntity
  8
9
100
AcDbPolyline
 90
       10
 70
     1
 43
0.0
 10
-20.59201288790928
 20
58.90010174665076
 10
-23.56830591826338
 20
58.90010174665076
 10
-23.56830591826338
 20
55.12380871629648
 10
-23.18424622689509
 20
55.12380871629648
 10
-23.18424622689509
 20
58.5001017466509
 10
-20.59204680345965
 20
58.5001017466509
 42
-0.4142135623730898
 10
-20.19204680345956
 20
58.1001017466508
 10
-20.19204680345956
 20
55.12380871629648
 10
-19.79201288790909
 20
55.12380871629648
 10
-19.79201288790909
 20
58.10010174665103
 42
0.4142135623731132
  0
LWPOLYLINE
  5
BE8
102
{ACAD_REACTORS
330
BEC
102
}
330
B9E
100
AcDbEntity
  8
9
100
AcDbPolyline
 90
        4
 70
     1
 43
0.0
 10
-24.19231812786165
 20
58.90010174665076
 10
-24.57637781922995
 20
58.90010174665076
 10
-24.57637781922995
 20
55.12380871629648
 10
-24.19231812786165
 20
55.12380871629648
  0
LWPOLYLINE
  5
BE9
102
{ACAD_REACTORS
330
BEC
102
}
330
B9E
100
AcDbEntity
  8
9
100
AcDbPolyline
 90
       10
 70
     1
 43
0.0
 10
-28.57661522808212
 20
58.5001017466509
 10
-25.98444972019706
 20
58.5001017466509
 42
-0.4142135623731731
 10
-25.58444972019652
 20
58.1001017466508
 10
-25.58444972019652
 20
55.12380871629648
 10
-25.2004239443786
 20
55.12380871629648
 10
-25.2004239443786
 20
58.10010174665103
 42
0.4142135623730717
 10
-26.00042394437833
 20
58.90010174665076
 10
-28.97664914363259
 20
58.90010174665076
 10
-28.97664914363259
 20
55.12380871629648
 10
-28.57661522808212
 20
55.12380871629648
  0
LWPOLYLINE
  5
BEA
102
{ACAD_REACTORS
330
BEC
102
}
330
B9E
100
AcDbEntity
  8
9
100
AcDbPolyline
 90
       12
 70
     1
 43
0.0
 10
-29.58465321349832
 20
58.10010174665103
 42
0.4142135623730716
 10
-30.3846532134985
 20
58.90010174665076
 10
-33.07296930642724
 20
58.90010174665076
 10
-33.07296930642724
 20
58.5001017466509
 10
-30.38468712904842
 20
58.5001017466509
 42
-0.4142135623730067
 10
-29.98468712904878
 20
58.1001017466508
 10
-29.98468712904878
 20
57.42799728675618
 10
-32.56098015940324
 20
57.42799728675596
 42
0.4142135623731289
 10
-33.36098015940343
 20
56.627997286756
 10
-33.36098015940343
 20
55.92380871629643
 42
0.4142135623731132
 10
-32.56098015940324
 20
55.12380871629648
 10
-29.58465321349832
 20
55.12380871629648
  0
LWPOLYLINE
  5
BEB
102
{ACAD_REACTORS
330
BEC
102
}
330
B9E
100
AcDbEntity
  8
9
100
AcDbPolyline
 90
       20
 70
     1
 43
0.0
 10
-34.7850262845518
 20
57.42799728675596
 10
-36.96125148380543
 20
57.42799728675596
 42
-0.4142135623730898
 10
-37.36125148380552
 20
57.82799728675604
 10
-37.36125148380552
 20
58.10010174665103
 42
-0.4142135623730744
 10
-36.96125148380543
 20
58.5001017466509
 10
-34.27303713752781
 20
58.50010174665067
 10
-34.27303713752781
 20
58.90010174665076
 10
-36.96128539935535
 20
58.90010174665076
 42
0.4142135623731289
 10
-37.76128539935553
 20
58.1001017466508
 10
-37.76128539935553
 20
57.82796337120567
 42
0.4142135623730716
 10
-36.9612853993558
 20
57.02796337120571
 10
-34.76901814481926
 20
57.02796337120571
 42
-0.414213562373168
 10
-34.36901814481962
 20
56.62796337120562
 10
-34.36901814481962
 20
55.90786840766487
 42
-0.4142135623730744
 10
-34.76901814481926
 20
55.507868407665
 10
-37.76128539935553
 20
55.507868407665
 10
-37.76128539935553
 20
55.12380871629648
 10
-34.7850262845518
 20
55.12380871629648
 42
0.4142135623731289
 10
-33.98502628455162
 20
55.92380871629643
 10
-33.98502628455162
 20
56.627997286756
 42
0.4142135623731132
  0
HATCH
  5
BEC
330
B9E
100
AcDbEntity
  8
9
100
AcDbHatch
 10
0.0
 20
0.0
 30
0.0
210
0.0
220
0.0
230
1.0
  2
SOLID
 70
     1
 71
     1
 91
       13
 92
        7
 72
     1
 73
     1
 93
       20
 10
-34.36901814481962
 20
55.90786840766487
 42
-0.414213562372991
 10
-34.76901814481926
 20
55.507868407665
 42
0.0
 10
-37.76128539935553
 20
55.507868407665
 42
0.0
 10
-37.76128539935553
 20
55.12380871629648
 42
0.0
 10
-34.7850262845518
 20
55.12380871629648
 42
0.4142135623731705
 10
-33.98502628455162
 20
55.92380871629666
 42
0.0
 10
-33.98502628455162
 20
56.627997286756
 42
0.4142135623731547
 10
-34.7850262845518
 20
57.42799728675596
 42
0.0
 10
-36.96125148380543
 20
57.42799728675596
 42
-0.4142135623730898
 10
-37.36125148380552
 20
57.82799728675604
 42
0.0
 10
-37.36125148380552
 20
58.1001017466508
 42
-0.4142135623731575
 10
-36.96125148380543
 20
58.5001017466509
 42
0.0
 10
-34.27303713752781
 20
58.50010174665067
 42
0.0
 10
-34.27303713752781
 20
58.90010174665076
 42
0.0
 10
-36.96128539935535
 20
58.90010174665076
 42
0.4142135623731705
 10
-37.76128539935553
 20
58.10010174665058
 42
0.0
 10
-37.76128539935553
 20
57.82796337120544
 42
0.4142135623730299
 10
-36.9612853993558
 20
57.02796337120571
 42
0.0
 10
-34.76901814481926
 20
57.02796337120571
 42
-0.4142135623730015
 10
-34.36901814481962
 20
56.62796337120608
 42
0.0
 97
        1
330
BEB
 92
        7
 72
     1
 73
     1
 93
       12
 10
-33.36098015940343
 20
55.92380871629666
 42
0.4142135623731547
 10
-32.56098015940324
 20
55.12380871629648
 42
0.0
 10
-29.58465321349877
 20
55.12380871629648
 42
0.0
 10
-29.58465321349832
 20
58.10010174665058
 42
0.4142135623731964
 10
-30.3846532134985
 20
58.90010174665076
 42
0.0
 10
-33.07296930642724
 20
58.90010174665076
 42
0.0
 10
-33.07296930642724
 20
58.50010174665067
 42
0.0
 10
-30.38468712904887
 20
58.5001017466509
 42
-0.4142135623732564
 10
-29.98468712904878
 20
58.10010174665103
 42
0.0
 10
-29.98468712904923
 20
57.42799728675596
 42
0.0
 10
-32.56098015940324
 20
57.42799728675596
 42
0.4142135623731705
 10
-33.36098015940343
 20
56.627997286756
 42
0.0
 97
        1
330
BEA
 92
       22
 72
     1
 73
     1
 93
        6
 10
-32.97692046803468
 20
56.62796337120562
 42
-0.4142135623731576
 10
-32.57692046803459
 20
57.02796337120571
 42
0.0
 10
-29.98468712904878
 20
57.02796337120571
 42
0.0
 10
-29.98468712904878
 20
55.507868407665
 42
0.0
 10
-32.57692046803459
 20
55.507868407665
 42
-0.4142135623731731
 10
-32.97692046803468
 20
55.90786840766487
 42
0.0
 97
        1
330
C11
 92
        7
 72
     1
 73
     1
 93
       10
 10
-28.57661522808212
 20
58.5001017466509
 42
0.0
 10
-25.98444972019661
 20
58.5001017466509
 42
-0.4142135623730067
 10
-25.58444972019652
 20
58.10010174665058
 42
0.0
 10
-25.58444972019606
 20
55.12380871629648
 42
0.0
 10
-25.20042394437906
 20
55.12380871629648
 42
0.0
 10
-25.2004239443786
 20
58.1001017466508
 42
0.4142135623731134
 10
-26.00042394437833
 20
58.90010174665076
 42
0.0
 10
-28.97664914363259
 20
58.90010174665076
 42
0.0
 10
-28.97664914363259
 20
55.12380871629648
 42
0.0
 10
-28.57661522808212
 20
55.12380871629648
 42
0.0
 97
        1
330
BE9
 92
        7
 72
     0
 73
     1
 93
        4
 10
-24.57637781922995
 20
55.12380871629648
 10
-24.19231812786165
 20
55.12380871629648
 10
-24.19231812786165
 20
58.90010174665076
 10
-24.57637781922995
 20
58.90010174665076
 97
        1
330
BE8
 92
        7
 72
     0
 73
     1
 93
        4
 10
-24.19231812786165
 20
59.87619128370352
 10
-24.5763778192304
 20
59.87619128370352
 10
-24.5763778192304
 20
59.28412752246913
 10
-24.1923181278612
 20
59.28412752246913
 97
        1
330
C12
 92
        7
 72
     1
 73
     1
 93
       10
 10
-23.18424622689509
 20
58.5001017466509
 42
0.0
 10
-20.59204680345965
 20
58.5001017466509
 42
-0.4142135623730898
 10
-20.19204680345956
 20
58.1001017466508
 42
0.0
 10
-20.19204680345956
 20
55.12380871629648
 42
0.0
 10
-19.79201288790909
 20
55.12380871629648
 42
0.0
 10
-19.79201288790909
 20
58.1001017466508
 42
0.4142135623731547
 10
-20.59201288790928
 20
58.90010174665076
 42
0.0
 10
-23.56830591826338
 20
58.90010174665076
 42
0.0
 10
-23.56830591826338
 20
55.12380871629648
 42
0.0
 10
-23.18424622689463
 20
55.12380871629648
 42
0.0
 97
        1
330
BE7
 92
        7
 72
     1
 73
     1
 93
        8
 10
-19.1999120763262
 20
55.92680650071542
 42
0.4153115297271299
 10
-18.39991769304061
 20
55.12380871629648
 42
0.0
 10
-15.4236900118708
 20
55.12380871629648
 42
0.0
 10
-15.4236900118708
 20
59.87619128370352
 42
0.0
 10
-15.80771578768872
 20
59.87619128370352
 42
0.0
 10
-15.80771578768872
 20
58.90010174665076
 42
0.0
 10
-18.39176256411201
 20
58.90010174665076
 42
0.4131164467977965
 10
-19.19175694739761
 20
58.1030995310698
 42
0.0
 97
        1
330
BE6
 92
       22
 72
     1
 73
     1
 93
        6
 10
-18.79994912667462
 20
58.1001017466508
 42
-0.4142135623731575
 10
-18.39994912667453
 20
58.5001017466509
 42
0.0
 10
-15.80771578768872
 20
58.50010174665067
 42
0.0
 10
-15.80771578768827
 20
55.507868407665
 42
0.0
 10
-18.39994912667453
 20
55.507868407665
 42
-0.4142135623731731
 10
-18.79994912667462
 20
55.90786840766487
 42
0.0
 97
        1
330
BE5
 92
        7
 72
     1
 73
     1
 93
       12
 10
-14.79964388672215
 20
55.92380871629621
 42
0.4142135623729885
 10
-13.99964388672242
 20
55.12380871629648
 42
0.0
 10
-11.8233508563676
 20
55.12380871629648
 42
0.4142135623731289
 10
-11.02335085636741
 20
55.92380871629666
 42
0.0
 10
-11.02335085636741
 20
58.90010174665076
 42
0.0
 10
-11.42338477191788
 20
58.90010174665076
 42
0.0
 10
-11.42338477191788
 20
55.91567577726095
 42
-0.4131711701795319
 10
-11.82196067063523
 20
55.51567831234956
 42
0.0
 10
-14.01419400962095
 20
55.50787335710947
 42
-0.4152567234626918
 10
-14.41561811090378
 20
55.90787082202087
 42
0.0
 10
-14.41561811090378
 20
58.90010174665076
 42
0.0
 10
-14.7996438867226
 20
58.90010174665076
 42
0.0
 97
        1
330
BE4
 92
        7
 72
     1
 73
     1
 93
       20
 10
-7.423079531965413
 20
57.02796337120571
 42
-0.414213562373168
 10
-7.023079531965322
 20
56.62796337120562
 42
0.0
 10
-7.023079531965322
 20
55.90786840766487
 42
-0.4142135623731575
 10
-7.423079531965413
 20
55.507868407665
 42
0.0
 10
-10.41534678650168
 20
55.507868407665
 42
0.0
 10
-10.41534678650168
 20
55.12380871629648
 42
0.0
 10
-7.445787917283723
 20
55.12380871629648
 42
0.4114777732065809
 10
-6.645822882998345
 20
55.91632914939783
 42
0.0
 10
-6.639238813324936
 20
56.62051771985716
 42
0.4169546541682913
 10
-7.439203847610315
 20
57.42799728675596
 42
0.0
 10
-9.615312870951584
 20
57.42799728675596
 42
-0.4142135623729911
 10
-10.01531287095122
 20
57.82799728675581
 42
0.0
 10
-10.01531287095122
 20
58.10010174665103
 42
-0.414213562372991
 10
-9.615312870951584
 20
58.5001017466509
 42
0.0
 10
-6.92703069357276
 20
58.50010174665067
 42
0.0
 10
-6.927030693572305
 20
58.90010174665076
 42
0.0
 10
-9.615346786501959
 20
58.90010174665076
 42
0.4142135623730467
 10
-10.41534678650168
 20
58.10010174665103
 42
0.0
 10
-10.41534678650168
 20
57.82796337120544
 42
0.4142135623730301
 10
-9.615346786501959
 20
57.02796337120571
 42
0.0
 97
        1
330
BE3
 92
        7
 72
     1
 73
     1
 93
       12
 10
-5.21497371544865
 20
57.42799728675596
 42
0.4142135623730871
 10
-6.014973715448377
 20
56.627997286756
 42
0.0
 10
-6.014973715448377
 20
55.92380871629621
 42
0.4142135623730715
 10
-5.21497371544865
 20
55.12380871629648
 42
0.0
 10
-2.23871460064447
 20
55.12380871629648
 42
0.0
 10
-2.23871460064447
 20
58.10010174665058
 42
0.414213562373155
 10
-3.038714600644652
 20
58.90010174665076
 42
0.0
 10
-5.726962862471737
 20
58.90010174665076
 42
0.0
 10
-5.726962862472191
 20
58.5001017466509
 42
0.0
 10
-3.038748516194573
 20
58.5001017466509
 42
-0.4142135623730067
 10
-2.638748516194482
 20
58.10010174665058
 42
0.0
 10
-2.638748516194482
 20
57.42799728675596
 42
0.0
 97
        1
330
BE2
 92
       22
 72
     1
 73
     1
 93
        6
 10
-2.638748516194937
 20
57.02796337120571
 42
0.0
 10
-2.638748516194482
 20
55.50786840766477
 42
0.0
 10
-5.21497371544865
 20
55.507868407665
 42
-0.4142135623731731
 10
-5.614973715448741
 20
55.90786840766509
 42
0.0
 10
-5.614973715448741
 20
56.62796337120562
 42
-0.4142135623731576
 10
-5.21497371544865
 20
57.02796337120571
 42
0.0
 97
        1
330
C0D
 75
     0
 76
     1
 47
0.0407044778999864
 98
       13
 10
-34.18710075113677
 20
56.16907953933765
 10
-33.12851374392494
 20
56.49471602641233
 10
-33.12851374392494
 20
56.49471602641233
 10
-28.77202873835904
 20
57.51232930166111
 10
-24.41554807250941
 20
57.91937341678636
 10
-24.41554807250941
 20
59.384734621186
 10
-23.31624584658039
 20
58.3264175319116
 10
-19.04119127844888
 20
57.75655517324913
 10
-19.04119127844888
 20
57.75655517324913
 10
-14.64399105416578
 20
57.43091868617466
 10
-8.048195057457178
 20
57.22739662861204
 10
-4.017427461911665
 20
57.18669281458665
 10
-4.017427461911665
 20
57.18669281458665
  0
TEXT
  5
BED
330
B9E
100
AcDbEntity
  8
leg fin
100
AcDbText
 10
3.391127401597259
 20
2.107634911895729
 30
0.0
 40
1.5
  1
Este desenho é propriedade da Sanindusa, S.A., e não pode ser copiado nem divulgado sem nossa autorização.
 50
90.0
 41
0.8
  7
SANINDUSA
100
AcDbText
  0
LINE
  5
BEE
330
B9E
100
AcDbEntity
  8
3
100
AcDbLine
 10
-90.0
 20
4.0
 30
0.0
 11
-90.0
 21
12.0
 31
0.0
  0
TEXT
  5
BEF
330
B9E
100
AcDbEntity
  8
1
100
AcDbText
 10
-39.0
 20
9.25
 30
0.0
 40
2.0
  1
Substituido por:
 41
0.8
  7
SANINDUSA
 11
-39.0
 21
10.25
 31
0.0
100
AcDbText
 73
     2
  0
POINT
  5
BF0
330
B9E
100
AcDbEntity
  8
SANINDUSA
100
AcDbPoint
 10
0.0
 20
0.0
 30
0.0
  0
TEXT
  5
BF1
330
B9E
100
AcDbEntity
  8
1
100
AcDbText
 10
-89.0
 20
16.74927010445663
 30
0.0
 40
2.0
  1
Normas:
 41
0.8
  7
SANINDUSA
 11
-89.0
 21
17.74927010445663
 31
0.0
100
AcDbText
 73
     2
  0
LINE
  5
BF2
330
B9E
100
AcDbEntity
  8
3
100
AcDbLine
 10
-90.0
 20
12.0
 30
0.0
 11
-90.0
 21
20.0
 31
0.0
  0
LINE
  5
BF3
330
B9E
100
AcDbEntity
  8
3
100
AcDbLine
 10
-110.546019464768
 20
12.0
 30
0.0
 11
-110.546019464768
 21
20.0
 31
0.0
  0
TEXT
  5
BF4
330
B9E
100
AcDbEntity
  8
1
100
AcDbText
 10
-109.6177520618648
 20
17.25
 30
0.0
 40
2.0
  1
Cor:
 41
0.8
  7
SANINDUSA
 11
-109.6177520618648
 21
18.25
 31
0.0
100
AcDbText
 73
     2
  0
LINE
  5
BF5
330
B9E
100
AcDbEntity
  8
leg fin
100
AcDbLine
 10
-91.42857142857156
 20
20.0
 30
0.0
 11
-91.42857142857156
 21
28.5
 31
0.0
  0
LINE
  5
BF6
330
B9E
100
AcDbEntity
  8
leg fin
100
AcDbLine
 10
-104.2857142857142
 20
20.0
 30
0.0
 11
-104.2857142857142
 21
28.5
 31
0.0
  0
LINE
  5
BF7
330
B9E
100
AcDbEntity
  8
leg fin
100
AcDbLine
 10
-117.1428571428573
 20
20.0
 30
0.0
 11
-117.1428571428573
 21
28.5
 31
0.0
  0
POINT
  5
BF8
330
B9E
100
AcDbEntity
  8
SANINDUSA
100
AcDbPoint
 10
-117.1428571428573
 20
28.5
 30
0.0
  0
POINT
  5
BF9
330
B9E
100
AcDbEntity
  8
SANINDUSA
100
AcDbPoint
 10
-104.2857142857142
 20
28.5
 30
0.0
  0
POINT
  5
BFA
330
B9E
100
AcDbEntity
  8
SANINDUSA
100
AcDbPoint
 10
-91.42857142857156
 20
28.5
 30
0.0
  0
TEXT
  5
BFB
330
B9E
100
AcDbEntity
  8
1
100
AcDbText
 10
-116.200160604496
 20
26.43288406845113
 30
0.0
 40
1.5
  1
Nº Seq.:
 41
0.8
  7
SANINDUSA
 11
-116.200160604496
 21
27.18288406845113
 31
0.0
100
AcDbText
 73
     2
  0
TEXT
  5
BFC
330
B9E
100
AcDbEntity
  8
1
100
AcDbText
 10
-103.2106584078738
 20
26.43288406845113
 30
0.0
 40
1.5
  1
Tipo:
 41
0.8
  7
SANINDUSA
 11
-103.2106584078738
 21
27.18288406845113
 31
0.0
100
AcDbText
 73
     2
  0
TEXT
  5
BFD
330
B9E
100
AcDbEntity
  8
1
100
AcDbText
 10
-90.22114672289353
 20
26.43288406845113
 30
0.0
 40
1.5
  1
Prod.:
 41
0.8
  7
SANINDUSA
 11
-90.22114672289353
 21
27.18288406845113
 31
0.0
100
AcDbText
 73
     2
  0
TEXT
  5
BFE
330
B9E
100
AcDbEntity
  8
1
100
AcDbText
 10
-64.77320576346574
 20
26.43288406845113
 30
0.0
 40
1.5
  1
Rev.:
 41
0.8
  7
SANINDUSA
 11
-64.77320576346574
 21
27.18288406845113
 31
0.0
100
AcDbText
 73
     2
  0
LINE
  5
BFF
330
B9E
100
AcDbEntity
  8
leg fin
100
AcDbLine
 10
-52.85714285714266
 20
20.0
 30
0.0
 11
-52.85714285714266
 21
28.5
 31
0.0
  0
LINE
  5
C00
330
B9E
100
AcDbEntity
  8
leg fin
100
AcDbLine
 10
-65.71428571428578
 20
20.0
 30
0.0
 11
-65.71428571428578
 21
28.5
 31
0.0
  0
LINE
  5
C01
330
B9E
100
AcDbEntity
  8
leg fin
100
AcDbLine
 10
-78.57142857142844
 20
20.0
 30
0.0
 11
-78.57142857142844
 21
28.5
 31
0.0
  0
POINT
  5
C02
330
B9E
100
AcDbEntity
  8
SANINDUSA
100
AcDbPoint
 10
-78.57142857142844
 20
28.5
 30
0.0
  0
POINT
  5
C03
330
B9E
100
AcDbEntity
  8
SANINDUSA
100
AcDbPoint
 10
-65.71428571428578
 20
28.5
 30
0.0
  0
POINT
  5
C04
330
B9E
100
AcDbEntity
  8
SANINDUSA
100
AcDbPoint
 10
-52.85714285714266
 20
28.5
 30
0.0
  0
TEXT
  5
C05
330
B9E
100
AcDbEntity
  8
1
100
AcDbText
 10
-77.61097961686573
 20
26.43288406845113
 30
0.0
 40
1.5
  1
Peça:
 41
0.8
  7
SANINDUSA
 11
-77.61097961686573
 21
27.18288406845113
 31
0.0
100
AcDbText
 73
     2
  0
TEXT
  5
C06
330
B9E
100
AcDbEntity
  8
1
100
AcDbText
 10
-52.06538060077036
 20
26.43288406845113
 30
0.0
 40
1.5
  1
Alt.:
 41
0.8
  7
SANINDUSA
 11
-52.06538060077036
 21
27.18288406845113
 31
0.0
100
AcDbText
 73
     2
  0
LINE
  5
C07
330
B9E
100
AcDbEntity
  8
3
100
AcDbLine
 10
0.0
 20
12.0
 30
0.0
 11
-40.0
 21
12.0
 31
0.0
  0
LINE
  5
C08
330
B9E
100
AcDbEntity
  8
3
100
AcDbLine
 10
-40.0
 20
32.5
 30
0.0
 11
0.0
 21
32.5
 31
0.0
  0
TEXT
  5
C09
330
B9E
100
AcDbEntity
  8
1
100
AcDbText
 10
-19.0
 20
29.75
 30
0.0
 40
2.0
  1
Folha:
 41
0.8
  7
SANINDUSA
 11
-19.0
 21
30.75
 31
0.0
100
AcDbText
 73
     2
  0
LINE
  5
C0A
330
B9E
100
AcDbEntity
  8
3
100
AcDbLine
 10
-20.0
 20
32.5
 30
0.0
 11
-20.0
 21
20.0
 31
0.0
  0
TEXT
  5
C0B
330
B9E
100
AcDbEntity
  8
1
100
AcDbText
 10
-39.0
 20
29.75
 30
0.0
 40
2.0
  1
Escala:
 41
0.8
  7
SANINDUSA
 11
-39.0
 21
30.75
 31
0.0
100
AcDbText
 73
     2
  0
TEXT
  5
C0C
330
B9E
100
AcDbEntity
  8
1
100
AcDbText
 10
-39.0
 20
17.25
 30
0.0
 40
2.0
  1
Substitui:
 41
0.8
  7
SANINDUSA
 11
-39.0
 21
18.25
 31
0.0
100
AcDbText
 73
     2
  0
LWPOLYLINE
  5
C0D
102
{ACAD_REACTORS
330
BEC
102
}
330
B9E
100
AcDbEntity
  8
9
100
AcDbPolyline
 90
        6
 70
     1
 43
0.0
 10
-2.638748516194482
 20
57.02796337120571
 10
-2.638748516194482
 20
55.50786840766477
 10
-5.21497371544865
 20
55.507868407665
 42
-0.4142135623730898
 10
-5.614973715448741
 20
55.90786840766487
 10
-5.614973715448741
 20
56.62796337120562
 42
-0.4142135623731576
 10
-5.21497371544865
 20
57.02796337120571
  0
LINE
  5
C0E
330
B9E
100
AcDbEntity
  8
3
100
AcDbLine
 10
-40.0
 20
50.0
 30
0.0
 11
0.0
 21
50.0
 31
0.0
  0
ATTDEF
  5
C0F
330
B9E
100
AcDbEntity
  8
1
100
AcDbText
 10
-31.30691739422431
 20
40.25
 30
0.0
 40
2.0
  1
XXXXXXXXXXXXXXX
 41
0.8
  7
SANINDUSA
 72
     4
 11
-20.0
 21
41.25
 31
0.0
100
AcDbAttributeDefinition
  3
Observações:
  2
OBS
 70
     0
  0
TEXT
  5
C10
330
B9E
100
AcDbEntity
  8
1
100
AcDbText
 10
-39.0
 20
47.25
 30
0.0
 40
2.0
  1
Observações:
 41
0.8
  7
SANINDUSA
 11
-39.0
 21
48.25
 31
0.0
100
AcDbText
 73
     2
  0
LWPOLYLINE
  5
C11
102
{ACAD_REACTORS
330
BEC
102
}
330
B9E
100
AcDbEntity
  8
9
100
AcDbPolyline
 90
        6
 70
     1
 43
0.0
 10
-29.98468712904878
 20
57.02796337120571
 10
-29.98468712904878
 20
55.507868407665
 10
-32.57692046803459
 20
55.507868407665
 42
-0.4142135623731731
 10
-32.97692046803468
 20
55.90786840766487
 10
-32.97692046803468
 20
56.62796337120562
 42
-0.4142135623731576
 10
-32.57692046803459
 20
57.02796337120571
  0
LWPOLYLINE
  5
C12
102
{ACAD_REACTORS
330
BEC
102
}
330
B9E
100
AcDbEntity
  8
9
100
AcDbPolyline
 90
        4
 70
     1
 43
0.0
 10
-24.19231812786165
 20
59.87619128370352
 10
-24.57637781922995
 20
59.87619128370352
 10
-24.57637781922995
 20
59.28412752246913
 10
-24.19231812786165
 20
59.28412752246913
  0
ENDBLK
  5
C14
330
B9E
100
AcDbEntity
  8
0
100
AcDbBlockEnd
  0
ENDSEC
  0
SECTION
  2
ENTITIES
  0
LWPOLYLINE
  5
159E
330
1F
100
AcDbEntity
  8
SANINDUSA
100
AcDbPolyline
 90
       13
 70
   128
 43
0.0
 10
4520.287248508148
 20
3038.242977202414
 10
4520.287197784595
 20
3038.245883465288
 10
4520.287147821002
 20
3038.248745561122
 10
4520.287099511437
 20
3038.251513422011
 10
4520.287053675465
 20
3038.254138768195
 10
4520.287011147551
 20
3038.256575525283
 10
4520.286972642951
 20
3038.258781195163
 10
4520.286938862018
 20
3038.26071709442
 10
4520.286910356097
 20
3038.262349427222
 10
4520.286887661629
 20
3038.263649583338
 10
4520.286871166042
 20
3038.264594913004
 10
4520.286861152462
 20
3038.265168786524
 10
4520.286857799701
 20
3038.265361190318
  0
ARC
  5
159F
330
1F
100
AcDbEntity
  8
SANINDUSA
100
AcDbCircle
 10
4520.294856574304
 20
3038.2655008007
 30
0.0
 40
0.0080000000000001
100
AcDbArc
 50
90.0
 51
181.0000000097201
  0
LINE
  5
15A0
330
1F
100
AcDbEntity
  8
SANINDUSA
100
AcDbLine
 10
4520.294856579117
 20
3038.273500800608
 30
0.0
 11
4520.644284413271
 21
3038.273500800608
 31
0.0
  0
LWPOLYLINE
  5
15A3
330
1F
100
AcDbEntity
  8
SANINDUSA
100
AcDbPolyline
 90
       13
 70
   128
 43
0.0
 10
4520.652283192687
 20
3038.265361190318
 10
4520.652279839925
 20
3038.265168786524
 10
4520.652269826345
 20
3038.264594913004
 10
4520.652253315858
 20
3038.263649583338
 10
4520.65223062139
 20
3038.262349427222
 10
4520.65220213037
 20
3038.26071709442
 10
4520.652168334536
 20
3038.258781195163
 10
4520.652129844837
 20
3038.256575525283
 10
4520.652087302021
 20
3038.254138768195
 10
4520.652041480951
 20
3038.251513422011
 10
4520.651993171386
 20
3038.248745561122
 10
4520.651943207793
 20
3038.245883465288
 10
4520.651892484241
 20
3038.242977202414
  0
ARC
  5
15A5
330
1F
100
AcDbEntity
  8
SANINDUSA
100
AcDbCircle
 10
4520.644284414452
 20
3038.2655008007
 30
0.0
 40
0.0080000000000001
100
AcDbArc
 50
358.9999999902799
 51
90.0
  0
LINE
  5
15AA
330
1F
100
AcDbEntity
  8
SANINDUSA
100
AcDbLine
 10
4520.287379623465
 20
3038.235465884684
 30
0.0
 11
4520.287248508148
 21
3038.242977202414
 31
0.0
  0
LINE
  5
15AB
330
1F
100
AcDbEntity
  8
SANINDUSA
100
AcDbLine
 10
4520.651892484241
 20
3038.242977202414
 30
0.0
 11
4520.651761368923
 21
3038.235465884684
 31
0.0
  0
LINE
  5
15AE
330
1F
100
AcDbEntity
  8
SANINDUSA
100
AcDbLine
 10
4520.643762589506
 20
3038.23350077915
 30
0.0
 11
4520.295378402881
 21
3038.23350077915
 31
0.0
  0
LINE
  5
15B0
330
1F
100
AcDbEntity
  8
SANINDUSA
100
AcDbLine
 10
4520.295378402881
 20
3038.23350077915
 30
0.0
 11
4520.289379314593
 21
3038.23350077915
 31
0.0
  0
ARC
  5
15B1
330
1F
100
AcDbEntity
  8
SANINDUSA
100
AcDbCircle
 10
4520.289379312283
 20
3038.235500800699
 30
0.0
 40
0.0019999999999999
100
AcDbArc
 50
181.0000000097201
 51
270.0
  0
ARC
  5
15B2
330
1F
100
AcDbEntity
  8
SANINDUSA
100
AcDbCircle
 10
4520.649761676472
 20
3038.235500800699
 30
0.0
 40
0.0020000000000001
100
AcDbArc
 50
270.0
 51
358.9999999902799
  0
LINE
  5
15B3
330
1F
100
AcDbEntity
  8
SANINDUSA
100
AcDbLine
 10
4520.649761677794
 20
3038.23350077915
 30
0.0
 11
4520.643762589506
 21
3038.23350077915
 31
0.0
  0
ARC
  5
15B8
330
1F
100
AcDbEntity
  8
SANINDUSA
100
AcDbCircle
 10
4520.289501497738
 20
3038.229500800699
 30
0.0
 40
0.0020000000000002
100
AcDbArc
 50
90.0
 51
181.0000000097201
  0
LINE
  5
15B9
330
1F
100
AcDbEntity
  8
SANINDUSA
100
AcDbLine
 10
4520.289501504115
 20
3038.231500804899
 30
0.0
 11
4520.295500577502
 21
3038.231500804899
 31
0.0
  0
LINE
  5
15BC
330
1F
100
AcDbEntity
  8
SANINDUSA
100
AcDbLine
 10
4520.295500577502
 20
3038.231500804899
 30
0.0
 11
4520.643640399985
 21
3038.231500804899
 31
0.0
  0
LINE
  5
15BF
330
1F
100
AcDbEntity
  8
SANINDUSA
100
AcDbLine
 10
4520.643640399985
 20
3038.231500804899
 30
0.0
 11
4520.649639488272
 21
3038.231500804899
 31
0.0
  0
ARC
  5
15C0
330
1F
100
AcDbEntity
  8
SANINDUSA
100
AcDbCircle
 10
4520.649639491018
 20
3038.229500800699
 30
0.0
 40
0.0020000000000002
100
AcDbArc
 50
358.9999999902799
 51
90.0
  0
LINE
  5
15C5
330
1F
100
AcDbEntity
  8
SANINDUSA
100
AcDbLine
 10
4520.294536189251
 20
3037.826465890287
 30
0.0
 11
4520.287501798086
 21
3038.229465902327
 31
0.0
  0
LINE
  5
15C7
330
1F
100
AcDbEntity
  8
SANINDUSA
100
AcDbLine
 10
4520.6516391794
 20
3038.229465902327
 30
0.0
 11
4520.644604788237
 21
3037.826465890287
 31
0.0
  0
ARC
  5
15C8
330
1F
100
AcDbEntity
  8
SANINDUSA
100
AcDbCircle
 10
4520.291431372822
 20
3038.233500800699
 30
0.0
 40
0.002
100
AcDbArc
 50
270.0
 51
329.9999999842527
  0
ARC
  5
15CD
330
1F
100
AcDbEntity
  8
SANINDUSA
100
AcDbCircle
 10
4520.647709615934
 20
3038.233500800699
 30
0.0
 40
0.0020000000000001
100
AcDbArc
 50
210.0000000157473
 51
270.0
  0
ARC
  5
15D0
330
1F
100
AcDbEntity
  8
SANINDUSA
100
AcDbCircle
 10
4520.644245514318
 20
3038.2315008007
 30
0.0
 40
0.0019999999999999
100
AcDbArc
 50
30.00000001574733
 51
90.0
  0
ARC
  5
15D2
330
1F
100
AcDbEntity
  8
SANINDUSA
100
AcDbCircle
 10
4520.294895474438
 20
3038.2315008007
 30
0.0
 40
0.0020000000000001
100
AcDbArc
 50
90.0
 51
149.9999999842526
  0
LINE
  5
15D3
330
1F
100
AcDbEntity
  8
SANINDUSA
100
AcDbLine
 10
4520.63660600882
 20
3037.824500799655
 30
0.0
 11
4520.302534968666
 21
3037.824500799655
 31
0.0
  0
LINE
  5
15D6
330
1F
100
AcDbEntity
  8
SANINDUSA
100
AcDbLine
 10
4520.302534968666
 20
3037.824500799655
 30
0.0
 11
4520.296535895281
 21
3037.824500799655
 31
0.0
  0
ARC
  5
15D7
330
1F
100
AcDbEntity
  8
SANINDUSA
100
AcDbCircle
 10
4520.296535888905
 20
3037.826500800699
 30
0.0
 40
0.0020000000000002
100
AcDbArc
 50
181.0000000097201
 51
270.0
  0
LINE
  5
15D8
330
1F
100
AcDbEntity
  8
SANINDUSA
100
AcDbLine
 10
4520.642605097108
 20
3037.824500799655
 30
0.0
 11
4520.63660600882
 21
3037.824500799655
 31
0.0
  0
ARC
  5
15D9
330
1F
100
AcDbEntity
  8
SANINDUSA
100
AcDbCircle
 10
4520.642605099852
 20
3037.826500800699
 30
0.0
 40
0.0020000000000002
100
AcDbArc
 50
270.0
 51
358.9999999902799
  0
SPLINE
  5
15DA
330
1F
100
AcDbEntity
  8
SANINDUSA
100
AcDbSpline
210
0.0
220
0.0
230
1.0
 70
    24
 71
     3
 72
    25
 73
    21
 74
     0
 42
0.0000000001
 43
0.0000000001
 40
0.0
 40
0.0
 40
0.0
 40
0.0
 40
0.0630409181479993
 40
0.1266892684316464
 40
0.180519055943846
 40
0.2343489879893156
 40
0.2897410657126691
 40
0.3451332599703665
 40
0.3989113221644291
 40
0.4526900205089019
 40
0.5080279351993527
 40
0.5633664818781674
 40
0.6171647265780896
 40
0.6709629207314255
 40
0.7263236962636974
 40
0.78168378940045
 40
0.8354816275659187
 40
0.8892788211122571
 40
0.9446394152830119
 40
1.0
 40
1.0
 40
1.0
 40
1.0
 10
4520.635834933333
 20
3037.819500804423
 30
0.0
 10
4520.63575200665
 20
3037.819500804423
 30
0.0
 10
4520.635585354244
 20
3037.819500804423
 30
0.0
 10
4520.634524199843
 20
3037.819500804423
 30
0.0
 10
4520.632997470094
 20
3037.819500804423
 30
0.0
 10
4520.63105638731
 20
3037.819500804423
 30
0.0
 10
4520.628617930687
 20
3037.819500804423
 30
0.0
 10
4520.625715611747
 20
3037.819500804423
 30
0.0
 10
4520.622403960585
 20
3037.819500804423
 30
0.0
 10
4520.618690026892
 20
3037.819500804423
 30
0.0
 10
4520.614549100431
 20
3037.819500804423
 30
0.0
 10
4520.61004437635
 20
3037.819500804423
 30
0.0
 10
4520.605256619186
 20
3037.819500804423
 30
0.0
 10
4520.600182318152
 20
3037.819500804423
 30
0.0
 10
4520.594800600903
 20
3037.819500804423
 30
0.0
 10
4520.589197521893
 20
3037.819500804423
 30
0.0
 10
4520.583469991602
 20
3037.819500804423
 30
0.0
 10
4520.57760809883
 20
3037.819500804423
 30
0.0
 10
4520.571593095408
 20
3037.819500804423
 30
0.0
 10
4520.567507125013
 20
3037.819500804423
 30
0.0
 10
4520.56546413999
 20
3037.819500804423
 30
0.0
  0
SPLINE
  5
15DF
330
1F
100
AcDbEntity
  8
SANINDUSA
100
AcDbSpline
210
0.0
220
0.0
230
1.0
 70
    24
 71
     3
 72
    21
 73
    17
 74
     0
 42
0.0000000001
 43
0.0000000001
 40
0.0
 40
0.0
 40
0.0
 40
0.0
 40
0.0633600076627058
 40
0.1267199070262787
 40
0.1994546095725586
 40
0.2724208605985162
 40
0.3451555879033204
 40
0.41782001234598
 40
0.4907161754196687
 40
0.5633815931855139
 40
0.6360750486266626
 40
0.7089999705099325
 40
0.7816924638512052
 40
0.8543848237339437
 40
0.9273084669318208
 40
1.0
 40
1.0
 40
1.0
 40
1.0
 10
4520.303306059054
 20
3037.819500804423
 30
0.0
 10
4520.303390175604
 20
3037.819500804423
 30
0.0
 10
4520.303558408561
 20
3037.819500804423
 30
0.0
 10
4520.304727603161
 20
3037.819500804423
 30
0.0
 10
4520.306707770051
 20
3037.819500804423
 30
0.0
 10
4520.309646481609
 20
3037.819500804423
 30
0.0
 10
4520.313395152323
 20
3037.819500804423
 30
0.0
 10
4520.317940561962
 20
3037.819500804423
 30
0.0
 10
4520.323195051936
 20
3037.819500804423
 30
0.0
 10
4520.329096883748
 20
3037.819500804423
 30
0.0
 10
4520.335592435454
 20
3037.819500804423
 30
0.0
 10
4520.342579521087
 20
3037.819500804423
 30
0.0
 10
4520.34997331907
 20
3037.819500804423
 30
0.0
 10
4520.357691238777
 20
3037.819500804423
 30
0.0
 10
4520.365622216369
 20
3037.819500804423
 30
0.0
 10
4520.370994828363
 20
3037.819500804423
 30
0.0
 10
4520.373676852397
 20
3037.819500804423
 30
0.0
  0
SPLINE
  5
15E7
330
1F
100
AcDbEntity
  8
SANINDUSA
100
AcDbSpline
210
0.0
220
0.0
230
1.0
 70
     8
 71
     3
 72
    14
 73
    10
 74
     0
 42
0.0000000001
 43
0.0000000001
 40
0.0
 40
0.0
 40
0.0
 40
0.0
 40
0.1400812045550186
 40
0.2800812474492147
 40
0.4200321064105788
 40
0.5599656531733788
 40
0.7065788123844995
 40
0.8532447067956145
 40
1.0
 40
1.0
 40
1.0
 40
1.0
 10
4520.294726268462
 20
3037.816128314017
 30
0.0
 10
4520.295693529988
 20
3037.797066481383
 30
0.0
 10
4520.297627492618
 20
3037.758953860353
 30
0.0
 10
4520.301563090901
 20
3037.701857070497
 30
0.0
 10
4520.306256536612
 20
3037.644839291134
 30
0.0
 10
4520.31186439239
 20
3037.586997983186
 30
0.0
 10
4520.318433873625
 20
3037.528337909366
 30
0.0
 10
4520.325937036613
 20
3037.468851227064
 30
0.0
 10
4520.331692093246
 20
3037.429288298997
 30
0.0
 10
4520.33457049828
 20
3037.409500807999
 30
0.0
  0
SPLINE
  5
15EF
330
1F
100
AcDbEntity
  8
SANINDUSA
100
AcDbSpline
210
0.0
220
0.0
230
1.0
 70
     8
 71
     3
 72
    14
 73
    10
 74
     0
 42
0.0000000001
 43
0.0000000001
 40
0.0
 40
0.0
 40
0.0
 40
0.0
 40
0.1400812045929249
 40
0.2800812475250052
 40
0.4200321065242405
 40
0.5599656533249068
 40
0.7065788125757013
 40
0.8532447093227
 40
0.9999999999999998
 40
0.9999999999999998
 40
0.9999999999999998
 40
0.9999999999999998
 10
4520.644414723925
 20
3037.816128314017
 30
0.0
 10
4520.643447462403
 20
3037.797066481382
 30
0.0
 10
4520.641513499783
 20
3037.758953860351
 30
0.0
 10
4520.637577901431
 20
3037.701857070504
 30
0.0
 10
4520.632884455987
 20
3037.644839291106
 30
0.0
 10
4520.627276599195
 20
3037.58699798329
 30
0.0
 10
4520.620707121886
 20
3037.528337908646
 30
0.0
 10
4520.613203943963
 20
3037.468851228315
 30
0.0
 10
4520.607448895172
 20
3037.429288299196
 30
0.0
 10
4520.604570494108
 20
3037.409500807999
 30
0.0
  0
LINE
  5
15FD
330
1F
100
AcDbEntity
  8
SANINDUSA
100
AcDbLine
 10
4520.604570494108
 20
3037.409500807999
 30
0.0
 11
4520.545162835232
 21
3037.409500807999
 31
0.0
  0
LINE
  5
15FE
330
1F
100
AcDbEntity
  8
SANINDUSA
100
AcDbLine
 10
4520.545162835232
 20
3037.409500807999
 30
0.0
 11
4520.469570496194
 21
3037.409500807999
 31
0.0
  0
LINE
  5
15FF
330
1F
100
AcDbEntity
  8
SANINDUSA
100
AcDbLine
 10
4520.393978157155
 20
3037.409500807999
 30
0.0
 11
4520.469570496194
 21
3037.409500807999
 31
0.0
  0
LINE
  5
1600
330
1F
100
AcDbEntity
  8
SANINDUSA
100
AcDbLine
 10
4520.33457049828
 20
3037.409500807999
 30
0.0
 11
4520.393978157155
 21
3037.409500807999
 31
0.0
  0
SPLINE
  5
1607
330
1F
100
AcDbEntity
  8
SANINDUSA
100
AcDbSpline
210
0.0
220
0.0
230
1.0
 70
    24
 71
     3
 72
    13
 73
     9
 74
     0
 42
0.0000000001
 43
0.0000000001
 40
0.0
 40
0.0
 40
0.0
 40
0.0
 40
0.0406080920326923
 40
0.2500058521597321
 40
0.5000004425460679
 40
0.8826247086515037
 40
0.9218182356351109
 40
1.0
 40
1.0
 40
1.0
 40
1.0
 10
4520.373676852397
 20
3037.819500804423
 30
0.0
 10
4520.376272747276
 20
3037.819500804423
 30
0.0
 10
4520.392254510489
 20
3037.819500804423
 30
0.0
 10
4520.424218820237
 20
3037.819500804423
 30
0.0
 10
4520.478049558212
 20
3037.819500804423
 30
0.0
 10
4520.520999355997
 20
3037.819500804423
 30
0.0
 10
4520.552962995871
 20
3037.819500804423
 30
0.0
 10
4520.560466307005
 20
3037.819500804423
 30
0.0
 10
4520.56546413999
 20
3037.819500804423
 30
0.0
  0
ARC
  5
1608
330
1F
100
AcDbEntity
  8
SANINDUSA
100
AcDbCircle
 10
4520.302996073499
 20
3037.811500816984
 30
0.0
 40
0.007999987438471
100
AcDbArc
 50
89.99991693632862
 51
159.6127327902034
  0
ARC
  5
1609
330
1F
100
AcDbEntity
  8
SANINDUSA
100
AcDbCircle
 10
4520.636144929844
 20
3037.81150085007
 30
0.0
 40
0.0079999543523302
100
AcDbArc
 50
20.38072677267592
 51
90.00016154164447
  0
SPLINE
  5
1619
330
1F
100
AcDbEntity
  8
SANINDUSA
100
AcDbSpline
210
0.0
220
0.0
230
1.0
 70
     8
 71
     3
 72
    14
 73
    10
 74
     0
 42
0.0000000001
 43
0.0000000001
 40
0.0
 40
0.0
 40
0.0
 40
0.0
 40
0.0014840538461081
 40
0.119905486541382
 40
0.2344794523321051
 40
0.4403225647344251
 40
0.6282020124626577
 40
0.8120024201759406
 40
1.0
 40
1.0
 40
1.0
 40
1.0
 10
4520.29474304717
 20
3037.816093102573
 30
0.0
 10
4520.294742731759
 20
3037.816099345981
 30
0.0
 10
4520.294717247854
 20
3037.816603787842
 30
0.0
 10
4520.294762636207
 20
3037.81759707643
 30
0.0
 10
4520.295183560105
 20
3037.819404371703
 30
0.0
 10
4520.296198116098
 20
3037.821344701944
 30
0.0
 10
4520.297976005365
 20
3037.823071114971
 30
0.0
 10
4520.30012785873
 20
3037.824224511585
 30
0.0
 10
4520.301722307322
 20
3037.824406281173
 30
0.0
 10
4520.302528531365
 20
3037.824498191951
 30
0.0
  0
ARC
  5
1621
330
1F
100
AcDbEntity
  8
SANINDUSA
100
AcDbCircle
 10
4520.6364233934
 20
3037.816500800699
 30
0.0
 40
0.008
100
AcDbArc
 50
357.3312427123052
 51
90.0
  0
ARC
  5
1628
330
1F
100
AcDbEntity
  8
SANINDUSA
100
AcDbCircle
 10
4520.63615099582
 20
3037.811501701587
 30
0.0
 40
0.0079939716728399
100
AcDbArc
 50
356.9680415385772
 51
20.39014688910576
  0
SPLINE
  5
170D
330
1F
100
AcDbEntity
  8
SANINDUSA
100
AcDbSpline
210
0.0
220
0.0
230
1.0
 70
    24
 71
     1
 72
     4
 73
     2
 74
     0
 42
0.0000000001
 43
0.0000000001
 40
0.0
 40
0.0
 40
1.0
 40
1.0
 10
4520.085304795747
 20
3037.994494018471
 30
0.0
 10
4520.085304795747
 20
3038.106820595777
 30
0.0
  0
SPLINE
  5
170E
330
1F
100
AcDbEntity
  8
SANINDUSA
100
AcDbSpline
210
0.0
220
0.0
230
1.0
 70
    24
 71
     1
 72
     4
 73
     2
 74
     0
 42
0.0000000001
 43
0.0000000001
 40
0.0
 40
0.0
 40
1.0
 40
1.0
 10
4519.719876958971
 20
3038.106820595777
 30
0.0
 10
4519.719876958971
 20
3037.994494018471
 30
0.0
  0
SPLINE
  5
170F
330
1F
100
AcDbEntity
  8
SANINDUSA
100
AcDbSpline
210
0.0
220
0.0
230
1.0
 70
    24
 71
     1
 72
     4
 73
     2
 74
     0
 42
0.0000000001
 43
0.0000000001
 40
0.0
 40
0.0
 40
1.0
 40
1.0
 10
4519.728260963207
 20
3037.96449403218
 30
0.0
 10
4520.076920791512
 20
3037.96449403218
 30
0.0
  0
SPLINE
  5
1710
330
1F
100
AcDbEntity
  8
SANINDUSA
100
AcDbSpline
210
0.0
220
0.0
230
1.0
 70
     8
 71
     3
 72
    22
 73
    18
 74
     0
 42
0.0000000001
 43
0.0000000001
 40
0.0
 40
0.0
 40
0.0
 40
0.0
 40
0.0404425491065014
 40
0.1806160478407919
 40
0.3344739355961437
 40
0.3887239552357079
 40
0.4298629044485677
 40
0.4699769638188814
 40
0.5134245699169814
 40
0.5666912763869886
 40
0.6261985315264164
 40
0.6908039102511676
 40
0.7602340848273914
 40
0.8327492219651549
 40
0.9069665152346678
 40
0.9820139991898463
 40
1.0
 40
1.0
 40
1.0
 40
1.0
 10
4519.720095931535
 20
3037.974526030338
 30
0.0
 10
4519.720100249518
 20
3037.974391466001
 30
0.0
 10
4519.720119533593
 20
3037.973790502928
 30
0.0
 10
4519.720162220918
 20
3037.972950805694
 30
0.0
 10
4519.720209202124
 20
3037.972217948728
 30
0.0
 10
4519.720287844495
 20
3037.971549668116
 30
0.0
 10
4519.720370540169
 20
3037.971042603412
 30
0.0
 10
4519.72051269128
 20
3037.970416112982
 30
0.0
 10
4519.720767954689
 20
3037.969619317282
 30
0.0
 10
4519.721185892885
 20
3037.968693806002
 30
0.0
 10
4519.721812800337
 20
3037.967699453466
 30
0.0
 10
4519.722661300641
 20
3037.966724864291
 30
0.0
 10
4519.723730652972
 20
3037.965848743661
 30
0.0
 10
4519.724996477769
 20
3037.965136315325
 30
0.0
 10
4519.726406210202
 20
3037.964679131645
 30
0.0
 10
4519.727520219739
 20
3037.964468302563
 30
0.0
 10
4519.728140332779
 20
3037.964513564226
 30
0.0
 10
4519.728260218148
 20
3037.964522314584
 30
0.0
  0
SPLINE
  5
1711
330
1F
100
AcDbEntity
  8
SANINDUSA
100
AcDbSpline
210
0.0
220
0.0
230
1.0
 70
     8
 71
     3
 72
    23
 73
    19
 74
     0
 42
0.0000000001
 43
0.0000000001
 40
0.0
 40
0.0
 40
0.0
 40
0.0
 40
0.0562569691377818
 40
0.1265082859546412
 40
0.1920702986086868
 40
0.2535749836173131
 40
0.3112389467881208
 40
0.3649979576733699
 40
0.4144499181551331
 40
0.4586167936331979
 40
0.4965402427133283
 40
0.5306006207424007
 40
0.5667713657225978
 40
0.6100766421134245
 40
0.6710045935685107
 40
0.7756010414090576
 40
0.9045753541333493
 40
1.0
 40
1.0
 40
1.0
 40
1.0
 10
4520.076921685581
 20
3037.964525428927
 30
0.0
 10
4520.077323595343
 20
3037.964530272177
 30
0.0
 10
4520.078227392968
 20
3037.964541163474
 30
0.0
 10
4520.079562152629
 20
3037.964901364421
 30
0.0
 10
4520.080848287426
 20
3037.965477835491
 30
0.0
 10
4520.081941256449
 20
3037.966220364883
 30
0.0
 10
4520.082840056814
 20
3037.967064796661
 30
0.0
 10
4520.08354847083
 20
3037.967962211936
 30
0.0
 10
4520.084075271916
 20
3037.968857276662
 30
0.0
 10
4520.084436975875
 20
3037.969689227935
 30
0.0
 10
4520.084665044321
 20
3037.970407546248
 30
0.0
 10
4520.084800695356
 20
3037.970992321682
 30
0.0
 10
4520.084881258631
 20
3037.971464539899
 30
0.0
 10
4520.084936001951
 20
3037.971896441263
 30
0.0
 10
4520.084983947169
 20
3037.972409922508
 30
0.0
 10
4520.085028981806
 20
3037.973112207044
 30
0.0
 10
4520.085071518561
 20
3037.97402500308
 30
0.0
 10
4520.085096871964
 20
3037.974838072914
 30
0.0
 10
4520.08511087074
 20
3037.975418345544
 30
0.0
  0
SPLINE
  5
1712
330
1F
100
AcDbEntity
  8
SANINDUSA
100
AcDbSpline
210
0.0
220
0.0
230
1.0
 70
     8
 71
     3
 72
    13
 73
     9
 74
     0
 42
0.0000000001
 43
0.0000000001
 40
0.0
 40
0.0
 40
0.0
 40
0.0
 40
0.5386541730556355
 40
0.8079777410949924
 40
0.9426386663660808
 40
0.976303802010516
 40
0.9971107516639804
 40
0.9999999999999998
 40
0.9999999999999998
 40
0.9999999999999998
 40
0.9999999999999998
 10
4519.728068678623
 20
3037.88577615968
 30
0.0
 10
4519.728102159637
 20
3037.829140966634
 30
0.0
 10
4519.728152380941
 20
3037.744188547006
 30
0.0
 10
4519.728316715431
 20
3037.645081257855
 30
0.0
 10
4519.728246676126
 20
3037.599062495895
 30
0.0
 10
4519.728359809147
 20
3037.579180388414
 30
0.0
 10
4519.728262304935
 20
3037.573145697835
 30
0.0
 10
4519.728386262817
 20
3037.570657193971
 30
0.0
 10
4519.728401376848
 20
3037.570353773749
 30
0.0
  0
SPLINE
  5
1713
330
1F
100
AcDbEntity
  8
SANINDUSA
100
AcDbSpline
210
0.0
220
0.0
230
1.0
 70
     8
 71
     3
 72
    11
 73
     7
 74
     0
 42
0.0000000001
 43
0.0000000001
 40
0.0
 40
0.0
 40
0.0
 40
0.0
 40
0.0015138675926812
 40
0.0159642956576323
 40
0.0331389978894289
 40
1.0
 40
1.0
 40
1.0
 40
1.0
 10
4520.076785682683
 20
3037.570353416121
 30
0.0
 10
4520.076796008526
 20
3037.570552219757
 30
0.0
 10
4520.076904898365
 20
3037.572648677888
 30
0.0
 10
4520.076839009619
 20
3037.577009288956
 30
0.0
 10
4520.077395100208
 20
3037.708282406957
 30
0.0
 10
4520.077277229215
 20
3037.837685968686
 30
0.0
 10
4520.077161415462
 20
3037.96483100704
 30
0.0
  0
SPLINE
  5
1714
330
1F
100
AcDbEntity
  8
SANINDUSA
100
AcDbSpline
210
0.0
220
0.0
230
1.0
 70
     8
 71
     3
 72
    33
 73
    29
 74
     0
 42
0.0000000001
 43
0.0000000001
 40
0.0
 40
0.0
 40
0.0
 40
0.0
 40
0.0212217279620351
 40
0.0609774832505312
 40
0.0991549751290863
 40
0.1393219976331671
 40
0.1797617443934909
 40
0.2204470523259055
 40
0.2613267980574318
 40
0.3023392704636773
 40
0.3434153058586088
 40
0.3844573772544618
 40
0.4253943160734264
 40
0.4661615654333821
 40
0.5067100224206581
 40
0.5468891018353258
 40
0.5870211189145147
 40
0.6275155077194343
 40
0.6683085009326191
 40
0.7093241508010058
 40
0.7504755612960194
 40
0.7916587136464322
 40
0.8327568611547832
 40
0.8736816704692945
 40
0.9143562076077072
 40
0.9544676107921244
 40
0.9940215051838826
 40
1.0
 40
1.0
 40
1.0
 40
1.0
 10
4519.728291510587
 20
3037.570351195848
 30
0.0
 10
4519.72831150547
 20
3037.569480625963
 30
0.0
 10
4519.7283689578
 20
3037.566979172706
 30
0.0
 10
4519.728688538832
 20
3037.562920356354
 30
0.0
 10
4519.729315840174
 20
3037.558113257454
 30
0.0
 10
4519.730256327479
 20
3037.55332746854
 30
0.0
 10
4519.731516128742
 20
3037.54850977434
 30
0.0
 10
4519.73308362244
 20
3037.543752191205
 30
0.0
 10
4519.734952287728
 20
3037.539079393128
 30
0.0
 10
4519.737114927521
 20
3037.53451737393
 30
0.0
 10
4519.739561011176
 20
3037.530093214574
 30
0.0
 10
4519.74227755242
 20
3037.525833416525
 30
0.0
 10
4519.745249331042
 20
3037.521763216805
 30
0.0
 10
4519.748460173724
 20
3037.517905108036
 30
0.0
 10
4519.75188959217
 20
3037.514282508098
 30
0.0
 10
4519.755526461578
 20
3037.510906547823
 30
0.0
 10
4519.759367080447
 20
3037.507768073016
 30
0.0
 10
4519.763416329038
 20
3037.50486041769
 30
0.0
 10
4519.767669011088
 20
3037.502190508777
 30
0.0
 10
4519.772102825247
 20
3037.499776674702
 30
0.0
 10
4519.776692460926
 20
3037.49763591777
 30
0.0
 10
4519.781409778046
 20
3037.495784250268
 30
0.0
 10
4519.786224993881
 20
3037.49423405083
 30
0.0
 10
4519.791108329657
 20
3037.492997939941
 30
0.0
 10
4519.796020446944
 20
3037.492075409297
 30
0.0
 10
4519.800926779072
 20
3037.491503675797
 30
0.0
 10
4519.804433271188
 20
3037.491238407992
 30
0.0
 10
4519.806300897743
 20
3037.491190664837
 30
0.0
 10
4519.806546120887
 20
3037.491184396064
 30
0.0
  0
SPLINE
  5
1715
330
1F
100
AcDbEntity
  8
SANINDUSA
100
AcDbSpline
210
0.0
220
0.0
230
1.0
 70
     8
 71
     3
 72
    32
 73
    28
 74
     0
 42
0.0000000001
 43
0.0000000001
 40
0.0
 40
0.0
 40
0.0
 40
0.0
 40
0.0376826189144798
 40
0.0761863849323989
 40
0.1176764646990736
 40
0.1578511964409357
 40
0.1983886873309165
 40
0.2392151671344744
 40
0.2802535169611437
 40
0.3214156184506424
 40
0.362593019865615
 40
0.4036735659849428
 40
0.4445700022493042
 40
0.4852064777397458
 40
0.5254710398189828
 40
0.5655274599361185
 40
0.6059176624589925
 40
0.646580643217281
 40
0.6874617554938284
 40
0.7284966621453634
 40
0.7696141259629146
 40
0.8107228921053055
 40
0.8517466861726196
 40
0.8926243403372204
 40
0.9333056668592721
 40
0.9729962725059236
 40
0.9999999999999998
 40
0.9999999999999998
 40
0.9999999999999998
 40
0.9999999999999998
 10
4519.998640566115
 20
3037.491185319936
 30
0.0
 10
4520.000185127279
 20
3037.491258524942
 30
0.0
 10
4520.003307907348
 20
3037.491406530175
 30
0.0
 10
4520.008111061738
 20
3037.491928849219
 30
0.0
 10
4520.012973740164
 20
3037.492762339664
 30
0.0
 10
4520.017853580833
 20
3037.493927643638
 30
0.0
 10
4520.022625415877
 20
3037.495385844039
 30
0.0
 10
4520.027330682183
 20
3037.497150101142
 30
0.0
 10
4520.031940879032
 20
3037.499213220985
 30
0.0
 10
4520.036426803351
 20
3037.501565418194
 30
0.0
 10
4520.040758871366
 20
3037.504193604936
 30
0.0
 10
4520.044908741688
 20
3037.507082006068
 30
0.0
 10
4520.048850408047
 20
3037.510213119772
 30
0.0
 10
4520.052559848277
 20
3037.513566566741
 30
0.0
 10
4520.056020792464
 20
3037.517127953418
 30
0.0
 10
4520.059242458565
 20
3037.520893654086
 30
0.0
 10
4520.062232145915
 20
3037.524866521518
 30
0.0
 10
4520.064986824842
 20
3037.529046388176
 30
0.0
 10
4520.067489219241
 20
3037.533412528882
 30
0.0
 10
4520.069723205923
 20
3037.537942731602
 30
0.0
 10
4520.071673890408
 20
3037.542612078258
 30
0.0
 10
4520.073328500815
 20
3037.547393958523
 30
0.0
 10
4520.074675752899
 20
3037.552261043375
 30
0.0
 10
4520.075710981537
 20
3037.557186379039
 30
0.0
 10
4520.076413486841
 20
3037.562114103537
 30
0.0
 10
4520.076784737169
 20
3037.566507023586
 30
0.0
 10
4520.076863220608
 20
3037.569242490888
 30
0.0
 10
4520.076894997601
 20
3037.570350048458
 30
0.0
  0
SPLINE
  5
1716
330
1F
100
AcDbEntity
  8
SANINDUSA
100
AcDbSpline
210
0.0
220
0.0
230
1.0
 70
     8
 71
     3
 72
    15
 73
    11
 74
     0
 42
0.0000000001
 43
0.0000000001
 40
0.0
 40
0.0
 40
0.0
 40
0.0
 40
0.0180384517228522
 40
0.0519842644658382
 40
0.1865285561889665
 40
0.4391243276651629
 40
0.6911999805248526
 40
0.9430757365713635
 40
0.9853037775697448
 40
1.0
 40
1.0
 40
1.0
 40
1.0
 10
4519.806548579579
 20
3037.491255206382
 30
0.0
 10
4519.80770325284
 20
3037.491226520649
 30
0.0
 10
4519.81103085773
 20
3037.491143852425
 30
0.0
 10
4519.822974685613
 20
3037.491081331852
 30
0.0
 10
4519.849934543986
 20
3037.490728905893
 30
0.0
 10
4519.890864035185
 20
3037.490597030811
 30
0.0
 10
4519.939307431435
 20
3037.490591164458
 30
0.0
 10
4519.974275159357
 20
3037.491074731156
 30
0.0
 10
4519.994049864989
 20
3037.491119564741
 30
0.0
 10
4519.997692962695
 20
3037.491236966527
 30
0.0
 10
4519.99863350669
 20
3037.491267276323
 30
0.0
  0
LINE
  5
1717
330
1F
100
AcDbEntity
  8
SANINDUSA
100
AcDbLine
 10
4520.077304794436
 20
3038.111820591009
 30
0.0
 11
4520.08030433858
 21
3038.111820591009
 31
0.0
  0
ARC
  5
1718
330
1F
100
AcDbEntity
  8
SANINDUSA
100
AcDbCircle
 10
4520.080303941835
 20
3038.106820958994
 30
0.0
 40
0.0049996320296237
100
AcDbArc
 50
359.9958375147549
 51
89.99545333224643
  0
LINE
  5
171B
330
1F
100
AcDbEntity
  8
SANINDUSA
100
AcDbLine
 10
4519.727876960282
 20
3038.111820591009
 30
0.0
 11
4520.077304794436
 21
3038.111820591009
 31
0.0
  0
LINE
  5
171E
330
1F
100
AcDbEntity
  8
SANINDUSA
100
AcDbLine
 10
4519.724877416138
 20
3038.111820591009
 30
0.0
 11
4519.727876960282
 21
3038.111820591009
 31
0.0
  0
ARC
  5
1720
330
1F
100
AcDbEntity
  8
SANINDUSA
100
AcDbCircle
 10
4519.724877797911
 20
3038.106820973963
 30
0.0
 40
0.0049996170596361
100
AcDbArc
 50
90.00437512094968
 51
180.0043340320489
  0
CIRCLE
  5
1727
330
1F
100
AcDbEntity
  8
SANINDUSA
100
AcDbCircle
 10
4519.902590875544
 20
3038.041820582995
 30
0.0
 40
0.025
  0
ELLIPSE
  5
1728
330
1F
100
AcDbEntity
  8
SANINDUSA
100
AcDbEllipse
 10
4519.720262185336
 20
3037.994494025566
 30
0.0
 11
0.0
 21
0.022
 31
0.0
210
0.0
220
0.0
230
0.9999999999999998
 40
0.0174550649282165
 41
1.570796326794896
 42
2.680291637948067
  0
ELLIPSE
  5
1729
330
1F
100
AcDbEntity
  8
SANINDUSA
100
AcDbEllipse
 10
4520.08491956575
 20
3037.994494025566
 30
0.0
 11
0.0
 21
0.0219999999999999
 31
0.0
210
0.0
220
0.0
230
1.0
 40
0.0174550649282295
 41
3.663085665821339
 42
4.712388980384683
  0
SPLINE
  5
172B
330
1F
100
AcDbEntity
  8
SANINDUSA
100
AcDbSpline
210
0.0
220
0.0
230
1.0
 70
    24
 71
     1
 72
     4
 73
     2
 74
     0
 42
0.0000000001
 43
0.0000000001
 40
0.0
 40
0.0
 40
1.0
 40
1.0
 10
4519.728093891386
 20
3037.885566649353
 30
0.0
 10
4519.728029473667
 20
3037.964509365475
 30
0.0
  0
CIRCLE
  5
172C
330
1F
100
AcDbEntity
  8
SANINDUSA
100
AcDbCircle
 10
4519.980090875544
 20
3037.883000582994
 30
0.0
 40
0.0077500000000001
  0
CIRCLE
  5
1730
330
1F
100
AcDbEntity
  8
SANINDUSA
100
AcDbCircle
 10
4519.825090875543
 20
3037.883000582994
 30
0.0
 40
0.0077500000000001
  0
LINE
  5
173B
330
1F
100
AcDbEntity
  8
SANINDUSA
100
AcDbLine
 10
4519.942590875533
 20
3037.83302032887
 30
0.0
 11
4519.862590878253
 21
3037.83302032887
 31
0.0
  0
ARC
  5
173C
330
1F
100
AcDbEntity
  8
SANINDUSA
100
AcDbCircle
 10
4519.862590875543
 20
3037.755416234646
 30
0.0
 40
0.0776040942777705
100
AcDbArc
 50
90.0
 51
180.0
  0
ARC
  5
173E
330
1F
100
AcDbEntity
  8
SANINDUSA
100
AcDbCircle
 10
4519.942590875543
 20
3037.755416234646
 30
0.0
 40
0.0776040942777705
100
AcDbArc
 50
0.0
 51
90.0
  0
LINE
  5
1740
330
1F
100
AcDbEntity
  8
SANINDUSA
100
AcDbLine
 10
4520.020194969123
 20
3037.75541623435
 30
0.0
 11
4520.020194969123
 21
3037.570414257562
 31
0.0
  0
LINE
  5
1742
330
1F
100
AcDbEntity
  8
SANINDUSA
100
AcDbLine
 10
4519.784986778144
 20
3037.75541623435
 30
0.0
 11
4519.784986778144
 21
3037.570414257562
 31
0.0
  0
ARC
  5
1744
330
1F
100
AcDbEntity
  8
SANINDUSA
100
AcDbCircle
 10
4519.997590875544
 20
3037.570414264371
 30
0.0
 40
0.0226040942777706
100
AcDbArc
 50
270.7193395049562
 51
0.0
  0
ARC
  5
1746
330
1F
100
AcDbEntity
  8
SANINDUSA
100
AcDbCircle
 10
4519.807590875543
 20
3037.570414264371
 30
0.0
 40
0.0226040942777705
100
AcDbArc
 50
180.0
 51
269.2806604950438
  0
ARC
  5
1748
330
1F
100
AcDbEntity
  8
SANINDUSA
100
AcDbCircle
 10
4519.902590875544
 20
3045.136817901503
 30
0.0
 40
7.58960409427777
100
AcDbArc
 50
269.2806604950438
 51
270.7193395049562
  0
SPLINE
  5
1777
330
1F
100
AcDbEntity
  8
SANINDUSA
100
AcDbSpline
210
0.0
220
0.0
230
1.0
 70
     8
 71
     3
 72
    13
 73
     9
 74
     0
 42
0.0000000001
 43
0.0000000001
 40
0.0
 40
0.0
 40
0.0
 40
0.0
 40
0.1289146638101826
 40
0.2581457790425682
 40
0.3873076217867014
 40
0.5859723821202318
 40
0.7846630481570176
 40
1.0
 40
1.0
 40
1.0
 40
1.0
 10
4519.950084232708
 20
3037.767159917718
 30
0.0
 10
4519.95017547984
 20
3037.764116859748
 30
0.0
 10
4519.95035819809
 20
3037.758023273904
 30
0.0
 10
4519.950672127285
 20
3037.748784558294
 30
0.0
 10
4519.95106345426
 20
3037.737901185622
 30
0.0
 10
4519.951534193579
 20
3037.725391990923
 30
0.0
 10
4519.952097916462
 20
3037.710887998667
 30
0.0
 10
4519.952489527972
 20
3037.701134587173
 30
0.0
 10
4519.952693206241
 20
3037.696061809874
 30
0.0
  0
SPLINE
  5
177B
330
1F
100
AcDbEntity
  8
SANINDUSA
100
AcDbSpline
210
0.0
220
0.0
230
1.0
 70
     8
 71
     3
 72
    13
 73
     9
 74
     0
 42
0.0000000001
 43
0.0000000001
 40
0.0
 40
0.0
 40
0.0
 40
0.0
 40
0.1289146620372267
 40
0.2581457783531929
 40
0.3873076203725345
 40
0.5859723829730551
 40
0.7846630483245764
 40
1.0
 40
1.0
 40
1.0
 40
1.0
 10
4519.855097516422
 20
3037.767159917718
 30
0.0
 10
4519.855006271536
 20
3037.764116859725
 30
0.0
 10
4519.854823557781
 20
3037.758023273769
 30
0.0
 10
4519.854509622806
 20
3037.748784558399
 30
0.0
 10
4519.854118301987
 20
3037.737901185466
 30
0.0
 10
4519.853647553977
 20
3037.725391991086
 30
0.0
 10
4519.853083836448
 20
3037.710887998618
 30
0.0
 10
4519.852692224904
 20
3037.70113458716
 30
0.0
 10
4519.852488546614
 20
3037.696061809874
 30
0.0
  0
SPLINE
  5
177E
330
1F
100
AcDbEntity
  8
SANINDUSA
100
AcDbSpline
210
0.0
220
0.0
230
1.0
 70
     8
 71
     3
 72
    18
 73
    14
 74
     0
 42
0.0000000001
 43
0.0000000001
 40
0.0
 40
0.0
 40
0.0
 40
0.0
 40
0.0132330127379547
 40
0.0266046493838
 40
0.0362707623945051
 40
0.045906954421122
 40
0.0626182636506272
 40
0.1094611735428585
 40
0.2136211024152049
 40
0.3182228746046718
 40
0.545495940679226
 40
0.7730253281439014
 40
0.9999999999999998
 40
0.9999999999999998
 40
0.9999999999999998
 40
0.9999999999999998
 10
4519.866796537285
 20
3037.802913491009
 30
0.0
 10
4519.866636476627
 20
3037.80297123058
 30
0.0
 10
4519.866314678579
 20
3037.80308731458
 30
0.0
 10
4519.865762848827
 20
3037.803107301623
 30
0.0
 10
4519.865232714344
 20
3037.802969741529
 30
0.0
 10
4519.864687358137
 20
3037.802690046533
 30
0.0
 10
4519.863770013024
 20
3037.801928128863
 30
0.0
 10
4519.862379023577
 20
3037.799917341673
 30
0.0
 10
4519.860891129474
 20
3037.796819462781
 30
0.0
 10
4519.859074834847
 20
3037.791494344625
 30
0.0
 10
4519.857092566605
 20
3037.784615037363
 30
0.0
 10
4519.855480658643
 20
3037.776079844002
 30
0.0
 10
4519.855225126538
 20
3037.770130806241
 30
0.0
 10
4519.855097516422
 20
3037.767159917718
 30
0.0
  0
SPLINE
  5
177F
330
1F
100
AcDbEntity
  8
SANINDUSA
100
AcDbSpline
210
0.0
220
0.0
230
1.0
 70
     8
 71
     3
 72
    18
 73
    14
 74
     0
 42
0.0000000001
 43
0.0000000001
 40
0.0
 40
0.0
 40
0.0
 40
0.0
 40
0.0132330902167612
 40
0.0266046503322367
 40
0.0362708504431789
 40
0.0459069717286606
 40
0.0626182976126337
 40
0.1094612301215998
 40
0.2136211469467104
 40
0.3182228993380061
 40
0.5454959691965651
 40
0.7730253425681881
 40
1.0
 40
1.0
 40
1.0
 40
1.0
 10
4519.938385210448
 20
3037.802913491009
 30
0.0
 10
4519.938545273118
 20
3037.802971230684
 30
0.0
 10
4519.938867073338
 20
3037.803087314216
 30
0.0
 10
4519.939418901663
 20
3037.803107300566
 30
0.0
 10
4519.939949037055
 20
3037.802969743356
 30
0.0
 10
4519.940494391734
 20
3037.802690044537
 30
0.0
 10
4519.941411738556
 20
3037.801928130318
 30
0.0
 10
4519.942802729707
 20
3037.799917341514
 30
0.0
 10
4519.94429062286
 20
3037.796819463165
 30
0.0
 10
4519.946106911948
 20
3037.791494343658
 30
0.0
 10
4519.948089188407
 20
3037.784615038015
 30
0.0
 10
4519.949701093202
 20
3037.776079843903
 30
0.0
 10
4519.949956623496
 20
3037.770130806207
 30
0.0
 10
4519.950084232708
 20
3037.767159917718
 30
0.0
  0
SPLINE
  5
1781
330
1F
100
AcDbEntity
  8
SANINDUSA
100
AcDbSpline
210
0.0
220
0.0
230
1.0
 70
     8
 71
     3
 72
    17
 73
    13
 74
     0
 42
0.0000000001
 43
0.0000000001
 40
0.0
 40
0.0
 40
0.0
 40
0.0
 40
0.0951717808593384
 40
0.190231159278968
 40
0.2951938361504284
 40
0.4001914077717196
 40
0.5021825034925446
 40
0.6041689251056961
 40
0.7032447410127344
 40
0.8022196515538261
 40
0.901080077523675
 40
1.0
 40
1.0
 40
1.0
 40
1.0
 10
4519.852488546614
 20
3037.696061809874
 30
0.0
 10
4519.852470571492
 20
3037.69408658814
 30
0.0
 10
4519.852434642477
 20
3037.690138477506
 30
0.0
 10
4519.853477312518
 20
3037.683880911459
 30
0.0
 10
4519.85556671337
 20
3037.677574469028
 30
0.0
 10
4519.858755690041
 20
3037.671542359453
 30
0.0
 10
4519.862883711095
 20
3037.666185296794
 30
0.0
 10
4519.867743716216
 20
3037.661655772405
 30
0.0
 10
4519.873222076944
 20
3037.658027026727
 30
0.0
 10
4519.879171209137
 20
3037.655374409938
 30
0.0
 10
4519.885522872391
 20
3037.653750482117
 30
0.0
 10
4519.889843874443
 20
3037.653597478826
 30
0.0
 10
4519.892005025392
 20
3037.653520954167
 30
0.0
  0
SPLINE
  5
1783
330
1F
100
AcDbEntity
  8
SANINDUSA
100
AcDbSpline
210
0.0
220
0.0
230
1.0
 70
     8
 71
     3
 72
    17
 73
    13
 74
     0
 42
0.0000000001
 43
0.0000000001
 40
0.0
 40
0.0
 40
0.0
 40
0.0
 40
0.0951717835323441
 40
0.1902311687956103
 40
0.2951938483067451
 40
0.4001914225685884
 40
0.5021824864237573
 40
0.6041689002614524
 40
0.703244807014361
 40
0.8022196747820464
 40
0.9010801032381062
 40
1.0
 40
1.0
 40
1.0
 40
1.0
 10
4519.952693206241
 20
3037.696061809874
 30
0.0
 10
4519.952711181176
 20
3037.694086588107
 30
0.0
 10
4519.952747109817
 20
3037.690138477321
 30
0.0
 10
4519.951704436867
 20
3037.683880911696
 30
0.0
 10
4519.94961503708
 20
3037.677574468857
 30
0.0
 10
4519.946426059572
 20
3037.67154236064
 30
0.0
 10
4519.942298042809
 20
3037.666185296275
 30
0.0
 10
4519.937438037628
 20
3037.661655769733
 30
0.0
 10
4519.931959672388
 20
3037.658027029705
 30
0.0
 10
4519.926010541326
 20
3037.655374408871
 30
0.0
 10
4519.919658879092
 20
3037.653750482476
 30
0.0
 10
4519.91533787775
 20
3037.653597478939
 30
0.0
 10
4519.913176727464
 20
3037.653520954167
 30
0.0
  0
SPLINE
  5
1785
330
1F
100
AcDbEntity
  8
SANINDUSA
100
AcDbSpline
210
0.0
220
0.0
230
1.0
 70
    24
 71
     1
 72
     4
 73
     2
 74
     0
 42
0.0000000001
 43
0.0000000001
 40
0.0
 40
0.0
 40
1.0
 40
1.0
 10
4519.892005025392
 20
3037.653520954167
 30
0.0
 10
4519.902590877359
 20
3037.653554541385
 30
0.0
  0
SPLINE
  5
1786
330
1F
100
AcDbEntity
  8
SANINDUSA
100
AcDbSpline
210
0.0
220
0.0
230
1.0
 70
    24
 71
     1
 72
     4
 73
     2
 74
     0
 42
0.0000000001
 43
0.0000000001
 40
0.0
 40
0.0
 40
1.0
 40
1.0
 10
4519.913176727464
 20
3037.653520954167
 30
0.0
 10
4519.902590877359
 20
3037.653554541385
 30
0.0
  0
SPLINE
  5
1787
330
1F
100
AcDbEntity
  8
SANINDUSA
100
AcDbSpline
210
0.0
220
0.0
230
1.0
 70
     8
 71
     3
 72
    16
 73
    12
 74
     0
 42
0.0000000001
 43
0.0000000001
 40
0.0
 40
0.0
 40
0.0
 40
0.0
 40
0.0682416239338406
 40
0.1851819226452008
 40
0.3022152177393029
 40
0.4191619127303802
 40
0.5423377592208672
 40
0.6656111899528953
 40
0.788793624661254
 40
0.8943963386950015
 40
1.0
 40
1.0
 40
1.0
 40
1.0
 10
4519.947089013625
 20
3037.736165088928
 30
0.0
 10
4519.947182271795
 20
3037.736264455718
 30
0.0
 10
4519.947435339141
 20
3037.736534099556
 30
0.0
 10
4519.947824071475
 20
3037.7376358083
 30
0.0
 10
4519.948246274767
 20
3037.739659928348
 30
0.0
 10
4519.94864349182
 20
3037.74251559593
 30
0.0
 10
4519.949013377984
 20
3037.746219446217
 30
0.0
 10
4519.949353724437
 20
3037.750784837174
 30
0.0
 10
4519.949642519093
 20
3037.755882566785
 30
0.0
 10
4519.949887468906
 20
3037.761322432791
 30
0.0
 10
4519.950018644578
 20
3037.765214083591
 30
0.0
 10
4519.950084232708
 20
3037.767159917718
 30
0.0
  0
SPLINE
  5
1788
330
1F
100
AcDbEntity
  8
SANINDUSA
100
AcDbSpline
210
0.0
220
0.0
230
1.0
 70
     8
 71
     3
 72
    16
 73
    12
 74
     0
 42
0.0000000001
 43
0.0000000001
 40
0.0
 40
0.0
 40
0.0
 40
0.0
 40
0.1026770604511608
 40
0.2053561210429443
 40
0.3174767702959864
 40
0.429593920694405
 40
0.5418087945193957
 40
0.6540089352463382
 40
0.764358992827831
 40
0.8746950229729854
 40
1.0
 40
1.0
 40
1.0
 40
1.0
 10
4519.931031390076
 20
3037.751544424659
 30
0.0
 10
4519.931871466351
 20
3037.751505908112
 30
0.0
 10
4519.933551635266
 20
3037.751428874268
 30
0.0
 10
4519.936083525759
 20
3037.750807673171
 30
0.0
 10
4519.93855335493
 20
3037.749777109895
 30
0.0
 10
4519.940882248049
 20
3037.748300613675
 30
0.0
 10
4519.942921453195
 20
3037.746442138537
 30
0.0
 10
4519.944616643829
 20
3037.744273715997
 30
0.0
 10
4519.945892954921
 20
3037.741849388147
 30
0.0
 10
4519.946817796966
 20
3037.739136394413
 30
0.0
 10
4519.946994858826
 20
3037.737196598854
 30
0.0
 10
4519.947089013625
 20
3037.736165088928
 30
0.0
  0
SPLINE
  5
178A
330
1F
100
AcDbEntity
  8
SANINDUSA
100
AcDbSpline
210
0.0
220
0.0
230
1.0
 70
     8
 71
     3
 72
    16
 73
    12
 74
     0
 42
0.0000000001
 43
0.0000000001
 40
0.0
 40
0.0
 40
0.0
 40
0.0
 40
0.1026770219386559
 40
0.2053560772058983
 40
0.3174766680286333
 40
0.4295937783746621
 40
0.5418086366782127
 40
0.6540088193662937
 40
0.764359009886549
 40
0.8746950117542359
 40
1.0
 40
1.0
 40
1.0
 40
1.0
 10
4519.874150357192
 20
3037.751544424659
 30
0.0
 10
4519.873310281389
 20
3037.751505908082
 30
0.0
 10
4519.871630113149
 20
3037.751428874166
 30
0.0
 10
4519.869098223862
 20
3037.75080767342
 30
0.0
 10
4519.866628396257
 20
3037.749777109768
 30
0.0
 10
4519.864299504955
 20
3037.74830061349
 30
0.0
 10
4519.862260300544
 20
3037.746442138157
 30
0.0
 10
4519.860565110866
 20
3037.744273714562
 30
0.0
 10
4519.859288790127
 20
3037.741849390591
 30
0.0
 10
4519.858363955346
 20
3037.739136393498
 30
0.0
 10
4519.858186893851
 20
3037.737196598646
 30
0.0
 10
4519.858092739229
 20
3037.736165088928
 30
0.0
  0
SPLINE
  5
178B
330
1F
100
AcDbEntity
  8
SANINDUSA
100
AcDbSpline
210
0.0
220
0.0
230
1.0
 70
     8
 71
     3
 72
    16
 73
    12
 74
     0
 42
0.0000000001
 43
0.0000000001
 40
0.0
 40
0.0
 40
0.0
 40
0.0
 40
0.0682416246559185
 40
0.1851819235358311
 40
0.3022152172004469
 40
0.4191619129538904
 40
0.5423377586012516
 40
0.6656111894284417
 40
0.7887936243678202
 40
0.8943963388819248
 40
1.0
 40
1.0
 40
1.0
 40
1.0
 10
4519.858092739229
 20
3037.736165088928
 30
0.0
 10
4519.85799948008
 20
3037.736264455718
 30
0.0
 10
4519.85774641007
 20
3037.736534099554
 30
0.0
 10
4519.857357675206
 20
3037.737635808281
 30
0.0
 10
4519.856935483685
 20
3037.739659928382
 30
0.0
 10
4519.8565382558
 20
3037.742515595896
 30
0.0
 10
4519.856168378941
 20
3037.746219446241
 30
0.0
 10
4519.855828028711
 20
3037.750784837172
 30
0.0
 10
4519.855539234107
 20
3037.755882566798
 30
0.0
 10
4519.855294277895
 20
3037.761322432769
 30
0.0
 10
4519.855163103776
 20
3037.765214083588
 30
0.0
 10
4519.855097516422
 20
3037.767159917718
 30
0.0
  0
SPLINE
  5
178D
330
1F
100
AcDbEntity
  8
SANINDUSA
100
AcDbSpline
210
0.0
220
0.0
230
1.0
 70
     8
 71
     3
 72
    13
 73
     9
 74
     0
 42
0.0000000001
 43
0.0000000001
 40
0.0
 40
0.0
 40
0.0
 40
0.0
 40
0.0000016156438018
 40
0.1399993879348061
 40
0.3174922594019617
 40
0.4950652206242543
 40
0.7474560920364196
 40
1.0
 40
1.0
 40
1.0
 40
1.0
 10
4519.902590877359
 20
3037.80390370437
 30
0.0
 10
4519.902590897227
 20
3037.80390370437
 30
0.0
 10
4519.904312525425
 20
3037.803903704447
 30
0.0
 10
4519.90821741386
 20
3037.803858125418
 30
0.0
 10
4519.914264600212
 20
3037.803644234881
 30
0.0
 10
4519.921584953361
 20
3037.803318983386
 30
0.0
 10
4519.929670973286
 20
3037.803030421469
 30
0.0
 10
4519.935479877869
 20
3037.802952475704
 30
0.0
 10
4519.938385210448
 20
3037.802913491009
 30
0.0
  0
SPLINE
  5
178E
330
1F
100
AcDbEntity
  8
SANINDUSA
100
AcDbSpline
210
0.0
220
0.0
230
1.0
 70
     8
 71
     3
 72
    13
 73
     9
 74
     0
 42
0.0000000001
 43
0.0000000001
 40
0.0
 40
0.0
 40
0.0
 40
0.0
 40
0.0000017166212245
 40
0.1399994127895893
 40
0.317492301801817
 40
0.4950652304519391
 40
0.7474560434255221
 40
1.0
 40
1.0
 40
1.0
 40
1.0
 10
4519.902590877359
 20
3037.80390370437
 30
0.0
 10
4519.902590856249
 20
3037.80390370437
 30
0.0
 10
4519.90086922743
 20
3037.803903704452
 30
0.0
 10
4519.896964337772
 20
3037.803858125365
 30
0.0
 10
4519.890917151382
 20
3037.803644234927
 30
0.0
 10
4519.883596797749
 20
3037.803318983389
 30
0.0
 10
4519.875510777046
 20
3037.803030421415
 30
0.0
 10
4519.869701871139
 20
3037.802952475691
 30
0.0
 10
4519.866796537285
 20
3037.802913491009
 30
0.0
  0
SPLINE
  5
178F
330
1F
100
AcDbEntity
  8
SANINDUSA
100
AcDbSpline
210
0.0
220
0.0
230
1.0
 70
    24
 71
     3
 72
    10
 73
     6
 74
     0
 42
0.0000000001
 43
0.0000000001
 40
0.0
 40
0.0
 40
0.0
 40
0.0
 40
0.5755914396758634
 40
0.7923462430002691
 40
1.0
 40
1.0
 40
1.0
 40
1.0
 10
4519.902590877359
 20
3037.751544424659
 30
0.0
 10
4519.897124267472
 20
3037.751544424659
 30
0.0
 10
4519.889599055129
 20
3037.751544424659
 30
0.0
 10
4519.880123591244
 20
3037.751544424659
 30
0.0
 10
4519.876112765737
 20
3037.751544424659
 30
0.0
 10
4519.874150357192
 20
3037.751544424659
 30
0.0
  0
SPLINE
  5
1790
330
1F
100
AcDbEntity
  8
SANINDUSA
100
AcDbSpline
210
0.0
220
0.0
230
1.0
 70
    24
 71
     3
 72
    10
 73
     6
 74
     0
 42
0.0000000001
 43
0.0000000001
 40
0.0
 40
0.0
 40
0.0
 40
0.0
 40
0.5755915241995045
 40
0.792346253881483
 40
0.9999999999999998
 40
0.9999999999999998
 40
0.9999999999999998
 40
0.9999999999999998
 10
4519.902590877359
 20
3037.751544424659
 30
0.0
 10
4519.908057486635
 20
3037.751544424659
 30
0.0
 10
4519.915582697136
 20
3037.751544424659
 30
0.0
 10
4519.925058158498
 20
3037.751544424659
 30
0.0
 10
4519.92906898215
 20
3037.751544424659
 30
0.0
 10
4519.931031390076
 20
3037.751544424659
 30
0.0
  0
LINE
  5
17A7
330
1F
100
AcDbEntity
  8
SANINDUSA
100
AcDbLine
 10
4521.658344651277
 20
3038.243500829219
 30
0.0
 11
4521.667671407278
 21
3038.243500829219
 31
0.0
  0
LINE
  5
17A8
330
1F
100
AcDbEntity
  8
SANINDUSA
100
AcDbLine
 10
4521.672494466121
 20
3038.26150077629
 30
0.0
 11
4521.667671407278
 21
3038.243500829219
 31
0.0
  0
LINE
  5
17A9
330
1F
100
AcDbEntity
  8
SANINDUSA
100
AcDbLine
 10
4521.672494466121
 20
3038.26150077629
 30
0.0
 11
4521.658344651277
 21
3038.26150077629
 31
0.0
  0
LINE
  5
17AA
330
1F
100
AcDbEntity
  8
SANINDUSA
100
AcDbLine
 10
4521.658344651277
 20
3038.26150077629
 30
0.0
 11
4521.658344651277
 21
3038.243500829219
 31
0.0
  0
ARC
  5
17AB
330
1F
100
AcDbEntity
  8
SANINDUSA
100
AcDbCircle
 10
4521.648344664774
 20
3038.235500800699
 30
0.0
 40
0.0019999999999999
100
AcDbArc
 50
180.0
 51
270.0
  0
LINE
  5
17AC
330
1F
100
AcDbEntity
  8
SANINDUSA
100
AcDbLine
 10
4521.646344656761
 20
3038.268500805376
 30
0.0
 11
4521.646344656761
 21
3038.235500813006
 31
0.0
  0
ARC
  5
17AD
330
1F
100
AcDbEntity
  8
SANINDUSA
100
AcDbCircle
 10
4521.651344664774
 20
3038.268500800699
 30
0.0
 40
0.005
100
AcDbArc
 50
90.0
 51
180.0
  0
LINE
  5
17AE
330
1F
100
AcDbEntity
  8
SANINDUSA
100
AcDbLine
 10
4521.690344656522
 20
3038.273500800608
 30
0.0
 11
4521.651344651991
 21
3038.273500800608
 31
0.0
  0
ARC
  5
17AF
330
1F
100
AcDbEntity
  8
SANINDUSA
100
AcDbCircle
 10
4521.690344664774
 20
3038.2725008007
 30
0.0
 40
0.0010000000000002
100
AcDbArc
 50
0.0
 51
90.0
  0
LINE
  5
17B0
330
1F
100
AcDbEntity
  8
SANINDUSA
100
AcDbLine
 10
4521.69134467345
 20
3038.262500823019
 30
0.0
 11
4521.69134467345
 21
3038.272500813483
 31
0.0
  0
ARC
  5
17B1
330
1F
100
AcDbEntity
  8
SANINDUSA
100
AcDbCircle
 10
4521.690344664774
 20
3038.2625008007
 30
0.0
 40
0.0010000000000002
100
AcDbArc
 50
270.0
 51
0.0
  0
LINE
  5
17B2
330
1F
100
AcDbEntity
  8
SANINDUSA
100
AcDbLine
 10
4521.690344656522
 20
3038.26150077629
 30
0.0
 11
4521.686683888251
 21
3038.26150077629
 31
0.0
  0
ARC
  5
17B3
330
1F
100
AcDbEntity
  8
SANINDUSA
100
AcDbCircle
 10
4521.686683877102
 20
3038.256500800699
 30
0.0
 40
0.0050000000000002
100
AcDbArc
 50
90.0
 51
165.0000000097778
  0
LINE
  5
17B4
330
1F
100
AcDbEntity
  8
SANINDUSA
100
AcDbLine
 10
4521.681854243094
 20
3038.257794917105
 30
0.0
 11
4521.675205970819
 21
3038.232983172415
 31
0.0
  0
ARC
  5
17B5
330
1F
100
AcDbEntity
  8
SANINDUSA
100
AcDbCircle
 10
4521.673274112413
 20
3038.233500800699
 30
0.0
 40
0.0020000000000002
100
AcDbArc
 50
270.0
 51
345.0000000097778
  0
LINE
  5
17B6
330
1F
100
AcDbEntity
  8
SANINDUSA
100
AcDbLine
 10
4521.673274124677
 20
3038.231500804899
 30
0.0
 11
4521.666808779055
 21
3038.231500804899
 31
0.0
  0
ARC
  5
17B7
330
1F
100
AcDbEntity
  8
SANINDUSA
100
AcDbCircle
 10
4521.666808766389
 20
3038.233500800699
 30
0.0
 40
0.0019999999999999
100
AcDbArc
 50
210.0000000157473
 51
270.0
  0
ARC
  5
17B8
330
1F
100
AcDbEntity
  8
SANINDUSA
100
AcDbCircle
 10
4521.663344664774
 20
3038.2315008007
 30
0.0
 40
0.0019999999999999
100
AcDbArc
 50
30.00000001574733
 51
90.0
  0
LINE
  5
17B9
330
1F
100
AcDbEntity
  8
SANINDUSA
100
AcDbLine
 10
4521.663344676311
 20
3038.23350077915
 30
0.0
 11
4521.648344660813
 21
3038.23350077915
 31
0.0
  0
ARC
  5
17BA
330
1F
100
AcDbEntity
  8
SANINDUSA
100
AcDbCircle
 10
4521.742344664774
 20
3038.2725008007
 30
0.0
 40
0.0009999999999999
100
AcDbArc
 50
90.0
 51
180.0
  0
LINE
  5
17BC
330
1F
100
AcDbEntity
  8
SANINDUSA
100
AcDbLine
 10
4521.690344656522
 20
3038.273500800608
 30
0.0
 11
4521.742344657595
 21
3038.273500800608
 31
0.0
  0
LINE
  5
17BE
330
1F
100
AcDbEntity
  8
SANINDUSA
100
AcDbLine
 10
4521.741344670469
 20
3038.272500813483
 30
0.0
 11
4521.741344670469
 21
3038.262500823019
 31
0.0
  0
ARC
  5
17BF
330
1F
100
AcDbEntity
  8
SANINDUSA
100
AcDbCircle
 10
4521.742344664774
 20
3038.2625008007
 30
0.0
 40
0.0010000000000002
100
AcDbArc
 50
180.0
 51
270.0
  0
LINE
  5
17C0
330
1F
100
AcDbEntity
  8
SANINDUSA
100
AcDbLine
 10
4521.742344657595
 20
3038.26150077629
 30
0.0
 11
4521.690344656522
 21
3038.26150077629
 31
0.0
  0
ARC
  5
17C1
330
1F
100
AcDbEntity
  8
SANINDUSA
100
AcDbCircle
 10
4521.763671222203
 20
3038.2435008007
 30
0.0
 40
0.0180000000000001
100
AcDbArc
 50
0.0
 51
58.56268219922084
  0
LINE
  5
17C2
330
1F
100
AcDbEntity
  8
SANINDUSA
100
AcDbLine
 10
4521.77717451256
 20
3038.243500829219
 30
0.0
 11
4521.773059392983
 21
3038.258858621596
 31
0.0
  0
LINE
  5
17C3
330
1F
100
AcDbEntity
  8
SANINDUSA
100
AcDbLine
 10
4521.77717451256
 20
3038.243500829219
 30
0.0
 11
4521.781671221073
 21
3038.243500829219
 31
0.0
  0
ARC
  5
17C4
330
1F
100
AcDbEntity
  8
SANINDUSA
100
AcDbCircle
 10
4521.781501241394
 20
3038.2315008007
 30
0.0
 40
0.0020000000000001
100
AcDbArc
 50
90.0
 51
149.9999999842526
  0
ARC
  5
17C5
330
1F
100
AcDbEntity
  8
SANINDUSA
100
AcDbCircle
 10
4521.778037139779
 20
3038.233500800699
 30
0.0
 40
0.0019999999999999
100
AcDbArc
 50
270.0
 51
329.9999999842527
  0
ARC
  5
17C6
330
1F
100
AcDbEntity
  8
SANINDUSA
100
AcDbCircle
 10
4521.771571793755
 20
3038.233500800699
 30
0.0
 40
0.0019999999999999
100
AcDbArc
 50
194.9999999902221
 51
270.0
  0
LINE
  5
17C7
330
1F
100
AcDbEntity
  8
SANINDUSA
100
AcDbLine
 10
4521.769639949019
 20
3038.232983172415
 30
0.0
 11
4521.762991661841
 21
3038.257794917105
 31
0.0
  0
ARC
  5
17C8
330
1F
100
AcDbEntity
  8
SANINDUSA
100
AcDbCircle
 10
4521.758162029066
 20
3038.256500800699
 30
0.0
 40
0.005
100
AcDbArc
 50
14.99999999022217
 51
90.0
  0
ARC
  5
17C9
330
1F
100
AcDbEntity
  8
SANINDUSA
100
AcDbCircle
 10
4521.763671222203
 20
3038.2435008007
 30
0.0
 40
0.0300000000000001
100
AcDbArc
 50
358.9999999902799
 51
90.0
  0
LINE
  5
17CA
330
1F
100
AcDbEntity
  8
SANINDUSA
100
AcDbLine
 10
4521.793535540516
 20
3038.235465884684
 30
0.0
 11
4521.793666655834
 21
3038.242977202414
 31
0.0
  0
ARC
  5
17CB
330
1F
100
AcDbEntity
  8
SANINDUSA
100
AcDbCircle
 10
4521.791535846868
 20
3038.235500800699
 30
0.0
 40
0.0020000000000001
100
AcDbArc
 50
270.0
 51
358.9999999902799
  0
LINE
  5
17CC
330
1F
100
AcDbEntity
  8
SANINDUSA
100
AcDbLine
 10
4521.758162031586
 20
3038.26150077629
 30
0.0
 11
4521.742344657595
 21
3038.26150077629
 31
0.0
  0
LINE
  5
17CD
330
1F
100
AcDbEntity
  8
SANINDUSA
100
AcDbLine
 10
4521.778037140782
 20
3038.231500804899
 30
0.0
 11
4521.77157179516
 21
3038.231500804899
 31
0.0
  0
LINE
  5
17CE
330
1F
100
AcDbEntity
  8
SANINDUSA
100
AcDbLine
 10
4521.763671229297
 20
3038.273500800608
 30
0.0
 11
4521.742344657595
 21
3038.273500800608
 31
0.0
  0
LINE
  5
17CF
330
1F
100
AcDbEntity
  8
SANINDUSA
100
AcDbLine
 10
4521.791535849387
 20
3038.23350077915
 30
0.0
 11
4521.781501243526
 21
3038.23350077915
 31
0.0
  0
SPLINE
  5
17DD
330
1F
100
AcDbEntity
  8
SANINDUSA
100
AcDbSpline
210
0.0
220
0.0
230
1.0
 70
    24
 71
     3
 72
    11
 73
     7
 74
     0
 42
0.0000000001
 43
0.0000000001
 40
0.0
 40
0.0
 40
0.0
 40
0.0
 40
0.1647238090882321
 40
0.4401177338810915
 40
0.7201810952118898
 40
1.0
 40
1.0
 40
1.0
 40
1.0
 10
4521.77157179516
 20
3038.231500804899
 30
0.0
 10
4521.771546225145
 20
3038.231500804899
 30
0.0
 10
4521.771477905836
 20
3038.231500804899
 30
0.0
 10
4521.770745722215
 20
3038.231500804899
 30
0.0
 10
4521.769276493666
 20
3038.231500804899
 30
0.0
 10
4521.767900946845
 20
3038.231500804899
 30
0.0
 10
4521.767213473732
 20
3038.231500804899
 30
0.0
  0
LINE
  5
17E7
330
1F
100
AcDbEntity
  8
SANINDUSA
100
AcDbLine
 10
4521.677234644705
 20
3038.231500804899
 30
0.0
 11
4521.673274124677
 21
3038.231500804899
 31
0.0
  0
LINE
  5
17E9
330
1F
100
AcDbEntity
  8
SANINDUSA
100
AcDbLine
 10
4521.767213473732
 20
3038.231500804899
 30
0.0
 11
4521.762611264999
 21
3038.231500804899
 31
0.0
  0
SPLINE
  5
17F0
330
1F
100
AcDbEntity
  8
SANINDUSA
100
AcDbSpline
210
0.0
220
0.0
230
1.0
 70
    24
 71
     3
 72
    11
 73
     7
 74
     0
 42
0.0000000001
 43
0.0000000001
 40
0.0
 40
0.0
 40
0.0
 40
0.0
 40
0.1647246786535601
 40
0.4401176769612255
 40
0.7201803760186
 40
1.0
 40
1.0
 40
1.0
 40
1.0
 10
4521.6835546444
 20
3038.231500804899
 30
0.0
 10
4521.683107111575
 20
3038.231500804899
 30
0.0
 10
4521.681911376311
 20
3038.231500804899
 30
0.0
 10
4521.680056102855
 20
3038.231500804899
 30
0.0
 10
4521.678252539179
 20
3038.231500804899
 30
0.0
 10
4521.677573844644
 20
3038.231500804899
 30
0.0
 10
4521.677234644705
 20
3038.231500804899
 30
0.0
  0
SPLINE
  5
17F2
330
1F
100
AcDbEntity
  8
SANINDUSA
100
AcDbSpline
210
0.0
220
0.0
230
1.0
 70
    24
 71
     3
 72
    11
 73
     7
 74
     0
 42
0.0000000001
 43
0.0000000001
 40
0.0
 40
0.0
 40
0.0
 40
0.0
 40
0.1646583220610785
 40
0.4400833485773875
 40
0.7201615702818625
 40
1.0
 40
1.0
 40
1.0
 40
1.0
 10
4521.762611264999
 20
3038.231500804899
 30
0.0
 10
4521.762428393506
 20
3038.231500804899
 30
0.0
 10
4521.761939631701
 20
3038.231500804899
 30
0.0
 10
4521.760595979116
 20
3038.231500804899
 30
0.0
 10
4521.758581480329
 20
3038.231500804899
 30
0.0
 10
4521.757054442386
 20
3038.231500804899
 30
0.0
 10
4521.756291250403
 20
3038.231500804899
 30
0.0
  0
LINE
  5
17F3
330
1F
100
AcDbEntity
  8
SANINDUSA
100
AcDbLine
 10
4521.756291250403
 20
3038.231500804899
 30
0.0
 11
4521.6835546444
 21
3038.231500804899
 31
0.0
  0
LINE
  5
17F4
330
1F
100
AcDbEntity
  8
SANINDUSA
100
AcDbLine
 10
4521.68534466129
 20
3037.824500799655
 30
0.0
 11
4521.68534466129
 21
3037.836500794171
 31
0.0
  0
LINE
  5
17F5
330
1F
100
AcDbEntity
  8
SANINDUSA
100
AcDbLine
 10
4521.68534466129
 20
3037.824500799655
 30
0.0
 11
4521.653344656045
 21
3037.824500799655
 31
0.0
  0
ARC
  5
17F6
330
1F
100
AcDbEntity
  8
SANINDUSA
100
AcDbCircle
 10
4521.653344664773
 20
3037.826500800699
 30
0.0
 40
0.0020000000000002
100
AcDbArc
 50
180.0
 51
270.0
  0
LINE
  5
17F7
330
1F
100
AcDbEntity
  8
SANINDUSA
100
AcDbLine
 10
4521.651344651991
 20
3037.826500803708
 30
0.0
 11
4521.651344651991
 21
3038.229500771044
 31
0.0
  0
ARC
  5
17F8
330
1F
100
AcDbEntity
  8
SANINDUSA
100
AcDbCircle
 10
4521.653344664773
 20
3038.229500800699
 30
0.0
 40
0.0020000000000002
100
AcDbArc
 50
90.0
 51
180.0
  0
LINE
  5
17F9
330
1F
100
AcDbEntity
  8
SANINDUSA
100
AcDbLine
 10
4521.653344656045
 20
3038.231500804899
 30
0.0
 11
4521.655344660098
 21
3038.231500804899
 31
0.0
  0
ARC
  5
17FA
330
1F
100
AcDbEntity
  8
SANINDUSA
100
AcDbCircle
 10
4521.655344664774
 20
3038.233500800699
 30
0.0
 40
0.0019999999999999
100
AcDbArc
 50
270.0
 51
329.9999999842527
  0
ARC
  5
17FB
330
1F
100
AcDbEntity
  8
SANINDUSA
100
AcDbCircle
 10
4521.658808766389
 20
3038.2315008007
 30
0.0
 40
0.0020000000000001
100
AcDbArc
 50
90.0
 51
149.9999999842526
  0
LINE
  5
17FC
330
1F
100
AcDbEntity
  8
SANINDUSA
100
AcDbLine
 10
4521.658808762843
 20
3038.23350077915
 30
0.0
 11
4521.661344672257
 21
3038.23350077915
 31
0.0
  0
ARC
  5
17FD
330
1F
100
AcDbEntity
  8
SANINDUSA
100
AcDbCircle
 10
4521.661344664773
 20
3038.2315008007
 30
0.0
 40
0.0020000000000002
100
AcDbArc
 50
0.0
 51
90.0
  0
LINE
  5
17FE
330
1F
100
AcDbEntity
  8
SANINDUSA
100
AcDbLine
 10
4521.663344676311
 20
3037.836500794171
 30
0.0
 11
4521.663344676311
 21
3038.231500804899
 31
0.0
  0
LINE
  5
17FF
330
1F
100
AcDbEntity
  8
SANINDUSA
100
AcDbLine
 10
4521.68534466129
 20
3037.836500794171
 30
0.0
 11
4521.663344676311
 21
3037.836500794171
 31
0.0
  0
LINE
  5
1800
330
1F
100
AcDbEntity
  8
SANINDUSA
100
AcDbLine
 10
4521.747344667727
 20
3037.836500794171
 30
0.0
 11
4521.747344667727
 21
3037.824500799655
 31
0.0
  0
LINE
  5
1801
330
1F
100
AcDbEntity
  8
SANINDUSA
100
AcDbLine
 10
4521.68534466129
 20
3037.836500794171
 30
0.0
 11
4521.747344667727
 21
3037.836500794171
 31
0.0
  0
LINE
  5
1802
330
1F
100
AcDbEntity
  8
SANINDUSA
100
AcDbLine
 10
4521.68534466129
 20
3037.824500799655
 30
0.0
 11
4521.747344667727
 21
3037.824500799655
 31
0.0
  0
ARC
  5
1803
330
1F
100
AcDbEntity
  8
SANINDUSA
100
AcDbCircle
 10
4521.783447352919
 20
3038.2315008007
 30
0.0
 40
0.0019999999999999
100
AcDbArc
 50
90.0
 51
178.9999999902799
  0
ARC
  5
1804
330
1F
100
AcDbEntity
  8
SANINDUSA
100
AcDbCircle
 10
4521.786019684713
 20
3038.2315008007
 30
0.0
 40
0.0019999999999999
100
AcDbArc
 50
30.00000001574733
 51
90.0
  0
ARC
  5
1805
330
1F
100
AcDbEntity
  8
SANINDUSA
100
AcDbCircle
 10
4521.78948378633
 20
3038.233500800699
 30
0.0
 40
0.0020000000000001
100
AcDbArc
 50
210.0000000157473
 51
270.0
  0
ARC
  5
1806
330
1F
100
AcDbEntity
  8
SANINDUSA
100
AcDbCircle
 10
4521.791413661413
 20
3038.229500800699
 30
0.0
 40
0.0020000000000002
100
AcDbArc
 50
358.9999999902799
 51
90.0
  0
LINE
  5
1807
330
1F
100
AcDbEntity
  8
SANINDUSA
100
AcDbLine
 10
4521.78637895983
 20
3037.826465890287
 30
0.0
 11
4521.793413350994
 21
3038.229465902327
 31
0.0
  0
ARC
  5
1808
330
1F
100
AcDbEntity
  8
SANINDUSA
100
AcDbCircle
 10
4521.784379270248
 20
3037.826500800699
 30
0.0
 40
0.0020000000000002
100
AcDbArc
 50
270.0
 51
358.9999999902799
  0
LINE
  5
1809
330
1F
100
AcDbEntity
  8
SANINDUSA
100
AcDbLine
 10
4521.77455229562
 20
3037.836500794171
 30
0.0
 11
4521.781447658951
 21
3038.231535733221
 31
0.0
  0
LINE
  5
180A
330
1F
100
AcDbEntity
  8
SANINDUSA
100
AcDbLine
 10
4521.77455229562
 20
3037.836500794171
 30
0.0
 11
4521.747344667727
 21
3037.836500794171
 31
0.0
  0
LINE
  5
180B
330
1F
100
AcDbEntity
  8
SANINDUSA
100
AcDbLine
 10
4521.78344735008
 20
3038.23350077915
 30
0.0
 11
4521.786019677931
 21
3038.23350077915
 31
0.0
  0
LINE
  5
180C
330
1F
100
AcDbEntity
  8
SANINDUSA
100
AcDbLine
 10
4521.789483780677
 20
3038.231500804899
 30
0.0
 11
4521.791413659865
 21
3038.231500804899
 31
0.0
  0
LINE
  5
180D
330
1F
100
AcDbEntity
  8
SANINDUSA
100
AcDbLine
 10
4521.784379268701
 20
3037.824500799655
 30
0.0
 11
4521.747344667727
 21
3037.824500799655
 31
0.0
  0
ARC
  5
1812
330
1F
100
AcDbEntity
  8
SANINDUSA
100
AcDbCircle
 10
4521.648344664774
 20
3037.826500800699
 30
0.0
 40
0.0020000000000002
100
AcDbArc
 50
180.0
 51
270.0
  0
LINE
  5
1814
330
1F
100
AcDbEntity
  8
SANINDUSA
100
AcDbLine
 10
4521.646344656761
 20
3037.826500803708
 30
0.0
 11
4521.646344656761
 21
3038.229500771044
 31
0.0
  0
LINE
  5
1817
330
1F
100
AcDbEntity
  8
SANINDUSA
100
AcDbLine
 10
4521.650344664866
 20
3038.231500804899
 30
0.0
 11
4521.653344656045
 21
3038.231500804899
 31
0.0
  0
ARC
  5
181B
330
1F
100
AcDbEntity
  8
SANINDUSA
100
AcDbCircle
 10
4521.648344664774
 20
3038.229500800699
 30
0.0
 40
0.0020000000000002
100
AcDbArc
 50
90.0
 51
180.0
  0
LINE
  5
181C
330
1F
100
AcDbEntity
  8
SANINDUSA
100
AcDbLine
 10
4521.648344660813
 20
3038.231500804899
 30
0.0
 11
4521.650344664866
 21
3038.231500804899
 31
0.0
  0
ARC
  5
181D
330
1F
100
AcDbEntity
  8
SANINDUSA
100
AcDbCircle
 10
4521.650344664774
 20
3038.233500800699
 30
0.0
 40
0.0020000000000001
100
AcDbArc
 50
270.0
 51
329.9999999842527
  0
ARC
  5
181F
330
1F
100
AcDbEntity
  8
SANINDUSA
100
AcDbCircle
 10
4521.653808766389
 20
3038.2315008007
 30
0.0
 40
0.0020000000000001
100
AcDbArc
 50
90.0
 51
149.9999999842526
  0
SPLINE
  5
1820
330
1F
100
AcDbEntity
  8
SANINDUSA
100
AcDbSpline
210
0.0
220
0.0
230
1.0
 70
     8
 71
     3
 72
    12
 73
     8
 74
     0
 42
0.0000000001
 43
0.0000000001
 40
0.0
 40
0.0
 40
0.0
 40
0.0
 40
0.2470197295498338
 40
0.4369591813170063
 40
0.6269380717349895
 40
0.8134504304571279
 40
1.0
 40
1.0
 40
1.0
 40
1.0
 10
4522.247436280067
 20
3037.717861503838
 30
0.0
 10
4522.244343443492
 20
3037.693174277825
 30
0.0
 10
4522.238872449984
 20
3037.649504445918
 30
0.0
 10
4522.229679214346
 20
3037.587029151889
 30
0.0
 10
4522.22061129492
 20
3037.530703312687
 30
0.0
 10
4522.210838719931
 20
3037.474839961743
 30
0.0
 10
4522.203705480024
 20
3037.437948412797
 30
0.0
 10
4522.200138504321
 20
3037.419500798462
 30
0.0
  0
SPLINE
  5
1821
330
1F
100
AcDbEntity
  8
SANINDUSA
100
AcDbSpline
210
0.0
220
0.0
230
1.0
 70
    24
 71
     3
 72
    10
 73
     6
 74
     0
 42
0.0000000001
 43
0.0000000001
 40
0.0
 40
0.0
 40
0.0
 40
0.0
 40
0.3640964075853267
 40
0.8842524671842818
 40
0.9999999999999998
 40
0.9999999999999998
 40
0.9999999999999998
 40
0.9999999999999998
 10
4522.219806427772
 20
3037.778591186283
 30
0.0
 10
4522.223948364415
 20
3037.77822881424
 30
0.0
 10
4522.234007561979
 20
3037.777348749604
 30
0.0
 10
4522.245383496935
 20
3037.776353498378
 30
0.0
 10
4522.252617493303
 20
3037.775720596983
 30
0.0
 10
4522.253934229428
 20
3037.775605395911
 30
0.0
  0
SPLINE
  5
1822
330
1F
100
AcDbEntity
  8
SANINDUSA
100
AcDbSpline
210
0.0
220
0.0
230
1.0
 70
     8
 71
     3
 72
     9
 73
     5
 74
     0
 42
0.0000000001
 43
0.0000000001
 40
0.0
 40
0.0
 40
0.0
 40
0.0
 40
0.5553349664571734
 40
1.0
 40
1.0
 40
1.0
 40
1.0
 10
4522.253934229428
 20
3037.775605395911
 30
0.0
 10
4522.254586435967
 20
3037.781877841555
 30
0.0
 10
4522.25576087406
 20
3037.793172728465
 30
0.0
 10
4522.256861360308
 20
3037.804475051297
 30
0.0
 10
4522.257350708062
 20
3037.809500799058
 30
0.0
  0
LINE
  5
1823
330
1F
100
AcDbEntity
  8
SANINDUSA
100
AcDbLine
 10
4522.257350708062
 20
3037.809500799058
 30
0.0
 11
4522.24083727103
 21
3037.809500799058
 31
0.0
  0
ARC
  5
1824
330
1F
100
AcDbEntity
  8
SANINDUSA
100
AcDbCircle
 10
4522.240837281485
 20
3037.7895008007
 30
0.0
 40
0.02
100
AcDbArc
 50
90.0
 51
175.0000000037089
  0
LINE
  5
1825
330
1F
100
AcDbEntity
  8
SANINDUSA
100
AcDbLine
 10
4522.220913375432
 20
3037.791243911265
 30
0.0
 11
4522.219806427772
 21
3037.778591186283
 31
0.0
  0
SPLINE
  5
1826
330
1F
100
AcDbEntity
  8
SANINDUSA
100
AcDbSpline
210
0.0
220
0.0
230
1.0
 70
     8
 71
     3
 72
    17
 73
    13
 74
     0
 42
0.0000000001
 43
0.0000000001
 40
0.0
 40
0.0
 40
0.0
 40
0.0
 40
0.095121996806062
 40
0.190399686684837
 40
0.2936144607125328
 40
0.3974213768420781
 40
0.5005157204220549
 40
0.5992070058887382
 40
0.6977560452210187
 40
0.7961819980656026
 40
0.8945036230149348
 40
0.9999999999999998
 40
0.9999999999999998
 40
0.9999999999999998
 40
0.9999999999999998
 10
4522.247436280067
 20
3037.717861503838
 30
0.0
 10
4522.245856490523
 20
3037.7152686193
 30
0.0
 10
4522.242694325679
 20
3037.710078606262
 30
0.0
 10
4522.236994121983
 20
3037.702624896879
 30
0.0
 10
4522.230521585689
 20
3037.695463387932
 30
0.0
 10
4522.223244564186
 20
3037.688734634919
 30
0.0
 10
4522.215444583685
 20
3037.682871396678
 30
0.0
 10
4522.207577637884
 20
3037.677403075701
 30
0.0
 10
4522.199702379956
 20
3037.672209475816
 30
0.0
 10
4522.191694338818
 20
3037.667246627888
 30
0.0
 10
4522.183373610917
 20
3037.662371404806
 30
0.0
 10
4522.177649362532
 20
3037.659286662084
 30
0.0
 10
4522.174686486537
 20
3037.657689996539
 30
0.0
  0
LINE
  5
1827
330
1F
100
AcDbEntity
  8
SANINDUSA
100
AcDbLine
 10
4522.18300424021
 20
3037.419500798462
 30
0.0
 11
4522.174686486537
 21
3037.657689996539
 31
0.0
  0
LINE
  5
1828
330
1F
100
AcDbEntity
  8
SANINDUSA
100
AcDbLine
 10
4522.210951442534
 20
3037.792115480183
 30
0.0
 11
4522.208972925955
 21
3037.769500807403
 31
0.0
  0
ARC
  5
1829
330
1F
100
AcDbEntity
  8
SANINDUSA
100
AcDbCircle
 10
4522.240837281485
 20
3037.7895008007
 30
0.0
 40
0.0300000000000001
100
AcDbArc
 50
90.0
 51
175.0000000037089
  0
LINE
  5
182A
330
1F
100
AcDbEntity
  8
SANINDUSA
100
AcDbLine
 10
4522.259552444036
 20
3037.819500804423
 30
0.0
 11
4522.24083727103
 21
3037.819500804423
 31
0.0
  0
ARC
  5
182B
330
1F
100
AcDbEntity
  8
SANINDUSA
100
AcDbCircle
 10
4522.25955245859
 20
3037.8115008007
 30
0.0
 40
0.0080000000000001
100
AcDbArc
 50
354.5176136148161
 51
90.0
  0
SPLINE
  5
182C
330
1F
100
AcDbEntity
  8
SANINDUSA
100
AcDbSpline
210
0.0
220
0.0
230
1.0
 70
     8
 71
     3
 72
    15
 73
    11
 74
     0
 42
0.0000000001
 43
0.0000000001
 40
0.0
 40
0.0
 40
0.0
 40
0.0
 40
0.1220024635006682
 40
0.2440235767365872
 40
0.3757303308562244
 40
0.5074606633748266
 40
0.6305570535625793
 40
0.7536534467606803
 40
0.8768267045861774
 40
1.0
 40
1.0
 40
1.0
 40
1.0
 10
4522.267515862996
 20
3037.810736477851
 30
0.0
 10
4522.26588084033
 20
3037.794316788104
 30
0.0
 10
4522.262610545062
 20
3037.761474898637
 30
0.0
 10
4522.25678335994
 20
3037.710991088201
 30
0.0
 10
4522.250185271277
 20
3037.659276289725
 30
0.0
 10
4522.242861762766
 20
3037.60751194832
 30
0.0
 10
4522.235053417268
 20
3037.556996847659
 30
0.0
 10
4522.226792838385
 20
3037.507727210528
 30
0.0
 10
4522.217959399575
 20
3037.458545523879
 30
0.0
 10
4522.211551363787
 20
3037.425849048288
 30
0.0
 10
4522.208347345407
 20
3037.409500807999
 30
0.0
  0
LINE
  5
182D
330
1F
100
AcDbEntity
  8
SANINDUSA
100
AcDbLine
 10
4522.208347345407
 20
3037.409500807999
 30
0.0
 11
4522.173347348983
 21
3037.409500807999
 31
0.0
  0
LINE
  5
182E
330
1F
100
AcDbEntity
  8
SANINDUSA
100
AcDbLine
 10
4522.173347348983
 20
3037.409500807999
 30
0.0
 11
4522.164854864294
 21
3037.652693752675
 31
0.0
  0
SPLINE
  5
182F
330
1F
100
AcDbEntity
  8
SANINDUSA
100
AcDbSpline
210
0.0
220
0.0
230
1.0
 70
     8
 71
     3
 72
     9
 73
     5
 74
     0
 42
0.0000000001
 43
0.0000000001
 40
0.0
 40
0.0
 40
0.0
 40
0.0
 40
0.5000418722371119
 40
1.0
 40
1.0
 40
1.0
 40
1.0
 10
4522.164854864294
 20
3037.652693752675
 30
0.0
 10
4522.158631632808
 20
3037.649767156936
 30
0.0
 10
4522.146186212073
 20
3037.643914455591
 30
0.0
 10
4522.133271780515
 20
3037.63918581663
 30
0.0
 10
4522.126815105493
 20
3037.636821695147
 30
0.0
  0
ARC
  5
1830
330
1F
100
AcDbEntity
  8
SANINDUSA
100
AcDbCircle
 10
4522.133413253284
 20
3037.617941426574
 30
0.0
 40
0.0200000000000001
100
AcDbArc
 50
109.2631324388234
 51
171.9999999871817
  0
LINE
  5
1831
330
1F
100
AcDbEntity
  8
SANINDUSA
100
AcDbLine
 10
4522.095533231909
 20
3037.492117040335
 30
0.0
 11
4522.113607893402
 21
3037.620724888994
 31
0.0
  0
ARC
  5
1832
330
1F
100
AcDbEntity
  8
SANINDUSA
100
AcDbCircle
 10
4522.007399379098
 20
3037.504503443833
 30
0.0
 40
0.0890000000000002
100
AcDbArc
 50
269.680498257202
 51
351.9999999871818
  0
LINE
  5
1833
330
1F
100
AcDbEntity
  8
SANINDUSA
100
AcDbLine
 10
4522.006657154533
 20
3037.415506315773
 30
0.0
 11
4522.00690308583
 21
3037.415504827591
 31
0.0
  0
ARC
  5
1834
330
1F
100
AcDbEntity
  8
SANINDUSA
100
AcDbCircle
 10
4522.007237957011
 20
3037.504504420632
 30
0.0
 40
0.0890000000000001
100
AcDbArc
 50
189.9999999966986
 51
269.6260924824512
  0
LINE
  5
1835
330
1F
100
AcDbEntity
  8
SANINDUSA
100
AcDbLine
 10
4521.912401257718
 20
3037.529819496451
 30
0.0
 11
4521.919590067754
 21
3037.489049733161
 31
0.0
  0
ARC
  5
1836
330
1F
100
AcDbEntity
  8
SANINDUSA
100
AcDbCircle
 10
4521.901568372979
 20
3037.527909363124
 30
0.0
 40
0.011
100
AcDbArc
 50
9.999999996698591
 51
88.00000002228562
  0
LINE
  5
1837
330
1F
100
AcDbEntity
  8
SANINDUSA
100
AcDbLine
 10
4521.901952269192
 20
3037.53890266317
 30
0.0
 11
4521.856030570979
 21
3037.540506281434
 31
0.0
  0
LINE
  5
1839
330
1F
100
AcDbEntity
  8
SANINDUSA
100
AcDbLine
 10
4521.902266363317
 20
3037.547897179155
 30
0.0
 11
4521.856344665105
 21
3037.549500801145
 31
0.0
  0
ARC
  5
183A
330
1F
100
AcDbEntity
  8
SANINDUSA
100
AcDbCircle
 10
4521.901568372979
 20
3037.527909363124
 30
0.0
 40
0.02
100
AcDbArc
 50
9.999999996698591
 51
88.00000002228562
  0
LINE
  5
183B
330
1F
100
AcDbEntity
  8
SANINDUSA
100
AcDbLine
 10
4521.921264528002
 20
3037.531382330238
 30
0.0
 11
4521.928453336174
 21
3037.490612566946
 31
0.0
  0
ARC
  5
183C
330
1F
100
AcDbEntity
  8
SANINDUSA
100
AcDbCircle
 10
4522.007237957011
 20
3037.504504420632
 30
0.0
 40
0.0800000000000001
100
AcDbArc
 50
189.9999999966986
 51
269.6260924824512
  0
LINE
  5
183D
330
1F
100
AcDbEntity
  8
SANINDUSA
100
AcDbLine
 10
4522.006715887369
 20
3037.424506124129
 30
0.0
 11
4522.006953272789
 21
3037.42450468766
 31
0.0
  0
ARC
  5
183E
330
1F
100
AcDbEntity
  8
SANINDUSA
100
AcDbCircle
 10
4522.007399379098
 20
3037.504503443833
 30
0.0
 40
0.0800000000000001
100
AcDbArc
 50
269.680498257202
 51
351.9999999871818
  0
LINE
  5
183F
330
1F
100
AcDbEntity
  8
SANINDUSA
100
AcDbLine
 10
4522.086620817597
 20
3037.493369594692
 30
0.0
 11
4522.104610706384
 21
3037.621374292775
 31
0.0
  0
ARC
  5
1840
330
1F
100
AcDbEntity
  8
SANINDUSA
100
AcDbCircle
 10
4522.134318753636
 20
3037.617199099832
 30
0.0
 40
0.0300000000000002
100
AcDbArc
 50
109.3575739148836
 51
171.9999999871817
  0
SPLINE
  5
1841
330
1F
100
AcDbEntity
  8
SANINDUSA
100
AcDbSpline
210
0.0
220
0.0
230
1.0
 70
     8
 71
     3
 72
    22
 73
    18
 74
     0
 42
0.0000000001
 43
0.0000000001
 40
0.0
 40
0.0
 40
0.0
 40
0.0
 40
0.0801788781384426
 40
0.1603559199817332
 40
0.2405684789941538
 40
0.3208544107213675
 40
0.4012523177697129
 40
0.4818021116980697
 40
0.5624512305488445
 40
0.6174500527061648
 40
0.67208579209287
 40
0.7265068839047943
 40
0.7808477110620409
 40
0.8352371486042621
 40
0.8898073318955439
 40
0.9447198757005789
 40
1.0
 40
1.0
 40
1.0
 40
1.0
 10
4522.124374876434
 20
3037.645503148912
 30
0.0
 10
4522.129025252303
 20
3037.64720310139
 30
0.0
 10
4522.138325897535
 20
3037.650602967413
 30
0.0
 10
4522.151979382904
 20
3037.656470110924
 30
0.0
 10
4522.165387343508
 20
3037.662886480746
 30
0.0
 10
4522.178506314022
 20
3037.669904575505
 30
0.0
 10
4522.191336824628
 20
3037.677483491704
 30
0.0
 10
4522.203795984038
 20
3037.6856834003
 30
0.0
 10
4522.214763816656
 20
3037.693327179756
 30
0.0
 10
4522.223540310839
 20
3037.701173180926
 30
0.0
 10
4522.230371097978
 20
3037.70867567124
 30
0.0
 10
4522.236388599093
 20
3037.716794902754
 30
0.0
 10
4522.241550027781
 20
3037.725465227195
 30
0.0
 10
4522.245820259574
 20
3037.734618900787
 30
0.0
 10
4522.249149223418
 20
3037.744189216768
 30
0.0
 10
4522.251536328689
 20
3037.754103994455
 30
0.0
 10
4522.252326943576
 20
3037.760866486068
 30
0.0
 10
4522.252723569686
 20
3037.764259011029
 30
0.0
  0
SPLINE
  5
1843
330
1F
100
AcDbEntity
  8
SANINDUSA
100
AcDbSpline
210
0.0
220
0.0
230
1.0
 70
    24
 71
     3
 72
    11
 73
     7
 74
     0
 42
0.0000000001
 43
0.0000000001
 40
0.0
 40
0.0
 40
0.0
 40
0.0
 40
0.1049276574065283
 40
0.4846999551339639
 40
0.8644722823311328
 40
1.0
 40
1.0
 40
1.0
 40
1.0
 10
4522.208972925955
 20
3037.769500807403
 30
0.0
 10
4522.210508430949
 20
3037.76936646278
 30
0.0
 10
4522.217601500782
 20
3037.768745874898
 30
0.0
 10
4522.230252143084
 20
3037.767639125996
 30
0.0
 10
4522.243350580904
 20
3037.766493153439
 30
0.0
 10
4522.250891452059
 20
3037.765833403263
 30
0.0
 10
4522.252874756867
 20
3037.765659884094
 30
0.0
  0
LINE
  5
1844
330
1F
100
AcDbEntity
  8
SANINDUSA
100
AcDbLine
 10
4522.200138504321
 20
3037.419500798462
 30
0.0
 11
4522.18300424021
 21
3037.419500798462
 31
0.0
  0
SPLINE
  5
1847
330
1F
100
AcDbEntity
  8
SANINDUSA
100
AcDbSpline
210
0.0
220
0.0
230
1.0
 70
    24
 71
     3
 72
     9
 73
     5
 74
     0
 42
0.0000000001
 43
0.0000000001
 40
0.0
 40
0.0
 40
0.0
 40
0.0
 40
0.1522787035510399
 40
1.0
 40
1.0
 40
1.0
 40
1.0
 10
4521.892493406946
 20
3037.776509255647
 30
0.0
 10
4521.893701308722
 20
3037.776614934783
 30
0.0
 10
4521.901633486688
 20
3037.777308919791
 30
0.0
 10
4521.909565665807
 20
3037.778002891601
 30
0.0
 10
4521.916289942974
 20
3037.778591186283
 30
0.0
  0
LINE
  5
1849
330
1F
100
AcDbEntity
  8
SANINDUSA
100
AcDbLine
 10
4522.003324574495
 20
3037.769500807403
 30
0.0
 11
4522.018804649526
 21
3037.769500807403
 31
0.0
  0
LINE
  5
184A
330
1F
100
AcDbEntity
  8
SANINDUSA
100
AcDbLine
 10
4522.018804649526
 20
3037.769500807403
 30
0.0
 11
4522.187750990207
 21
3037.769500807403
 31
0.0
  0
SPLINE
  5
184B
330
1F
100
AcDbEntity
  8
SANINDUSA
100
AcDbSpline
210
0.0
220
0.0
230
1.0
 70
    24
 71
     3
 72
    16
 73
    12
 74
     0
 42
0.0000000001
 43
0.0000000001
 40
0.0
 40
0.0
 40
0.0
 40
0.0
 40
0.1082595891805078
 40
0.2165183356128434
 40
0.3247768128795704
 40
0.4330343202561906
 40
0.5413173714012271
 40
0.6496006717468502
 40
0.7578607365494943
 40
0.8661204107067977
 40
1.0
 40
1.0
 40
1.0
 40
1.0
 10
4522.187750990207
 20
3037.769500807403
 30
0.0
 10
4522.188910471997
 20
3037.769501115553
 30
0.0
 10
4522.19122942655
 20
3037.769501731852
 30
0.0
 10
4522.194611156765
 20
3037.769501311733
 30
0.0
 10
4522.197794009937
 20
3037.769499832597
 30
0.0
 10
4522.200698196636
 20
3037.769500804915
 30
0.0
 10
4522.203226546293
 20
3037.769500630086
 30
0.0
 10
4522.205327682019
 20
3037.769500356871
 30
0.0
 10
4522.20690756335
 20
3037.769500998612
 30
0.0
 10
4522.208085088219
 20
3037.769500260252
 30
0.0
 10
4522.20827170289
 20
3037.769500353509
 30
0.0
 10
4522.208374882753
 20
3037.769500405071
 30
0.0
  0
SPLINE
  5
184C
330
1F
100
AcDbEntity
  8
SANINDUSA
100
AcDbSpline
210
0.0
220
0.0
230
1.0
 70
    24
 71
     3
 72
     9
 73
     5
 74
     0
 42
0.0000000001
 43
0.0000000001
 40
0.0
 40
0.0
 40
0.0
 40
0.0
 40
0.4999901473968051
 40
1.0
 40
1.0
 40
1.0
 40
1.0
 10
4522.208972925955
 20
3037.769500807403
 30
0.0
 10
4522.208948001799
 20
3037.769500840929
 30
0.0
 10
4522.208898152505
 20
3037.769500907981
 30
0.0
 10
4522.208549308294
 20
3037.76950057271
 30
0.0
 10
4522.208374882753
 20
3037.769500405071
 30
0.0
  0
SPLINE
  5
184F
330
1F
100
AcDbEntity
  8
SANINDUSA
100
AcDbSpline
210
0.0
220
0.0
230
1.0
 70
    24
 71
     3
 72
    10
 73
     6
 74
     0
 42
0.0000000001
 43
0.0000000001
 40
0.0
 40
0.0
 40
0.0
 40
0.0
 40
0.0605544335774432
 40
0.8659895582223869
 40
1.0
 40
1.0
 40
1.0
 40
1.0
 10
4521.892749014015
 20
3037.766493425249
 30
0.0
 10
4521.893442855541
 20
3037.766554127609
 30
0.0
 10
4521.903365490138
 20
3037.767422232667
 30
0.0
 10
4521.914823635698
 20
3037.768424677992
 30
0.0
 10
4521.925587936033
 20
3037.769366463213
 30
0.0
 10
4521.927123446653
 20
3037.769500807403
 30
0.0
  0
SPLINE
  5
1850
330
1F
100
AcDbEntity
  8
SANINDUSA
100
AcDbSpline
210
0.0
220
0.0
230
1.0
 70
    24
 71
     3
 72
    13
 73
     9
 74
     0
 42
0.0000000001
 43
0.0000000001
 40
0.0
 40
0.0
 40
0.0
 40
0.0
 40
0.1657467975172413
 40
0.3314935787064602
 40
0.5020293527530035
 40
0.6725651371096086
 40
0.8357328398524934
 40
1.0
 40
1.0
 40
1.0
 40
1.0
 10
4521.927123446653
 20
3037.769500807403
 30
0.0
 10
4521.927173737925
 20
3037.769500816556
 30
0.0
 10
4521.927274320463
 20
3037.769500834862
 30
0.0
 10
4521.928089341623
 20
3037.76950078651
 30
0.0
 10
4521.929404758487
 20
3037.769500587113
 30
0.0
 10
4521.931256187092
 20
3037.769500722121
 30
0.0
 10
4521.933545840521
 20
3037.769500820607
 30
0.0
 10
4521.935440555138
 20
3037.769500653046
 30
0.0
 10
4521.936391093472
 20
3037.769500568984
 30
0.0
  0
SPLINE
  5
1852
330
1F
100
AcDbEntity
  8
SANINDUSA
100
AcDbSpline
210
0.0
220
0.0
230
1.0
 70
    24
 71
     3
 72
     9
 73
     5
 74
     0
 42
0.0000000001
 43
0.0000000001
 40
0.0
 40
0.0
 40
0.0
 40
0.0
 40
0.4981919702437939
 40
1.0
 40
1.0
 40
1.0
 40
1.0
 10
4521.936430953148
 20
3037.769500554083
 30
0.0
 10
4521.937497371836
 20
3037.769500586458
 30
0.0
 10
4521.939637949672
 20
3037.769500651443
 30
0.0
 10
4521.942233364436
 20
3037.769500745369
 30
0.0
 10
4521.943535764406
 20
3037.769500792502
 30
0.0
  0
SPLINE
  5
1853
330
1F
100
AcDbEntity
  8
SANINDUSA
100
AcDbSpline
210
0.0
220
0.0
230
1.0
 70
    24
 71
     3
 72
     9
 73
     5
 74
     0
 42
0.0000000001
 43
0.0000000001
 40
0.0
 40
0.0
 40
0.0
 40
0.0
 40
0.4980397817210002
 40
1.0
 40
1.0
 40
1.0
 40
1.0
 10
4521.943535764406
 20
3037.769500792502
 30
0.0
 10
4521.944957375723
 20
3037.769500693306
 30
0.0
 10
4521.947811788903
 20
3037.769500494134
 30
0.0
 10
4521.951095326095
 20
3037.769500593575
 30
0.0
 10
4521.952743531142
 20
3037.76950064349
 30
0.0
  0
SPLINE
  5
1854
330
1F
100
AcDbEntity
  8
SANINDUSA
100
AcDbSpline
210
0.0
220
0.0
230
1.0
 70
    24
 71
     1
 72
     4
 73
     2
 74
     0
 42
0.0000000001
 43
0.0000000001
 40
0.0
 40
0.0
 40
1.0
 40
1.0
 10
4521.952743531142
 20
3037.76950064349
 30
0.0
 10
4521.958549131343
 20
3037.769500777601
 30
0.0
  0
SPLINE
  5
1855
330
1F
100
AcDbEntity
  8
SANINDUSA
100
AcDbSpline
210
0.0
220
0.0
230
1.0
 70
     8
 71
     3
 72
    15
 73
    11
 74
     0
 42
0.0000000001
 43
0.0000000001
 40
0.0
 40
0.0
 40
0.0
 40
0.0
 40
0.1331982920849501
 40
0.2663964701807911
 40
0.4034645515088286
 40
0.5405329986700056
 40
0.6542098986761723
 40
0.7678859449550598
 40
0.8839422741370828
 40
1.0
 40
1.0
 40
1.0
 40
1.0
 10
4521.95854906522
 20
3037.769500777601
 30
0.0
 10
4521.960279380086
 20
3037.769500699133
 30
0.0
 10
4521.963740008337
 20
3037.769500542198
 30
0.0
 10
4521.969334891899
 20
3037.769500918154
 30
0.0
 10
4521.975201501835
 20
3037.769499893169
 30
0.0
 10
4521.980982050965
 20
3037.769501308076
 30
0.0
 10
4521.986538959192
 20
3037.769514499678
 30
0.0
 10
4521.991857925747
 20
3037.769526671822
 30
0.0
 10
4521.997270600421
 20
3037.769510249738
 30
0.0
 10
4522.000922868427
 20
3037.76950395486
 30
0.0
 10
4522.002749013419
 20
3037.769500807403
 30
0.0
  0
LINE
  5
1858
330
1F
100
AcDbEntity
  8
SANINDUSA
100
AcDbLine
 10
4521.673068399246
 20
3037.774457440256
 30
0.0
 11
4521.883749010677
 21
3037.766819701074
 31
0.0
  0
LINE
  5
1859
330
1F
100
AcDbEntity
  8
SANINDUSA
100
AcDbLine
 10
4521.671844656284
 20
3037.809500799058
 30
0.0
 11
4521.673068399246
 21
3037.774457440256
 31
0.0
  0
LINE
  5
185A
330
1F
100
AcDbEntity
  8
SANINDUSA
100
AcDbLine
 10
4521.671844656284
 20
3037.809500799058
 30
0.0
 11
4521.656344677025
 21
3037.809500799058
 31
0.0
  0
LINE
  5
185B
330
1F
100
AcDbEntity
  8
SANINDUSA
100
AcDbLine
 10
4521.656344677025
 20
3037.769473538278
 30
0.0
 11
4521.656344677025
 21
3037.809500799058
 31
0.0
  0
LINE
  5
185C
330
1F
100
AcDbEntity
  8
SANINDUSA
100
AcDbLine
 10
4521.656344677025
 20
3037.769473538278
 30
0.0
 11
4521.883815551812
 21
3037.761530086874
 31
0.0
  0
SPLINE
  5
185D
330
1F
100
AcDbEntity
  8
SANINDUSA
100
AcDbSpline
210
0.0
220
0.0
230
1.0
 70
    24
 71
     1
 72
     4
 73
     2
 74
     0
 42
0.0000000001
 43
0.0000000001
 40
0.0
 40
0.0
 40
1.0
 40
1.0
 10
4521.883815551812
 20
3037.761530086874
 30
0.0
 10
4521.883750687058
 20
3037.765706182002
 30
0.0
  0
ARC
  5
185E
330
1F
100
AcDbEntity
  8
SANINDUSA
100
AcDbCircle
 10
4521.776772732851
 20
3037.486292336352
 30
0.0
 40
0.219870538520815
100
AcDbArc
 50
0.8371322541337015
 51
41.98207921027187
  0
ARC
  5
185F
330
1F
100
AcDbEntity
  8
SANINDUSA
100
AcDbCircle
 10
4521.935431174583
 20
3037.643269267466
 30
0.0
 40
0.0110000000000001
100
AcDbArc
 50
271.9999999777144
 51
295.7742185085402
  0
LINE
  5
1860
330
1F
100
AcDbEntity
  8
SANINDUSA
100
AcDbLine
 10
4521.856344665105
 20
3037.629500799357
 30
0.0
 11
4521.935815068597
 21
3037.632275969265
 31
0.0
  0
LINE
  5
1861
330
1F
100
AcDbEntity
  8
SANINDUSA
100
AcDbLine
 10
4521.856344665105
 20
3037.629500799357
 30
0.0
 11
4521.856030570979
 21
3037.638495319067
 31
0.0
  0
LINE
  5
1862
330
1F
100
AcDbEntity
  8
SANINDUSA
100
AcDbLine
 10
4521.856030570979
 20
3037.638495319067
 30
0.0
 11
4521.912416665519
 21
3037.640464362232
 31
0.0
  0
ARC
  5
1863
330
1F
100
AcDbEntity
  8
SANINDUSA
100
AcDbCircle
 10
4521.9120676722
 20
3037.650458272339
 30
0.0
 40
0.01
100
AcDbArc
 50
271.9999999777144
 51
36.54675257098665
  0
LINE
  5
1864
330
1F
100
AcDbEntity
  8
SANINDUSA
100
AcDbLine
 10
4521.88435655337
 20
3037.751511186837
 30
0.0
 11
4521.646344656761
 21
3037.759822756527
 31
0.0
  0
LINE
  5
1865
330
1F
100
AcDbEntity
  8
SANINDUSA
100
AcDbLine
 10
4521.646344656761
 20
3037.759822756527
 30
0.0
 11
4521.646344656761
 21
3037.824500799655
 31
0.0
  0
LINE
  5
1866
330
1F
100
AcDbEntity
  8
SANINDUSA
100
AcDbLine
 10
4521.646344656761
 20
3037.824500799655
 30
0.0
 11
4521.656344677025
 21
3037.824500799655
 31
0.0
  0
LINE
  5
1867
330
1F
100
AcDbEntity
  8
SANINDUSA
100
AcDbLine
 10
4521.656344677025
 20
3037.824500799655
 30
0.0
 11
4521.656344677025
 21
3037.822500795601
 31
0.0
  0
LINE
  5
1868
330
1F
100
AcDbEntity
  8
SANINDUSA
100
AcDbLine
 10
4521.656344677025
 20
3037.822500795601
 30
0.0
 11
4521.663844669873
 21
3037.822500795601
 31
0.0
  0
LINE
  5
1869
330
1F
100
AcDbEntity
  8
SANINDUSA
100
AcDbLine
 10
4521.663844669873
 20
3037.819500804423
 30
0.0
 11
4521.663844669873
 21
3037.822500795601
 31
0.0
  0
LINE
  5
186A
330
1F
100
AcDbEntity
  8
SANINDUSA
100
AcDbLine
 10
4521.6838446508
 20
3037.819500804423
 30
0.0
 11
4521.663844669873
 21
3037.819500804423
 31
0.0
  0
LINE
  5
186B
330
1F
100
AcDbEntity
  8
SANINDUSA
100
AcDbLine
 10
4521.6838446508
 20
3037.809500799058
 30
0.0
 11
4521.6838446508
 21
3037.819500804423
 31
0.0
  0
LINE
  5
186C
330
1F
100
AcDbEntity
  8
SANINDUSA
100
AcDbLine
 10
4521.6838446508
 20
3037.809500799058
 30
0.0
 11
4521.681844676549
 21
3037.809500799058
 31
0.0
  0
LINE
  5
186D
330
1F
100
AcDbEntity
  8
SANINDUSA
100
AcDbLine
 10
4521.682731206233
 20
3037.784113705634
 30
0.0
 11
4521.681844676549
 21
3037.809500799058
 31
0.0
  0
LINE
  5
186E
330
1F
100
AcDbEntity
  8
SANINDUSA
100
AcDbLine
 10
4521.892493406946
 20
3037.776509255647
 30
0.0
 11
4521.682731206233
 21
3037.784113705634
 31
0.0
  0
LINE
  5
186F
330
1F
100
AcDbEntity
  8
SANINDUSA
100
AcDbLine
 10
4521.916289942974
 20
3037.778591186283
 30
0.0
 11
4521.915182972962
 21
3037.791243911265
 31
0.0
  0
ARC
  5
1870
330
1F
100
AcDbEntity
  8
SANINDUSA
100
AcDbCircle
 10
4521.895259077902
 20
3037.7895008007
 30
0.0
 40
0.02
100
AcDbArc
 50
4.999999996291116
 51
90.0
  0
LINE
  5
1871
330
1F
100
AcDbEntity
  8
SANINDUSA
100
AcDbLine
 10
4521.895259077365
 20
3037.809500799058
 30
0.0
 11
4521.748844663316
 21
3037.809500799058
 31
0.0
  0
LINE
  5
1872
330
1F
100
AcDbEntity
  8
SANINDUSA
100
AcDbLine
 10
4521.748844663316
 20
3037.819500804423
 30
0.0
 11
4521.748844663316
 21
3037.809500799058
 31
0.0
  0
LINE
  5
1873
330
1F
100
AcDbEntity
  8
SANINDUSA
100
AcDbLine
 10
4521.768844659145
 20
3037.819500804423
 30
0.0
 11
4521.748844663316
 21
3037.819500804423
 31
0.0
  0
LINE
  5
1874
330
1F
100
AcDbEntity
  8
SANINDUSA
100
AcDbLine
 10
4521.768844659145
 20
3037.822500795601
 30
0.0
 11
4521.768844659145
 21
3037.819500804423
 31
0.0
  0
LINE
  5
1875
330
1F
100
AcDbEntity
  8
SANINDUSA
100
AcDbLine
 10
4521.768844659145
 20
3037.822500795601
 30
0.0
 11
4521.776344666893
 21
3037.822500795601
 31
0.0
  0
LINE
  5
1876
330
1F
100
AcDbEntity
  8
SANINDUSA
100
AcDbLine
 10
4521.776344666893
 20
3037.822500795601
 30
0.0
 11
4521.776344666893
 21
3037.824500799655
 31
0.0
  0
ARC
  5
1878
330
1F
100
AcDbEntity
  8
SANINDUSA
100
AcDbCircle
 10
4521.782684410736
 20
3037.819500800699
 30
0.0
 40
0.0050000000000002
100
AcDbArc
 50
30.00000001574733
 51
90.0
  0
ARC
  5
1879
330
1F
100
AcDbEntity
  8
SANINDUSA
100
AcDbCircle
 10
4521.791344664774
 20
3037.824500800699
 30
0.0
 40
0.005
100
AcDbArc
 50
210.0000000157473
 51
270.0
  0
LINE
  5
187A
330
1F
100
AcDbEntity
  8
SANINDUSA
100
AcDbLine
 10
4521.895259077365
 20
3037.819500804423
 30
0.0
 11
4521.791344667489
 21
3037.819500804423
 31
0.0
  0
ARC
  5
187B
330
1F
100
AcDbEntity
  8
SANINDUSA
100
AcDbCircle
 10
4521.895259077902
 20
3037.7895008007
 30
0.0
 40
0.03
100
AcDbArc
 50
4.999999996291116
 51
90.0
  0
LINE
  5
187C
330
1F
100
AcDbEntity
  8
SANINDUSA
100
AcDbLine
 10
4521.927123446653
 20
3037.769500807403
 30
0.0
 11
4521.925144918898
 21
3037.792115480183
 31
0.0
  0
SPLINE
  5
187D
330
1F
100
AcDbEntity
  8
SANINDUSA
100
AcDbSpline
210
0.0
220
0.0
230
1.0
 70
     8
 71
     3
 72
    18
 73
    14
 74
     0
 42
0.0000000001
 43
0.0000000001
 40
0.0
 40
0.0
 40
0.0
 40
0.0
 40
0.0844948037978556
 40
0.1689894226564559
 40
0.2692556122973668
 40
0.3698799184447393
 40
0.4705049474234812
 40
0.5707721223801841
 40
0.6710797947670095
 40
0.7717460395299555
 40
0.8724117216483843
 40
0.9727186501006659
 40
1.0
 40
1.0
 40
1.0
 40
1.0
 10
4521.892749014015
 20
3037.766493425249
 30
0.0
 10
4521.892834546769
 20
3037.762337023326
 30
0.0
 10
4521.893005612091
 20
3037.754024228578
 30
0.0
 10
4521.894459761027
 20
3037.740845434306
 30
0.0
 10
4521.897026336726
 20
3037.727031828521
 30
0.0
 10
4521.900976596319
 20
3037.712719784163
 30
0.0
 10
4521.906094683922
 20
3037.698784382357
 30
0.0
 10
4521.912356909518
 20
3037.685339656275
 30
0.0
 10
4521.919756132517
 20
3037.672483749055
 30
0.0
 10
4521.928215683887
 20
3037.660275533609
 30
0.0
 10
4521.93766617987
 20
3037.648820445458
 30
0.0
 10
4521.945502656079
 20
3037.640758942205
 30
0.0
 10
4521.950142915991
 20
3037.636534702212
 30
0.0
 10
4521.951135111794
 20
3037.635631461172
 30
0.0
  0
SPLINE
  5
187E
330
1F
100
AcDbEntity
  8
SANINDUSA
100
AcDbSpline
210
0.0
220
0.0
230
1.0
 70
    24
 71
     1
 72
     4
 73
     2
 74
     0
 42
0.0000000001
 43
0.0000000001
 40
0.0
 40
0.0
 40
1.0
 40
1.0
 10
4521.951135111794
 20
3037.635631461172
 30
0.0
 10
4521.954261543399
 20
3037.63236829686
 30
0.0
  0
ARC
  5
187F
330
1F
100
AcDbEntity
  8
SANINDUSA
100
AcDbCircle
 10
4521.776772732851
 20
3037.486292336352
 30
0.0
 40
0.2298705385208233
100
AcDbArc
 50
0.800712278778846
 51
39.45489431429724
  0
LINE
  5
1880
330
1F
100
AcDbEntity
  8
SANINDUSA
100
AcDbLine
 10
4522.00662082311
 20
3037.489504687963
 30
0.0
 11
4521.996619804466
 21
3037.489504687963
 31
0.0
  0
SPLINE
  5
1881
330
1F
100
AcDbEntity
  8
SANINDUSA
100
AcDbSpline
210
0.0
220
0.0
230
1.0
 70
     8
 71
     3
 72
    15
 73
    11
 74
     0
 42
0.0000000001
 43
0.0000000001
 40
0.0
 40
0.0
 40
0.0
 40
0.0
 40
0.1369013636774643
 40
0.2735203932713441
 40
0.4100446304775323
 40
0.5538247973868482
 40
0.6979230089559002
 40
0.8425693166425231
 40
0.9211471249938593
 40
1.0
 40
1.0
 40
1.0
 40
1.0
 10
4521.920101384337
 20
3037.656413056432
 30
0.0
 10
4521.917387742143
 20
3037.660247751679
 30
0.0
 10
4521.91196605415
 20
3037.667909233815
 30
0.0
 10
4521.904976055743
 20
3037.680136653018
 30
0.0
 10
4521.898767468459
 20
3037.693029980065
 30
0.0
 10
4521.893507479245
 20
3037.706620558506
 30
0.0
 10
4521.889263334017
 20
3037.720851780342
 30
0.0
 10
4521.886656295587
 20
3037.733191408462
 30
0.0
 10
4521.885115750156
 20
3037.74344134132
 30
0.0
 10
4521.884609913569
 20
3037.74881810686
 30
0.0
 10
4521.88435655337
 20
3037.751511186837
 30
0.0
  0
LINE
  5
188D
330
1F
100
AcDbEntity
  8
SANINDUSA
100
AcDbLine
 10
4521.856030570979
 20
3037.540506281434
 30
0.0
 11
4521.856030570979
 21
3037.638495319067
 31
0.0
  0
SPLINE
  5
188E
330
1F
100
AcDbEntity
  8
SANINDUSA
100
AcDbSpline
210
0.0
220
0.0
230
1.0
 70
    24
 71
     3
 72
    10
 73
     6
 74
     0
 42
0.0000000001
 43
0.0000000001
 40
0.0
 40
0.0
 40
0.0
 40
0.0
 40
0.1386391611615246
 40
0.6931957102079083
 40
1.0
 40
1.0
 40
1.0
 40
1.0
 10
4521.646344656761
 20
3037.449500799655
 30
0.0
 10
4521.646344656761
 20
3037.452846641822
 30
0.0
 10
4521.646344656761
 20
3037.469575850358
 30
0.0
 10
4521.646344656761
 20
3037.493709306261
 30
0.0
 10
4521.646344656761
 20
3037.514496920468
 30
0.0
 10
4521.646344656761
 20
3037.521901168405
 30
0.0
  0
SPLINE
  5
188F
330
1F
100
AcDbEntity
  8
SANINDUSA
100
AcDbSpline
210
0.0
220
0.0
230
1.0
 70
     8
 71
     3
 72
    22
 73
    18
 74
     0
 42
0.0000000001
 43
0.0000000001
 40
0.0
 40
0.0
 40
0.0
 40
0.0
 40
0.0603589414390788
 40
0.1208631966592375
 40
0.1812220047066291
 40
0.250583081909248
 40
0.3201651251226536
 40
0.3895279313392721
 40
0.4590396212730151
 40
0.5287711715007396
 40
0.5982847579754854
 40
0.6682060837881274
 40
0.7383488250303261
 40
0.8082708559688043
 40
0.8721247476273239
 40
0.9361463678614351
 40
0.9999999999999998
 40
0.9999999999999998
 40
0.9999999999999998
 40
0.9999999999999998
 10
4521.646344656761
 20
3037.521901168405
 30
0.0
 10
4521.646350854616
 20
3037.519637937248
 30
0.0
 10
4521.646363265252
 20
3037.515106026221
 30
0.0
 10
4521.6464596532
 20
3037.508346868317
 30
0.0
 10
4521.646616374662
 20
3037.501363761453
 30
0.0
 10
4521.646847728148
 20
3037.494250907462
 30
0.0
 10
4521.64714983477
 20
3037.487133461809
 30
0.0
 10
4521.647502443248
 20
3037.480411698427
 30
0.0
 10
4521.647894708922
 20
3037.474188341831
 30
0.0
 10
4521.648311417515
 20
3037.468524068653
 30
0.0
 10
4521.648740165122
 20
3037.463479796719
 30
0.0
 10
4521.649166533376
 20
3037.459146303513
 30
0.0
 10
4521.649578430027
 20
3037.455558619559
 30
0.0
 10
4521.649953174033
 20
3037.45284290568
 30
0.0
 10
4521.650280873029
 20
3037.450996745292
 30
0.0
 10
4521.65056551278
 20
3037.449864794366
 30
0.0
 10
4521.65072018649
 20
3037.449725732742
 30
0.0
 10
4521.650797421748
 20
3037.449656293271
 30
0.0
  0
SPLINE
  5
1890
330
1F
100
AcDbEntity
  8
SANINDUSA
100
AcDbSpline
210
0.0
220
0.0
230
1.0
 70
    24
 71
     1
 72
     4
 73
     2
 74
     0
 42
0.0000000001
 43
0.0000000001
 40
0.0
 40
0.0
 40
1.0
 40
1.0
 10
4521.650796885306
 20
3037.44965627837
 30
0.0
 10
4521.651344651991
 20
3037.449675411461
 30
0.0
  0
LINE
  5
1891
330
1F
100
AcDbEntity
  8
SANINDUSA
100
AcDbLine
 10
4521.651344651991
 20
3037.449675411461
 30
0.0
 11
4521.651344651991
 21
3037.414500803231
 31
0.0
  0
LINE
  5
1892
330
1F
100
AcDbEntity
  8
SANINDUSA
100
AcDbLine
 10
4521.661344651991
 20
3037.440018523015
 30
0.0
 11
4521.661344651991
 21
3037.424500803231
 31
0.0
  0
SPLINE
  5
1893
330
1F
100
AcDbEntity
  8
SANINDUSA
100
AcDbSpline
210
0.0
220
0.0
230
1.0
 70
    24
 71
     3
 72
    13
 73
     9
 74
     0
 42
0.0000000001
 43
0.0000000001
 40
0.0
 40
0.0
 40
0.0
 40
0.0
 40
0.1821267098064204
 40
0.3643494451980749
 40
0.5230964228542576
 40
0.6819092764330163
 40
0.8409212591490986
 40
1.0
 40
1.0
 40
1.0
 40
1.0
 10
4521.646344656761
 20
3037.409500807999
 30
0.0
 10
4521.646917104924
 20
3037.410073222218
 30
0.0
 10
4521.648062303073
 20
3037.411218352458
 30
0.0
 10
4521.649312182765
 20
3037.412468291691
 30
0.0
 10
4521.650246834524
 20
3037.413402974359
 30
0.0
 10
4521.650876019418
 20
3037.414032167752
 30
0.0
 10
4521.651271471974
 20
3037.414427646293
 30
0.0
 10
4521.65132025524
 20
3037.414476414173
 30
0.0
 10
4521.651344651991
 20
3037.414500803231
 30
0.0
  0
LINE
  5
1894
330
1F
100
AcDbEntity
  8
SANINDUSA
100
AcDbLine
 10
4521.646344656761
 20
3037.409500807999
 30
0.0
 11
4521.646344656761
 21
3037.449500799655
 31
0.0
  0
LINE
  5
1895
330
1F
100
AcDbEntity
  8
SANINDUSA
100
AcDbLine
 10
4521.687792028004
 20
3037.450948179243
 30
0.0
 11
4521.686519260223
 21
3037.414500803231
 31
0.0
  0
LINE
  5
1896
330
1F
100
AcDbEntity
  8
SANINDUSA
100
AcDbLine
 10
4521.677423869254
 20
3037.440580020493
 30
0.0
 11
4521.676862371776
 21
3037.424500803231
 31
0.0
  0
LINE
  5
1897
330
1F
100
AcDbEntity
  8
SANINDUSA
100
AcDbLine
 10
4521.651344651991
 20
3037.449675411461
 30
0.0
 11
4521.687792028004
 21
3037.450948179243
 31
0.0
  0
LINE
  5
1898
330
1F
100
AcDbEntity
  8
SANINDUSA
100
AcDbLine
 10
4521.661344651991
 20
3037.440018523015
 30
0.0
 11
4521.677423869254
 21
3037.440580020493
 31
0.0
  0
SPLINE
  5
189A
330
1F
100
AcDbEntity
  8
SANINDUSA
100
AcDbSpline
210
0.0
220
0.0
230
1.0
 70
    24
 71
     1
 72
     4
 73
     2
 74
     0
 42
0.0000000001
 43
0.0000000001
 40
0.0
 40
0.0
 40
1.0
 40
1.0
 10
4521.686519260223
 20
3037.414500803231
 30
0.0
 10
4521.686500156934
 20
3037.413953528284
 30
0.0
  0
SPLINE
  5
189B
330
1F
100
AcDbEntity
  8
SANINDUSA
100
AcDbSpline
210
0.0
220
0.0
230
1.0
 70
     8
 71
     3
 72
    22
 73
    18
 74
     0
 42
0.0000000001
 43
0.0000000001
 40
0.0
 40
0.0
 40
0.0
 40
0.0
 40
0.0618896390526194
 40
0.1239321731796832
 40
0.1858220178886202
 40
0.2560701936522039
 40
0.3265420607612254
 40
0.3967894841056905
 40
0.4670207579816241
 40
0.5374768890977825
 40
0.6077060926370864
 40
0.6776634750531681
 40
0.7478457460633576
 40
0.8178012840775259
 40
0.8784848747099777
 40
0.9393162806993156
 40
1.0
 40
1.0
 40
1.0
 40
1.0
 10
4521.686500156934
 20
3037.413953528284
 30
0.0
 10
4521.686565215776
 20
3037.413878813866
 30
0.0
 10
4521.686695494183
 20
3037.413729200454
 30
0.0
 10
4521.687758605496
 20
3037.413455149156
 30
0.0
 10
4521.689516100695
 20
3037.413136142977
 30
0.0
 10
4521.692148968798
 20
3037.412766346407
 30
0.0
 10
4521.69569219347
 20
3037.412354225908
 30
0.0
 10
4521.699999865228
 20
3037.411925731096
 30
0.0
 10
4521.705042529333
 20
3037.411493095609
 30
0.0
 10
4521.710731562538
 20
3037.41107106587
 30
0.0
 10
4521.716991348148
 20
3037.41067353571
 30
0.0
 10
4521.723758851408
 20
3037.41031608245
 30
0.0
 10
4521.730927577163
 20
3037.410009852906
 30
0.0
 10
4521.738089871224
 20
3037.409775525186
 30
0.0
 10
4521.745116774175
 20
3037.409617007147
 30
0.0
 10
4521.751911758012
 20
3037.409519631224
 30
0.0
 10
4521.756468091756
 20
3037.409507077321
 30
0.0
 10
4521.758743489797
 20
3037.409500807999
 30
0.0
  0
SPLINE
  5
189C
330
1F
100
AcDbEntity
  8
SANINDUSA
100
AcDbSpline
210
0.0
220
0.0
230
1.0
 70
    24
 71
     3
 72
    10
 73
     6
 74
     0
 42
0.0000000001
 43
0.0000000001
 40
0.0
 40
0.0
 40
0.0
 40
0.0
 40
0.1421083680971082
 40
0.7105420460553785
 40
1.0
 40
1.0
 40
1.0
 40
1.0
 10
4521.686344678218
 20
3037.409500807999
 30
0.0
 10
4521.689774170533
 20
3037.409500807999
 30
0.0
 10
4521.70692163707
 20
3037.409500807999
 30
0.0
 10
4521.731054574153
 20
3037.409500807999
 30
0.0
 10
4521.751758019136
 20
3037.409500807999
 30
0.0
 10
4521.758743489797
 20
3037.409500807999
 30
0.0
  0
LINE
  5
189D
330
1F
100
AcDbEntity
  8
SANINDUSA
100
AcDbLine
 10
4521.686344678218
 20
3037.409500807999
 30
0.0
 11
4521.646344656761
 21
3037.409500807999
 31
0.0
  0
LINE
  5
18A5
330
1F
100
AcDbEntity
  8
SANINDUSA
100
AcDbLine
 10
4521.646344656761
 20
3037.738839969514
 30
0.0
 11
4521.646344656761
 21
3037.759822756527
 31
0.0
  0
LINE
  5
18A8
330
1F
100
AcDbEntity
  8
SANINDUSA
100
AcDbLine
 10
4521.748844663316
 20
3037.819500804423
 30
0.0
 11
4521.6838446508
 21
3037.819500804423
 31
0.0
  0
LINE
  5
18AA
330
1F
100
AcDbEntity
  8
SANINDUSA
100
AcDbLine
 10
4521.883742081636
 20
3037.765697136997
 30
0.0
 11
4521.883742081636
 21
3037.766819954394
 31
0.0
  0
LINE
  5
18B1
330
1F
100
AcDbEntity
  8
SANINDUSA
100
AcDbLine
 10
4522.172580520327
 20
3037.409500807999
 30
0.0
 11
4522.173347348983
 21
3037.409500807999
 31
0.0
  0
LINE
  5
18D9
330
1F
100
AcDbEntity
  8
SANINDUSA
100
AcDbLine
 10
4522.002749013419
 20
3037.819500804423
 30
0.0
 11
4521.895259077365
 21
3037.819500804423
 31
0.0
  0
SPLINE
  5
18DB
330
1F
100
AcDbEntity
  8
SANINDUSA
100
AcDbSpline
210
0.0
220
0.0
230
1.0
 70
    24
 71
     3
 72
    16
 73
    12
 74
     0
 42
0.0000000001
 43
0.0000000001
 40
0.0
 40
0.0
 40
0.0
 40
0.0
 40
0.1049692398567994
 40
0.2167986578498959
 40
0.328627628703041
 40
0.4404795243843211
 40
0.5523313051135199
 40
0.6642503035792278
 40
0.7761694152751378
 40
0.8880843781720441
 40
0.9999999999999998
 40
0.9999999999999998
 40
0.9999999999999998
 40
0.9999999999999998
 10
4522.172580520327
 20
3037.409500807999
 30
0.0
 10
4522.172424575271
 20
3037.409500807999
 30
0.0
 10
4522.172102493501
 20
3037.409500807999
 30
0.0
 10
4522.170261206263
 20
3037.409500807999
 30
0.0
 10
4522.167411380445
 20
3037.409500807999
 30
0.0
 10
4522.163533568348
 20
3037.409500807999
 30
0.0
 10
4522.158800598263
 20
3037.409500807999
 30
0.0
 10
4522.153306483392
 20
3037.409500807999
 30
0.0
 10
4522.14723552415
 20
3037.409500807999
 30
0.0
 10
4522.140743977804
 20
3037.409500807999
 30
0.0
 10
4522.13625869496
 20
3037.409500807999
 30
0.0
 10
4522.134016046936
 20
3037.409500807999
 30
0.0
  0
SPLINE
  5
18DC
330
1F
100
AcDbEntity
  8
SANINDUSA
100
AcDbSpline
210
0.0
220
0.0
230
1.0
 70
    24
 71
     3
 72
    17
 73
    13
 74
     0
 42
0.0000000001
 43
0.0000000001
 40
0.0
 40
0.0
 40
0.0
 40
0.0
 40
0.0877053124290585
 40
0.1754104559744703
 40
0.2656634119983943
 40
0.3559163531054867
 40
0.4436219581541318
 40
0.5313274854802949
 40
0.6215819579074364
 40
0.7118364732582993
 40
0.8545693083852615
 40
1.0
 40
1.0
 40
1.0
 40
1.0
 10
4521.646344656761
 20
3037.738839969514
 30
0.0
 10
4521.646344656761
 20
3037.73772594436
 30
0.0
 10
4521.646344656761
 20
3037.735497896197
 30
0.0
 10
4521.646344656761
 20
3037.731633634135
 30
0.0
 10
4521.646344656761
 20
3037.727395192548
 30
0.0
 10
4521.646344656761
 20
3037.72281160247
 30
0.0
 10
4521.646344656761
 20
3037.717973982998
 30
0.0
 10
4521.646344656761
 20
3037.712876642446
 30
0.0
 10
4521.646344656761
 20
3037.707498294466
 30
0.0
 10
4521.646344656761
 20
3037.700783582006
 30
0.0
 10
4521.646344656761
 20
3037.692637996033
 30
0.0
 10
4521.646344656761
 20
3037.686278154263
 30
0.0
 10
4521.646344656761
 20
3037.683068462192
 30
0.0
  0
LINE
  5
18DD
330
1F
100
AcDbEntity
  8
SANINDUSA
100
AcDbLine
 10
4521.646344656761
 20
3037.521901168405
 30
0.0
 11
4521.646344656761
 21
3037.683068462192
 31
0.0
  0
LINE
  5
18DE
330
1F
100
AcDbEntity
  8
SANINDUSA
100
AcDbLine
 10
4522.134016046936
 20
3037.409500807999
 30
0.0
 11
4521.900590094772
 21
3037.409500807999
 31
0.0
  0
LINE
  5
18DF
330
1F
100
AcDbEntity
  8
SANINDUSA
100
AcDbLine
 10
4521.810590094771
 20
3037.409500807999
 30
0.0
 11
4521.758743504697
 21
3037.409500807999
 31
0.0
  0
LINE
  5
18E3
330
1F
100
AcDbEntity
  8
SANINDUSA
100
AcDbLine
 10
4522.240236784035
 20
3037.819500804423
 30
0.0
 11
4522.187750990207
 21
3037.819500804423
 31
0.0
  0
LINE
  5
18E5
330
1F
100
AcDbEntity
  8
SANINDUSA
100
AcDbLine
 10
4522.187750990207
 20
3037.819500804423
 30
0.0
 11
4522.002749013419
 21
3037.819500804423
 31
0.0
  0
LINE
  5
18F1
330
1F
100
AcDbEntity
  8
SANINDUSA
100
AcDbLine
 10
4521.651344651991
 20
3037.414500803231
 30
0.0
 11
4521.686519260223
 21
3037.414500803231
 31
0.0
  0
LINE
  5
18F2
330
1F
100
AcDbEntity
  8
SANINDUSA
100
AcDbLine
 10
4521.661344651991
 20
3037.424500803231
 30
0.0
 11
4521.676862371776
 21
3037.424500803231
 31
0.0
  0
LINE
  5
1928
330
1F
100
AcDbEntity
  8
SANINDUSA
100
AcDbLine
 10
4521.812590094771
 20
3037.439248136069
 30
0.0
 11
4521.812590094771
 21
3037.35100080025
 31
0.0
  0
LINE
  5
1929
330
1F
100
AcDbEntity
  8
SANINDUSA
100
AcDbLine
 10
4521.898590094773
 20
3037.35100080025
 30
0.0
 11
4521.898590094773
 21
3037.462421849031
 31
0.0
  0
LINE
  5
192A
330
1F
100
AcDbEntity
  8
SANINDUSA
100
AcDbLine
 10
4521.900590094772
 20
3037.354732851058
 30
0.0
 11
4521.900590094772
 21
3037.462421851981
 31
0.0
  0
LINE
  5
192B
330
1F
100
AcDbEntity
  8
SANINDUSA
100
AcDbLine
 10
4521.812590094771
 20
3037.35100080025
 30
0.0
 11
4521.898590094773
 21
3037.35100080025
 31
0.0
  0
LINE
  5
192C
330
1F
100
AcDbEntity
  8
SANINDUSA
100
AcDbLine
 10
4521.810590094771
 20
3037.354732851058
 30
0.0
 11
4521.811590094772
 21
3037.35100080025
 31
0.0
  0
LINE
  5
192D
330
1F
100
AcDbEntity
  8
SANINDUSA
100
AcDbLine
 10
4521.811590094772
 20
3037.35100080025
 30
0.0
 11
4521.812590094771
 21
3037.35100080025
 31
0.0
  0
LINE
  5
192E
330
1F
100
AcDbEntity
  8
SANINDUSA
100
AcDbLine
 10
4521.898590094773
 20
3037.35100080025
 30
0.0
 11
4521.899590094771
 21
3037.35100080025
 31
0.0
  0
LINE
  5
192F
330
1F
100
AcDbEntity
  8
SANINDUSA
100
AcDbLine
 10
4521.899590094771
 20
3037.35100080025
 30
0.0
 11
4521.900590094772
 21
3037.354732851058
 31
0.0
  0
ARC
  5
1930
330
1F
100
AcDbEntity
  8
SANINDUSA
100
AcDbCircle
 10
4521.826590094772
 20
3037.58100080025
 30
0.0
 40
0.056
100
AcDbArc
 50
100.2865606062312
 51
180.0
  0
ARC
  5
1931
330
1F
100
AcDbEntity
  8
SANINDUSA
100
AcDbCircle
 10
4521.826590094772
 20
3037.58100080025
 30
0.0
 40
0.0539999999999999
100
AcDbArc
 50
90.0
 51
180.0
  0
LINE
  5
1932
330
1F
100
AcDbEntity
  8
SANINDUSA
100
AcDbLine
 10
4521.772590094772
 20
3037.505277623077
 30
0.0
 11
4521.772590094772
 21
3037.538530222199
 31
0.0
  0
LINE
  5
1933
330
1F
100
AcDbEntity
  8
SANINDUSA
100
AcDbLine
 10
4521.770590094771
 20
3037.505277623077
 30
0.0
 11
4521.770590094771
 21
3037.5385302222
 31
0.0
  0
LINE
  5
1934
330
1F
100
AcDbEntity
  8
SANINDUSA
100
AcDbLine
 10
4521.772590094772
 20
3037.58100080025
 30
0.0
 11
4521.772590094772
 21
3037.538530222199
 31
0.0
  0
LINE
  5
1935
330
1F
100
AcDbEntity
  8
SANINDUSA
100
AcDbLine
 10
4521.770590094771
 20
3037.58100080025
 30
0.0
 11
4521.770590094771
 21
3037.538530222199
 31
0.0
  0
LINE
  5
1937
330
1F
100
AcDbEntity
  8
SANINDUSA
100
AcDbLine
 10
4521.896590094772
 20
3037.52400080025
 30
0.0
 11
4521.896590094772
 21
3037.52200080025
 31
0.0
  0
LINE
  5
1938
330
1F
100
AcDbEntity
  8
SANINDUSA
100
AcDbLine
 10
4521.866590094772
 20
3037.522612261613
 30
0.0
 11
4521.866590094772
 21
3037.52400080025
 31
0.0
  0
LINE
  5
1939
330
1F
100
AcDbEntity
  8
SANINDUSA
100
AcDbLine
 10
4521.865273893522
 20
3037.520377644259
 30
0.0
 11
4521.893803172605
 21
3037.478079169921
 31
0.0
  0
LINE
  5
193A
330
1F
100
AcDbEntity
  8
SANINDUSA
100
AcDbLine
 10
4521.866932019627
 20
3037.521493875806
 30
0.0
 11
4521.895461246836
 21
3037.479197557085
 31
0.0
  0
ARC
  5
193B
330
1F
100
AcDbEntity
  8
SANINDUSA
100
AcDbCircle
 10
4521.868590094771
 20
3037.522612261613
 30
0.0
 40
0.0020000000000001
100
AcDbArc
 50
180.0
 51
213.9999999951693
  0
ARC
  5
193C
330
1F
100
AcDbEntity
  8
SANINDUSA
100
AcDbCircle
 10
4521.870590270647
 20
3037.462421872484
 30
0.0
 40
0.0299998176965208
100
AcDbArc
 50
0.0
 51
33.99999865838566
  0
ARC
  5
193D
330
1F
100
AcDbEntity
  8
SANINDUSA
100
AcDbCircle
 10
4521.870590300033
 20
3037.462421892481
 30
0.0
 40
0.0279997830701829
100
AcDbArc
 50
0.0
 51
33.99999524734699
  0
LINE
  5
193E
330
1F
100
AcDbEntity
  8
SANINDUSA
100
AcDbLine
 10
4521.896590094772
 20
3037.52200080025
 30
0.0
 11
4521.900590094772
 21
3037.52200080025
 31
0.0
  0
LINE
  5
193F
330
1F
100
AcDbEntity
  8
SANINDUSA
100
AcDbLine
 10
4521.900590094772
 20
3037.52600080025
 30
0.0
 11
4521.864590094772
 21
3037.52600080025
 31
0.0
  0
LINE
  5
1940
330
1F
100
AcDbEntity
  8
SANINDUSA
100
AcDbLine
 10
4521.896590094772
 20
3037.52400080025
 30
0.0
 11
4521.866590094772
 21
3037.52400080025
 31
0.0
  0
LINE
  5
1942
330
1F
100
AcDbEntity
  8
SANINDUSA
100
AcDbLine
 10
4521.857590094771
 20
3037.65300080025
 30
0.0
 11
4521.900590094772
 21
3037.65300080025
 31
0.0
  0
LINE
  5
1943
330
1F
100
AcDbEntity
  8
SANINDUSA
100
AcDbLine
 10
4521.857590094771
 20
3037.65500080025
 30
0.0
 11
4521.896590094772
 21
3037.65500080025
 31
0.0
  0
LINE
  5
1944
330
1F
100
AcDbEntity
  8
SANINDUSA
100
AcDbLine
 10
4521.855590094772
 20
3037.65100080025
 30
0.0
 11
4521.855590094772
 21
3037.64000080025
 31
0.0
  0
LINE
  5
1945
330
1F
100
AcDbEntity
  8
SANINDUSA
100
AcDbLine
 10
4521.853590094773
 20
3037.65100080025
 30
0.0
 11
4521.853590094773
 21
3037.64000080025
 31
0.0
  0
LINE
  5
1946
330
1F
100
AcDbEntity
  8
SANINDUSA
100
AcDbLine
 10
4521.831590094772
 20
3037.65400080025
 30
0.0
 11
4521.831590094772
 21
3037.65000080025
 31
0.0
  0
LINE
  5
1947
330
1F
100
AcDbEntity
  8
SANINDUSA
100
AcDbLine
 10
4521.816590094771
 20
3037.65400080025
 30
0.0
 11
4521.816590094771
 21
3037.65000080025
 31
0.0
  0
LINE
  5
1948
330
1F
100
AcDbEntity
  8
SANINDUSA
100
AcDbLine
 10
4521.831590094772
 20
3037.63700080025
 30
0.0
 11
4521.85059009477
 21
3037.63700080025
 31
0.0
  0
LINE
  5
1949
330
1F
100
AcDbEntity
  8
SANINDUSA
100
AcDbLine
 10
4521.826590094772
 20
3037.63500080025
 30
0.0
 11
4521.85059009477
 21
3037.63500080025
 31
0.0
  0
LINE
  5
194A
330
1F
100
AcDbEntity
  8
SANINDUSA
100
AcDbLine
 10
4521.831590094772
 20
3037.65000080025
 30
0.0
 11
4521.816590094771
 21
3037.65000080025
 31
0.0
  0
LINE
  5
194C
330
1F
100
AcDbEntity
  8
SANINDUSA
100
AcDbLine
 10
4521.831590094772
 20
3037.642001409469
 30
0.0
 11
4521.816590094771
 21
3037.642001409469
 31
0.0
  0
LINE
  5
194D
330
1F
100
AcDbEntity
  8
SANINDUSA
100
AcDbLine
 10
4521.816590094771
 20
3037.649890118168
 30
0.0
 11
4521.816590094771
 21
3037.642122376392
 31
0.0
  0
LINE
  5
1952
330
1F
100
AcDbEntity
  8
SANINDUSA
100
AcDbLine
 10
4521.816590094771
 20
3037.64200080025
 30
0.0
 11
4521.816590094771
 21
3037.636100709506
 31
0.0
  0
LINE
  5
1953
330
1F
100
AcDbEntity
  8
SANINDUSA
100
AcDbLine
 10
4521.831590094772
 20
3037.649890118168
 30
0.0
 11
4521.831590094772
 21
3037.642122376392
 31
0.0
  0
LINE
  5
1958
330
1F
100
AcDbEntity
  8
SANINDUSA
100
AcDbLine
 10
4521.831590094772
 20
3037.64200080025
 30
0.0
 11
4521.831590094772
 21
3037.63700080025
 31
0.0
  0
ARC
  5
1959
330
1F
100
AcDbEntity
  8
SANINDUSA
100
AcDbCircle
 10
4521.85059009477
 20
3037.64000080025
 30
0.0
 40
0.003
100
AcDbArc
 50
270.0
 51
0.0
  0
ARC
  5
195A
330
1F
100
AcDbEntity
  8
SANINDUSA
100
AcDbCircle
 10
4521.85059009477
 20
3037.64000080025
 30
0.0
 40
0.005
100
AcDbArc
 50
270.0
 51
0.0
  0
LINE
  5
195B
330
1F
100
AcDbEntity
  8
SANINDUSA
100
AcDbLine
 10
4521.816590094771
 20
3037.65400080025
 30
0.0
 11
4521.831590094772
 21
3037.65400080025
 31
0.0
  0
ARC
  5
195C
330
1F
100
AcDbEntity
  8
SANINDUSA
100
AcDbCircle
 10
4521.857590094771
 20
3037.65100080025
 30
0.0
 40
0.002
100
AcDbArc
 50
90.0
 51
180.0
  0
ARC
  5
195D
330
1F
100
AcDbEntity
  8
SANINDUSA
100
AcDbCircle
 10
4521.857590094771
 20
3037.65100080025
 30
0.0
 40
0.0040000000000001
100
AcDbArc
 50
90.0
 51
180.0
  0
LINE
  5
195E
330
1F
100
AcDbEntity
  8
SANINDUSA
100
AcDbLine
 10
4521.900590094772
 20
3037.65700080025
 30
0.0
 11
4521.896590094772
 21
3037.65700080025
 31
0.0
  0
LINE
  5
195F
330
1F
100
AcDbEntity
  8
SANINDUSA
100
AcDbLine
 10
4521.896590094772
 20
3037.65700080025
 30
0.0
 11
4521.896590094772
 21
3037.65500080025
 31
0.0
  0
LINE
  5
1962
330
1F
100
AcDbEntity
  8
SANINDUSA
100
AcDbLine
 10
4521.864590094772
 20
3037.525975299109
 30
0.0
 11
4521.864590094772
 21
3037.52261434032
 31
0.0
  0
ARC
  5
1963
330
1F
100
AcDbEntity
  8
SANINDUSA
100
AcDbCircle
 10
4521.868590094771
 20
3037.52261434032
 30
0.0
 40
0.004
100
AcDbArc
 50
180.0
 51
213.9986946234155
  0
LINE
  5
1964
330
1F
100
AcDbEntity
  8
SANINDUSA
100
AcDbLine
 10
4521.810590094771
 20
3037.439248136069
 30
0.0
 11
4521.810590094771
 21
3037.354732851058
 31
0.0
  0
ARC
  5
1965
330
1F
100
AcDbEntity
  8
SANINDUSA
100
AcDbCircle
 10
4521.790590094772
 20
3037.439248136069
 30
0.0
 40
0.02
100
AcDbArc
 50
0.0
 51
37.28570791495347
  0
LINE
  5
1966
330
1F
100
AcDbEntity
  8
SANINDUSA
100
AcDbLine
 10
4521.77467760245
 20
3037.493161823966
 30
0.0
 11
4521.806502587093
 21
3037.45136393518
 31
0.0
  0
ARC
  5
1967
330
1F
100
AcDbEntity
  8
SANINDUSA
100
AcDbCircle
 10
4521.790590094772
 20
3037.505277623077
 30
0.0
 40
0.02
100
AcDbArc
 50
180.0
 51
217.2857079149534
  0
ARC
  5
1968
330
1F
100
AcDbEntity
  8
SANINDUSA
100
AcDbCircle
 10
4521.790590094772
 20
3037.439248136069
 30
0.0
 40
0.022
100
AcDbArc
 50
0.0
 51
37.28570791495347
  0
LINE
  5
1969
330
1F
100
AcDbEntity
  8
SANINDUSA
100
AcDbLine
 10
4521.776268851681
 20
3037.494373403877
 30
0.0
 11
4521.808093836326
 21
3037.452575515091
 31
0.0
  0
ARC
  5
196A
330
1F
100
AcDbEntity
  8
SANINDUSA
100
AcDbCircle
 10
4521.790590094772
 20
3037.505277623077
 30
0.0
 40
0.018
100
AcDbArc
 50
180.0
 51
217.2857079149534
  0
LINE
  5
196B
330
1F
100
AcDbEntity
  8
SANINDUSA
100
AcDbLine
 10
4521.880590094773
 20
3037.519500800251
 30
0.0
 11
4521.900635537583
 21
3037.519956378496
 31
0.0
  0
LINE
  5
196C
330
1F
100
AcDbEntity
  8
SANINDUSA
100
AcDbLine
 10
4521.900635537583
 20
3037.659045222004
 30
0.0
 11
4521.880590094773
 21
3037.65950080025
 31
0.0
  0
LINE
  5
196D
330
1F
100
AcDbEntity
  8
SANINDUSA
100
AcDbLine
 10
4521.880590094773
 20
3037.52400080025
 30
0.0
 11
4521.880590094773
 21
3037.519500800251
 31
0.0
  0
LINE
  5
196E
330
1F
100
AcDbEntity
  8
SANINDUSA
100
AcDbLine
 10
4521.880590094773
 20
3037.65950080025
 30
0.0
 11
4521.880590094773
 21
3037.65500080025
 31
0.0
  0
LINE
  5
196F
330
1F
100
AcDbEntity
  8
SANINDUSA
100
AcDbLine
 10
4521.902590094772
 20
3037.64800080025
 30
0.0
 11
4521.902590094772
 21
3037.641315650708
 31
0.0
  0
LINE
  5
1970
330
1F
100
AcDbEntity
  8
SANINDUSA
100
AcDbLine
 10
4521.902590094772
 20
3037.537685949792
 30
0.0
 11
4521.902590094772
 21
3037.53100080025
 31
0.0
  0
LINE
  5
1971
330
1F
100
AcDbEntity
  8
SANINDUSA
100
AcDbLine
 10
4521.902590094772
 20
3037.521955862167
 30
0.0
 11
4521.902590094772
 21
3037.53100080025
 31
0.0
  0
LINE
  5
1972
330
1F
100
AcDbEntity
  8
SANINDUSA
100
AcDbLine
 10
4521.900590094772
 20
3037.53000080025
 30
0.0
 11
4521.900590094772
 21
3037.521955862167
 31
0.0
  0
LINE
  5
1973
330
1F
100
AcDbEntity
  8
SANINDUSA
100
AcDbLine
 10
4521.900590094772
 20
3037.521955862167
 30
0.0
 11
4521.895612816177
 21
3037.521842742199
 31
0.0
  0
LINE
  5
1974
330
1F
100
AcDbEntity
  8
SANINDUSA
100
AcDbLine
 10
4521.882590094771
 20
3037.522569756762
 30
0.0
 11
4521.882590094771
 21
3037.52400080025
 31
0.0
  0
LINE
  5
1975
330
1F
100
AcDbEntity
  8
SANINDUSA
100
AcDbLine
 10
4521.894590094772
 20
3037.522842484035
 30
0.0
 11
4521.894590094772
 21
3037.52400080025
 31
0.0
  0
LINE
  5
1976
330
1F
100
AcDbEntity
  8
SANINDUSA
100
AcDbLine
 10
4521.892590094771
 20
3037.52400080025
 30
0.0
 11
4521.892590094771
 21
3037.522751574944
 31
0.0
  0
LINE
  5
1977
330
1F
100
AcDbEntity
  8
SANINDUSA
100
AcDbLine
 10
4521.890590094771
 20
3037.522751574944
 30
0.0
 11
4521.890590094771
 21
3037.52400080025
 31
0.0
  0
LINE
  5
1978
330
1F
100
AcDbEntity
  8
SANINDUSA
100
AcDbLine
 10
4521.888590094771
 20
3037.52400080025
 30
0.0
 11
4521.888590094771
 21
3037.522660665853
 31
0.0
  0
LINE
  5
1979
330
1F
100
AcDbEntity
  8
SANINDUSA
100
AcDbLine
 10
4521.886590094771
 20
3037.522660665853
 30
0.0
 11
4521.886590094771
 21
3037.52400080025
 31
0.0
  0
LINE
  5
197A
330
1F
100
AcDbEntity
  8
SANINDUSA
100
AcDbLine
 10
4521.884590094772
 20
3037.52400080025
 30
0.0
 11
4521.884590094772
 21
3037.522569756762
 31
0.0
  0
LINE
  5
197B
330
1F
100
AcDbEntity
  8
SANINDUSA
100
AcDbLine
 10
4521.895908256166
 20
3037.537803864591
 30
0.0
 11
4521.900590094772
 21
3037.53000080025
 31
0.0
  0
LINE
  5
197C
330
1F
100
AcDbEntity
  8
SANINDUSA
100
AcDbLine
 10
4521.902590094772
 20
3037.53100080025
 30
0.0
 11
4521.899595429629
 21
3037.537738796824
 31
0.0
  0
LINE
  5
197D
330
1F
100
AcDbEntity
  8
SANINDUSA
100
AcDbLine
 10
4521.900590094772
 20
3037.657045738333
 30
0.0
 11
4521.900590094772
 21
3037.649000800251
 31
0.0
  0
LINE
  5
197E
330
1F
100
AcDbEntity
  8
SANINDUSA
100
AcDbLine
 10
4521.902590094772
 20
3037.64800080025
 30
0.0
 11
4521.902590094772
 21
3037.657045738333
 31
0.0
  0
LINE
  5
197F
330
1F
100
AcDbEntity
  8
SANINDUSA
100
AcDbLine
 10
4521.900590094772
 20
3037.649000800251
 30
0.0
 11
4521.895908256166
 21
3037.641197735909
 31
0.0
  0
LINE
  5
1980
330
1F
100
AcDbEntity
  8
SANINDUSA
100
AcDbLine
 10
4521.899595429629
 20
3037.641262803676
 30
0.0
 11
4521.902590094772
 21
3037.64800080025
 31
0.0
  0
LINE
  5
1981
330
1F
100
AcDbEntity
  8
SANINDUSA
100
AcDbLine
 10
4521.895612816177
 20
3037.657158858301
 30
0.0
 11
4521.900590094772
 21
3037.657045738333
 31
0.0
  0
ARC
  5
1989
330
1F
100
AcDbEntity
  8
SANINDUSA
100
AcDbCircle
 10
4521.883590094772
 20
3037.522569756762
 30
0.0
 40
0.0010000000000002
100
AcDbArc
 50
180.0
 51
0.0
  0
ARC
  5
198A
330
1F
100
AcDbEntity
  8
SANINDUSA
100
AcDbCircle
 10
4521.887590094772
 20
3037.522660665853
 30
0.0
 40
0.0010000000000002
100
AcDbArc
 50
180.0
 51
0.0
  0
ARC
  5
198B
330
1F
100
AcDbEntity
  8
SANINDUSA
100
AcDbCircle
 10
4521.891590094772
 20
3037.522751574944
 30
0.0
 40
0.0010000000000002
100
AcDbArc
 50
180.0
 51
0.0
  0
ARC
  5
198C
330
1F
100
AcDbEntity
  8
SANINDUSA
100
AcDbCircle
 10
4521.895590094771
 20
3037.522842484035
 30
0.0
 40
0.0010000000000002
100
AcDbArc
 50
180.0
 51
271.3019526524506
  0
ARC
  5
198D
330
1F
100
AcDbEntity
  8
SANINDUSA
100
AcDbCircle
 10
4521.891590094772
 20
3037.656250025557
 30
0.0
 40
0.0010000000000002
100
AcDbArc
 50
0.0
 51
180.0
  0
ARC
  5
198E
330
1F
100
AcDbEntity
  8
SANINDUSA
100
AcDbCircle
 10
4521.883590094772
 20
3037.656431843739
 30
0.0
 40
0.0010000000000002
100
AcDbArc
 50
0.0
 51
180.0
  0
LINE
  5
198F
330
1F
100
AcDbEntity
  8
SANINDUSA
100
AcDbLine
 10
4521.882590094771
 20
3037.656431843739
 30
0.0
 11
4521.882590094771
 21
3037.65500080025
 31
0.0
  0
ARC
  5
1990
330
1F
100
AcDbEntity
  8
SANINDUSA
100
AcDbCircle
 10
4521.887590094772
 20
3037.656340934648
 30
0.0
 40
0.0010000000000002
100
AcDbArc
 50
0.0
 51
180.0
  0
LINE
  5
1991
330
1F
100
AcDbEntity
  8
SANINDUSA
100
AcDbLine
 10
4521.884590094772
 20
3037.65500080025
 30
0.0
 11
4521.884590094772
 21
3037.656431843739
 31
0.0
  0
LINE
  5
1992
330
1F
100
AcDbEntity
  8
SANINDUSA
100
AcDbLine
 10
4521.886590094771
 20
3037.656340934648
 30
0.0
 11
4521.886590094771
 21
3037.65500080025
 31
0.0
  0
LINE
  5
1993
330
1F
100
AcDbEntity
  8
SANINDUSA
100
AcDbLine
 10
4521.888590094771
 20
3037.65500080025
 30
0.0
 11
4521.888590094771
 21
3037.656340934648
 31
0.0
  0
LINE
  5
1994
330
1F
100
AcDbEntity
  8
SANINDUSA
100
AcDbLine
 10
4521.890590094771
 20
3037.656250025557
 30
0.0
 11
4521.890590094771
 21
3037.65500080025
 31
0.0
  0
ARC
  5
1995
330
1F
100
AcDbEntity
  8
SANINDUSA
100
AcDbCircle
 10
4521.895590094771
 20
3037.656159116466
 30
0.0
 40
0.0010000000000002
100
AcDbArc
 50
88.69804734754941
 51
180.0
  0
LINE
  5
1996
330
1F
100
AcDbEntity
  8
SANINDUSA
100
AcDbLine
 10
4521.892590094771
 20
3037.65500080025
 30
0.0
 11
4521.892590094771
 21
3037.656250025557
 31
0.0
  0
LINE
  5
1997
330
1F
100
AcDbEntity
  8
SANINDUSA
100
AcDbLine
 10
4521.894590094772
 20
3037.656159116466
 30
0.0
 11
4521.894590094772
 21
3037.65500080025
 31
0.0
  0
ARC
  5
1998
330
1F
100
AcDbEntity
  8
SANINDUSA
100
AcDbCircle
 10
4521.900590094772
 20
3037.657045738333
 30
0.0
 40
0.002
100
AcDbArc
 50
0.0
 51
88.69804734754941
  0
ARC
  5
1999
330
1F
100
AcDbEntity
  8
SANINDUSA
100
AcDbCircle
 10
4521.900590094772
 20
3037.521955862167
 30
0.0
 40
0.002
100
AcDbArc
 50
271.3019526524506
 51
0.0
  0
ARC
  5
1C3C
330
1F
100
AcDbEntity
  8
SANINDUSA
100
AcDbCircle
 10
4521.444788886159
 20
3037.811500807999
 30
0.0
 40
0.0080000000000004
100
AcDbArc
 50
354.9685715553346
 51
90.0
  0
SPLINE
  5
1C3D
330
1F
100
AcDbEntity
  8
SANINDUSA
100
AcDbSpline
210
0.0
220
0.0
230
1.0
 70
     8
 71
     3
 72
    13
 73
     9
 74
     0
 42
0.0000000001
 43
0.0000000001
 40
0.0
 40
0.0
 40
0.0
 40
0.0
 40
0.1699946204471902
 40
0.3398790847304363
 40
0.5097083169893484
 40
0.6795371156324278
 40
0.8494205166301163
 40
1.0
 40
1.0
 40
1.0
 40
1.0
 10
4521.393583751187
 20
3037.409500811576
 30
0.0
 10
4521.397975002936
 20
3037.432069592489
 30
0.0
 10
4521.406754660913
 20
3037.477192529795
 30
0.0
 10
4521.418439162249
 20
3037.545137270227
 30
0.0
 10
4521.429038148087
 20
3037.613235010797
 30
0.0
 10
4521.438408451158
 20
3037.681512286214
 30
0.0
 10
4521.446402858429
 20
3037.747344811184
 30
0.0
 10
4521.450681902552
 20
3037.790476059857
 30
0.0
 10
4521.452758060084
 20
3037.810799190622
 30
0.0
  0
SPLINE
  5
1C3E
330
1F
100
AcDbEntity
  8
SANINDUSA
100
AcDbSpline
210
0.0
220
0.0
230
1.0
 70
    24
 71
     3
 72
    21
 73
    17
 74
     0
 42
0.0000000001
 43
0.0000000001
 40
0.0
 40
0.0
 40
0.0
 40
0.0
 40
0.0634634224156717
 40
0.1269271720749212
 40
0.1996622297371252
 40
0.2726289305036996
 40
0.3453643033552927
 40
0.4180282784498323
 40
0.4909243947660749
 40
0.5635894076200272
 40
0.636248344139661
 40
0.7091382959163683
 40
0.7817962905335382
 40
0.8544541957676367
 40
0.927343054175022
 40
1.0
 40
1.0
 40
1.0
 40
1.0
 10
4521.37298742579
 20
3037.819500807999
 30
0.0
 10
4521.37532999516
 20
3037.819500807999
 30
0.0
 10
4521.380015145981
 20
3037.819500807999
 30
0.0
 10
4521.387308076209
 20
3037.819500807999
 30
0.0
 10
4521.394782823445
 20
3037.819500807999
 30
0.0
 10
4521.402307700401
 20
3037.819500807999
 30
0.0
 10
4521.409459948709
 20
3037.819500807999
 30
0.0
 10
4521.416131550727
 20
3037.819500807999
 30
0.0
 10
4521.422255142294
 20
3037.819500807999
 30
0.0
 10
4521.427759733664
 20
3037.819500807999
 30
0.0
 10
4521.432551300049
 20
3037.819500807999
 30
0.0
 10
4521.436591542146
 20
3037.819500807999
 30
0.0
 10
4521.439837194287
 20
3037.819500807999
 30
0.0
 10
4521.44219460659
 20
3037.819500807999
 30
0.0
 10
4521.443749891593
 20
3037.819500807999
 30
0.0
 10
4521.444028704369
 20
3037.819500807999
 30
0.0
 10
4521.444167888627
 20
3037.819500807999
 30
0.0
  0
SPLINE
  5
1C41
330
1F
100
AcDbEntity
  8
SANINDUSA
100
AcDbSpline
210
0.0
220
0.0
230
1.0
 70
    24
 71
     3
 72
    11
 73
     7
 74
     0
 42
0.0000000001
 43
0.0000000001
 40
0.0
 40
0.0
 40
0.0
 40
0.0
 40
0.716085474505089
 40
0.8580426038927871
 40
0.9290216626498652
 40
1.0
 40
1.0
 40
1.0
 40
1.0
 10
4520.976581088171
 20
3037.819500807999
 30
0.0
 10
4521.071201389704
 20
3037.819500807999
 30
0.0
 10
4521.184579265391
 20
3037.819500807999
 30
0.0
 10
4521.307335950772
 20
3037.819500807999
 30
0.0
 10
4521.344851155338
 20
3037.819500807999
 30
0.0
 10
4521.363608700747
 20
3037.819500807999
 30
0.0
 10
4521.37298742579
 20
3037.819500807999
 30
0.0
  0
SPLINE
  5
1C42
330
1F
100
AcDbEntity
  8
SANINDUSA
100
AcDbSpline
210
0.0
220
0.0
230
1.0
 70
     8
 71
     3
 72
    16
 73
    12
 74
     0
 42
0.0000000001
 43
0.0000000001
 40
0.0
 40
0.0
 40
0.0
 40
0.0
 40
0.2499999999999995
 40
0.2499999999999995
 40
0.499999999999999
 40
0.499999999999999
 40
0.6249999999999992
 40
0.6249999999999992
 40
0.7499999999999995
 40
0.7499999999999995
 40
1.0
 40
1.0
 40
1.0
 40
1.0
 10
4520.972251248235
 20
3037.822000318046
 30
0.0
 10
4520.972470602068
 20
3037.821620485326
 30
0.0
 10
4520.972736602529
 20
3037.821274626577
 30
0.0
 10
4520.973349963752
 20
3037.820660475132
 30
0.0
 10
4520.97370242568
 20
3037.820389619169
 30
0.0
 10
4520.974266362412
 20
3037.820063559506
 30
0.0
 10
4520.974461254084
 20
3037.819967144208
 30
0.0
 10
4520.974865162791
 20
3037.819799381898
 30
0.0
 10
4520.975075065483
 20
3037.8197280112
 30
0.0
 10
4520.975707956661
 20
3037.819558292565
 30
0.0
 10
4520.976139537828
 20
3037.819500807999
 30
0.0
 10
4520.976581092344
 20
3037.819500807999
 30
0.0
  0
SPLINE
  5
1C48
330
1F
100
AcDbEntity
  8
SANINDUSA
100
AcDbSpline
210
0.0
220
0.0
230
1.0
 70
    24
 71
     3
 72
     8
 73
     4
 74
     0
 42
0.0000000001
 43
0.0000000001
 40
0.1334243586295754
 40
0.1334243586295754
 40
0.1334243586295754
 40
0.1334243586295754
 40
0.1363397469954868
 40
0.1363397469954868
 40
0.1363397469954868
 40
0.1363397469954868
 10
4520.965005449999
 20
3037.824500807999
 30
0.0
 10
4520.965977246102
 20
3037.824500807999
 30
0.0
 10
4520.966949042203
 20
3037.824500807999
 30
0.0
 10
4520.967920838304
 20
3037.824500807999
 30
0.0
  0
LINE
  5
1C4A
330
1F
100
AcDbEntity
  8
SANINDUSA
100
AcDbLine
 10
4520.831581092343
 20
3037.816128313867
 30
0.0
 11
4520.831581092343
 21
3037.824500807887
 31
0.0
  0
ARC
  5
1C4E
330
1F
100
AcDbEntity
  8
SANINDUSA
100
AcDbCircle
 10
4520.967920838304
 20
3037.819500807999
 30
0.0
 40
0.005
100
AcDbArc
 50
30.00000001574733
 51
90.0
  0
LINE
  5
1C50
330
1F
100
AcDbEntity
  8
SANINDUSA
100
AcDbLine
 10
4520.831581092343
 20
3037.824500807887
 30
0.0
 11
4520.965005448923
 21
3037.824500807887
 31
0.0
  0
SPLINE
  5
1C51
330
1F
100
AcDbEntity
  8
SANINDUSA
100
AcDbSpline
210
0.0
220
0.0
230
1.0
 70
    24
 71
     3
 72
    10
 73
     6
 74
     0
 42
0.0000000001
 43
0.0000000001
 40
0.0
 40
0.0
 40
0.0
 40
0.0
 40
0.0892080648460562
 40
0.5000113154724112
 40
1.0
 40
1.0
 40
1.0
 40
1.0
 10
4521.444167888627
 20
3037.819500807999
 30
0.0
 10
4521.444204021846
 20
3037.819500807999
 30
0.0
 10
4521.444406548583
 20
3037.819500807999
 30
0.0
 10
4521.444704319426
 20
3037.819500807999
 30
0.0
 10
4521.444758930245
 20
3037.819500807999
 30
0.0
 10
4521.444788909421
 20
3037.819500807999
 30
0.0
  0
SPLINE
  5
1C53
330
1F
100
AcDbEntity
  8
SANINDUSA
100
AcDbSpline
210
0.0
220
0.0
230
1.0
 70
     8
 71
     3
 72
    42
 73
    38
 74
     0
 42
0.0000000001
 43
0.0000000001
 40
0.0
 40
0.0
 40
0.0
 40
0.0
 40
0.2499999999999996
 40
0.2499999999999996
 40
0.4999999999999992
 40
0.4999999999999992
 40
0.749999999999999
 40
0.749999999999999
 40
0.8749999999999984
 40
0.8749999999999984
 40
0.9374999999999982
 40
0.9374999999999982
 40
0.968749999999998
 40
0.968749999999998
 40
0.984374999999998
 40
0.984374999999998
 40
0.9921874999999982
 40
0.9921874999999982
 40
0.9960937499999985
 40
0.9960937499999985
 40
0.9980468749999984
 40
0.9980468749999984
 40
0.9990234374999984
 40
0.9990234374999984
 40
0.9995117187499984
 40
0.9995117187499984
 40
0.9997558593749984
 40
0.9997558593749984
 40
0.9998779296874984
 40
0.9998779296874984
 40
0.9999389648437485
 40
0.9999389648437485
 40
0.9999542236328114
 40
0.9999542236328114
 40
0.9999694824218741
 40
0.9999694824218741
 40
1.0
 40
1.0
 40
1.0
 40
1.0
 10
4520.951059433623
 20
3037.762351866069
 30
0.0
 10
4520.979899704567
 20
3037.76259445997
 30
0.0
 10
4521.008739265883
 20
3037.762931841515
 30
0.0
 10
4521.06641709057
 20
3037.763712140855
 30
0.0
 10
4521.095255169059
 20
3037.764154990564
 30
0.0
 10
4521.152930752591
 20
3037.765077239896
 30
0.0
 10
4521.181768258831
 20
3037.765556564403
 30
0.0
 10
4521.225024704123
 20
3037.76626420869
 30
0.0
 10
4521.239443552695
 20
3037.766498043994
 30
0.0
 10
4521.261071904393
 20
3037.766843923246
 30
0.0
 10
4521.268281369484
 20
3037.76695831709
 30
0.0
 10
4521.279095567776
 20
3037.767129886112
 30
0.0
 10
4521.282700302779
 20
3037.767186938321
 30
0.0
 10
4521.288107373963
 20
3037.767274489406
 30
0.0
 10
4521.289909727773
 20
3037.767303878119
 30
0.0
 10
4521.292613214895
 20
3037.767350701276
 30
0.0
 10
4521.293514371529
 20
3037.767366669788
 30
0.0
 10
4521.294866062045
 20
3037.767393414708
 30
0.0
 10
4521.295316619251
 20
3037.767402725398
 30
0.0
 10
4521.29599241628
 20
3037.767419128101
 30
0.0
 10
4521.296217676307
 20
3037.767424950681
 30
0.0
 10
4521.296555535278
 20
3037.767435636418
 30
0.0
 10
4521.296668150382
 20
3037.767439484431
 30
0.0
 10
4521.296837049049
 20
3037.767446763652
 30
0.0
 10
4521.296893345128
 20
3037.767449408464
 30
0.0
 10
4521.296977770631
 20
3037.767454545291
 30
0.0
 10
4521.297005909881
 20
3037.767456419873
 30
0.0
 10
4521.297048103448
 20
3037.76746019359
 30
0.0
 10
4521.297062166172
 20
3037.767461564462
 30
0.0
 10
4521.2970832453
 20
3037.767464560537
 30
0.0
 10
4521.297090358012
 20
3037.767465549502
 30
0.0
 10
4521.297098945512
 20
3037.767468126769
 30
0.0
 10
4521.297100697923
 20
3037.767468654227
 30
0.0
 10
4521.29710363065
 20
3037.767470727054
 30
0.0
 10
4521.297102488928
 20
3037.767472715338
 30
0.0
 10
4521.297097682898
 20
3037.767475016639
 30
0.0
 10
4521.297094165843
 20
3037.767475715054
 30
0.0
 10
4521.297090692555
 20
3037.767476437333
 30
0.0
  0
SPLINE
  5
1C57
330
1F
100
AcDbEntity
  8
SANINDUSA
100
AcDbSpline
210
0.0
220
0.0
230
1.0
 70
     8
 71
     3
 72
    38
 73
    34
 74
     0
 42
0.0000000001
 43
0.0000000001
 40
0.0
 40
0.0
 40
0.0
 40
0.0
 40
0.000244140625
 40
0.000244140625
 40
0.00048828125
 40
0.00048828125
 40
0.0009765624999999
 40
0.0009765624999999
 40
0.0019531249999999
 40
0.0019531249999999
 40
0.0039062499999998
 40
0.0039062499999998
 40
0.0078125000000001
 40
0.0078125000000001
 40
0.0156250000000001
 40
0.0156250000000001
 40
0.0312500000000003
 40
0.0312500000000003
 40
0.0625000000000001
 40
0.0625000000000001
 40
0.1249999999999997
 40
0.1249999999999997
 40
0.1562499999999997
 40
0.1562499999999997
 40
0.1874999999999998
 40
0.1874999999999998
 40
0.2499999999999998
 40
0.2499999999999998
 40
0.5000000000000002
 40
0.5000000000000002
 40
0.75
 40
0.75
 40
1.0
 40
1.0
 40
1.0
 40
1.0
 10
4521.297162235815
 20
3037.767430707236
 30
0.0
 10
4521.297149320346
 20
3037.767405596879
 30
0.0
 10
4521.297128326087
 20
3037.767385729529
 30
0.0
 10
4521.29708408901
 20
3037.767351210913
 30
0.0
 10
4521.2970602448
 20
3037.767336536516
 30
0.0
 10
4521.29698641661
 20
3037.767295951911
 30
0.0
 10
4521.296934639155
 20
3037.767273819915
 30
0.0
 10
4521.296777522869
 20
3037.767213062216
 30
0.0
 10
4521.296669890868
 20
3037.767180330343
 30
0.0
 10
4521.296345255546
 20
3037.767089636284
 30
0.0
 10
4521.296125986534
 20
3037.767040067362
 30
0.0
 10
4521.295466503349
 20
3037.766900615827
 30
0.0
 10
4521.295023980626
 20
3037.766821556916
 30
0.0
 10
4521.293695011618
 20
3037.766594738565
 30
0.0
 10
4521.29280638995
 20
3037.76645965365
 30
0.0
 10
4521.290139729519
 20
3037.766064236789
 30
0.0
 10
4521.288359755167
 20
3037.765816973691
 30
0.0
 10
4521.283018874444
 20
3037.765082580145
 30
0.0
 10
4521.279456431145
 20
3037.764607119373
 30
0.0
 10
4521.268768594371
 20
3037.763185776695
 30
0.0
 10
4521.26164207195
 20
3037.762249524039
 30
0.0
 10
4521.25095211892
 20
3037.760848914385
 30
0.0
 10
4521.247388699689
 20
3037.760383010541
 30
0.0
 10
4521.240261902579
 20
3037.759452850828
 30
0.0
 10
4521.23669807975
 20
3037.758992120005
 30
0.0
 10
4521.226006897326
 20
3037.757610826045
 30
0.0
 10
4521.218879617878
 20
3037.756692750566
 30
0.0
 10
4521.183243633749
 20
3037.752119338416
 30
0.0
 10
4521.15473617122
 20
3037.748514756135
 30
0.0
 10
4521.097712117597
 20
3037.741492347572
 30
0.0
 10
4521.069194413326
 20
3037.73807435072
 30
0.0
 10
4521.012154369896
 20
3037.731509941433
 30
0.0
 10
4520.983630139975
 20
3037.728363188505
 30
0.0
 10
4520.955095922099
 20
3037.72539666994
 30
0.0
  0
SPLINE
  5
1C5C
330
1F
100
AcDbEntity
  8
SANINDUSA
100
AcDbSpline
210
0.0
220
0.0
230
1.0
 70
     8
 71
     3
 72
    38
 73
    34
 74
     0
 42
0.0000000001
 43
0.0000000001
 40
0.0
 40
0.0
 40
0.0
 40
0.0
 40
0.1249999999999998
 40
0.1249999999999998
 40
0.1874999999999996
 40
0.1874999999999996
 40
0.2187499999999996
 40
0.2187499999999996
 40
0.2499999999999996
 40
0.2499999999999996
 40
0.3750000000000003
 40
0.3750000000000003
 40
0.4375000000000006
 40
0.4375000000000006
 40
0.4687500000000005
 40
0.4687500000000005
 40
0.5000000000000002
 40
0.5000000000000002
 40
0.625
 40
0.625
 40
0.6875
 40
0.6875
 40
0.71875
 40
0.71875
 40
0.75
 40
0.75
 40
0.8750000000000001
 40
0.8750000000000001
 40
0.9375000000000001
 40
0.9375000000000001
 40
0.96875
 40
0.96875
 40
1.0
 40
1.0
 40
1.0
 40
1.0
 10
4520.88776792809
 20
3037.698790280158
 30
0.0
 10
4520.887750740048
 20
3037.702984445289
 30
0.0
 10
4520.888145430116
 20
3037.707103327749
 30
0.0
 10
4520.889326121005
 20
3037.713174005796
 30
0.0
 10
4520.889818527267
 20
3037.715179489478
 30
0.0
 10
4520.890708208074
 20
3037.71816007497
 30
0.0
 10
4520.891029991246
 20
3037.71914898864
 30
0.0
 10
4520.891725038716
 20
3037.721117394154
 30
0.0
 10
4520.892099609744
 20
3037.722099879081
 30
0.0
 10
4520.894083165749
 20
3037.726937269943
 30
0.0
 10
4520.896023518893
 20
3037.730585183727
 30
0.0
 10
4520.899441812143
 20
3037.73573802601
 30
0.0
 10
4520.900666495812
 20
3037.737402075685
 30
0.0
 10
4520.902634155778
 20
3037.739816049048
 30
0.0
 10
4520.90331185345
 20
3037.74060699903
 30
0.0
 10
4520.90471182721
 20
3037.742160878267
 30
0.0
 10
4520.905435805701
 20
3037.742925320721
 30
0.0
 10
4520.909123577527
 20
3037.746630275375
 30
0.0
 10
4520.912317379244
 20
3037.749256555749
 30
0.0
 10
4520.917458896849
 20
3037.752709470838
 30
0.0
 10
4520.919231635954
 20
3037.753778761482
 30
0.0
 10
4520.921981132867
 20
3037.755257331072
 30
0.0
 10
4520.922912723425
 20
3037.755729255954
 30
0.0
 10
4520.924806774621
 20
3037.756630287069
 30
0.0
 10
4520.925767447419
 20
3037.757058344475
 30
0.0
 10
4520.9305892894
 20
3037.759065942334
 30
0.0
 10
4520.934548803991
 20
3037.760272375851
 30
0.0
 10
4520.94063648271
 20
3037.761500728496
 30
0.0
 10
4520.942690621846
 20
3037.761812598434
 30
0.0
 10
4520.945810250593
 20
3037.762129916303
 30
0.0
 10
4520.94685839748
 20
3037.762210635698
 30
0.0
 10
4520.948957563529
 20
3037.762320104289
 30
0.0
 10
4520.950008047807
 20
3037.76234893882
 30
0.0
 10
4520.951059433623
 20
3037.762351866069
 30
0.0
  0
LINE
  5
1C65
330
1F
100
AcDbEntity
  8
SANINDUSA
100
AcDbLine
 10
4520.831581092343
 20
3037.409500811576
 30
0.0
 11
4521.393583751187
 21
3037.409500811576
 31
0.0
  0
SPLINE
  5
1C66
330
1F
100
AcDbEntity
  8
SANINDUSA
100
AcDbSpline
210
0.0
220
0.0
230
1.0
 70
    24
 71
     3
 72
     8
 73
     4
 74
     0
 42
0.0000000001
 43
0.0000000001
 40
0.0081839633701121
 40
0.0081839633701121
 40
0.0081839633701121
 40
0.0081839633701121
 40
1.0
 40
1.0
 40
1.0
 40
1.0
 10
4520.831581092343
 20
3037.816128313913
 30
0.0
 10
4520.831581092343
 20
3037.679896495392
 30
0.0
 10
4520.831581092343
 20
3037.544380583899
 30
0.0
 10
4520.831581092343
 20
3037.409500807999
 30
0.0
  0
SPLINE
  5
1C6A
330
1F
100
AcDbEntity
  8
SANINDUSA
100
AcDbSpline
210
0.0
220
0.0
230
1.0
 70
     8
 71
     3
 72
    34
 73
    30
 74
     0
 42
0.0000000001
 43
0.0000000001
 40
0.0
 40
0.0
 40
0.0
 40
0.0
 40
0.0624999999999997
 40
0.0624999999999997
 40
0.1249999999999993
 40
0.1249999999999993
 40
0.2499999999999988
 40
0.2499999999999988
 40
0.3124999999999991
 40
0.3124999999999991
 40
0.3749999999999995
 40
0.3749999999999995
 40
0.5000000000000002
 40
0.5000000000000002
 40
0.5312500000000004
 40
0.5312500000000004
 40
0.5625000000000006
 40
0.5625000000000006
 40
0.6250000000000001
 40
0.6250000000000001
 40
0.7499999999999992
 40
0.7499999999999992
 40
0.7812499999999988
 40
0.7812499999999988
 40
0.8124999999999985
 40
0.8124999999999985
 40
0.8749999999999989
 40
0.8749999999999989
 40
1.0
 40
1.0
 40
1.0
 40
1.0
 10
4520.955095922099
 20
3037.72539666994
 30
0.0
 10
4520.95418237341
 20
3037.725301694175
 30
0.0
 10
4520.953271755352
 20
3037.725165159463
 30
0.0
 10
4520.951477539713
 20
3037.724813693102
 30
0.0
 10
4520.950593662297
 20
3037.724599038188
 30
0.0
 10
4520.947980562751
 20
3037.723841654144
 30
0.0
 10
4520.946289585597
 20
3037.723186350465
 30
0.0
 10
4520.943830539517
 20
3037.721975304967
 30
0.0
 10
4520.943022875742
 20
3037.721532303432
 30
0.0
 10
4520.941464149474
 20
3037.720586696841
 30
0.0
 10
4520.940709093903
 20
3037.720082313163
 30
0.0
 10
4520.938515166842
 20
3037.718476596277
 30
0.0
 10
4520.937146997054
 20
3037.717283394245
 30
0.0
 10
4520.935557449623
 20
3037.715635094341
 30
0.0
 10
4520.935245221968
 20
3037.715297027669
 30
0.0
 10
4520.934638706902
 20
3037.714611309408
 30
0.0
 10
4520.934343727271
 20
3037.714262981479
 30
0.0
 10
4520.933483198155
 20
3037.713201871975
 30
0.0
 10
4520.932942012742
 20
3037.712472994805
 30
0.0
 10
4520.931414306526
 20
3037.710223049334
 30
0.0
 10
4520.930522898632
 20
3037.708639152807
 30
0.0
 10
4520.92957293303
 20
3037.706550795824
 30
0.0
 10
4520.92939145007
 20
3037.706128046956
 30
0.0
 10
4520.929048398296
 20
3037.705279540459
 30
0.0
 10
4520.928886383694
 20
3037.704852826897
 30
0.0
 10
4520.92842848098
 20
3037.703565407988
 30
0.0
 10
4520.928160681777
 20
3037.702697437902
 30
0.0
 10
4520.92746850826
 20
3037.70006477097
 30
0.0
 10
4520.927154472601
 20
3037.698271545988
 30
0.0
 10
4520.926994941842
 20
3037.696438403059
 30
0.0
  0
SPLINE
  5
1C6C
330
1F
100
AcDbEntity
  8
SANINDUSA
100
AcDbSpline
210
0.0
220
0.0
230
1.0
 70
     8
 71
     3
 72
    19
 73
    15
 74
     0
 42
0.0000000001
 43
0.0000000001
 40
0.0
 40
0.0
 40
0.0
 40
0.0
 40
0.0000975757722404
 40
0.0002170464496874
 40
0.0004243243625635
 40
0.0010933138377861
 40
0.0042143970878244
 40
0.016605889490028
 40
0.0660966178526014
 40
0.165045776219446
 40
0.263999268676829
 40
0.5093265030839952
 40
0.7546696209262118
 40
0.9999999999999998
 40
0.9999999999999998
 40
0.9999999999999998
 40
0.9999999999999998
 10
4520.883584569111
 20
3037.409500807999
 30
0.0
 10
4520.883592081513
 20
3037.471401111557
 30
0.0
 10
4520.883608792011
 20
3037.471401801426
 30
0.0
 10
4520.883637973294
 20
3037.471417789169
 30
0.0
 10
4520.883690605796
 20
3037.471472967828
 30
0.0
 10
4520.883818125115
 20
3037.471752816768
 30
0.0
 10
4520.884054287054
 20
3037.472957280833
 30
0.0
 10
4520.884547771687
 20
3037.477851315923
 30
0.0
 10
4520.8851235597
 20
3037.49000790331
 30
0.0
 10
4520.885762418991
 20
3037.508719351255
 30
0.0
 10
4520.886468418903
 20
3037.542279154464
 30
0.0
 10
4520.887194963978
 20
3037.586974455561
 30
0.0
 10
4520.887660455222
 20
3037.642842215642
 30
0.0
 10
4520.887732104732
 20
3037.680141247072
 30
0.0
 10
4520.887767928556
 20
3037.698790278612
 30
0.0
  0
LINE
  5
1C7D
330
1F
100
AcDbEntity
  8
SANINDUSA
100
AcDbLine
 10
4520.926994941842
 20
3037.696438403059
 30
0.0
 11
4520.883584569111
 21
3037.409500807999
 31
0.0
  0
ARC
  5
1CDD
330
1F
100
AcDbEntity
  8
SANINDUSA
100
AcDbCircle
 10
4520.833581100357
 20
3038.235500800699
 30
0.0
 40
0.0019999999999999
100
AcDbArc
 50
180.0
 51
270.0
  0
LINE
  5
1CDE
330
1F
100
AcDbEntity
  8
SANINDUSA
100
AcDbLine
 10
4520.831581092343
 20
3038.268500805376
 30
0.0
 11
4520.831581092343
 21
3038.235500813006
 31
0.0
  0
ARC
  5
1CDF
330
1F
100
AcDbEntity
  8
SANINDUSA
100
AcDbCircle
 10
4520.836581100357
 20
3038.268500800699
 30
0.0
 40
0.005
100
AcDbArc
 50
90.0
 51
180.0
  0
LINE
  5
1CE0
330
1F
100
AcDbEntity
  8
SANINDUSA
100
AcDbLine
 10
4520.875581092105
 20
3038.273500800608
 30
0.0
 11
4520.836581087574
 21
3038.273500800608
 31
0.0
  0
LINE
  5
1CEE
330
1F
100
AcDbEntity
  8
SANINDUSA
100
AcDbLine
 10
4520.875581092105
 20
3038.273500800608
 30
0.0
 11
4520.927581093178
 21
3038.273500800608
 31
0.0
  0
ARC
  5
1CFB
330
1F
100
AcDbEntity
  8
SANINDUSA
100
AcDbCircle
 10
4520.948907657786
 20
3038.2435008007
 30
0.0
 40
0.0300000000000001
100
AcDbArc
 50
358.9999999902799
 51
90.0
  0
LINE
  5
1CFC
330
1F
100
AcDbEntity
  8
SANINDUSA
100
AcDbLine
 10
4520.978771976099
 20
3038.235465884684
 30
0.0
 11
4520.978903091417
 21
3038.242977202414
 31
0.0
  0
ARC
  5
1CFD
330
1F
100
AcDbEntity
  8
SANINDUSA
100
AcDbCircle
 10
4520.976772282451
 20
3038.235500800699
 30
0.0
 40
0.0020000000000001
100
AcDbArc
 50
270.0
 51
358.9999999902799
  0
LINE
  5
1D00
330
1F
100
AcDbEntity
  8
SANINDUSA
100
AcDbLine
 10
4520.94890766488
 20
3038.273500800608
 30
0.0
 11
4520.927581093178
 21
3038.273500800608
 31
0.0
  0
LINE
  5
1D2B
330
1F
100
AcDbEntity
  8
SANINDUSA
100
AcDbLine
 10
4520.838581091628
 20
3038.231500804899
 30
0.0
 11
4520.840581095681
 21
3038.231500804899
 31
0.0
  0
ARC
  5
1D38
330
1F
100
AcDbEntity
  8
SANINDUSA
100
AcDbCircle
 10
4520.976650096996
 20
3038.229500800699
 30
0.0
 40
0.0020000000000002
100
AcDbArc
 50
358.9999999902799
 51
90.0
  0
LINE
  5
1D39
330
1F
100
AcDbEntity
  8
SANINDUSA
100
AcDbLine
 10
4520.971615395413
 20
3037.826465890287
 30
0.0
 11
4520.978649786576
 21
3038.229465902327
 31
0.0
  0
LINE
  5
1D3E
330
1F
100
AcDbEntity
  8
SANINDUSA
100
AcDbLine
 10
4520.840581100356
 20
3038.2315008007
 30
0.0
 11
4520.976650095448
 21
3038.231500804899
 31
0.0
  0
LINE
  5
1D46
330
1F
100
AcDbEntity
  8
SANINDUSA
100
AcDbLine
 10
4520.831581092343
 20
3037.826500803708
 30
0.0
 11
4520.831581092343
 21
3038.229500771044
 31
0.0
  0
LINE
  5
1D49
330
1F
100
AcDbEntity
  8
SANINDUSA
100
AcDbLine
 10
4520.835581100449
 20
3038.231500804899
 30
0.0
 11
4520.838581091628
 21
3038.231500804899
 31
0.0
  0
ARC
  5
1D4D
330
1F
100
AcDbEntity
  8
SANINDUSA
100
AcDbCircle
 10
4520.833581100357
 20
3038.229500800699
 30
0.0
 40
0.0020000000000002
100
AcDbArc
 50
90.0
 51
180.0
  0
LINE
  5
1D4E
330
1F
100
AcDbEntity
  8
SANINDUSA
100
AcDbLine
 10
4520.833581096396
 20
3038.231500804899
 30
0.0
 11
4520.835581100449
 21
3038.231500804899
 31
0.0
  0
ARC
  5
1D4F
330
1F
100
AcDbEntity
  8
SANINDUSA
100
AcDbCircle
 10
4520.835581100357
 20
3038.233500800699
 30
0.0
 40
0.0020000000000001
100
AcDbArc
 50
270.0
 51
329.9999999842527
  0
ARC
  5
1D51
330
1F
100
AcDbEntity
  8
SANINDUSA
100
AcDbCircle
 10
4520.839045201972
 20
3038.2315008007
 30
0.0
 40
0.0020000000000001
100
AcDbArc
 50
90.0
 51
149.9999999842526
  0
LINE
  5
1D5F
330
1F
100
AcDbEntity
  8
SANINDUSA
100
AcDbLine
 10
4520.833581100357
 20
3038.233500800699
 30
0.0
 11
4520.976772282451
 21
3038.233500800699
 31
0.0
  0
ARC
  5
1D60
330
1F
100
AcDbEntity
  8
SANINDUSA
100
AcDbCircle
 10
4520.971256121846
 20
3038.231500796499
 30
0.0
 40
0.0019999999999999
100
AcDbArc
 50
30.00000001574733
 51
90.0
  0
ARC
  5
1D61
330
1F
100
AcDbEntity
  8
SANINDUSA
100
AcDbCircle
 10
4520.974720223461
 20
3038.233500796499
 30
0.0
 40
0.0020000000000001
100
AcDbArc
 50
210.0000000157473
 51
270.0
  0
LINE
  5
1E28
330
1F
100
AcDbEntity
  8
SANINDUSA
100
AcDbLine
 10
4521.6838446508
 20
3037.809500799058
 30
0.0
 11
4521.748844663316
 21
3037.809500799058
 31
0.0
  0
ENDSEC
  0
SECTION
  2
OBJECTS
  0
DICTIONARY
  5
C
330
0
100
AcDbDictionary
281
     1
  3
ACAD_2007HEADERVARS_RT
350
1E2E
  3
ACAD_BACKGROUND
350
1DA5
  3
ACAD_COLOR
350
EE6
  3
ACAD_GROUP
350
D
  3
ACAD_LAYOUT
350
1A
  3
ACAD_MATERIAL
350
EE5
  3
ACAD_MLEADERSTYLE
350
10A8
  3
ACAD_MLINESTYLE
350
17
  3
ACAD_PLOTSETTINGS
350
19
  3
ACAD_PLOTSTYLENAME
350
E
  3
ACAD_SCALELIST
350
1096
  3
ACAD_TABLESTYLE
350
EE7
  3
ACAD_VISUALSTYLE
350
1082
  3
ACDB_RECOMPOSE_DATA
350
1E2C
  3
AcDbVariableDictionary
350
3D
  3
AEC_PROPERTY_SET_DEFS
350
1592
  3
ASE_INDEX_DICTIONARY
350
1066
  3
Autodesk_PNP
350
10B2
  3
DWGPROPS
350
1E2D
  0
DICTIONARY
  5
1B34
330
8
100
AcDbDictionary
280
     1
281
     1
  0
DICTIONARY
  5
1051
330
2
100
AcDbDictionary
280
     1
281
     1
  3
ACAD_LAYERFILTERS
360
1065
  3
ACAD_LAYERSTATES
360
1BF1
  3
ACLYDICTIONARY
360
1064
  0
DICTIONARY
  5
1B0E
330
10
100
AcDbDictionary
280
     1
281
     1
  3
ADSK_XREC_LAYER_RECONCILED
360
1B0F
  0
DICTIONARY
  5
1B10
330
2F
100
AcDbDictionary
280
     1
281
     1
  3
ADSK_XREC_LAYER_RECONCILED
360
1B11
  0
DICTIONARY
  5
1B12
330
30
100
AcDbDictionary
280
     1
281
     1
  3
ADSK_XREC_LAYER_RECONCILED
360
1B13
  0
DICTIONARY
  5
1B14
330
31
100
AcDbDictionary
280
     1
281
     1
  3
ADSK_XREC_LAYER_RECONCILED
360
1B15
  0
DICTIONARY
  5
1B16
330
32
100
AcDbDictionary
280
     1
281
     1
  3
ADSK_XREC_LAYER_RECONCILED
360
1B17
  0
DICTIONARY
  5
1B18
330
33
100
AcDbDictionary
280
     1
281
     1
  3
ADSK_XREC_LAYER_RECONCILED
360
1B19
  0
DICTIONARY
  5
1B1A
330
34
100
AcDbDictionary
280
     1
281
     1
  3
ADSK_XREC_LAYER_RECONCILED
360
1B1B
  0
DICTIONARY
  5
1B1C
330
35
100
AcDbDictionary
280
     1
281
     1
  3
ADSK_XREC_LAYER_RECONCILED
360
1B1D
  0
DICTIONARY
  5
1B1E
330
36
100
AcDbDictionary
280
     1
281
     1
  3
ADSK_XREC_LAYER_RECONCILED
360
1B1F
  0
DICTIONARY
  5
1B20
330
37
100
AcDbDictionary
280
     1
281
     1
  3
ADSK_XREC_LAYER_RECONCILED
360
1B21
  0
DICTIONARY
  5
1B22
330
5D6
100
AcDbDictionary
280
     1
281
     1
  3
ADSK_XREC_LAYER_RECONCILED
360
1B23
  0
DICTIONARY
  5
1B24
330
8AF
100
AcDbDictionary
280
     1
281
     1
  3
ADSK_XREC_LAYER_RECONCILED
360
1B25
  0
DICTIONARY
  5
1B26
330
8F8
100
AcDbDictionary
280
     1
281
     1
  3
ADSK_XREC_LAYER_RECONCILED
360
1B27
  0
DICTIONARY
  5
1B28
330
91D
100
AcDbDictionary
280
     1
281
     1
  3
ADSK_XREC_LAYER_RECONCILED
360
1B29
  0
DICTIONARY
  5
1B2A
330
C7B
100
AcDbDictionary
280
     1
281
     1
  3
ADSK_XREC_LAYER_RECONCILED
360
1B2B
  0
DICTIONARY
  5
1B2C
330
1060
100
AcDbDictionary
280
     1
281
     1
  3
ADSK_XREC_LAYER_RECONCILED
360
1B2D
  0
DICTIONARY
  5
1E2E
102
{ACAD_REACTORS
330
C
102
}
330
C
100
AcDbDictionary
281
     1
  3
DIMJOGANG
350
1E2F
  0
DICTIONARY
  5
1DA5
102
{ACAD_REACTORS
330
C
102
}
330
C
100
AcDbDictionary
281
     1
  0
DICTIONARY
  5
EE6
102
{ACAD_REACTORS
330
C
102
}
330
C
100
AcDbDictionary
281
     1
  0
DICTIONARY
  5
D
102
{ACAD_REACTORS
330
C
102
}
330
C
100
AcDbDictionary
281
     1
  0
DICTIONARY
  5
1A
102
{ACAD_REACTORS
330
C
102
}
330
C
100
AcDbDictionary
281
     1
  3
Layout1
350
1E
  3
Layout2
350
26
  3
Model
350
22
  0
DICTIONARY
  5
EE5
102
{ACAD_REACTORS
330
C
102
}
330
C
100
AcDbDictionary
281
     1
  3
ByBlock
350
1072
  3
ByLayer
350
106A
  3
Global
350
107A
  0
DICTIONARY
  5
10A8
102
{ACAD_REACTORS
330
C
102
}
330
C
100
AcDbDictionary
281
     1
  3
Standard
350
10A9
  0
DICTIONARY
  5
17
102
{ACAD_REACTORS
330
C
102
}
330
C
100
AcDbDictionary
281
     1
  3
Standard
350
18
  0
DICTIONARY
  5
19
102
{ACAD_REACTORS
330
C
102
}
330
C
100
AcDbDictionary
281
     1
  0
ACDBDICTIONARYWDFLT
  5
E
102
{ACAD_REACTORS
330
C
102
}
330
C
100
AcDbDictionary
281
     1
  3
Normal
350
F
100
AcDbDictionaryWithDefault
340
F
  0
DICTIONARY
  5
1096
102
{ACAD_REACTORS
330
C
102
}
330
C
100
AcDbDictionary
281
     1
  3
A0
350
1097
  3
A1
350
1098
  3
A2
350
1099
  3
A3
350
109A
  3
A4
350
109B
  3
A5
350
109C
  3
A6
350
109D
  3
A7
350
109E
  3
A8
350
109F
  3
A9
350
10A0
  3
B0
350
10A1
  3
B1
350
10A2
  3
B2
350
10A3
  3
B3
350
10A4
  3
B4
350
10A5
  3
B5
350
10A6
  3
B6
350
10A7
  0
DICTIONARY
  5
EE7
102
{ACAD_REACTORS
330
C
102
}
330
C
100
AcDbDictionary
281
     1
  3
Standard
350
EE8
  0
DICTIONARY
  5
1082
102
{ACAD_REACTORS
330
C
102
}
330
C
100
AcDbDictionary
281
     1
  3
2dWireframe
350
1088
  3
3D Hidden
350
108A
  3
3dWireframe
350
1089
  3
Basic
350
1087
  3
Brighten
350
108E
  3
ColorChange
350
1092
  3
Conceptual
350
108B
  3
Dim
350
108D
  3
EdgeColorOff
350
1095
  3
Facepattern
350
1091
  3
Flat
350
1083
  3
FlatWithEdges
350
1084
  3
Gouraud
350
1085
  3
GouraudWithEdges
350
1086
  3
JitterOff
350
1093
  3
Linepattern
350
1090
  3
OverhangOff
350
1094
  3
Realistic
350
108C
  3
Thicken
350
108F
  0
XRECORD
  5
1E2C
102
{ACAD_REACTORS
330
C
102
}
330
C
100
AcDbXrecord
280
     1
 90
        1
330
EE8
  0
DICTIONARY
  5
3D
102
{ACAD_REACTORS
330
C
102
}
330
C
100
AcDbDictionary
281
     1
  3
CANNOSCALE
350
1B6C
  3
CMLEADERSTYLE
350
1B6B
  3
CTABLESTYLE
350
1049
  3
DIMASSOC
350
3F
  3
HIDETEXT
350
3E
  3
INDEXCTL
350
1B6E
  3
SORTENTS
350
1B6D
  3
XCLIPFRAME
350
1DEA
  0
DICTIONARY
  5
1592
102
{ACAD_REACTORS
330
C
102
}
330
C
100
AcDbDictionary
281
     1
  0
DICTIONARY
  5
1066
102
{ACAD_REACTORS
330
C
102
}
330
C
100
AcDbDictionary
281
     1
  3
ASEBlockHierarchyIndexRecord
350
1067
1001
DCO15
1040
1602247867.484
  0
DICTIONARY
  5
10B2
102
{ACAD_REACTORS
330
C
102
}
330
C
100
AcDbDictionary
281
     1
  0
XRECORD
  5
1E2D
102
{ACAD_REACTORS
330
C
102
}
330
C
100
AcDbXrecord
280
     1
  1
DWGPROPS COOKIE
  2

  3

  4

  6

  7

  8
Julio
  9

300
=
301
=
302
=
303
=
304
=
305
=
306
=
307
=
308
=
309
=
 40
0.0261313541666667
 41
2455097.494448241
 42
2456111.685559896
  1

 90
        0
  0
DICTIONARY
  5
1065
102
{ACAD_REACTORS
330
1051
102
}
330
1051
100
AcDbDictionary
281
     1
  0
DICTIONARY
  5
1BF1
102
{ACAD_REACTORS
330
1051
102
}
330
1051
100
AcDbDictionary
281
     1
  0
DICTIONARY
  5
1064
102
{ACAD_REACTORS
330
1051
102
}
330
1051
100
AcDbDictionary
281
     1
1001
ACAD
1000
<All
  0
XRECORD
  5
1B0F
102
{ACAD_REACTORS
330
1B0E
102
}
330
1B0E
100
AcDbXrecord
280
     1
290
     1
  0
XRECORD
  5
1B11
102
{ACAD_REACTORS
330
1B10
102
}
330
1B10
100
AcDbXrecord
280
     1
290
     1
  0
XRECORD
  5
1B13
102
{ACAD_REACTORS
330
1B12
102
}
330
1B12
100
AcDbXrecord
280
     1
290
     1
  0
XRECORD
  5
1B15
102
{ACAD_REACTORS
330
1B14
102
}
330
1B14
100
AcDbXrecord
280
     1
290
     1
  0
XRECORD
  5
1B17
102
{ACAD_REACTORS
330
1B16
102
}
330
1B16
100
AcDbXrecord
280
     1
290
     1
  0
XRECORD
  5
1B19
102
{ACAD_REACTORS
330
1B18
102
}
330
1B18
100
AcDbXrecord
280
     1
290
     1
  0
XRECORD
  5
1B1B
102
{ACAD_REACTORS
330
1B1A
102
}
330
1B1A
100
AcDbXrecord
280
     1
290
     1
  0
XRECORD
  5
1B1D
102
{ACAD_REACTORS
330
1B1C
102
}
330
1B1C
100
AcDbXrecord
280
     1
290
     1
  0
XRECORD
  5
1B1F
102
{ACAD_REACTORS
330
1B1E
102
}
330
1B1E
100
AcDbXrecord
280
     1
290
     1
  0
XRECORD
  5
1B21
102
{ACAD_REACTORS
330
1B20
102
}
330
1B20
100
AcDbXrecord
280
     1
290
     1
  0
XRECORD
  5
1B23
102
{ACAD_REACTORS
330
1B22
102
}
330
1B22
100
AcDbXrecord
280
     1
290
     1
  0
XRECORD
  5
1B25
102
{ACAD_REACTORS
330
1B24
102
}
330
1B24
100
AcDbXrecord
280
     1
290
     1
  0
XRECORD
  5
1B27
102
{ACAD_REACTORS
330
1B26
102
}
330
1B26
100
AcDbXrecord
280
     1
290
     1
  0
XRECORD
  5
1B29
102
{ACAD_REACTORS
330
1B28
102
}
330
1B28
100
AcDbXrecord
280
     1
290
     1
  0
XRECORD
  5
1B2B
102
{ACAD_REACTORS
330
1B2A
102
}
330
1B2A
100
AcDbXrecord
280
     1
290
     1
  0
XRECORD
  5
1B2D
102
{ACAD_REACTORS
330
1B2C
102
}
330
1B2C
100
AcDbXrecord
280
     1
290
     1
  0
XRECORD
  5
1E2F
102
{ACAD_REACTORS
330
1E2E
102
}
330
1E2E
100
AcDbXrecord
280
     1
 40
1.570796326794896
  0
LAYOUT
  5
1E
102
{ACAD_XDICTIONARY
360
1E30
102
}
102
{ACAD_REACTORS
330
1A
102
}
330
1A
100
AcDbPlotSettings
  1

  2
Ploter HP500
  4

  6

 40
0.0
 41
0.0
 42
0.0
 43
0.0
 44
0.0
 45
0.0
 46
0.0
 47
0.0
 48
0.0
 49
0.0
140
0.0
141
0.0
142
1.0
143
1.0
 70
   688
 72
     0
 73
     0
 74
     5
  7
sanindusa.ctb
 75
    16
147
1.0
148
0.0
149
0.0
100
AcDbLayout
  1
Layout1
 70
     1
 71
     1
 10
0.0
 20
0.0
 11
420.0
 21
297.0
 12
0.0
 22
0.0
 32
0.0
 14
1.000000000000000E+20
 24
1.000000000000000E+20
 34
1.000000000000000E+20
 15
-1.000000000000000E+20
 25
-1.000000000000000E+20
 35
-1.000000000000000E+20
146
0.0
 13
0.0
 23
0.0
 33
0.0
 16
1.0
 26
0.0
 36
0.0
 17
0.0
 27
1.0
 37
0.0
 76
     0
330
1B
  0
LAYOUT
  5
26
102
{ACAD_XDICTIONARY
360
1E34
102
}
102
{ACAD_REACTORS
330
1A
102
}
330
1A
100
AcDbPlotSettings
  1

  2
Ploter HP500
  4

  6

 40
0.0
 41
0.0
 42
0.0
 43
0.0
 44
0.0
 45
0.0
 46
0.0
 47
0.0
 48
0.0
 49
0.0
140
0.0
141
0.0
142
1.0
143
1.0
 70
   688
 72
     0
 73
     0
 74
     5
  7
sanindusa.ctb
 75
    16
147
1.0
148
0.0
149
0.0
100
AcDbLayout
  1
Layout2
 70
     1
 71
     2
 10
0.0
 20
0.0
 11
12.0
 21
9.0
 12
0.0
 22
0.0
 32
0.0
 14
0.0
 24
0.0
 34
0.0
 15
0.0
 25
0.0
 35
0.0
146
0.0
 13
0.0
 23
0.0
 33
0.0
 16
1.0
 26
0.0
 36
0.0
 17
0.0
 27
1.0
 37
0.0
 76
     0
330
23
  0
LAYOUT
  5
22
102
{ACAD_XDICTIONARY
360
1E32
102
}
102
{ACAD_REACTORS
330
1A
102
}
330
1A
100
AcDbPlotSettings
  1

  2
Ploter HP500
  4
User268
  6

 40
4.995333194732666
 41
16.97565841674804
 42
4.995330810546875
 43
16.97567749023437
 44
209.9733276367187
 45
296.9259948730469
 46
0.0
 47
0.0
 48
0.0
 49
0.0
140
0.0
141
0.0
142
1.0
143
1.0
 70
 11952
 72
     1
 73
     1
 74
     0
  7
sanindusa.ctb
 75
     0
147
1.0
148
-427.5957866592534
149
7.362384574453926
100
AcDbLayout
  1
Model
 70
     1
 71
     0
 10
0.0
 20
0.0
 11
12.0
 21
9.0
 12
0.0
 22
0.0
 32
0.0
 14
0.0
 24
0.0
 34
0.0
 15
0.0
 25
0.0
 35
0.0
146
0.0
 13
0.0
 23
0.0
 33
0.0
 16
1.0
 26
0.0
 36
0.0
 17
0.0
 27
1.0
 37
0.0
 76
     0
330
1F
331
1068
  0
MATERIAL
  5
1072
102
{ACAD_XDICTIONARY
360
1073
102
}
102
{ACAD_REACTORS
330
EE5
102
}
330
EE5
100
AcDbMaterial
  1
ByBlock
 72
     0
 43
0.0008202099737533
 43
0.0
 43
0.0
 43
0.0
 43
0.0
 43
0.0008202099737533
 43
0.0
 43
0.0
 43
0.0
 43
0.0
 43
1.0
 43
0.0
 43
0.0
 43
0.0
 43
0.0
 43
1.0
 77
     0
 47
0.0008202099737533
 47
0.0
 47
0.0
 47
0.0
 47
0.0
 47
0.0008202099737533
 47
0.0
 47
0.0
 47
0.0
 47
0.0
 47
1.0
 47
0.0
 47
0.0
 47
0.0
 47
0.0
 47
1.0
171
     0
 49
0.0008202099737533
 49
0.0
 49
0.0
 49
0.0
 49
0.0
 49
0.0008202099737533
 49
0.0
 49
0.0
 49
0.0
 49
0.0
 49
1.0
 49
0.0
 49
0.0
 49
0.0
 49
0.0
 49
1.0
175
     0
142
0.0008202099737533
142
0.0
142
0.0
142
0.0
142
0.0
142
0.0008202099737533
142
0.0
142
0.0
142
0.0
142
0.0
142
1.0
142
0.0
142
0.0
142
0.0
142
0.0
142
1.0
179
     0
144
0.0008202099737533
144
0.0
144
0.0
144
0.0
144
0.0
144
0.0008202099737533
144
0.0
144
0.0
144
0.0
144
0.0
144
1.0
144
0.0
144
0.0
144
0.0
144
0.0
144
1.0
147
0.0008202099737533
147
0.0
147
0.0
147
0.0
147
0.0
147
0.0008202099737533
147
0.0
147
0.0
147
0.0
147
0.0
147
1.0
147
0.0
147
0.0
147
0.0
147
0.0
147
1.0
  0
MATERIAL
  5
106A
102
{ACAD_XDICTIONARY
360
106B
102
}
102
{ACAD_REACTORS
330
EE5
102
}
330
EE5
100
AcDbMaterial
  1
ByLayer
 72
     0
 43
0.0008202099737533
 43
0.0
 43
0.0
 43
0.0
 43
0.0
 43
0.0008202099737533
 43
0.0
 43
0.0
 43
0.0
 43
0.0
 43
1.0
 43
0.0
 43
0.0
 43
0.0
 43
0.0
 43
1.0
 77
     0
 47
0.0008202099737533
 47
0.0
 47
0.0
 47
0.0
 47
0.0
 47
0.0008202099737533
 47
0.0
 47
0.0
 47
0.0
 47
0.0
 47
1.0
 47
0.0
 47
0.0
 47
0.0
 47
0.0
 47
1.0
171
     0
 49
0.0008202099737533
 49
0.0
 49
0.0
 49
0.0
 49
0.0
 49
0.0008202099737533
 49
0.0
 49
0.0
 49
0.0
 49
0.0
 49
1.0
 49
0.0
 49
0.0
 49
0.0
 49
0.0
 49
1.0
175
     0
142
0.0008202099737533
142
0.0
142
0.0
142
0.0
142
0.0
142
0.0008202099737533
142
0.0
142
0.0
142
0.0
142
0.0
142
1.0
142
0.0
142
0.0
142
0.0
142
0.0
142
1.0
179
     0
144
0.0008202099737533
144
0.0
144
0.0
144
0.0
144
0.0
144
0.0008202099737533
144
0.0
144
0.0
144
0.0
144
0.0
144
1.0
144
0.0
144
0.0
144
0.0
144
0.0
144
1.0
147
0.0008202099737533
147
0.0
147
0.0
147
0.0
147
0.0
147
0.0008202099737533
147
0.0
147
0.0
147
0.0
147
0.0
147
1.0
147
0.0
147
0.0
147
0.0
147
0.0
147
1.0
  0
MATERIAL
  5
107A
102
{ACAD_XDICTIONARY
360
107B
102
}
102
{ACAD_REACTORS
330
EE5
102
}
330
EE5
100
AcDbMaterial
  1
Global
 72
     0
 43
0.0008202099737533
 43
0.0
 43
0.0
 43
0.0
 43
0.0
 43
0.0008202099737533
 43
0.0
 43
0.0
 43
0.0
 43
0.0
 43
1.0
 43
0.0
 43
0.0
 43
0.0
 43
0.0
 43
1.0
 77
     0
 47
0.0008202099737533
 47
0.0
 47
0.0
 47
0.0
 47
0.0
 47
0.0008202099737533
 47
0.0
 47
0.0
 47
0.0
 47
0.0
 47
1.0
 47
0.0
 47
0.0
 47
0.0
 47
0.0
 47
1.0
171
     0
 49
0.0008202099737533
 49
0.0
 49
0.0
 49
0.0
 49
0.0
 49
0.0008202099737533
 49
0.0
 49
0.0
 49
0.0
 49
0.0
 49
1.0
 49
0.0
 49
0.0
 49
0.0
 49
0.0
 49
1.0
175
     0
142
0.0008202099737533
142
0.0
142
0.0
142
0.0
142
0.0
142
0.0008202099737533
142
0.0
142
0.0
142
0.0
142
0.0
142
1.0
142
0.0
142
0.0
142
0.0
142
0.0
142
1.0
179
     0
144
0.0008202099737533
144
0.0
144
0.0
144
0.0
144
0.0
144
0.0008202099737533
144
0.0
144
0.0
144
0.0
144
0.0
144
1.0
144
0.0
144
0.0
144
0.0
144
0.0
144
1.0
147
0.0008202099737533
147
0.0
147
0.0
147
0.0
147
0.0
147
0.0008202099737533
147
0.0
147
0.0
147
0.0
147
0.0
147
1.0
147
0.0
147
0.0
147
0.0
147
0.0
147
1.0
  0
MLEADERSTYLE
  5
10A9
102
{ACAD_REACTORS
330
10A8
102
}
330
10A8
100
AcDbMLeaderStyle
170
     2
171
     1
172
     0
 90
        2
 40
0.0
 41
0.0
173
     1
 91
-1056964608
340
14
 92
       -2
290
     1
 42
2.0
291
     1
 43
0.36
  3
Standard
 44
4.0
300

342
11
174
     1
178
     6
175
     1
176
     0
 93
-1056964608
 45
4.0
292
     0
297
     0
 46
4.0
 94
-1056964608
 47
1.0
 49
1.0
140
1.0
293
     1
141
0.0
294
     1
177
     0
142
1.0
295
     0
296
     0
143
0.125
1001
ACAD_MLEADERVER
1070
     2
  0
MLINESTYLE
  5
18
102
{ACAD_REACTORS
330
17
102
}
330
17
100
AcDbMlineStyle
  2
STANDARD
 70
     0
  3

 62
   256
 51
90.0
 52
90.0
 71
     2
 49
0.5
 62
   256
  6
BYLAYER
 49
-0.5
 62
   256
  6
BYLAYER
  0
ACDBPLACEHOLDER
  5
F
102
{ACAD_REACTORS
330
E
102
}
330
E
  0
SCALE
  5
1097
102
{ACAD_REACTORS
330
1096
102
}
330
1096
100
AcDbScale
 70
     0
300
1:1
140
1.0
141
1.0
290
     1
  0
SCALE
  5
1098
102
{ACAD_REACTORS
330
1096
102
}
330
1096
100
AcDbScale
 70
     0
300
1:2
140
1.0
141
2.0
290
     0
  0
SCALE
  5
1099
102
{ACAD_REACTORS
330
1096
102
}
330
1096
100
AcDbScale
 70
     0
300
1:4
140
1.0
141
4.0
290
     0
  0
SCALE
  5
109A
102
{ACAD_REACTORS
330
1096
102
}
330
1096
100
AcDbScale
 70
     0
300
1:5
140
1.0
141
5.0
290
     0
  0
SCALE
  5
109B
102
{ACAD_REACTORS
330
1096
102
}
330
1096
100
AcDbScale
 70
     0
300
1:8
140
1.0
141
8.0
290
     0
  0
SCALE
  5
109C
102
{ACAD_REACTORS
330
1096
102
}
330
1096
100
AcDbScale
 70
     0
300
1:10
140
1.0
141
10.0
290
     0
  0
SCALE
  5
109D
102
{ACAD_REACTORS
330
1096
102
}
330
1096
100
AcDbScale
 70
     0
300
1:16
140
1.0
141
16.0
290
     0
  0
SCALE
  5
109E
102
{ACAD_REACTORS
330
1096
102
}
330
1096
100
AcDbScale
 70
     0
300
1:20
140
1.0
141
20.0
290
     0
  0
SCALE
  5
109F
102
{ACAD_REACTORS
330
1096
102
}
330
1096
100
AcDbScale
 70
     0
300
1:30
140
1.0
141
30.0
290
     0
  0
SCALE
  5
10A0
102
{ACAD_REACTORS
330
1096
102
}
330
1096
100
AcDbScale
 70
     0
300
1:40
140
1.0
141
40.0
290
     0
  0
SCALE
  5
10A1
102
{ACAD_REACTORS
330
1096
102
}
330
1096
100
AcDbScale
 70
     0
300
1:50
140
1.0
141
50.0
290
     0
  0
SCALE
  5
10A2
102
{ACAD_REACTORS
330
1096
102
}
330
1096
100
AcDbScale
 70
     0
300
1:100
140
1.0
141
100.0
290
     0
  0
SCALE
  5
10A3
102
{ACAD_REACTORS
330
1096
102
}
330
1096
100
AcDbScale
 70
     0
300
2:1
140
2.0
141
1.0
290
     0
  0
SCALE
  5
10A4
102
{ACAD_REACTORS
330
1096
102
}
330
1096
100
AcDbScale
 70
     0
300
4:1
140
4.0
141
1.0
290
     0
  0
SCALE
  5
10A5
102
{ACAD_REACTORS
330
1096
102
}
330
1096
100
AcDbScale
 70
     0
300
8:1
140
8.0
141
1.0
290
     0
  0
SCALE
  5
10A6
102
{ACAD_REACTORS
330
1096
102
}
330
1096
100
AcDbScale
 70
     0
300
10:1
140
10.0
141
1.0
290
     0
  0
SCALE
  5
10A7
102
{ACAD_REACTORS
330
1096
102
}
330
1096
100
AcDbScale
 70
     0
300
100:1
140
100.0
141
1.0
290
     0
  0
TABLESTYLE
  5
EE8
102
{ACAD_XDICTIONARY
360
1B2E
102
}
102
{ACAD_REACTORS
330
EE7
102
}
330
EE7
100
AcDbTableStyle
  3
Standard
 70
     0
 71
     0
 40
1.5
 41
1.5
280
     0
281
     0
  7
Standard
140
4.5
170
     2
 62
     0
 63
     7
283
     0
274
    -2
284
     1
 64
     0
275
    -2
285
     1
 65
     0
276
    -2
286
     1
 66
     0
277
    -2
287
     1
 67
     0
278
    -2
288
     1
 68
     0
279
    -2
289
     1
 69
     0
  7
Standard
140
6.0
170
     5
 62
     0
 63
     7
283
     0
274
    -2
284
     1
 64
     0
275
    -2
285
     1
 65
     0
276
    -2
286
     1
 66
     0
277
    -2
287
     1
 67
     0
278
    -2
288
     1
 68
     0
279
    -2
289
     1
 69
     0
  7
Standard
140
4.5
170
     5
 62
     0
 63
     7
283
     0
274
    -2
284
     1
 64
     0
275
    -2
285
     1
 65
     0
276
    -2
286
     1
 66
     0
277
    -2
287
     1
 67
     0
278
    -2
288
     1
 68
     0
279
    -2
289
     1
 69
     0
  0
VISUALSTYLE
  5
1088
102
{ACAD_XDICTIONARY
360
1E44
102
}
102
{ACAD_REACTORS
330
1082
102
}
330
1082
100
AcDbVisualStyle
  2
2dWireframe
 70
     4
 71
     0
 72
     2
 73
     0
 90
        0
 40
-0.6
 41
-30.0
 62
     5
 63
     7
 74
     1
 91
        4
 64
     7
 65
   257
 75
     1
175
     1
 42
1.0
 92
        0
 66
   257
 43
1.0
 76
     1
 77
     6
 78
     2
 67
     7
 79
     5
170
     0
171
     0
290
     0
174
     0
 93
        1
 44
0.0
173
     0
291
     0
 45
0.0
1001
ACAD
1000
AcDbSavedByObjectVersion
1070
     0
  0
VISUALSTYLE
  5
108A
102
{ACAD_XDICTIONARY
360
1E48
102
}
102
{ACAD_REACTORS
330
1082
102
}
330
1082
100
AcDbVisualStyle
  2
3D Hidden
 70
     6
 71
     1
 72
     2
 73
     2
 90
        0
 40
-0.6
 41
-30.0
 62
     5
 63
     7
 74
     2
 91
        2
 64
     7
 65
   257
 75
     2
175
     1
 42
179.0
 92
        0
 66
   257
 43
1.0
 76
     1
 77
     6
 78
     2
 67
     7
 79
     3
170
     0
171
     0
290
     0
174
     0
 93
        1
 44
0.0
173
     0
291
     0
 45
0.0
1001
ACAD
1000
AcDbSavedByObjectVersion
1070
     0
  0
VISUALSTYLE
  5
1089
102
{ACAD_XDICTIONARY
360
1E46
102
}
102
{ACAD_REACTORS
330
1082
102
}
330
1082
100
AcDbVisualStyle
  2
3dWireframe
 70
     5
 71
     0
 72
     2
 73
     0
 90
        0
 40
-0.6
 41
-30.0
 62
     5
 63
     7
 74
     1
 91
        4
 64
     7
 65
   257
 75
     1
175
     1
 42
1.0
 92
        0
 66
   257
 43
1.0
 76
     1
 77
     6
 78
     2
 67
     7
 79
     5
170
     0
171
     0
290
     0
174
     0
 93
        1
 44
0.0
173
     0
291
     0
 45
0.0
1001
ACAD
1000
AcDbSavedByObjectVersion
1070
     0
  0
VISUALSTYLE
  5
1087
102
{ACAD_XDICTIONARY
360
1E42
102
}
102
{ACAD_REACTORS
330
1082
102
}
330
1082
100
AcDbVisualStyle
  2
Basic
 70
     7
 71
     1
 72
     0
 73
     1
 90
        0
 40
-0.6
 41
-30.0
 62
     5
 63
     7
 74
     0
 91
        4
 64
     7
 65
   257
 75
     1
175
     1
 42
1.0
 92
        8
 66
     7
 43
1.0
 76
     1
 77
     6
 78
     2
 67
     7
 79
     5
170
     0
171
     0
290
     0
174
     0
 93
        1
 44
0.0
173
     0
291
     1
 45
0.0
1001
ACAD
1000
AcDbSavedByObjectVersion
1070
     0
  0
VISUALSTYLE
  5
108E
102
{ACAD_XDICTIONARY
360
1E50
102
}
102
{ACAD_REACTORS
330
1082
102
}
330
1082
100
AcDbVisualStyle
  2
Brighten
 70
    12
 71
     2
 72
     2
 73
     0
 90
        0
 40
-0.6
 41
-30.0
 62
     5
 63
     7
 74
     1
 91
        4
 64
     7
 65
   257
 75
     1
175
     1
 42
1.0
 92
        8
 66
     7
 43
1.0
 76
     1
 77
     6
 78
     2
 67
     7
 79
     5
170
     0
171
     0
290
     0
174
     0
 93
        1
 44
50.0
173
     0
291
     1
 45
0.0
1001
ACAD
1000
AcDbSavedByObjectVersion
1070
     0
  0
VISUALSTYLE
  5
1092
102
{ACAD_XDICTIONARY
360
1E58
102
}
102
{ACAD_REACTORS
330
1082
102
}
330
1082
100
AcDbVisualStyle
  2
ColorChange
 70
    16
 71
     2
 72
     2
 73
     3
 90
        0
 40
-0.6
 41
-30.0
 62
     5
 63
     8
 74
     1
 91
        4
 64
     7
 65
   257
 75
     1
175
     1
 42
1.0
 92
        8
 66
     8
 43
1.0
 76
     1
 77
     6
 78
     2
 67
     7
 79
     5
170
     0
171
     0
290
     0
174
     0
 93
        1
 44
0.0
173
     0
291
     1
 45
0.0
1001
ACAD
1000
AcDbSavedByObjectVersion
1070
     0
  0
VISUALSTYLE
  5
108B
102
{ACAD_XDICTIONARY
360
1E4A
102
}
102
{ACAD_REACTORS
330
1082
102
}
330
1082
100
AcDbVisualStyle
  2
Conceptual
 70
     9
 71
     3
 72
     2
 73
     0
 90
        0
 40
-0.6
 41
-30.0
 62
     5
 63
     7
 74
     2
 91
        2
 64
     7
 65
   257
 75
     1
175
     1
 42
179.0
 92
        8
 66
     7
 43
1.0
 76
     1
 77
     6
 78
     2
 67
     7
 79
     3
170
     0
171
     0
290
     0
174
     0
 93
        1
 44
0.0
173
     0
291
     0
 45
0.0
1001
ACAD
1000
AcDbSavedByObjectVersion
1070
     0
  0
VISUALSTYLE
  5
108D
102
{ACAD_XDICTIONARY
360
1E4E
102
}
102
{ACAD_REACTORS
330
1082
102
}
330
1082
100
AcDbVisualStyle
  2
Dim
 70
    11
 71
     2
 72
     2
 73
     0
 90
        0
 40
-0.6
 41
-30.0
 62
     5
 63
     7
 74
     1
 91
        4
 64
     7
 65
   257
 75
     1
175
     1
 42
1.0
 92
        8
 66
     7
 43
1.0
 76
     1
 77
     6
 78
     2
 67
     7
 79
     5
170
     0
171
     0
290
     0
174
     0
 93
        1
 44
-50.0
173
     0
291
     1
 45
0.0
1001
ACAD
1000
AcDbSavedByObjectVersion
1070
     0
  0
VISUALSTYLE
  5
1095
102
{ACAD_XDICTIONARY
360
1E5E
102
}
102
{ACAD_REACTORS
330
1082
102
}
330
1082
100
AcDbVisualStyle
  2
EdgeColorOff
 70
    22
 71
     2
 72
     2
 73
     0
 90
        0
 40
-0.6
 41
-30.0
 62
     5
 63
     7
 74
     1
 91
        4
 64
     7
 65
   257
 75
     1
175
     1
 42
1.0
 92
        8
 66
     7
 43
1.0
 76
     1
 77
     6
 78
     2
 67
     7
 79
     5
170
     0
171
     0
290
     0
174
     0
 93
        1
 44
0.0
173
     0
291
     1
 45
0.0
1001
ACAD
1000
AcDbSavedByObjectVersion
1070
     0
  0
VISUALSTYLE
  5
1091
102
{ACAD_XDICTIONARY
360
1E56
102
}
102
{ACAD_REACTORS
330
1082
102
}
330
1082
100
AcDbVisualStyle
  2
Facepattern
 70
    15
 71
     2
 72
     2
 73
     0
 90
        0
 40
-0.6
 41
-30.0
 62
     5
 63
     7
 74
     1
 91
        4
 64
     7
 65
   257
 75
     1
175
     1
 42
1.0
 92
        8
 66
     7
 43
1.0
 76
     1
 77
     6
 78
     2
 67
     7
 79
     5
170
     0
171
     0
290
     0
174
     0
 93
        1
 44
0.0
173
     0
291
     1
 45
0.0
1001
ACAD
1000
AcDbSavedByObjectVersion
1070
     0
  0
VISUALSTYLE
  5
1083
102
{ACAD_XDICTIONARY
360
1E3A
102
}
102
{ACAD_REACTORS
330
1082
102
}
330
1082
100
AcDbVisualStyle
  2
Flat
 70
     0
 71
     2
 72
     1
 73
     1
 90
        2
 40
-0.6
 41
30.0
 62
     5
 63
     7
 74
     0
 91
        4
 64
     7
 65
   257
 75
     1
175
     1
 42
1.0
 92
        8
 66
     7
 43
1.0
 76
     1
 77
     6
 78
     2
 67
     7
 79
     5
170
     0
171
     0
290
     0
174
     0
 93
       13
 44
0.0
173
     0
291
     1
 45
0.0
1001
ACAD
1000
AcDbSavedByObjectVersion
1070
     0
  0
VISUALSTYLE
  5
1084
102
{ACAD_XDICTIONARY
360
1E3C
102
}
102
{ACAD_REACTORS
330
1082
102
}
330
1082
100
AcDbVisualStyle
  2
FlatWithEdges
 70
     1
 71
     2
 72
     1
 73
     1
 90
        2
 40
-0.6
 41
30.0
 62
     5
 63
     7
 74
     1
 91
        4
 64
     7
 65
   257
 75
     1
175
     1
 42
1.0
 92
        0
 66
   257
 43
1.0
 76
     1
 77
     6
 78
     2
 67
     7
 79
     5
170
     0
171
     0
290
     0
174
     0
 93
       13
 44
0.0
173
     0
291
     1
 45
0.0
1001
ACAD
1000
AcDbSavedByObjectVersion
1070
     0
  0
VISUALSTYLE
  5
1085
102
{ACAD_XDICTIONARY
360
1E3E
102
}
102
{ACAD_REACTORS
330
1082
102
}
330
1082
100
AcDbVisualStyle
  2
Gouraud
 70
     2
 71
     2
 72
     2
 73
     1
 90
        2
 40
-0.6
 41
30.0
 62
     5
 63
     7
 74
     0
 91
        4
 64
     7
 65
   257
 75
     1
175
     1
 42
1.0
 92
        0
 66
     7
 43
1.0
 76
     1
 77
     6
 78
     2
 67
     7
 79
     5
170
     0
171
     0
290
     0
174
     0
 93
       13
 44
0.0
173
     0
291
     1
 45
0.0
1001
ACAD
1000
AcDbSavedByObjectVersion
1070
     0
  0
VISUALSTYLE
  5
1086
102
{ACAD_XDICTIONARY
360
1E40
102
}
102
{ACAD_REACTORS
330
1082
102
}
330
1082
100
AcDbVisualStyle
  2
GouraudWithEdges
 70
     3
 71
     2
 72
     2
 73
     1
 90
        2
 40
-0.6
 41
30.0
 62
     5
 63
     7
 74
     1
 91
        4
 64
     7
 65
   257
 75
     1
175
     1
 42
1.0
 92
        0
 66
   257
 43
1.0
 76
     1
 77
     6
 78
     2
 67
     7
 79
     5
170
     0
171
     0
290
     0
174
     0
 93
       13
 44
0.0
173
     0
291
     1
 45
0.0
1001
ACAD
1000
AcDbSavedByObjectVersion
1070
     0
  0
VISUALSTYLE
  5
1093
102
{ACAD_XDICTIONARY
360
1E5A
102
}
102
{ACAD_REACTORS
330
1082
102
}
330
1082
100
AcDbVisualStyle
  2
JitterOff
 70
    20
 71
     2
 72
     2
 73
     0
 90
        0
 40
-0.6
 41
-30.0
 62
     5
 63
     7
 74
     1
 91
        4
 64
     7
 65
   257
 75
     1
175
     1
 42
1.0
 92
       10
 66
     7
 43
1.0
 76
     1
 77
     6
 78
     2
 67
     7
 79
     5
170
     0
171
     0
290
     0
174
     0
 93
        1
 44
0.0
173
     0
291
     1
 45
0.0
1001
ACAD
1000
AcDbSavedByObjectVersion
1070
     0
  0
VISUALSTYLE
  5
1090
102
{ACAD_XDICTIONARY
360
1E54
102
}
102
{ACAD_REACTORS
330
1082
102
}
330
1082
100
AcDbVisualStyle
  2
Linepattern
 70
    14
 71
     2
 72
     2
 73
     0
 90
        0
 40
-0.6
 41
-30.0
 62
     5
 63
     7
 74
     1
 91
        4
 64
     7
 65
   257
 75
     7
175
     7
 42
1.0
 92
        8
 66
     7
 43
1.0
 76
     1
 77
     6
 78
     2
 67
     7
 79
     5
170
     0
171
     0
290
     0
174
     0
 93
        1
 44
0.0
173
     0
291
     1
 45
0.0
1001
ACAD
1000
AcDbSavedByObjectVersion
1070
     0
  0
VISUALSTYLE
  5
1094
102
{ACAD_XDICTIONARY
360
1E5C
102
}
102
{ACAD_REACTORS
330
1082
102
}
330
1082
100
AcDbVisualStyle
  2
OverhangOff
 70
    21
 71
     2
 72
     2
 73
     0
 90
        0
 40
-0.6
 41
-30.0
 62
     5
 63
     7
 74
     1
 91
        4
 64
     7
 65
   257
 75
     1
175
     1
 42
1.0
 92
        9
 66
     7
 43
1.0
 76
     1
 77
     6
 78
     2
 67
     7
 79
     5
170
     0
171
     0
290
     0
174
     0
 93
        1
 44
0.0
173
     0
291
     1
 45
0.0
1001
ACAD
1000
AcDbSavedByObjectVersion
1070
     0
  0
VISUALSTYLE
  5
108C
102
{ACAD_XDICTIONARY
360
1E4C
102
}
102
{ACAD_REACTORS
330
1082
102
}
330
1082
100
AcDbVisualStyle
  2
Realistic
 70
     8
 71
     2
 72
     2
 73
     0
 90
        0
 40
-0.6
 41
-30.0
 62
     5
 63
     7
 74
     1
 91
        0
 64
     7
 65
   257
 75
     1
175
     1
 42
1.0
 92
        8
 66
     8
 43
1.0
 76
     1
 77
     6
 78
     2
 67
     7
 79
     5
170
     0
171
     0
290
     0
174
     0
 93
       13
 44
0.0
173
     0
291
     0
 45
0.0
1001
ACAD
1000
AcDbSavedByObjectVersion
1070
     0
  0
VISUALSTYLE
  5
108F
102
{ACAD_XDICTIONARY
360
1E52
102
}
102
{ACAD_REACTORS
330
1082
102
}
330
1082
100
AcDbVisualStyle
  2
Thicken
 70
    13
 71
     2
 72
     2
 73
     0
 90
        0
 40
-0.6
 41
-30.0
 62
     5
 63
     7
 74
     1
 91
        4
 64
     7
 65
   257
 75
     1
175
     1
 42
1.0
 92
       12
 66
     7
 43
1.0
 76
     1
 77
     6
 78
     2
 67
     7
 79
     5
170
     0
171
     0
290
     0
174
     0
 93
        1
 44
0.0
173
     0
291
     1
 45
0.0
1001
ACAD
1000
AcDbSavedByObjectVersion
1070
     0
  0
DICTIONARYVAR
  5
1B6C
102
{ACAD_REACTORS
330
3D
102
}
330
3D
100
DictionaryVariables
280
     0
  1
1:1
  0
DICTIONARYVAR
  5
1B6B
102
{ACAD_REACTORS
330
3D
102
}
330
3D
100
DictionaryVariables
280
     0
  1
STANDARD
  0
DICTIONARYVAR
  5
1049
102
{ACAD_REACTORS
330
3D
102
}
330
3D
100
DictionaryVariables
280
     0
  1
STANDARD
  0
DICTIONARYVAR
  5
3F
102
{ACAD_REACTORS
330
3D
102
}
330
3D
100
DictionaryVariables
280
     0
  1
2
  0
DICTIONARYVAR
  5
3E
102
{ACAD_REACTORS
330
3D
102
}
330
3D
100
DictionaryVariables
280
     0
  1
1
  0
DICTIONARYVAR
  5
1B6E
102
{ACAD_REACTORS
330
3D
102
}
330
3D
100
DictionaryVariables
280
     0
  1
0
  0
DICTIONARYVAR
  5
1B6D
102
{ACAD_REACTORS
330
3D
102
}
330
3D
100
DictionaryVariables
280
     0
  1
127
  0
DICTIONARYVAR
  5
1DEA
102
{ACAD_REACTORS
330
3D
102
}
330
3D
100
DictionaryVariables
280
     0
  1
2
  0
XRECORD
  5
1067
102
{ACAD_REACTORS
330
1066
102
}
330
1066
100
AcDbXrecord
280
     1
  0
DICTIONARY
  5
1E30
330
1E
100
AcDbDictionary
280
     1
281
     1
  3
ACAD_XREC_ROUNDTRIP
360
1E31
  0
DICTIONARY
  5
1E34
330
26
100
AcDbDictionary
280
     1
281
     1
  3
ACAD_XREC_ROUNDTRIP
360
1E35
  0
DICTIONARY
  5
1E32
330
22
100
AcDbDictionary
280
     1
281
     1
  3
ACAD_XREC_ROUNDTRIP
360
1E33
  0
DICTIONARY
  5
1073
330
1072
100
AcDbDictionary
280
     1
281
     1
  3
ACAD_XREC_ROUNDTRIP
360
1E38
  3
BUMPTILE
360
1075
  3
DIFFUSETILE
360
1074
  3
OPACITYTILE
360
1078
  3
REFLECTIONTILE
360
1077
  3
REFRACTIONTILE
360
1079
  3
SPECULARTILE
360
1076
  0
DICTIONARY
  5
106B
330
106A
100
AcDbDictionary
280
     1
281
     1
  3
ACAD_XREC_ROUNDTRIP
360
1E37
  3
BUMPTILE
360
106D
  3
DIFFUSETILE
360
106C
  3
OPACITYTILE
360
1070
  3
REFLECTIONTILE
360
106F
  3
REFRACTIONTILE
360
1071
  3
SPECULARTILE
360
106E
  0
DICTIONARY
  5
107B
330
107A
100
AcDbDictionary
280
     1
281
     1
  3
ACAD_XREC_ROUNDTRIP
360
1E39
  3
BUMPTILE
360
107D
  3
DIFFUSETILE
360
107C
  3
OPACITYTILE
360
1080
  3
REFLECTIONTILE
360
107F
  3
REFRACTIONTILE
360
1081
  3
SPECULARTILE
360
107E
  0
DICTIONARY
  5
1B2E
330
EE8
100
AcDbDictionary
280
     1
281
     1
  3
ACAD_ROUNDTRIP_2008_TABLESTYLE_CELLSTYLEMAP
360
1E2B
  3
ACAD_XREC_ROUNDTRIP
360
1E36
  0
DICTIONARY
  5
1E44
330
1088
100
AcDbDictionary
280
     1
281
     1
  3
ACAD_XREC_ROUNDTRIP
360
1E45
  0
DICTIONARY
  5
1E48
330
108A
100
AcDbDictionary
280
     1
281
     1
  3
ACAD_XREC_ROUNDTRIP
360
1E49
  0
DICTIONARY
  5
1E46
330
1089
100
AcDbDictionary
280
     1
281
     1
  3
ACAD_XREC_ROUNDTRIP
360
1E47
  0
DICTIONARY
  5
1E42
330
1087
100
AcDbDictionary
280
     1
281
     1
  3
ACAD_XREC_ROUNDTRIP
360
1E43
  0
DICTIONARY
  5
1E50
330
108E
100
AcDbDictionary
280
     1
281
     1
  3
ACAD_XREC_ROUNDTRIP
360
1E51
  0
DICTIONARY
  5
1E58
330
1092
100
AcDbDictionary
280
     1
281
     1
  3
ACAD_XREC_ROUNDTRIP
360
1E59
  0
DICTIONARY
  5
1E4A
330
108B
100
AcDbDictionary
280
     1
281
     1
  3
ACAD_XREC_ROUNDTRIP
360
1E4B
  0
DICTIONARY
  5
1E4E
330
108D
100
AcDbDictionary
280
     1
281
     1
  3
ACAD_XREC_ROUNDTRIP
360
1E4F
  0
DICTIONARY
  5
1E5E
330
1095
100
AcDbDictionary
280
     1
281
     1
  3
ACAD_XREC_ROUNDTRIP
360
1E5F
  0
DICTIONARY
  5
1E56
330
1091
100
AcDbDictionary
280
     1
281
     1
  3
ACAD_XREC_ROUNDTRIP
360
1E57
  0
DICTIONARY
  5
1E3A
330
1083
100
AcDbDictionary
280
     1
281
     1
  3
ACAD_XREC_ROUNDTRIP
360
1E3B
  0
DICTIONARY
  5
1E3C
330
1084
100
AcDbDictionary
280
     1
281
     1
  3
ACAD_XREC_ROUNDTRIP
360
1E3D
  0
DICTIONARY
  5
1E3E
330
1085
100
AcDbDictionary
280
     1
281
     1
  3
ACAD_XREC_ROUNDTRIP
360
1E3F
  0
DICTIONARY
  5
1E40
330
1086
100
AcDbDictionary
280
     1
281
     1
  3
ACAD_XREC_ROUNDTRIP
360
1E41
  0
DICTIONARY
  5
1E5A
330
1093
100
AcDbDictionary
280
     1
281
     1
  3
ACAD_XREC_ROUNDTRIP
360
1E5B
  0
DICTIONARY
  5
1E54
330
1090
100
AcDbDictionary
280
     1
281
     1
  3
ACAD_XREC_ROUNDTRIP
360
1E55
  0
DICTIONARY
  5
1E5C
330
1094
100
AcDbDictionary
280
     1
281
     1
  3
ACAD_XREC_ROUNDTRIP
360
1E5D
  0
DICTIONARY
  5
1E4C
330
108C
100
AcDbDictionary
280
     1
281
     1
  3
ACAD_XREC_ROUNDTRIP
360
1E4D
  0
DICTIONARY
  5
1E52
330
108F
100
AcDbDictionary
280
     1
281
     1
  3
ACAD_XREC_ROUNDTRIP
360
1E53
  0
XRECORD
  5
1E31
102
{ACAD_REACTORS
330
1E30
102
}
330
1E30
100
AcDbXrecord
280
     1
102
SHADEPLOT
 70
     0
102
SHADEPLOTRESLEVEL
 70
     2
102
SHADEPLOTCUSTOMDPI
 70
   300
  0
XRECORD
  5
1E35
102
{ACAD_REACTORS
330
1E34
102
}
330
1E34
100
AcDbXrecord
280
     1
102
SHADEPLOT
 70
     0
102
SHADEPLOTRESLEVEL
 70
     2
102
SHADEPLOTCUSTOMDPI
 70
   300
  0
XRECORD
  5
1E33
102
{ACAD_REACTORS
330
1E32
102
}
330
1E32
100
AcDbXrecord
280
     1
102
SHADEPLOT
 70
     0
102
SHADEPLOTRESLEVEL
 70
     2
102
SHADEPLOTCUSTOMDPI
 70
   300
  0
XRECORD
  5
1E38
102
{ACAD_REACTORS
330
1073
102
}
330
1073
100
AcDbXrecord
280
     1
102
MATERIAL
148
0.0
149
0.0
149
0.0
 93
        0
 94
      127
282
     0
 72
     0
 77
     0
171
     0
175
     0
179
     0
273
     0
  0
XRECORD
  5
1075
102
{ACAD_REACTORS
330
1073
102
}
330
1073
100
AcDbXrecord
280
     1
270
     1
271
     1
  0
XRECORD
  5
1074
102
{ACAD_REACTORS
330
1073
102
}
330
1073
100
AcDbXrecord
280
     1
270
     1
271
     1
  0
XRECORD
  5
1078
102
{ACAD_REACTORS
330
1073
102
}
330
1073
100
AcDbXrecord
280
     1
270
     1
271
     1
  0
XRECORD
  5
1077
102
{ACAD_REACTORS
330
1073
102
}
330
1073
100
AcDbXrecord
280
     1
270
     1
271
     1
  0
XRECORD
  5
1079
102
{ACAD_REACTORS
330
1073
102
}
330
1073
100
AcDbXrecord
280
     1
270
     1
271
     1
  0
XRECORD
  5
1076
102
{ACAD_REACTORS
330
1073
102
}
330
1073
100
AcDbXrecord
280
     1
270
     1
271
     1
  0
XRECORD
  5
1E37
102
{ACAD_REACTORS
330
106B
102
}
330
106B
100
AcDbXrecord
280
     1
102
MATERIAL
148
0.0
149
0.0
149
0.0
 93
        0
 94
      127
282
     0
 72
     0
 77
     0
171
     0
175
     0
179
     0
273
     0
  0
XRECORD
  5
106D
102
{ACAD_REACTORS
330
106B
102
}
330
106B
100
AcDbXrecord
280
     1
270
     1
271
     1
  0
XRECORD
  5
106C
102
{ACAD_REACTORS
330
106B
102
}
330
106B
100
AcDbXrecord
280
     1
270
     1
271
     1
  0
XRECORD
  5
1070
102
{ACAD_REACTORS
330
106B
102
}
330
106B
100
AcDbXrecord
280
     1
270
     1
271
     1
  0
XRECORD
  5
106F
102
{ACAD_REACTORS
330
106B
102
}
330
106B
100
AcDbXrecord
280
     1
270
     1
271
     1
  0
XRECORD
  5
1071
102
{ACAD_REACTORS
330
106B
102
}
330
106B
100
AcDbXrecord
280
     1
270
     1
271
     1
  0
XRECORD
  5
106E
102
{ACAD_REACTORS
330
106B
102
}
330
106B
100
AcDbXrecord
280
     1
270
     1
271
     1
  0
XRECORD
  5
1E39
102
{ACAD_REACTORS
330
107B
102
}
330
107B
100
AcDbXrecord
280
     1
102
MATERIAL
148
0.0
149
0.0
149
0.0
 93
        0
 94
      127
282
     0
 72
     0
 77
     0
171
     0
175
     0
179
     0
273
     0
  0
XRECORD
  5
107D
102
{ACAD_REACTORS
330
107B
102
}
330
107B
100
AcDbXrecord
280
     1
270
     1
271
     1
  0
XRECORD
  5
107C
102
{ACAD_REACTORS
330
107B
102
}
330
107B
100
AcDbXrecord
280
     1
270
     1
271
     1
  0
XRECORD
  5
1080
102
{ACAD_REACTORS
330
107B
102
}
330
107B
100
AcDbXrecord
280
     1
270
     1
271
     1
  0
XRECORD
  5
107F
102
{ACAD_REACTORS
330
107B
102
}
330
107B
100
AcDbXrecord
280
     1
270
     1
271
     1
  0
XRECORD
  5
1081
102
{ACAD_REACTORS
330
107B
102
}
330
107B
100
AcDbXrecord
280
     1
270
     1
271
     1
  0
XRECORD
  5
107E
102
{ACAD_REACTORS
330
107B
102
}
330
107B
100
AcDbXrecord
280
     1
270
     1
271
     1
  0
CELLSTYLEMAP
  5
1E2B
102
{ACAD_REACTORS
330
1B2E
102
}
330
1B2E
100
AcDbCellStyleMap
 90
        3
300
CELLSTYLE
  1
TABLEFORMAT_BEGIN
 90
        5
170
     1
 91
        0
 92
    32768
 62
   257
 93
        1
300
CONTENTFORMAT
  1
CONTENTFORMAT_BEGIN
 90
        0
 91
        0
 92
        4
 93
        0
300

 40
0.0
140
1.0
 94
        5
 62
     0
340
11
144
6.0
309
CONTENTFORMAT_END
171
     1
301
MARGIN
  1
CELLMARGIN_BEGIN
 40
1.5
 40
1.5
 40
1.5
 40
1.5
 40
0.18
 40
0.18
309
CELLMARGIN_END
 94
        6
 95
        1
302
GRIDFORMAT
  1
GRIDFORMAT_BEGIN
 90
        0
 91
        1
 62
     0
 92
       -2
340
0
 93
        0
 40
0.045
309
GRIDFORMAT_END
 95
        2
302
GRIDFORMAT
  1
GRIDFORMAT_BEGIN
 90
        0
 91
        1
 62
     0
 92
       -2
340
0
 93
        0
 40
0.045
309
GRIDFORMAT_END
 95
        4
302
GRIDFORMAT
  1
GRIDFORMAT_BEGIN
 90
        0
 91
        1
 62
     0
 92
       -2
340
0
 93
        0
 40
0.045
309
GRIDFORMAT_END
 95
        8
302
GRIDFORMAT
  1
GRIDFORMAT_BEGIN
 90
        0
 91
        1
 62
     0
 92
       -2
340
0
 93
        0
 40
0.045
309
GRIDFORMAT_END
 95
       16
302
GRIDFORMAT
  1
GRIDFORMAT_BEGIN
 90
        0
 91
        1
 62
     0
 92
       -2
340
0
 93
        0
 40
0.045
309
GRIDFORMAT_END
 95
       32
302
GRIDFORMAT
  1
GRIDFORMAT_BEGIN
 90
        0
 91
        1
 62
     0
 92
       -2
340
0
 93
        0
 40
0.045
309
GRIDFORMAT_END
309
TABLEFORMAT_END
  1
CELLSTYLE_BEGIN
 90
        1
 91
        1
300
_TITLE
309
CELLSTYLE_END
300
CELLSTYLE
  1
TABLEFORMAT_BEGIN
 90
        5
170
     1
 91
        0
 92
        0
 62
   257
 93
        1
300
CONTENTFORMAT
  1
CONTENTFORMAT_BEGIN
 90
        0
 91
        0
 92
        4
 93
        0
300

 40
0.0
140
1.0
 94
        5
 62
     0
340
11
144
4.5
309
CONTENTFORMAT_END
171
     1
301
MARGIN
  1
CELLMARGIN_BEGIN
 40
1.5
 40
1.5
 40
1.5
 40
1.5
 40
0.18
 40
0.18
309
CELLMARGIN_END
 94
        6
 95
        1
302
GRIDFORMAT
  1
GRIDFORMAT_BEGIN
 90
        0
 91
        1
 62
     0
 92
       -2
340
0
 93
        0
 40
0.045
309
GRIDFORMAT_END
 95
        2
302
GRIDFORMAT
  1
GRIDFORMAT_BEGIN
 90
        0
 91
        1
 62
     0
 92
       -2
340
0
 93
        0
 40
0.045
309
GRIDFORMAT_END
 95
        4
302
GRIDFORMAT
  1
GRIDFORMAT_BEGIN
 90
        0
 91
        1
 62
     0
 92
       -2
340
0
 93
        0
 40
0.045
309
GRIDFORMAT_END
 95
        8
302
GRIDFORMAT
  1
GRIDFORMAT_BEGIN
 90
        0
 91
        1
 62
     0
 92
       -2
340
0
 93
        0
 40
0.045
309
GRIDFORMAT_END
 95
       16
302
GRIDFORMAT
  1
GRIDFORMAT_BEGIN
 90
        0
 91
        1
 62
     0
 92
       -2
340
0
 93
        0
 40
0.045
309
GRIDFORMAT_END
 95
       32
302
GRIDFORMAT
  1
GRIDFORMAT_BEGIN
 90
        0
 91
        1
 62
     0
 92
       -2
340
0
 93
        0
 40
0.045
309
GRIDFORMAT_END
309
TABLEFORMAT_END
  1
CELLSTYLE_BEGIN
 90
        2
 91
        1
300
_HEADER
309
CELLSTYLE_END
300
CELLSTYLE
  1
TABLEFORMAT_BEGIN
 90
        5
170
     1
 91
        0
 92
        0
 62
   257
 93
        1
300
CONTENTFORMAT
  1
CONTENTFORMAT_BEGIN
 90
        0
 91
        0
 92
        4
 93
        0
300

 40
0.0
140
1.0
 94
        2
 62
     0
340
11
144
4.5
309
CONTENTFORMAT_END
171
     1
301
MARGIN
  1
CELLMARGIN_BEGIN
 40
1.5
 40
1.5
 40
1.5
 40
1.5
 40
0.18
 40
0.18
309
CELLMARGIN_END
 94
        6
 95
        1
302
GRIDFORMAT
  1
GRIDFORMAT_BEGIN
 90
        0
 91
        1
 62
     0
 92
       -2
340
0
 93
        0
 40
0.045
309
GRIDFORMAT_END
 95
        2
302
GRIDFORMAT
  1
GRIDFORMAT_BEGIN
 90
        0
 91
        1
 62
     0
 92
       -2
340
0
 93
        0
 40
0.045
309
GRIDFORMAT_END
 95
        4
302
GRIDFORMAT
  1
GRIDFORMAT_BEGIN
 90
        0
 91
        1
 62
     0
 92
       -2
340
0
 93
        0
 40
0.045
309
GRIDFORMAT_END
 95
        8
302
GRIDFORMAT
  1
GRIDFORMAT_BEGIN
 90
        0
 91
        1
 62
     0
 92
       -2
340
0
 93
        0
 40
0.045
309
GRIDFORMAT_END
 95
       16
302
GRIDFORMAT
  1
GRIDFORMAT_BEGIN
 90
        0
 91
        1
 62
     0
 92
       -2
340
0
 93
        0
 40
0.045
309
GRIDFORMAT_END
 95
       32
302
GRIDFORMAT
  1
GRIDFORMAT_BEGIN
 90
        0
 91
        1
 62
     0
 92
       -2
340
0
 93
        0
 40
0.045
309
GRIDFORMAT_END
309
TABLEFORMAT_END
  1
CELLSTYLE_BEGIN
 90
        3
 91
        2
300
_DATA
309
CELLSTYLE_END
  0
XRECORD
  5
1E36
102
{ACAD_REACTORS
330
1B2E
102
}
330
1B2E
100
AcDbXrecord
280
     1
102
ACAD_ROUNDTRIP_PRE2007_TABLESTYLE
 90
        4
 91
        0
  1

 92
        4
 93
        0
  2

 94
        4
 95
        0
  3

  0
XRECORD
  5
1E45
102
{ACAD_REACTORS
330
1E44
102
}
330
1E44
100
AcDbXrecord
280
     1
102
RTVSPropertyOp0
 70
     1
102
RTVSPropertyOp1
 70
     1
102
RTVSPropertyOp2
 70
     1
102
RTVSPropertyOp3
 70
     1
102
RTVSPropertyOp4
 70
     1
102
RTVSPropertyOp5
 70
     1
102
RTVSPropertyOp6
 70
     1
102
RTVSPropertyOp7
 70
     1
102
RTVSPropertyOp8
 70
     1
102
RTVSPropertyOp9
 70
     1
102
RTVSPropertyOp10
 70
     1
102
RTVSPropertyOp11
 70
     1
102
RTVSPropertyOp12
 70
     1
102
RTVSPropertyOp13
 70
     1
102
RTVSPropertyOp14
 70
     1
102
RTVSPropertyOp15
 70
     1
102
RTVSPropertyOp16
 70
     1
102
RTVSPropertyOp17
 70
     1
102
RTVSPropertyOp18
 70
     1
102
RTVSPropertyOp19
 70
     1
102
RTVSPropertyOp20
 70
     1
102
RTVSPropertyOp21
 70
     1
102
RTVSPropertyOp22
 70
     1
102
RTVSPropertyOp23
 70
     1
102
RTVSPropertyOp24
 70
     1
102
RTVSPropertyOp25
 70
     1
102
RTVSPropertyOp26
 70
     1
102
RTVSPropertyOp27
 70
     1
  0
XRECORD
  5
1E49
102
{ACAD_REACTORS
330
1E48
102
}
330
1E48
100
AcDbXrecord
280
     1
102
RTVSPropertyOp0
 70
     1
102
RTVSPropertyOp1
 70
     1
102
RTVSPropertyOp2
 70
     1
102
RTVSPropertyOp3
 70
     1
102
RTVSPropertyOp4
 70
     1
102
RTVSPropertyOp5
 70
     1
102
RTVSPropertyOp6
 70
     1
102
RTVSPropertyOp7
 70
     1
102
RTVSPropertyOp8
 70
     1
102
RTVSPropertyOp9
 70
     1
102
RTVSPropertyOp10
 70
     1
102
RTVSPropertyOp11
 70
     1
102
RTVSPropertyOp12
 70
     1
102
RTVSPropertyOp13
 70
     1
102
RTVSPropertyOp14
 70
     1
102
RTVSPropertyOp15
 70
     1
102
RTVSPropertyOp16
 70
     1
102
RTVSPropertyOp17
 70
     1
102
RTVSPropertyOp18
 70
     1
102
RTVSPropertyOp19
 70
     1
102
RTVSPropertyOp20
 70
     1
102
RTVSPropertyOp21
 70
     1
102
RTVSPropertyOp22
 70
     1
102
RTVSPropertyOp23
 70
     1
102
RTVSPropertyOp24
 70
     1
102
RTVSPropertyOp25
 70
     1
102
RTVSPropertyOp26
 70
     1
102
RTVSPropertyOp27
 70
     1
  0
XRECORD
  5
1E47
102
{ACAD_REACTORS
330
1E46
102
}
330
1E46
100
AcDbXrecord
280
     1
102
RTVSPropertyOp0
 70
     1
102
RTVSPropertyOp1
 70
     1
102
RTVSPropertyOp2
 70
     1
102
RTVSPropertyOp3
 70
     1
102
RTVSPropertyOp4
 70
     1
102
RTVSPropertyOp5
 70
     1
102
RTVSPropertyOp6
 70
     1
102
RTVSPropertyOp7
 70
     1
102
RTVSPropertyOp8
 70
     1
102
RTVSPropertyOp9
 70
     1
102
RTVSPropertyOp10
 70
     1
102
RTVSPropertyOp11
 70
     1
102
RTVSPropertyOp12
 70
     1
102
RTVSPropertyOp13
 70
     1
102
RTVSPropertyOp14
 70
     1
102
RTVSPropertyOp15
 70
     1
102
RTVSPropertyOp16
 70
     1
102
RTVSPropertyOp17
 70
     1
102
RTVSPropertyOp18
 70
     1
102
RTVSPropertyOp19
 70
     1
102
RTVSPropertyOp20
 70
     1
102
RTVSPropertyOp21
 70
     1
102
RTVSPropertyOp22
 70
     1
102
RTVSPropertyOp23
 70
     1
102
RTVSPropertyOp24
 70
     1
102
RTVSPropertyOp25
 70
     1
102
RTVSPropertyOp26
 70
     1
102
RTVSPropertyOp27
 70
     1
  0
XRECORD
  5
1E43
102
{ACAD_REACTORS
330
1E42
102
}
330
1E42
100
AcDbXrecord
280
     1
102
RTVSPropertyOp0
 70
     1
102
RTVSPropertyOp1
 70
     1
102
RTVSPropertyOp2
 70
     1
102
RTVSPropertyOp3
 70
     1
102
RTVSPropertyOp4
 70
     1
102
RTVSPropertyOp5
 70
     1
102
RTVSPropertyOp6
 70
     1
102
RTVSPropertyOp7
 70
     1
102
RTVSPropertyOp8
 70
     1
102
RTVSPropertyOp9
 70
     1
102
RTVSPropertyOp10
 70
     1
102
RTVSPropertyOp11
 70
     1
102
RTVSPropertyOp12
 70
     1
102
RTVSPropertyOp13
 70
     1
102
RTVSPropertyOp14
 70
     1
102
RTVSPropertyOp15
 70
     1
102
RTVSPropertyOp16
 70
     1
102
RTVSPropertyOp17
 70
     1
102
RTVSPropertyOp18
 70
     1
102
RTVSPropertyOp19
 70
     1
102
RTVSPropertyOp20
 70
     1
102
RTVSPropertyOp21
 70
     1
102
RTVSPropertyOp22
 70
     1
102
RTVSPropertyOp23
 70
     1
102
RTVSPropertyOp24
 70
     1
102
RTVSPropertyOp25
 70
     1
102
RTVSPropertyOp26
 70
     1
102
RTVSPropertyOp27
 70
     1
  0
XRECORD
  5
1E51
102
{ACAD_REACTORS
330
1E50
102
}
330
1E50
100
AcDbXrecord
280
     1
102
RTVSPropertyOp0
 70
     1
102
RTVSPropertyOp1
 70
     1
102
RTVSPropertyOp2
 70
     1
102
RTVSPropertyOp3
 70
     1
102
RTVSPropertyOp4
 70
     1
102
RTVSPropertyOp5
 70
     1
102
RTVSPropertyOp6
 70
     1
102
RTVSPropertyOp7
 70
     1
102
RTVSPropertyOp8
 70
     1
102
RTVSPropertyOp9
 70
     1
102
RTVSPropertyOp10
 70
     1
102
RTVSPropertyOp11
 70
     1
102
RTVSPropertyOp12
 70
     1
102
RTVSPropertyOp13
 70
     1
102
RTVSPropertyOp14
 70
     1
102
RTVSPropertyOp15
 70
     1
102
RTVSPropertyOp16
 70
     1
102
RTVSPropertyOp17
 70
     1
102
RTVSPropertyOp18
 70
     1
102
RTVSPropertyOp19
 70
     1
102
RTVSPropertyOp20
 70
     1
102
RTVSPropertyOp21
 70
     1
102
RTVSPropertyOp22
 70
     1
102
RTVSPropertyOp23
 70
     1
102
RTVSPropertyOp24
 70
     1
102
RTVSPropertyOp25
 70
     1
102
RTVSPropertyOp26
 70
     1
102
RTVSPropertyOp27
 70
     1
  0
XRECORD
  5
1E59
102
{ACAD_REACTORS
330
1E58
102
}
330
1E58
100
AcDbXrecord
280
     1
102
RTVSPropertyOp0
 70
     1
102
RTVSPropertyOp1
 70
     1
102
RTVSPropertyOp2
 70
     1
102
RTVSPropertyOp3
 70
     1
102
RTVSPropertyOp4
 70
     1
102
RTVSPropertyOp5
 70
     1
102
RTVSPropertyOp6
 70
     1
102
RTVSPropertyOp7
 70
     1
102
RTVSPropertyOp8
 70
     1
102
RTVSPropertyOp9
 70
     1
102
RTVSPropertyOp10
 70
     1
102
RTVSPropertyOp11
 70
     1
102
RTVSPropertyOp12
 70
     1
102
RTVSPropertyOp13
 70
     1
102
RTVSPropertyOp14
 70
     1
102
RTVSPropertyOp15
 70
     1
102
RTVSPropertyOp16
 70
     1
102
RTVSPropertyOp17
 70
     1
102
RTVSPropertyOp18
 70
     1
102
RTVSPropertyOp19
 70
     1
102
RTVSPropertyOp20
 70
     1
102
RTVSPropertyOp21
 70
     1
102
RTVSPropertyOp22
 70
     1
102
RTVSPropertyOp23
 70
     1
102
RTVSPropertyOp24
 70
     1
102
RTVSPropertyOp25
 70
     1
102
RTVSPropertyOp26
 70
     1
102
RTVSPropertyOp27
 70
     1
  0
XRECORD
  5
1E4B
102
{ACAD_REACTORS
330
1E4A
102
}
330
1E4A
100
AcDbXrecord
280
     1
102
RTVSPropertyOp0
 70
     1
102
RTVSPropertyOp1
 70
     1
102
RTVSPropertyOp2
 70
     1
102
RTVSPropertyOp3
 70
     1
102
RTVSPropertyOp4
 70
     1
102
RTVSPropertyOp5
 70
     1
102
RTVSPropertyOp6
 70
     1
102
RTVSPropertyOp7
 70
     1
102
RTVSPropertyOp8
 70
     1
102
RTVSPropertyOp9
 70
     1
102
RTVSPropertyOp10
 70
     1
102
RTVSPropertyOp11
 70
     1
102
RTVSPropertyOp12
 70
     1
102
RTVSPropertyOp13
 70
     1
102
RTVSPropertyOp14
 70
     1
102
RTVSPropertyOp15
 70
     1
102
RTVSPropertyOp16
 70
     1
102
RTVSPropertyOp17
 70
     1
102
RTVSPropertyOp18
 70
     1
102
RTVSPropertyOp19
 70
     1
102
RTVSPropertyOp20
 70
     1
102
RTVSPropertyOp21
 70
     1
102
RTVSPropertyOp22
 70
     1
102
RTVSPropertyOp23
 70
     1
102
RTVSPropertyOp24
 70
     1
102
RTVSPropertyOp25
 70
     1
102
RTVSPropertyOp26
 70
     1
102
RTVSPropertyOp27
 70
     1
  0
XRECORD
  5
1E4F
102
{ACAD_REACTORS
330
1E4E
102
}
330
1E4E
100
AcDbXrecord
280
     1
102
RTVSPropertyOp0
 70
     1
102
RTVSPropertyOp1
 70
     1
102
RTVSPropertyOp2
 70
     1
102
RTVSPropertyOp3
 70
     1
102
RTVSPropertyOp4
 70
     1
102
RTVSPropertyOp5
 70
     1
102
RTVSPropertyOp6
 70
     1
102
RTVSPropertyOp7
 70
     1
102
RTVSPropertyOp8
 70
     1
102
RTVSPropertyOp9
 70
     1
102
RTVSPropertyOp10
 70
     1
102
RTVSPropertyOp11
 70
     1
102
RTVSPropertyOp12
 70
     1
102
RTVSPropertyOp13
 70
     1
102
RTVSPropertyOp14
 70
     1
102
RTVSPropertyOp15
 70
     1
102
RTVSPropertyOp16
 70
     1
102
RTVSPropertyOp17
 70
     1
102
RTVSPropertyOp18
 70
     1
102
RTVSPropertyOp19
 70
     1
102
RTVSPropertyOp20
 70
     1
102
RTVSPropertyOp21
 70
     1
102
RTVSPropertyOp22
 70
     1
102
RTVSPropertyOp23
 70
     1
102
RTVSPropertyOp24
 70
     1
102
RTVSPropertyOp25
 70
     1
102
RTVSPropertyOp26
 70
     1
102
RTVSPropertyOp27
 70
     1
  0
XRECORD
  5
1E5F
102
{ACAD_REACTORS
330
1E5E
102
}
330
1E5E
100
AcDbXrecord
280
     1
102
RTVSPropertyOp0
 70
     0
102
RTVSPropertyOp1
 70
     0
102
RTVSPropertyOp2
 70
     0
102
RTVSPropertyOp3
 70
     0
102
RTVSPropertyOp4
 70
     0
102
RTVSPropertyOp5
 70
     0
102
RTVSPropertyOp6
 70
     0
102
RTVSPropertyOp7
 70
     0
102
RTVSPropertyOp8
 70
     0
102
RTVSPropertyOp9
 70
     0
102
RTVSPropertyOp10
 70
     0
102
RTVSPropertyOp11
 70
     0
102
RTVSPropertyOp12
 70
     0
102
RTVSPropertyOp13
 70
     0
102
RTVSPropertyOp14
 70
     2
102
RTVSPropertyOp15
 70
     0
102
RTVSPropertyOp16
 70
     0
102
RTVSPropertyOp17
 70
     0
102
RTVSPropertyOp18
 70
     0
102
RTVSPropertyOp19
 70
     0
102
RTVSPropertyOp20
 70
     0
102
RTVSPropertyOp21
 70
     0
102
RTVSPropertyOp22
 70
     0
102
RTVSPropertyOp23
 70
     0
102
RTVSPropertyOp24
 70
     0
102
RTVSPropertyOp25
 70
     0
102
RTVSPropertyOp26
 70
     0
102
RTVSPropertyOp27
 70
     0
  0
XRECORD
  5
1E57
102
{ACAD_REACTORS
330
1E56
102
}
330
1E56
100
AcDbXrecord
280
     1
102
RTVSPropertyOp0
 70
     1
102
RTVSPropertyOp1
 70
     1
102
RTVSPropertyOp2
 70
     1
102
RTVSPropertyOp3
 70
     1
102
RTVSPropertyOp4
 70
     1
102
RTVSPropertyOp5
 70
     1
102
RTVSPropertyOp6
 70
     1
102
RTVSPropertyOp7
 70
     1
102
RTVSPropertyOp8
 70
     1
102
RTVSPropertyOp9
 70
     1
102
RTVSPropertyOp10
 70
     1
102
RTVSPropertyOp11
 70
     1
102
RTVSPropertyOp12
 70
     1
102
RTVSPropertyOp13
 70
     1
102
RTVSPropertyOp14
 70
     1
102
RTVSPropertyOp15
 70
     1
102
RTVSPropertyOp16
 70
     1
102
RTVSPropertyOp17
 70
     1
102
RTVSPropertyOp18
 70
     1
102
RTVSPropertyOp19
 70
     1
102
RTVSPropertyOp20
 70
     1
102
RTVSPropertyOp21
 70
     1
102
RTVSPropertyOp22
 70
     1
102
RTVSPropertyOp23
 70
     1
102
RTVSPropertyOp24
 70
     1
102
RTVSPropertyOp25
 70
     1
102
RTVSPropertyOp26
 70
     1
102
RTVSPropertyOp27
 70
     1
  0
XRECORD
  5
1E3B
102
{ACAD_REACTORS
330
1E3A
102
}
330
1E3A
100
AcDbXrecord
280
     1
102
RTVSPropertyOp0
 70
     1
102
RTVSPropertyOp1
 70
     1
102
RTVSPropertyOp2
 70
     1
102
RTVSPropertyOp3
 70
     1
102
RTVSPropertyOp4
 70
     1
102
RTVSPropertyOp5
 70
     1
102
RTVSPropertyOp6
 70
     1
102
RTVSPropertyOp7
 70
     1
102
RTVSPropertyOp8
 70
     1
102
RTVSPropertyOp9
 70
     1
102
RTVSPropertyOp10
 70
     1
102
RTVSPropertyOp11
 70
     1
102
RTVSPropertyOp12
 70
     1
102
RTVSPropertyOp13
 70
     1
102
RTVSPropertyOp14
 70
     1
102
RTVSPropertyOp15
 70
     1
102
RTVSPropertyOp16
 70
     1
102
RTVSPropertyOp17
 70
     1
102
RTVSPropertyOp18
 70
     1
102
RTVSPropertyOp19
 70
     1
102
RTVSPropertyOp20
 70
     1
102
RTVSPropertyOp21
 70
     1
102
RTVSPropertyOp22
 70
     1
102
RTVSPropertyOp23
 70
     1
102
RTVSPropertyOp24
 70
     1
102
RTVSPropertyOp25
 70
     1
102
RTVSPropertyOp26
 70
     1
102
RTVSPropertyOp27
 70
     1
  0
XRECORD
  5
1E3D
102
{ACAD_REACTORS
330
1E3C
102
}
330
1E3C
100
AcDbXrecord
280
     1
102
RTVSPropertyOp0
 70
     1
102
RTVSPropertyOp1
 70
     1
102
RTVSPropertyOp2
 70
     1
102
RTVSPropertyOp3
 70
     1
102
RTVSPropertyOp4
 70
     1
102
RTVSPropertyOp5
 70
     1
102
RTVSPropertyOp6
 70
     1
102
RTVSPropertyOp7
 70
     1
102
RTVSPropertyOp8
 70
     1
102
RTVSPropertyOp9
 70
     1
102
RTVSPropertyOp10
 70
     1
102
RTVSPropertyOp11
 70
     1
102
RTVSPropertyOp12
 70
     1
102
RTVSPropertyOp13
 70
     1
102
RTVSPropertyOp14
 70
     1
102
RTVSPropertyOp15
 70
     1
102
RTVSPropertyOp16
 70
     1
102
RTVSPropertyOp17
 70
     1
102
RTVSPropertyOp18
 70
     1
102
RTVSPropertyOp19
 70
     1
102
RTVSPropertyOp20
 70
     1
102
RTVSPropertyOp21
 70
     1
102
RTVSPropertyOp22
 70
     1
102
RTVSPropertyOp23
 70
     1
102
RTVSPropertyOp24
 70
     1
102
RTVSPropertyOp25
 70
     1
102
RTVSPropertyOp26
 70
     1
102
RTVSPropertyOp27
 70
     1
  0
XRECORD
  5
1E3F
102
{ACAD_REACTORS
330
1E3E
102
}
330
1E3E
100
AcDbXrecord
280
     1
102
RTVSPropertyOp0
 70
     1
102
RTVSPropertyOp1
 70
     1
102
RTVSPropertyOp2
 70
     1
102
RTVSPropertyOp3
 70
     1
102
RTVSPropertyOp4
 70
     1
102
RTVSPropertyOp5
 70
     1
102
RTVSPropertyOp6
 70
     1
102
RTVSPropertyOp7
 70
     1
102
RTVSPropertyOp8
 70
     1
102
RTVSPropertyOp9
 70
     1
102
RTVSPropertyOp10
 70
     1
102
RTVSPropertyOp11
 70
     1
102
RTVSPropertyOp12
 70
     1
102
RTVSPropertyOp13
 70
     1
102
RTVSPropertyOp14
 70
     1
102
RTVSPropertyOp15
 70
     1
102
RTVSPropertyOp16
 70
     1
102
RTVSPropertyOp17
 70
     1
102
RTVSPropertyOp18
 70
     1
102
RTVSPropertyOp19
 70
     1
102
RTVSPropertyOp20
 70
     1
102
RTVSPropertyOp21
 70
     1
102
RTVSPropertyOp22
 70
     1
102
RTVSPropertyOp23
 70
     1
102
RTVSPropertyOp24
 70
     1
102
RTVSPropertyOp25
 70
     1
102
RTVSPropertyOp26
 70
     1
102
RTVSPropertyOp27
 70
     1
  0
XRECORD
  5
1E41
102
{ACAD_REACTORS
330
1E40
102
}
330
1E40
100
AcDbXrecord
280
     1
102
RTVSPropertyOp0
 70
     1
102
RTVSPropertyOp1
 70
     1
102
RTVSPropertyOp2
 70
     1
102
RTVSPropertyOp3
 70
     1
102
RTVSPropertyOp4
 70
     1
102
RTVSPropertyOp5
 70
     1
102
RTVSPropertyOp6
 70
     1
102
RTVSPropertyOp7
 70
     1
102
RTVSPropertyOp8
 70
     1
102
RTVSPropertyOp9
 70
     1
102
RTVSPropertyOp10
 70
     1
102
RTVSPropertyOp11
 70
     1
102
RTVSPropertyOp12
 70
     1
102
RTVSPropertyOp13
 70
     1
102
RTVSPropertyOp14
 70
     1
102
RTVSPropertyOp15
 70
     1
102
RTVSPropertyOp16
 70
     1
102
RTVSPropertyOp17
 70
     1
102
RTVSPropertyOp18
 70
     1
102
RTVSPropertyOp19
 70
     1
102
RTVSPropertyOp20
 70
     1
102
RTVSPropertyOp21
 70
     1
102
RTVSPropertyOp22
 70
     1
102
RTVSPropertyOp23
 70
     1
102
RTVSPropertyOp24
 70
     1
102
RTVSPropertyOp25
 70
     1
102
RTVSPropertyOp26
 70
     1
102
RTVSPropertyOp27
 70
     1
  0
XRECORD
  5
1E5B
102
{ACAD_REACTORS
330
1E5A
102
}
330
1E5A
100
AcDbXrecord
280
     1
102
RTVSPropertyOp0
 70
     0
102
RTVSPropertyOp1
 70
     0
102
RTVSPropertyOp2
 70
     0
102
RTVSPropertyOp3
 70
     0
102
RTVSPropertyOp4
 70
     0
102
RTVSPropertyOp5
 70
     0
102
RTVSPropertyOp6
 70
     0
102
RTVSPropertyOp7
 70
     0
102
RTVSPropertyOp8
 70
     0
102
RTVSPropertyOp9
 70
     0
102
RTVSPropertyOp10
 70
     0
102
RTVSPropertyOp11
 70
     0
102
RTVSPropertyOp12
 70
     0
102
RTVSPropertyOp13
 70
     0
102
RTVSPropertyOp14
 70
     2
102
RTVSPropertyOp15
 70
     0
102
RTVSPropertyOp16
 70
     0
102
RTVSPropertyOp17
 70
     0
102
RTVSPropertyOp18
 70
     0
102
RTVSPropertyOp19
 70
     0
102
RTVSPropertyOp20
 70
     0
102
RTVSPropertyOp21
 70
     0
102
RTVSPropertyOp22
 70
     0
102
RTVSPropertyOp23
 70
     0
102
RTVSPropertyOp24
 70
     0
102
RTVSPropertyOp25
 70
     0
102
RTVSPropertyOp26
 70
     0
102
RTVSPropertyOp27
 70
     0
  0
XRECORD
  5
1E55
102
{ACAD_REACTORS
330
1E54
102
}
330
1E54
100
AcDbXrecord
280
     1
102
RTVSPropertyOp0
 70
     1
102
RTVSPropertyOp1
 70
     1
102
RTVSPropertyOp2
 70
     1
102
RTVSPropertyOp3
 70
     1
102
RTVSPropertyOp4
 70
     1
102
RTVSPropertyOp5
 70
     1
102
RTVSPropertyOp6
 70
     1
102
RTVSPropertyOp7
 70
     1
102
RTVSPropertyOp8
 70
     1
102
RTVSPropertyOp9
 70
     1
102
RTVSPropertyOp10
 70
     1
102
RTVSPropertyOp11
 70
     1
102
RTVSPropertyOp12
 70
     1
102
RTVSPropertyOp13
 70
     1
102
RTVSPropertyOp14
 70
     1
102
RTVSPropertyOp15
 70
     1
102
RTVSPropertyOp16
 70
     1
102
RTVSPropertyOp17
 70
     1
102
RTVSPropertyOp18
 70
     1
102
RTVSPropertyOp19
 70
     1
102
RTVSPropertyOp20
 70
     1
102
RTVSPropertyOp21
 70
     1
102
RTVSPropertyOp22
 70
     1
102
RTVSPropertyOp23
 70
     1
102
RTVSPropertyOp24
 70
     1
102
RTVSPropertyOp25
 70
     1
102
RTVSPropertyOp26
 70
     1
102
RTVSPropertyOp27
 70
     1
  0
XRECORD
  5
1E5D
102
{ACAD_REACTORS
330
1E5C
102
}
330
1E5C
100
AcDbXrecord
280
     1
102
RTVSPropertyOp0
 70
     0
102
RTVSPropertyOp1
 70
     0
102
RTVSPropertyOp2
 70
     0
102
RTVSPropertyOp3
 70
     0
102
RTVSPropertyOp4
 70
     0
102
RTVSPropertyOp5
 70
     0
102
RTVSPropertyOp6
 70
     0
102
RTVSPropertyOp7
 70
     0
102
RTVSPropertyOp8
 70
     0
102
RTVSPropertyOp9
 70
     0
102
RTVSPropertyOp10
 70
     0
102
RTVSPropertyOp11
 70
     0
102
RTVSPropertyOp12
 70
     0
102
RTVSPropertyOp13
 70
     0
102
RTVSPropertyOp14
 70
     2
102
RTVSPropertyOp15
 70
     0
102
RTVSPropertyOp16
 70
     0
102
RTVSPropertyOp17
 70
     0
102
RTVSPropertyOp18
 70
     0
102
RTVSPropertyOp19
 70
     0
102
RTVSPropertyOp20
 70
     0
102
RTVSPropertyOp21
 70
     0
102
RTVSPropertyOp22
 70
     0
102
RTVSPropertyOp23
 70
     0
102
RTVSPropertyOp24
 70
     0
102
RTVSPropertyOp25
 70
     0
102
RTVSPropertyOp26
 70
     0
102
RTVSPropertyOp27
 70
     0
  0
XRECORD
  5
1E4D
102
{ACAD_REACTORS
330
1E4C
102
}
330
1E4C
100
AcDbXrecord
280
     1
102
RTVSPropertyOp0
 70
     1
102
RTVSPropertyOp1
 70
     1
102
RTVSPropertyOp2
 70
     1
102
RTVSPropertyOp3
 70
     1
102
RTVSPropertyOp4
 70
     1
102
RTVSPropertyOp5
 70
     1
102
RTVSPropertyOp6
 70
     1
102
RTVSPropertyOp7
 70
     1
102
RTVSPropertyOp8
 70
     1
102
RTVSPropertyOp9
 70
     1
102
RTVSPropertyOp10
 70
     1
102
RTVSPropertyOp11
 70
     1
102
RTVSPropertyOp12
 70
     1
102
RTVSPropertyOp13
 70
     1
102
RTVSPropertyOp14
 70
     1
102
RTVSPropertyOp15
 70
     1
102
RTVSPropertyOp16
 70
     1
102
RTVSPropertyOp17
 70
     1
102
RTVSPropertyOp18
 70
     1
102
RTVSPropertyOp19
 70
     1
102
RTVSPropertyOp20
 70
     1
102
RTVSPropertyOp21
 70
     1
102
RTVSPropertyOp22
 70
     1
102
RTVSPropertyOp23
 70
     1
102
RTVSPropertyOp24
 70
     1
102
RTVSPropertyOp25
 70
     1
102
RTVSPropertyOp26
 70
     1
102
RTVSPropertyOp27
 70
     1
  0
XRECORD
  5
1E53
102
{ACAD_REACTORS
330
1E52
102
}
330
1E52
100
AcDbXrecord
280
     1
102
RTVSPropertyOp0
 70
     1
102
RTVSPropertyOp1
 70
     1
102
RTVSPropertyOp2
 70
     1
102
RTVSPropertyOp3
 70
     1
102
RTVSPropertyOp4
 70
     1
102
RTVSPropertyOp5
 70
     1
102
RTVSPropertyOp6
 70
     1
102
RTVSPropertyOp7
 70
     1
102
RTVSPropertyOp8
 70
     1
102
RTVSPropertyOp9
 70
     1
102
RTVSPropertyOp10
 70
     1
102
RTVSPropertyOp11
 70
     1
102
RTVSPropertyOp12
 70
     1
102
RTVSPropertyOp13
 70
     1
102
RTVSPropertyOp14
 70
     1
102
RTVSPropertyOp15
 70
     1
102
RTVSPropertyOp16
 70
     1
102
RTVSPropertyOp17
 70
     1
102
RTVSPropertyOp18
 70
     1
102
RTVSPropertyOp19
 70
     1
102
RTVSPropertyOp20
 70
     1
102
RTVSPropertyOp21
 70
     1
102
RTVSPropertyOp22
 70
     1
102
RTVSPropertyOp23
 70
     1
102
RTVSPropertyOp24
 70
     1
102
RTVSPropertyOp25
 70
     1
102
RTVSPropertyOp26
 70
     1
102
RTVSPropertyOp27
 70
     1
  0
ENDSEC
  0
EOF
