  0
SECTION
  2
HEADER
  9
$ACADVER
  1
AC1015
  9
$ACADMAINTVER
 70
    20
  9
$DWGCODEPAGE
  3
ANSI_1252
  9
$INSBASE
 10
0.0
 20
0.0
 30
0.0
  9
$EXTMIN
 10
4121.224140091817
 20
2328.701591647773
 30
0.0
  9
$EXTMAX
 10
4123.424274160742
 20
2329.092441089563
 30
0.0
  9
$LIMMIN
 10
0.0
 20
0.0
  9
$LIMMAX
 10
420.0
 20
297.0
  9
$ORTHOMODE
 70
     1
  9
$REGENMODE
 70
     1
  9
$FILLMODE
 70
     1
  9
$QTEXTMODE
 70
     0
  9
$MIRRTEXT
 70
     1
  9
$LTSCALE
 40
1.0
  9
$ATTMODE
 70
     1
  9
$TEXTSIZE
 40
2.5
  9
$TRACEWID
 40
1.0
  9
$TEXTSTYLE
  7
SANINDUSA
  9
$CLAYER
  8
cotas
  9
$CELTYPE
  6
ByLayer
  9
$CECOLOR
 62
   256
  9
$CELTSCALE
 40
1.0
  9
$DISPSILH
 70
     0
  9
$DIMSCALE
 40
1.0
  9
$DIMASZ
 40
2.0
  9
$DIMEXO
 40
1.0
  9
$DIMDLI
 40
1.0
  9
$DIMRND
 40
0.0
  9
$DIMDLE
 40
0.0
  9
$DIMEXE
 40
1.0
  9
$DIMTP
 40
0.0
  9
$DIMTM
 40
0.0
  9
$DIMTXT
 40
2.0
  9
$DIMCEN
 40
0.0
  9
$DIMTSZ
 40
0.0
  9
$DIMTOL
 70
     0
  9
$DIMLIM
 70
     0
  9
$DIMTIH
 70
     0
  9
$DIMTOH
 70
     0
  9
$DIMSE1
 70
     0
  9
$DIMSE2
 70
     0
  9
$DIMTAD
 70
     1
  9
$DIMZIN
 70
     8
  9
$DIMBLK
  1

  9
$DIMASO
 70
     1
  9
$DIMSHO
 70
     1
  9
$DIMPOST
  1

  9
$DIMAPOST
  1

  9
$DIMALT
 70
     0
  9
$DIMALTD
 70
     3
  9
$DIMALTF
 40
0.03937007874016
  9
$DIMLFAC
 40
1.0
  9
$DIMTOFL
 70
     1
  9
$DIMTVP
 40
0.0
  9
$DIMTIX
 70
     0
  9
$DIMSOXD
 70
     0
  9
$DIMSAH
 70
     0
  9
$DIMBLK1
  1

  9
$DIMBLK2
  1

  9
$DIMSTYLE
  2
SANINDUSA
  9
$DIMCLRD
 70
   256
  9
$DIMCLRE
 70
   256
  9
$DIMCLRT
 70
   256
  9
$DIMTFAC
 40
1.0
  9
$DIMGAP
 40
1.0
  9
$DIMJUST
 70
     0
  9
$DIMSD1
 70
     0
  9
$DIMSD2
 70
     0
  9
$DIMTOLJ
 70
     0
  9
$DIMTZIN
 70
     8
  9
$DIMALTZ
 70
     0
  9
$DIMALTTZ
 70
     0
  9
$DIMUPT
 70
     0
  9
$DIMDEC
 70
     1
  9
$DIMTDEC
 70
     1
  9
$DIMALTU
 70
     2
  9
$DIMALTTD
 70
     3
  9
$DIMTXSTY
  7
SANINDUSA
  9
$DIMAUNIT
 70
     0
  9
$DIMADEC
 70
     1
  9
$DIMALTRND
 40
0.0
  9
$DIMAZIN
 70
     0
  9
$DIMDSEP
 70
    44
  9
$DIMATFIT
 70
     3
  9
$DIMFRAC
 70
     0
  9
$DIMLDRBLK
  1

  9
$DIMLUNIT
 70
     2
  9
$DIMLWD
 70
    -1
  9
$DIMLWE
 70
    -1
  9
$DIMTMOVE
 70
     0
  9
$LUNITS
 70
     2
  9
$LUPREC
 70
     4
  9
$SKETCHINC
 40
1.0
  9
$FILLETRAD
 40
0.0
  9
$AUNITS
 70
     0
  9
$AUPREC
 70
     0
  9
$MENU
  1
.
  9
$ELEVATION
 40
0.0
  9
$PELEVATION
 40
0.0
  9
$THICKNESS
 40
0.0
  9
$LIMCHECK
 70
     0
  9
$CHAMFERA
 40
10.0
  9
$CHAMFERB
 40
10.0
  9
$CHAMFERC
 40
20.0
  9
$CHAMFERD
 40
0.0
  9
$SKPOLY
 70
     0
  9
$TDCREATE
 40
2455779.636210567
  9
$TDUCREATE
 40
2455779.594543900
  9
$TDUPDATE
 40
2456149.635670382
  9
$TDUUPDATE
 40
2456149.594003715
  9
$TDINDWG
 40
0.0072041435
  9
$TDUSRTIMER
 40
0.0072041435
  9
$USRTIMER
 70
     1
  9
$ANGBASE
 50
0.0
  9
$ANGDIR
 70
     0
  9
$PDMODE
 70
     0
  9
$PDSIZE
 40
0.0
  9
$PLINEWID
 40
0.0
  9
$SPLFRAME
 70
     0
  9
$SPLINETYPE
 70
     6
  9
$SPLINESEGS
 70
     8
  9
$HANDSEED
  5
17B2
  9
$SURFTAB1
 70
     6
  9
$SURFTAB2
 70
     6
  9
$SURFTYPE
 70
     6
  9
$SURFU
 70
     6
  9
$SURFV
 70
     6
  9
$UCSBASE
  2

  9
$UCSNAME
  2

  9
$UCSORG
 10
0.0
 20
0.0
 30
0.0
  9
$UCSXDIR
 10
1.0
 20
0.0
 30
0.0
  9
$UCSYDIR
 10
0.0
 20
1.0
 30
0.0
  9
$UCSORTHOREF
  2

  9
$UCSORTHOVIEW
 70
     0
  9
$UCSORGTOP
 10
0.0
 20
0.0
 30
0.0
  9
$UCSORGBOTTOM
 10
0.0
 20
0.0
 30
0.0
  9
$UCSORGLEFT
 10
0.0
 20
0.0
 30
0.0
  9
$UCSORGRIGHT
 10
0.0
 20
0.0
 30
0.0
  9
$UCSORGFRONT
 10
0.0
 20
0.0
 30
0.0
  9
$UCSORGBACK
 10
0.0
 20
0.0
 30
0.0
  9
$PUCSBASE
  2

  9
$PUCSNAME
  2

  9
$PUCSORG
 10
0.0
 20
0.0
 30
0.0
  9
$PUCSXDIR
 10
1.0
 20
0.0
 30
0.0
  9
$PUCSYDIR
 10
0.0
 20
1.0
 30
0.0
  9
$PUCSORTHOREF
  2

  9
$PUCSORTHOVIEW
 70
     0
  9
$PUCSORGTOP
 10
0.0
 20
0.0
 30
0.0
  9
$PUCSORGBOTTOM
 10
0.0
 20
0.0
 30
0.0
  9
$PUCSORGLEFT
 10
0.0
 20
0.0
 30
0.0
  9
$PUCSORGRIGHT
 10
0.0
 20
0.0
 30
0.0
  9
$PUCSORGFRONT
 10
0.0
 20
0.0
 30
0.0
  9
$PUCSORGBACK
 10
0.0
 20
0.0
 30
0.0
  9
$USERI1
 70
     0
  9
$USERI2
 70
     0
  9
$USERI3
 70
     0
  9
$USERI4
 70
     0
  9
$USERI5
 70
     0
  9
$USERR1
 40
0.0
  9
$USERR2
 40
0.0
  9
$USERR3
 40
0.0
  9
$USERR4
 40
0.0
  9
$USERR5
 40
0.0
  9
$WORLDVIEW
 70
     1
  9
$SHADEDGE
 70
     3
  9
$SHADEDIF
 70
    70
  9
$TILEMODE
 70
     1
  9
$MAXACTVP
 70
    64
  9
$PINSBASE
 10
0.0
 20
0.0
 30
0.0
  9
$PLIMCHECK
 70
     0
  9
$PEXTMIN
 10
1.000000000000000E+20
 20
1.000000000000000E+20
 30
1.000000000000000E+20
  9
$PEXTMAX
 10
-1.000000000000000E+20
 20
-1.000000000000000E+20
 30
-1.000000000000000E+20
  9
$PLIMMIN
 10
0.0
 20
0.0
  9
$PLIMMAX
 10
420.0
 20
297.0
  9
$UNITMODE
 70
     0
  9
$VISRETAIN
 70
     1
  9
$PLINEGEN
 70
     0
  9
$PSLTSCALE
 70
     1
  9
$TREEDEPTH
 70
  3020
  9
$CMLSTYLE
  2
Standard
  9
$CMLJUST
 70
     0
  9
$CMLSCALE
 40
20.0
  9
$PROXYGRAPHICS
 70
     1
  9
$MEASUREMENT
 70
     1
  9
$CELWEIGHT
370
    -1
  9
$ENDCAPS
280
     0
  9
$JOINSTYLE
280
     0
  9
$LWDISPLAY
290
     0
  9
$INSUNITS
 70
     4
  9
$HYPERLINKBASE
  1

  9
$STYLESHEET
  1
sanindusa.ctb
  9
$XEDIT
290
     1
  9
$CEPSNTYPE
380
     0
  9
$PSTYLEMODE
290
     1
  9
$FINGERPRINTGUID
  2
{153C2666-26C9-438F-BAC3-784CAE8FC055}
  9
$VERSIONGUID
  2
{10495DC2-9746-4221-98E6-83CACDFE4913}
  9
$EXTNAMES
290
     1
  9
$PSVPSCALE
 40
0.0
  9
$OLESTARTUP
290
     0
  0
ENDSEC
  0
SECTION
  2
CLASSES
  0
CLASS
  1
ACDBDICTIONARYWDFLT
  2
AcDbDictionaryWithDefault
  3
ObjectDBX Classes
 90
        0
280
     0
281
     0
  0
CLASS
  1
ACDBPLACEHOLDER
  2
AcDbPlaceHolder
  3
ObjectDBX Classes
 90
        0
280
     0
281
     0
  0
CLASS
  1
LAYOUT
  2
AcDbLayout
  3
ObjectDBX Classes
 90
        0
280
     0
281
     0
  0
CLASS
  1
DICTIONARYVAR
  2
AcDbDictionaryVar
  3
ObjectDBX Classes
 90
        0
280
     0
281
     0
  0
CLASS
  1
DIMASSOC
  2
AcDbDimAssoc
  3
"AcDbDimAssoc|Product Desc:     AcDim ARX App For Dimension|Company:          Autodesk, Inc.|WEB Address:      www.autodesk.com"
 90
    32768
280
     0
281
     0
  0
CLASS
  1
TABLESTYLE
  2
AcDbTableStyle
  3
ObjectDBX Classes
 90
     4095
280
     0
281
     0
  0
CLASS
  1
MATERIAL
  2
AcDbMaterial
  3
ObjectDBX Classes
 90
     1153
280
     0
281
     0
  0
CLASS
  1
VISUALSTYLE
  2
AcDbVisualStyle
  3
ObjectDBX Classes
 90
     4095
280
     0
281
     0
  0
CLASS
  1
SCALE
  2
AcDbScale
  3
ObjectDBX Classes
 90
     1153
280
     0
281
     0
  0
CLASS
  1
MLEADERSTYLE
  2
AcDbMLeaderStyle
  3
ACDB_MLEADERSTYLE_CLASS
 90
     4095
280
     0
281
     0
  0
CLASS
  1
EXACXREFPANELOBJECT
  2
ExAcXREFPanelObject
  3
EXAC_ESW
 90
    33793
280
     0
281
     0
  0
CLASS
  1
NPOCOLLECTION
  2
AcDbImpNonPersistentObjectsCollection
  3
ObjectDBX Classes
 90
    33921
280
     0
281
     0
  0
CLASS
  1
AEC_REFEDIT_STATUS_TRACKER
  2
AecDbRefEditStatusTracker
  3
AecArchBase60|Product Desc: Autodesk Architectural Desktop 2007 |Company: Autodesk,Inc. |WEB Address: www.autodesk.com
 90
    32897
280
     0
281
     0
  0
CLASS
  1
CELLSTYLEMAP
  2
AcDbCellStyleMap
  3
ObjectDBX Classes
 90
     1152
280
     0
281
     0
  0
CLASS
  1
SOLID_BACKGROUND
  2
AcDbSolidBackground
  3
SCENEOE
 90
    36863
280
     0
281
     0
  0
ENDSEC
  0
SECTION
  2
TABLES
  0
TABLE
  2
VPORT
  5
8
102
{ACAD_XDICTIONARY
360
173B
102
}
330
0
100
AcDbSymbolTable
 70
     1
  0
VPORT
  5
1068
330
8
100
AcDbSymbolTableRecord
100
AcDbViewportTableRecord
  2
*Active
 70
     0
 10
0.0
 20
0.0
 11
1.0
 21
1.0
 12
4122.324207126279
 22
2328.897016368668
 13
0.0
 23
0.0
 14
10.0
 24
10.0
 15
10.0
 25
10.0
 16
0.0
 26
0.0
 36
1.0
 17
0.0
 27
0.0
 37
0.0
 40
1.342169047771978
 41
1.645464025026068
 42
50.0
 43
0.0
 44
0.0
 50
0.0
 51
0.0
 71
     0
 72
   100
 73
     1
 74
     2
 75
     0
 76
     0
 77
     0
 78
     0
281
     0
 65
     1
110
0.0
120
0.0
130
0.0
111
1.0
121
0.0
131
0.0
112
0.0
122
1.0
132
0.0
 79
     0
146
0.0
  0
ENDTAB
  0
TABLE
  2
LTYPE
  5
5
330
0
100
AcDbSymbolTable
 70
     6
  0
LTYPE
  5
14
330
5
100
AcDbSymbolTableRecord
100
AcDbLinetypeTableRecord
  2
ByBlock
 70
     0
  3

 72
    65
 73
     0
 40
0.0
  0
LTYPE
  5
15
330
5
100
AcDbSymbolTableRecord
100
AcDbLinetypeTableRecord
  2
ByLayer
 70
     0
  3

 72
    65
 73
     0
 40
0.0
  0
LTYPE
  5
16
330
5
100
AcDbSymbolTableRecord
100
AcDbLinetypeTableRecord
  2
Continuous
 70
     0
  3
Solid line
 72
    65
 73
     0
 40
0.0
  0
LTYPE
  5
2D
330
5
100
AcDbSymbolTableRecord
100
AcDbLinetypeTableRecord
  2
DASHDOT
 70
     0
  3
Dash dot __ . __ . __ . __ . __ . __ . __ . __
 72
    65
 73
     4
 40
25.4
 49
12.7
 74
     0
 49
-6.349999999999999
 74
     0
 49
0.0
 74
     0
 49
-6.349999999999999
 74
     0
  0
LTYPE
  5
2E
330
5
100
AcDbSymbolTableRecord
100
AcDbLinetypeTableRecord
  2
HIDDEN
 70
     0
  3
Hidden __ __ __ __ __ __ __ __ __ __ __ __ __ _
 72
    65
 73
     2
 40
9.524999999999998
 49
6.349999999999999
 74
     0
 49
-3.174999999999999
 74
     0
  0
LTYPE
  5
C75
330
5
100
AcDbSymbolTableRecord
100
AcDbLinetypeTableRecord
  2
AM_ISO02W050
 70
     0
  3
__ __ __ __ __ __ __ __ __ __ __ __ __ __ __
 72
    65
 73
     2
 40
7.5
 49
6.0
 74
     0
 49
-1.5
 74
     0
  0
LTYPE
  5
C76
330
5
100
AcDbSymbolTableRecord
100
AcDbLinetypeTableRecord
  2
AM_ISO08W050
 70
     0
  3
____ . ____ . ____ . ____ . ____ . ____ . ____
 72
    65
 73
     4
 40
18.0
 49
12.0
 74
     0
 49
-1.5
 74
     0
 49
3.0
 74
     0
 49
-1.5
 74
     0
  0
LTYPE
  5
10B5
330
5
100
AcDbSymbolTableRecord
100
AcDbLinetypeTableRecord
  2
CENTER
 70
     0
  3
Center ____ _ ____ _ ____ _ ____ _ ____ _ ____
 72
    65
 73
     4
 40
10.16
 49
6.349999999999999
 74
     0
 49
-1.27
 74
     0
 49
1.27
 74
     0
 49
-1.27
 74
     0
  0
ENDTAB
  0
TABLE
  2
LAYER
  5
2
102
{ACAD_XDICTIONARY
360
1051
102
}
330
0
100
AcDbSymbolTable
 70
    17
  0
LAYER
  5
10
102
{ACAD_XDICTIONARY
360
16D5
102
}
330
2
100
AcDbSymbolTableRecord
100
AcDbLayerTableRecord
  2
0
 70
     0
 62
     7
  6
Continuous
370
    -3
390
F
  0
LAYER
  5
2F
102
{ACAD_XDICTIONARY
360
16D7
102
}
330
2
100
AcDbSymbolTableRecord
100
AcDbLayerTableRecord
  2
1
 70
     0
 62
     1
  6
Continuous
370
    -3
390
F
  0
LAYER
  5
30
102
{ACAD_XDICTIONARY
360
16D9
102
}
330
2
100
AcDbSymbolTableRecord
100
AcDbLayerTableRecord
  2
2
 70
     0
 62
     2
  6
Continuous
370
    -3
390
F
  0
LAYER
  5
31
102
{ACAD_XDICTIONARY
360
16DB
102
}
330
2
100
AcDbSymbolTableRecord
100
AcDbLayerTableRecord
  2
3
 70
     0
 62
     3
  6
Continuous
370
    -3
390
F
  0
LAYER
  5
32
102
{ACAD_XDICTIONARY
360
16DD
102
}
330
2
100
AcDbSymbolTableRecord
100
AcDbLayerTableRecord
  2
4
 70
     0
 62
     4
  6
Continuous
370
    -3
390
F
  0
LAYER
  5
33
102
{ACAD_XDICTIONARY
360
16DF
102
}
330
2
100
AcDbSymbolTableRecord
100
AcDbLayerTableRecord
  2
5
 70
     0
 62
     5
  6
Continuous
370
    -3
390
F
  0
LAYER
  5
34
102
{ACAD_XDICTIONARY
360
16E1
102
}
330
2
100
AcDbSymbolTableRecord
100
AcDbLayerTableRecord
  2
6
 70
     0
 62
     6
  6
Continuous
370
    -3
390
F
  0
LAYER
  5
35
102
{ACAD_XDICTIONARY
360
16E3
102
}
330
2
100
AcDbSymbolTableRecord
100
AcDbLayerTableRecord
  2
7
 70
     0
 62
     7
  6
Continuous
370
    -3
390
F
  0
LAYER
  5
36
102
{ACAD_XDICTIONARY
360
16E5
102
}
330
2
100
AcDbSymbolTableRecord
100
AcDbLayerTableRecord
  2
cen
 70
     0
 62
     7
  6
DASHDOT
370
    -3
390
F
  0
LAYER
  5
37
102
{ACAD_XDICTIONARY
360
16E7
102
}
330
2
100
AcDbSymbolTableRecord
100
AcDbLayerTableRecord
  2
hid
 70
     0
 62
     7
  6
HIDDEN
370
    -3
390
F
  0
LAYER
  5
5D6
102
{ACAD_XDICTIONARY
360
16E9
102
}
330
2
100
AcDbSymbolTableRecord
100
AcDbLayerTableRecord
  2
hatch
 70
     0
 62
     9
  6
Continuous
370
    -3
390
F
  0
LAYER
  5
8AF
102
{ACAD_XDICTIONARY
360
16EB
102
}
330
2
100
AcDbSymbolTableRecord
100
AcDbLayerTableRecord
  2
9
 70
     0
 62
     9
  6
Continuous
370
    -3
390
F
  0
LAYER
  5
8F8
102
{ACAD_XDICTIONARY
360
16ED
102
}
330
2
100
AcDbSymbolTableRecord
100
AcDbLayerTableRecord
  2
leg fin
 70
     0
 62
     9
  6
Continuous
370
    -3
390
F
  0
LAYER
  5
91D
102
{ACAD_XDICTIONARY
360
16EF
102
}
330
2
100
AcDbSymbolTableRecord
100
AcDbLayerTableRecord
  2
cotas
 70
     0
 62
     1
  6
Continuous
370
    -3
390
F
  0
LAYER
  5
92F
330
2
100
AcDbSymbolTableRecord
100
AcDbLayerTableRecord
  2
Defpoints
 70
     0
 62
     7
  6
Continuous
290
     0
370
    -3
390
F
  0
LAYER
  5
C7B
102
{ACAD_XDICTIONARY
360
16F1
102
}
330
2
100
AcDbSymbolTableRecord
100
AcDbLayerTableRecord
  2
SANINDUSA
 70
     0
 62
     3
  6
Continuous
370
    -3
390
F
  0
LAYER
  5
1060
102
{ACAD_XDICTIONARY
360
16F3
102
}
330
2
100
AcDbSymbolTableRecord
100
AcDbLayerTableRecord
  2
hid1
 70
     0
 62
     9
  6
HIDDEN
370
    -3
390
F
1001
AcAecLayerStandard
1000

1000

  0
ENDTAB
  0
TABLE
  2
STYLE
  5
3
330
0
100
AcDbSymbolTable
 70
     5
  0
STYLE
  5
11
330
3
100
AcDbSymbolTableRecord
100
AcDbTextStyleTableRecord
  2
Standard
 70
     0
 40
0.0
 41
1.0
 50
0.0
 71
     0
 42
2.5
  3
Avgardn.ttf
  4

1001
ACAD
1000
AvantGarde Bk BT
1071
       34
  0
STYLE
  5
2C
330
3
100
AcDbSymbolTableRecord
100
AcDbTextStyleTableRecord
  2

 70
     1
 40
0.0
 41
1.0
 50
0.0
 71
     0
 42
2.5
  3
ltypeshp.shx
  4

  0
STYLE
  5
91F
330
3
100
AcDbSymbolTableRecord
100
AcDbTextStyleTableRecord
  2
SANINDUSA
 70
     0
 40
0.0
 41
1.0
 50
0.0
 71
     0
 42
2.5
  3
verdana.TTF
  4

1001
ACAD
1000
Verdana
1071
       34
  0
STYLE
  5
C7C
330
3
100
AcDbSymbolTableRecord
100
AcDbTextStyleTableRecord
  2
futura
 70
     0
 40
0.0
 41
1.0
 50
0.0
 71
     0
 42
2.5
  3
ZURCHN.TTF
  4

1001
ACAD
1000
Zurich BT
1071
       34
  0
STYLE
  5
10B6
330
3
100
AcDbSymbolTableRecord
100
AcDbTextStyleTableRecord
  2
SLDTEXTSTYLE0
 70
     0
 40
0.0
 41
0.75
 50
0.0
 71
     0
 42
0.2
  3
TXT
  4

  0
ENDTAB
  0
TABLE
  2
VIEW
  5
6
330
0
100
AcDbSymbolTable
 70
     0
  0
ENDTAB
  0
TABLE
  2
UCS
  5
7
330
0
100
AcDbSymbolTable
 70
     0
  0
ENDTAB
  0
TABLE
  2
APPID
  5
9
330
0
100
AcDbSymbolTable
 70
    13
  0
APPID
  5
12
330
9
100
AcDbSymbolTableRecord
100
AcDbRegAppTableRecord
  2
ACAD
 70
     0
  0
APPID
  5
3A
330
9
100
AcDbSymbolTableRecord
100
AcDbRegAppTableRecord
  2
DCO15
 70
     0
  0
APPID
  5
EEE
330
9
100
AcDbSymbolTableRecord
100
AcDbRegAppTableRecord
  2
ACAD_DSTYLE_DIMTEXT_FILL
 70
     0
  0
APPID
  5
EEF
330
9
100
AcDbSymbolTableRecord
100
AcDbRegAppTableRecord
  2
ACAD_DSTYLE_DIMEXT_LENGTH
 70
     0
  0
APPID
  5
EF0
330
9
100
AcDbSymbolTableRecord
100
AcDbRegAppTableRecord
  2
ACAD_DSTYLE_DIMEXT_ENABLED
 70
     0
  0
APPID
  5
EF1
330
9
100
AcDbSymbolTableRecord
100
AcDbRegAppTableRecord
  2
ACAD_DSTYLE_DIM_LINETYPE
 70
     0
  0
APPID
  5
EF2
330
9
100
AcDbSymbolTableRecord
100
AcDbRegAppTableRecord
  2
ACAD_DSTYLE_DIM_EXT1_LINETYPE
 70
     0
  0
APPID
  5
EF3
330
9
100
AcDbSymbolTableRecord
100
AcDbRegAppTableRecord
  2
ACAD_DSTYLE_DIM_EXT2_LINETYPE
 70
     0
  0
APPID
  5
FAF
330
9
100
AcDbSymbolTableRecord
100
AcDbRegAppTableRecord
  2
ACAD_DSTYLE_DIMJOGGED_JOGANGLE_SYMBOL
 70
     0
  0
APPID
  5
1013
330
9
100
AcDbSymbolTableRecord
100
AcDbRegAppTableRecord
  2
ACAD_DSTYLE_DIMARC_LENGTH_SYMBOL
 70
     0
  0
APPID
  5
1061
330
9
100
AcDbSymbolTableRecord
100
AcDbRegAppTableRecord
  2
AcAecLayerStandard
 70
     0
  0
APPID
  5
16B5
330
9
100
AcDbSymbolTableRecord
100
AcDbRegAppTableRecord
  2
ACAD_EXEMPT_FROM_CAD_STANDARDS
 70
     0
  0
APPID
  5
176D
330
9
100
AcDbSymbolTableRecord
100
AcDbRegAppTableRecord
  2
ACAD_MLEADERVER
 70
     0
  0
ENDTAB
  0
TABLE
  2
DIMSTYLE
  5
A
330
0
100
AcDbSymbolTable
 70
     4
100
AcDbDimStyleTable
 71
     1
340
921
  0
DIMSTYLE
105
45
330
A
100
AcDbSymbolTableRecord
100
AcDbDimStyleTableRecord
  2
STANDARD
 70
     0
289
     0
340
11
  0
DIMSTYLE
105
921
330
A
100
AcDbSymbolTableRecord
100
AcDbDimStyleTableRecord
  2
SANINDUSA
 70
     0
 41
2.0
 42
1.0
 43
1.0
 44
1.0
 73
     0
 74
     0
 77
     1
 78
     8
140
2.0
141
0.0
143
0.03937007874016
147
1.0
171
     3
172
     1
176
   256
177
   256
178
   256
179
     1
271
     1
272
     1
274
     3
278
    44
283
     0
284
     8
340
91F
371
    -1
372
    -1
1001
ACAD_DSTYLE_DIMJOGGED_JOGANGLE_SYMBOL
1070
   384
1040
1.570796326794896
  0
DIMSTYLE
105
C7D
330
A
100
AcDbSymbolTableRecord
100
AcDbDimStyleTableRecord
  2
AM_ISO
 70
     0
  4
"
 41
2.5
 42
1.0
 43
10.0
 44
1.0
 47
0.1
 48
0.1
 73
     0
 74
     0
 77
     1
 78
     8
 79
     2
140
3.5
141
0.0
143
0.0393701
146
0.71
147
1.5
172
     1
176
   256
177
   256
178
     2
271
     2
272
     3
274
     4
283
     0
284
     8
340
11
371
    -1
372
    -1
  0
DIMSTYLE
105
10B7
330
A
100
AcDbSymbolTableRecord
100
AcDbDimStyleTableRecord
  2
ISO-25
 70
     0
 41
2.5
 42
0.625
 43
3.75
 44
1.25
 73
     0
 74
     0
 77
     1
 78
     8
140
2.5
141
2.5
143
0.03937007874016
147
0.625
171
     3
172
     1
271
     2
272
     2
274
     3
278
    44
283
     0
284
     8
340
11
  0
ENDTAB
  0
TABLE
  2
BLOCK_RECORD
  5
1
330
0
100
AcDbSymbolTable
 70
     8
  0
BLOCK_RECORD
  5
1F
330
1
100
AcDbSymbolTableRecord
100
AcDbBlockTableRecord
  2
*Model_Space
340
22
  0
BLOCK_RECORD
  5
1B
330
1
100
AcDbSymbolTableRecord
100
AcDbBlockTableRecord
  2
*Paper_Space
340
1E
  0
BLOCK_RECORD
  5
23
330
1
100
AcDbSymbolTableRecord
100
AcDbBlockTableRecord
  2
*Paper_Space0
340
26
  0
BLOCK_RECORD
  5
919
330
1
100
AcDbSymbolTableRecord
100
AcDbBlockTableRecord
  2
_DotSmall
340
0
  0
BLOCK_RECORD
  5
922
330
1
100
AcDbSymbolTableRecord
100
AcDbBlockTableRecord
  2
base para cotas
340
0
310
2800000020000000200000000100080000000000000400000000000000000000000000000000000000000000000080000080000000808000800000008000800080800000C0C0C000C0DCC000F0CAA6000020400000206000002080000020A0000020C0000020E00000400000004020000040400000406000004080000040A0
310
000040C0000040E00000600000006020000060400000606000006080000060A0000060C0000060E00000800000008020000080400000806000008080000080A0000080C0000080E00000A0000000A0200000A0400000A0600000A0800000A0A00000A0C00000A0E00000C0000000C0200000C0400000C0600000C0800000C0
310
A00000C0C00000C0E00000E0000000E0200000E0400000E0600000E0800000E0A00000E0C00000E0E00040000000400020004000400040006000400080004000A0004000C0004000E00040200000402020004020400040206000402080004020A0004020C0004020E000404000004040200040404000404060004040800040
310
40A0004040C0004040E00040600000406020004060400040606000406080004060A0004060C0004060E00040800000408020004080400040806000408080004080A0004080C0004080E00040A0000040A0200040A0400040A0600040A0800040A0A00040A0C00040A0E00040C0000040C0200040C0400040C0600040C08000
310
40C0A00040C0C00040C0E00040E0000040E0200040E0400040E0600040E0800040E0A00040E0C00040E0E00080000000800020008000400080006000800080008000A0008000C0008000E00080200000802020008020400080206000802080008020A0008020C0008020E00080400000804020008040400080406000804080
310
008040A0008040C0008040E00080600000806020008060400080606000806080008060A0008060C0008060E00080800000808020008080400080806000808080008080A0008080C0008080E00080A0000080A0200080A0400080A0600080A0800080A0A00080A0C00080A0E00080C0000080C0200080C0400080C0600080C0
310
800080C0A00080C0C00080C0E00080E0000080E0200080E0400080E0600080E0800080E0A00080E0C00080E0E000C0000000C0002000C0004000C0006000C0008000C000A000C000C000C000E000C0200000C0202000C0204000C0206000C0208000C020A000C020C000C020E000C0400000C0402000C0404000C0406000C0
310
408000C040A000C040C000C040E000C0600000C0602000C0604000C0606000C0608000C060A000C060C000C060E000C0800000C0802000C0804000C0806000C0808000C080A000C080C000C080E000C0A00000C0A02000C0A04000C0A06000C0A08000C0A0A000C0A0C000C0A0E000C0C00000C0C02000C0C04000C0C06000
310
C0C08000C0C0A000F0FBFF00A4A0A000808080000000FF0000FF000000FFFF00FF000000FF00FF00FFFF0000FFFFFF00A4A4A4A4A4A4A4A4A4A4A4A4A4A4A4A4A4A4A4A4A4A4A4A4A4A4A4A4A4A4A4A4A4A4A4A4A4A4A4A4A4A4A4A4A4A4A4A4A4A4A4A4A4A4A4A4A4A4A4A4A4A4A4A4A4A4A4A4A4A4A4A4A4A4A4A4A4A4A4
310
A4A4A4A4A4A4A4A4A4A4A4A4A4A4A4A4A4A4A4A4A4A4A4A4A4A4A4A4A4A4A4A4A4A4A4A4A4A4A4A4A4A4A4A4A4A4A4A4A4A4A4A4A4A4A4A4A4A4A4A4A4A4A4A4A4A4A4A4A4A4A4A4A4A4A4A4A4A4A4A4A4A4A4A4A4A4A4A4A4A4A4A4A4A4A4A4A4A4A4A4A4A4A4A4A4A4A4A4A4A4A4A4A4A4A4A4A4A4A4A4A4A4A4A4A4A4A4
310
A4A4A4A4A4A4A4A4A4A4A4A4A4A4A4A4A4A4A4A4A4A4A4A4A4A4A4A4A4A4A4A4A4A4A4A4A4A4A4A4A4A4A4A4A4A4A4A4A4A4A4A4A4A4A4A4A4A4A4A4A4A4A4A4A4A4A4A4A4A4A4A4A4A4A4A4A4A4A4A4A4A4A4A4A4A4A4A4A4A4A4A4A4A4A4A4A4A4A4A4A4A4A4A4A4A4A4A4A4A4A4A4A4A4A4A4A4A4A4A4A4A4A4A4A4A4A4
310
A4A4A4A4A4A4A4A4A4A4A4A4A4A4A4A4A4A4A4A4A4A4A4A4A4A4A4A4A4A4A4A4A4A4A4A4A4A4A4A4A4A4A4A4A4A4A4A4A4A4A4A4A4A4A4A4A4A4A4A4A4A4A4A4A4A4A4A4A4A4A4A4A4A4A4A4A4A4A4A4A4A4A4A4A4A4A4A4A4A4A4A4A4A4A4A4A4A4A4A4A4A4A4A4A4A4A4A4A4A4A4A4A4A4A4A4F9F9F9F9F9F9F9F9F9F9F9
310
F9F9F9F9F9F9F9F9F9F9F9F9F9F9F9F9F9F9F9A4A4F9F9F9F9F9F9F9F9F9F9F9F9F9F9F9F9F9F9F9F9F9F9F9F9F9F9F9F9F9F9A4A4F9F9F9F9F9F9F9F9F9F9F9F9F9F9F9F9F9F9F9F9F9F9F9F9F9F9F9F9F9F9A4A4F9A4A4A4A4A4A4A4A4A4A4A4A4A4A4A4A4A4A4A4A4A4A4A4A4A4A4A4A4F9A4A4A4A4A4A4A4A4A4A4A4A4
310
A4A4A4A4A4A4A4A4A4A4A4A4A4A4A4A4A4A4A4A4A4A4A4A4A4A4A4A4A4A4A4A4A4A4A4A4A4A4A4A4A4A4A4A4A4A4A4A4A4A4A4A4A4A4A4A4A4A4A4A4A4A4A4A4A4A4A4A4A4A4A4A4A4A4A4A4A4A4A4A4A4A4A4A4A4A4A4A4A4A4A4A4A4A4A4A4A4A4A4A4A4A4A4A4A4A4A4A4A4A4A4A4A4A4A4A4A4A4A4A4A4A4A4A4A4A4A4
310
A4A4A4A4A4A4A4A4A4A4A4A4A4A4A4A4A4A4A4A4A4A4A4A4A4A4A4A4A4A4A4A4A4A4A4A4A4A4A4A4A4A4A4A4A4A4A4A4A4A4A4A4A4A4A4A4A4A4A4A4A4A4A4A4A4A4A4A4A4A4A4A4A4A4A4A4A4A4A4A4A4A4A4A4A4A4A4A4A4A4A4A4A4A4A4A4A4A4A4A4A4A4A4A4A4A4A4A4A4A4A4A4A4A4A4A4A4A4A4A4A4A4A4A4A4A4A4
310
A4A4A4A4A4A4A4A4A4A4A4A4A4A4A4A4A4A4A4A4A4A4A4A4A4A4A4A4A4A4A4A4A4A4A4A4A4A4A4A4A4A4A4A4A4A4A4A4A4A4A4A4A4A4A4A4A4A4A4A4A4A4A4A4A4A4A4A4A4A4A4A4A4A4A4A4A4A4A4A4A4A4A4A4A4A4A4A4A4A4A4A4A4A4A4A4A4A4A4A4A4A4A4A4A4A4A4A4A4A4A4A4A4A4A4A4A4A4A4A4A4A4A4A4A4A4A4
310
A4A4A4A4A4A4A4A4A4A4A4A4A4A4A4A4A4A4A4A4A4A4A4A4A4A4A4A4A4A4A4A4A4A4A4A4A4A4A4A4A4A4A4A4A4A4A4A4A4A4A4A4A4A4A4A4
1001
ACAD
1000
DesignCenter Data
1002
{
1070
     1
1070
     4
1002
}
  0
BLOCK_RECORD
  5
AA8
330
1
100
AcDbSymbolTableRecord
100
AcDbBlockTableRecord
  2
_CLOSED
340
0
  0
BLOCK_RECORD
  5
B79
330
1
100
AcDbSymbolTableRecord
100
AcDbBlockTableRecord
  2
nota revisoes
340
0
1001
ACAD
1000
DesignCenter Data
1002
{
1070
     1
1070
     4
1002
}
  0
BLOCK_RECORD
  5
B8E
330
1
100
AcDbSymbolTableRecord
100
AcDbBlockTableRecord
  2
a3l
340
0
1001
ACAD
1000
DesignCenter Data
1002
{
1070
     1
1070
     4
1002
}
  0
BLOCK_RECORD
  5
B9E
330
1
100
AcDbSymbolTableRecord
100
AcDbBlockTableRecord
  2
legenda desenvolvimento
340
0
1001
ACAD
1000
DesignCenter Data
1002
{
1070
     1
1070
     4
1002
}
  0
ENDTAB
  0
ENDSEC
  0
SECTION
  2
BLOCKS
  0
BLOCK
  5
20
330
1F
100
AcDbEntity
  8
0
100
AcDbBlockBegin
  2
*Model_Space
 70
     0
 10
0.0
 20
0.0
 30
0.0
  3
*Model_Space
  1

  0
ENDBLK
  5
21
330
1F
100
AcDbEntity
  8
0
100
AcDbBlockEnd
  0
BLOCK
  5
1C
330
1B
100
AcDbEntity
 67
     1
  8
0
100
AcDbBlockBegin
  2
*Paper_Space
 70
     0
 10
0.0
 20
0.0
 30
0.0
  3
*Paper_Space
  1

  0
ENDBLK
  5
1D
330
1B
100
AcDbEntity
 67
     1
  8
0
100
AcDbBlockEnd
  0
BLOCK
  5
24
330
23
100
AcDbEntity
 67
     1
  8
0
100
AcDbBlockBegin
  2
*Paper_Space0
 70
     0
 10
0.0
 20
0.0
 30
0.0
  3
*Paper_Space0
  1

  0
ENDBLK
  5
25
330
23
100
AcDbEntity
 67
     1
  8
0
100
AcDbBlockEnd
  0
BLOCK
  5
91B
330
919
100
AcDbEntity
  8
0
100
AcDbBlockBegin
  2
_DotSmall
 70
     0
 10
0.0
 20
0.0
 30
0.0
  3
_DotSmall
  1

  0
LWPOLYLINE
  5
91A
330
919
100
AcDbEntity
  8
0
  6
ByBlock
 62
     0
100
AcDbPolyline
 90
        2
 70
     1
 43
0.5
 10
-0.0625
 20
0.0
 42
1.0
 10
0.0625
 20
0.0
 42
1.0
  0
ENDBLK
  5
91C
330
919
100
AcDbEntity
  8
0
100
AcDbBlockEnd
  0
BLOCK
  5
92A
330
922
100
AcDbEntity
  8
0
100
AcDbBlockBegin
  2
base para cotas
 70
     0
 10
0.0
 20
0.0
 30
0.0
  3
base para cotas
  1

  0
LINE
  5
B36
330
922
100
AcDbEntity
  8
cotas
100
AcDbLine
 10
0.0
 20
-30.0
 30
0.0
 11
327.1260136525398
 21
-30.0
 31
0.0
  0
LINE
  5
B37
330
922
100
AcDbEntity
  8
cotas
100
AcDbLine
 10
0.0
 20
-25.0
 30
0.0
 11
327.1260136525398
 21
-25.0
 31
0.0
  0
LINE
  5
B38
330
922
100
AcDbEntity
  8
cotas
100
AcDbLine
 10
0.0
 20
-20.0
 30
0.0
 11
327.1260136525398
 21
-20.0
 31
0.0
  0
LINE
  5
B39
330
922
100
AcDbEntity
  8
cotas
100
AcDbLine
 10
0.0
 20
-15.0
 30
0.0
 11
327.1260136525398
 21
-15.0
 31
0.0
  0
LINE
  5
B3A
330
922
100
AcDbEntity
  8
cotas
100
AcDbLine
 10
0.0
 20
-10.0
 30
0.0
 11
327.1260136525398
 21
-10.0
 31
0.0
  0
LINE
  5
B3B
330
922
100
AcDbEntity
  8
cotas
100
AcDbLine
 10
0.0
 20
0.0
 30
0.0
 11
0.0
 21
-30.0
 31
0.0
  0
LINE
  5
B3C
330
922
100
AcDbEntity
  8
cotas
100
AcDbLine
 10
327.1260136525398
 20
-30.0
 30
0.0
 11
327.1260136525398
 21
0.0
 31
0.0
  0
ENDBLK
  5
92B
330
922
100
AcDbEntity
  8
0
100
AcDbBlockEnd
  0
BLOCK
  5
AAD
330
AA8
100
AcDbEntity
  8
0
100
AcDbBlockBegin
  2
_CLOSED
 70
     0
 10
0.0
 20
0.0
 30
0.0
  3
_CLOSED
  1

  0
LINE
  5
AA9
330
AA8
100
AcDbEntity
  8
0
100
AcDbLine
 10
-1.0
 20
0.166667
 30
0.0
 11
0.0
 21
0.0
 31
0.0
  0
LINE
  5
AAA
330
AA8
100
AcDbEntity
  8
0
100
AcDbLine
 10
0.0
 20
0.0
 30
0.0
 11
-1.0
 21
-0.166667
 31
0.0
  0
LINE
  5
AAB
330
AA8
100
AcDbEntity
  8
0
100
AcDbLine
 10
-1.0
 20
0.166667
 30
0.0
 11
-1.0
 21
-0.166667
 31
0.0
  0
LINE
  5
AAC
330
AA8
100
AcDbEntity
  8
0
100
AcDbLine
 10
0.0
 20
0.0
 30
0.0
 11
-1.0
 21
0.0
 31
0.0
  0
ENDBLK
  5
AAE
330
AA8
100
AcDbEntity
  8
0
100
AcDbBlockEnd
  0
BLOCK
  5
B7C
330
B79
100
AcDbEntity
  8
0
100
AcDbBlockBegin
  2
nota revisoes
 70
     0
 10
0.0
 20
0.0
 30
0.0
  3
nota revisoes
  1

  0
CIRCLE
  5
B7A
330
B79
100
AcDbEntity
  8
4
100
AcDbCircle
 10
0.0
 20
0.0
 30
0.0
 40
13.69426055101189
  0
TEXT
  5
B7B
330
B79
100
AcDbEntity
  8
4
100
AcDbText
 10
-5.496248358154345
 20
-5.354545554066362
 30
0.0
 40
12.0
  1
1
  7
SANINDUSA
 72
     1
 11
-0.249774214433728
 21
-5.354545554066362
 31
0.0
100
AcDbText
  0
ENDBLK
  5
B7D
330
B79
100
AcDbEntity
  8
0
100
AcDbBlockEnd
  0
BLOCK
  5
B9C
330
B8E
100
AcDbEntity
  8
0
100
AcDbBlockBegin
  2
a3l
 70
     0
 10
0.0
 20
0.0
 30
0.0
  3
a3l
  1

  0
LINE
  5
B8F
330
B8E
100
AcDbEntity
  8
1
100
AcDbLine
 10
-364.2925296599447
 20
-362.1188951399395
 30
0.0
 11
-364.2925296599447
 21
-65.11889513993946
 31
0.0
  0
LINE
  5
B90
330
B8E
100
AcDbEntity
  8
4
100
AcDbLine
 10
-369.2925296599447
 20
-357.1188951399395
 30
0.0
 11
-369.2925296599447
 21
-70.11889513993946
 31
0.0
  0
LINE
  5
B91
330
B8E
100
AcDbEntity
  8
1
100
AcDbLine
 10
-784.2925296599446
 20
-65.11889513993946
 30
0.0
 11
-784.2925296599446
 21
-362.1188951399395
 31
0.0
  0
LINE
  5
B92
330
B8E
100
AcDbEntity
  8
4
100
AcDbLine
 10
-759.2925296599446
 20
-357.1188951399395
 30
0.0
 11
-759.2925296599446
 21
-70.11889513993946
 31
0.0
  0
LINE
  5
B93
330
B8E
100
AcDbEntity
  8
1
100
AcDbLine
 10
-784.2925296599446
 20
-362.1188951399395
 30
0.0
 11
-364.2925296599447
 21
-362.1188951399395
 31
0.0
  0
LINE
  5
B94
330
B8E
100
AcDbEntity
  8
4
100
AcDbLine
 10
-759.2925296599446
 20
-357.1188951399395
 30
0.0
 11
-369.2925296599447
 21
-357.1188951399395
 31
0.0
  0
LINE
  5
B95
330
B8E
100
AcDbEntity
  8
1
100
AcDbLine
 10
-654.2925296599446
 20
-357.1188951399395
 30
0.0
 11
-654.2925296599446
 21
-362.1188951399395
 31
0.0
  0
LINE
  5
B96
330
B8E
100
AcDbEntity
  8
1
100
AcDbLine
 10
-364.2925296599447
 20
-65.11889513993946
 30
0.0
 11
-784.2925296599446
 21
-65.11889513993946
 31
0.0
  0
LINE
  5
B97
330
B8E
100
AcDbEntity
  8
4
100
AcDbLine
 10
-369.2925296599447
 20
-70.11889513993946
 30
0.0
 11
-759.2925296599446
 21
-70.11889513993946
 31
0.0
  0
LINE
  5
B98
330
B8E
100
AcDbEntity
  8
1
100
AcDbLine
 10
-654.2925296599446
 20
-65.11889513993946
 30
0.0
 11
-654.2925296599446
 21
-70.11889513993946
 31
0.0
  0
LINE
  5
B99
330
B8E
100
AcDbEntity
  8
1
100
AcDbLine
 10
-549.2925296599446
 20
-70.11889513993946
 30
0.0
 11
-549.2925296599446
 21
-65.11889513993946
 31
0.0
  0
LINE
  5
B9A
330
B8E
100
AcDbEntity
  8
1
100
AcDbLine
 10
-369.2925296599447
 20
-65.11889513993946
 30
0.0
 11
-364.2925296599447
 21
-65.11889513993946
 31
0.0
  0
LINE
  5
B9B
330
B8E
100
AcDbEntity
  8
1
100
AcDbLine
 10
-549.2925296599446
 20
-357.1188951399395
 30
0.0
 11
-549.2925296599446
 21
-362.1188951399395
 31
0.0
  0
ENDBLK
  5
B9D
330
B8E
100
AcDbEntity
  8
0
100
AcDbBlockEnd
  0
BLOCK
  5
C13
330
B9E
100
AcDbEntity
  8
0
100
AcDbBlockBegin
  2
legenda desenvolvimento
 70
     2
 10
0.0
 20
0.0
 30
0.0
  3
legenda desenvolvimento
  1

  0
ATTDEF
  5
B9F
330
B9E
100
AcDbEntity
  8
1
100
AcDbText
 10
-108.606245802552
 20
55.5
 30
0.0
 40
4.0
  1
XXXXXXXXXXXXXX
 41
0.8
  7
SANINDUSA
 72
     4
 11
-87.5
 21
57.5
 31
0.0
100
AcDbAttributeDefinition
  3
Nome do Produto:
  2
PRODUTO
 70
     0
  0
ATTDEF
  5
BA0
330
B9E
100
AcDbEntity
  8
1
100
AcDbText
 10
-97.9997966101695
 20
41.25
 30
0.0
 40
3.0
  1
XXXXXXXXX
 41
0.8
  7
futura
 72
     4
 11
-87.5
 21
42.75
 31
0.0
100
AcDbAttributeDefinition
  3
Nome da Peça:
  2
PECA
 70
     0
  0
ATTDEF
  5
BA1
330
B9E
100
AcDbEntity
  8
1
100
AcDbText
 10
-133.4422431161853
 20
21.11745296763252
 30
0.0
 40
2.5
  1
X
 41
0.8
  7
SANINDUSA
 72
     4
 11
-132.5
 21
22.36745296763252
 31
0.0
100
AcDbAttributeDefinition
  3
Cod. TESTE:
  2
TESTE
 70
     0
  0
ATTDEF
  5
BA2
330
B9E
100
AcDbEntity
  8
1
100
AcDbText
 10
-124.3844862323707
 20
21.11745296763252
 30
0.0
 40
2.5
  1
XX
 41
0.8
  7
SANINDUSA
 72
     4
 11
-122.5
 21
22.36745296763252
 31
0.0
100
AcDbAttributeDefinition
  3
Cod. Ano:
  2
ANO
 70
     0
  0
ATTDEF
  5
BA3
330
B9E
100
AcDbEntity
  8
1
100
AcDbText
 10
-112.526889953052
 20
21.11745296763252
 30
0.0
 40
2.5
  1
XXX
 41
0.8
  7
SANINDUSA
 72
     4
 11
-109.700160604496
 21
22.36745296763252
 31
0.0
100
AcDbAttributeDefinition
  3
Cod. Sequência:
  2
SEQUENCIA
 70
     0
  0
ATTDEF
  5
BA4
330
B9E
100
AcDbEntity
  8
1
100
AcDbText
 10
-99.35382430979316
 20
21.11745296763252
 30
0.0
 40
2.5
  1
XX
 41
0.8
  7
SANINDUSA
 72
     4
 11
-97.46933807742244
 21
22.36745296763252
 31
0.0
100
AcDbAttributeDefinition
  3
Cod. Tipo:
  2
TIPO
 70
     0
  0
ATTDEF
  5
BA5
330
B9E
100
AcDbEntity
  8
1
100
AcDbText
 10
-87.42035911468438
 20
21.11745296763252
 30
0.0
 40
2.5
  1
XXX
 41
0.8
  7
SANINDUSA
 72
     4
 11
-84.59362976612828
 21
22.36745296763252
 31
0.0
100
AcDbAttributeDefinition
  3
Cod. Produto:
  2
PRODUTO
 70
     0
  0
ATTDEF
  5
BA6
330
B9E
100
AcDbEntity
  8
1
100
AcDbText
 10
-74.62051971917853
 20
21.11745296763252
 30
0.0
 40
2.5
  1
XXX
 41
0.8
  7
SANINDUSA
 72
     4
 11
-71.79379037062244
 21
22.36745296763252
 31
0.0
100
AcDbAttributeDefinition
  3
Cod. Peça:
  2
PECA
 70
     0
  0
ATTDEF
  5
BA7
330
B9E
100
AcDbEntity
  8
1
100
AcDbText
 10
-61.10603446650329
 20
21.11745296763252
 30
0.0
 40
2.5
  1
XX
 41
0.8
  7
SANINDUSA
 72
     4
 11
-59.22154823413257
 21
22.36745296763252
 31
0.0
100
AcDbAttributeDefinition
  3
Cod. Revisão:
  2
REV
 70
     0
  0
ATTDEF
  5
BA8
330
B9E
100
AcDbEntity
  8
1
100
AcDbText
 10
-48.43615325006194
 20
21.11745296763252
 30
0.0
 40
2.5
  1
XX
 41
0.8
  7
SANINDUSA
 72
     4
 11
-46.55166701769121
 21
22.36745296763252
 31
0.0
100
AcDbAttributeDefinition
  3
Cod. Alteração:
  2
ALT
 70
     0
  0
ATTDEF
  5
BA9
330
B9E
100
AcDbEntity
  8
1
100
AcDbText
 10
-35.19086635325722
 20
23.98875083948959
 30
0.0
 40
3.0
  1
1/XXX
 41
0.8
  7
SANINDUSA
 72
     4
 11
-30.0
 21
25.25
 31
0.0
100
AcDbAttributeDefinition
  3
Escala geral:
  2
ESCALA
 70
     0
  0
ATTDEF
  5
BAA
330
B9E
100
AcDbEntity
  8
1
100
AcDbText
 10
-15.65345869711215
 20
23.75
 30
0.0
 40
3.0
  1
XXXXX
 41
0.8
  7
SANINDUSA
 72
     4
 11
-10.0
 21
25.25
 31
0.0
100
AcDbAttributeDefinition
  3
Folha:
  2
FOLHA
 70
     0
  0
ATTDEF
  5
BAB
330
B9E
100
AcDbEntity
  8
1
100
AcDbText
 10
-178.5146998822042
 20
56.9531347542807
 30
0.0
 40
2.0
  1
xx
 41
0.8
  7
SANINDUSA
 72
     4
 11
-177.2123493113513
 21
57.70330265219877
 31
0.0
100
AcDbAttributeDefinition
  3
revisão
  2
REV.
 70
     0
  0
ATTDEF
  5
BAC
330
B9E
100
AcDbEntity
  8
1
100
AcDbText
 10
-172.7849640077129
 20
56.9531347542807
 30
0.0
 40
2.0
  1
xx
 41
0.8
  7
SANINDUSA
 72
     4
 11
-171.48261343686
 21
57.70330265219877
 31
0.0
100
AcDbAttributeDefinition
  3
alteração
  2
ALT.
 70
     0
  0
ATTDEF
  5
BAD
330
B9E
100
AcDbEntity
  8
1
100
AcDbText
 10
-168.007199951307
 20
56.70330265219877
 30
0.0
 40
2.0
  1
xx/xx/xxxx
 41
0.8
  7
SANINDUSA
 11
-168.007199951307
 21
57.70330265219877
 31
0.0
100
AcDbAttributeDefinition
  3
data
  2
DATA
 70
     0
 74
     2
  0
ATTDEF
  5
BAE
330
B9E
100
AcDbEntity
  8
1
100
AcDbText
 10
-168.5396372253371
 20
13.15916722632639
 30
0.0
 40
2.0
  1
XX/XX/XXXX
 41
0.8
  7
SANINDUSA
 72
     4
 11
-161.5099528734231
 21
14.0
 31
0.0
100
AcDbAttributeDefinition
  3
Data projecto
  2
DATA_PROJ
 70
     0
  0
ATTDEF
  5
BAF
330
B9E
100
AcDbEntity
  8
1
100
AcDbText
 10
-150.8658110728766
 20
13.24983210208193
 30
0.0
 40
2.0
  1
xxxxxxxx
 41
0.8
  7
SANINDUSA
 72
     4
 11
-145.6564087894649
 21
14.0
 31
0.0
100
AcDbAttributeDefinition
  3
nome de quem projectou
  2
NOME
 70
     0
  0
ATTDEF
  5
BB0
330
B9E
100
AcDbEntity
  8
1
100
AcDbText
 10
-168.5396372253371
 20
9.159167226326394
 30
0.0
 40
2.0
  1
XX/XX/XXXX
 41
0.8
  7
SANINDUSA
 72
     4
 11
-161.5099528734231
 21
10.0
 31
0.0
100
AcDbAttributeDefinition
  3
Data desenhou
  2
DATA_DES
 70
     0
  0
ATTDEF
  5
BB1
330
B9E
100
AcDbEntity
  8
1
100
AcDbText
 10
-151.516986358303
 20
9.249832102081933
 30
0.0
 40
2.0
  1
xxxxxxxxx
 41
0.8
  7
SANINDUSA
 72
     4
 11
-145.6564087894649
 21
10.0
 31
0.0
100
AcDbAttributeDefinition
  3
nome
  2
NOME
 70
     0
  0
ATTDEF
  5
BB2
330
B9E
100
AcDbEntity
  8
1
100
AcDbText
 10
-127.2924214135946
 20
14.1979876583216
 30
0.0
 40
2.0
  1
Vitreous China
 41
0.8
  7
SANINDUSA
 72
     4
 11
-119.231709526422
 21
15.22216495852308
 31
0.0
100
AcDbAttributeDefinition
  3
Nome do Material:
  2
MATERIAL
 70
     0
  0
ATTDEF
  5
BB3
330
B9E
100
AcDbEntity
  8
1
100
AcDbText
 10
-103.1563452122093
 20
14.38019043949261
 30
0.0
 40
2.0
  1
Branco
 41
0.8
  7
SANINDUSA
 72
     4
 11
-99.33418268702462
 21
15.35937109765245
 31
0.0
100
AcDbAttributeDefinition
  3
cor da peça
  2
COR
 70
     0
  0
ATTDEF
  5
BB4
330
B9E
100
AcDbEntity
  8
1
100
AcDbText
 10
-116.7235057085292
 20
5.975822699798522
 30
0.0
 40
2.0
  1
Vidrado
 41
0.8
  7
SANINDUSA
 72
     4
 11
-112.5
 21
7.0
 31
0.0
100
AcDbAttributeDefinition
  3
Tipo de acabamento:
  2
ACABAMENTO
 70
     0
  0
ATTDEF
  5
BB5
330
B9E
100
AcDbEntity
  8
1
100
AcDbText
 10
-79.18527869967246
 20
16.65066409850533
 30
0.0
 40
2.0
  1
XXXXXXX
 41
0.8
  7
SANINDUSA
 72
     4
 11
-73.90871724903445
 21
17.65066409850533
 31
0.0
100
AcDbAttributeDefinition
  3
Normas
  2
NORMAS
 70
     0
  0
ATTDEF
  5
BB6
330
B9E
100
AcDbEntity
  8
1
100
AcDbText
 10
-30.55312290127603
 20
14.0
 30
0.0
 40
2.0
  1
XXXXXXXXXXXXXX
 41
0.8
  7
SANINDUSA
 72
     4
 11
-20.0
 21
15.0
 31
0.0
100
AcDbAttributeDefinition
  3
Substitui o desenho:
  2
SUBSTITUI
 70
     0
  0
ATTDEF
  5
BB7
330
B9E
100
AcDbEntity
  8
1
100
AcDbText
 10
-31.30691739422431
 20
6.0
 30
0.0
 40
2.0
  1
XXXXXXXXXXXXXXX
 41
0.8
  7
SANINDUSA
 72
     4
 11
-20.0
 21
7.0
 31
0.0
100
AcDbAttributeDefinition
  3
Substituido por:
  2
SUBSTITUIDO
 70
     0
  0
ATTDEF
  5
BB8
330
B9E
100
AcDbEntity
  8
1
100
AcDbText
 10
-110.0220608548302
 20
1.478208457928303
 30
0.0
 40
2.0
  1
XXXXXXXXXXXXXXXXXXXXXXXXXXXXXXXXXX
 41
0.8
  7
SANINDUSA
 11
-110.0220608548302
 21
2.478208457928303
 31
0.0
100
AcDbAttributeDefinition
  3
Localização do desenho:
  2
LOC-DWG
 70
     0
 74
     2
  0
LINE
  5
BB9
330
B9E
100
AcDbEntity
  8
3
100
AcDbLine
 10
-135.0
 20
4.0
 30
0.0
 11
0.0000000000004547
 21
4.0
 31
0.0
  0
LINE
  5
BBA
330
B9E
100
AcDbEntity
  8
3
100
AcDbLine
 10
-90.00000000000046
 20
12.0
 30
0.0
 11
-135.0
 21
12.0
 31
0.0
  0
LINE
  5
BBB
330
B9E
100
AcDbEntity
  8
3
100
AcDbLine
 10
-135.0
 20
32.5
 30
0.0
 11
-40.0
 21
32.5
 31
0.0
  0
TEXT
  5
BBC
330
B9E
100
AcDbEntity
  8
1
100
AcDbText
 10
-134.0
 20
1.25
 30
0.0
 40
2.0
  1
Localização do des.:
 41
0.8
  7
SANINDUSA
 11
-134.0
 21
2.25
 31
0.0
100
AcDbText
 73
     2
  0
LINE
  5
BBD
330
B9E
100
AcDbEntity
  8
3
100
AcDbLine
 10
-180.0
 20
65.0
 30
0.0
 11
0.0
 21
65.0
 31
0.0
  0
LINE
  5
BBE
330
B9E
100
AcDbEntity
  8
leg fin
100
AcDbLine
 10
-40.0
 20
25.05956924886846
 30
0.0
 11
-135.0
 21
25.05956924886846
 31
0.0
  0
LINE
  5
BBF
330
B9E
100
AcDbEntity
  8
leg fin
100
AcDbLine
 10
-40.0
 20
28.5
 30
0.0
 11
-135.0
 21
28.5
 31
0.0
  0
LINE
  5
BC0
330
B9E
100
AcDbEntity
  8
3
100
AcDbLine
 10
-135.0
 20
50.0
 30
0.0
 11
-40.0
 21
50.0
 31
0.0
  0
TEXT
  5
BC1
330
B9E
100
AcDbEntity
  8
1
100
AcDbText
 10
-134.0
 20
29.75
 30
0.0
 40
2.0
  1
Desenho nº:
 41
0.8
  7
SANINDUSA
 11
-134.0
 21
30.75
 31
0.0
100
AcDbText
 73
     2
  0
TEXT
  5
BC2
330
B9E
100
AcDbEntity
  8
1
100
AcDbText
 10
-134.0
 20
9.25
 30
0.0
 40
2.0
  1
Acabamento:
 41
0.8
  7
SANINDUSA
 11
-134.0
 21
10.25
 31
0.0
100
AcDbText
 73
     2
  0
LINE
  5
BC3
330
B9E
100
AcDbEntity
  8
3
100
AcDbLine
 10
-180.0
 20
20.0
 30
0.0
 11
0.0
 21
20.0
 31
0.0
  0
LINE
  5
BC4
330
B9E
100
AcDbEntity
  8
1
100
AcDbLine
 10
-174.5810776056337
 20
55.5
 30
0.0
 11
-174.5810776056337
 21
65.0
 31
0.0
  0
LINE
  5
BC5
330
B9E
100
AcDbEntity
  8
1
100
AcDbLine
 10
-168.9210461879161
 20
55.5
 30
0.0
 11
-168.9210461879161
 21
65.0
 31
0.0
  0
LINE
  5
BC6
330
B9E
100
AcDbEntity
  8
1
100
AcDbLine
 10
-154.0988595589306
 20
55.5
 30
0.0
 11
-154.0988595589306
 21
65.0
 31
0.0
  0
LINE
  5
BC7
330
B9E
100
AcDbEntity
  8
3
100
AcDbLine
 10
-180.0
 20
65.0
 30
0.0
 11
-180.0
 21
0.0
 31
0.0
  0
LINE
  5
BC8
330
B9E
100
AcDbEntity
  8
3
100
AcDbLine
 10
-135.0
 20
0.0
 30
0.0
 11
-135.0
 21
65.0
 31
0.0
  0
TEXT
  5
BC9
330
B9E
100
AcDbEntity
  8
1
100
AcDbText
 10
-179.0
 20
9.75
 30
0.0
 40
1.5
  1
Des.
 41
0.8
  7
SANINDUSA
 11
-179.0
 21
10.5
 31
0.0
100
AcDbText
 73
     2
  0
LINE
  5
BCA
330
B9E
100
AcDbEntity
  8
1
100
AcDbLine
 10
-168.9210461879161
 20
20.0
 30
0.0
 11
-168.9210461879161
 21
0.0
 31
0.0
  0
LINE
  5
BCB
330
B9E
100
AcDbEntity
  8
1
100
AcDbLine
 10
-154.0988595589306
 20
20.0
 30
0.0
 11
-154.0988595589306
 21
0.0
 31
0.0
  0
LINE
  5
BCC
330
B9E
100
AcDbEntity
  8
1
100
AcDbLine
 10
-180.0
 20
4.0
 30
0.0
 11
-135.0
 21
4.0
 31
0.0
  0
LINE
  5
BCD
330
B9E
100
AcDbEntity
  8
1
100
AcDbLine
 10
-180.0
 20
8.0
 30
0.0
 11
-135.0
 21
8.0
 31
0.0
  0
TEXT
  5
BCE
330
B9E
100
AcDbEntity
  8
1
100
AcDbText
 10
-179.0
 20
1.73257823687436
 30
0.0
 40
1.5
  1
Aprov.
 41
0.8
  7
SANINDUSA
 11
-179.0
 21
2.48257823687436
 31
0.0
100
AcDbText
 73
     2
  0
TEXT
  5
BCF
330
B9E
100
AcDbEntity
  8
1
100
AcDbText
 10
-179.0
 20
5.75
 30
0.0
 40
1.5
  1
Ver.
 41
0.8
  7
SANINDUSA
 11
-179.0
 21
6.5
 31
0.0
100
AcDbText
 73
     2
  0
LINE
  5
BD0
330
B9E
100
AcDbEntity
  8
1
100
AcDbLine
 10
-180.0
 20
16.0
 30
0.0
 11
-135.0
 21
16.0
 31
0.0
  0
LINE
  5
BD1
330
B9E
100
AcDbEntity
  8
1
100
AcDbLine
 10
-180.0
 20
12.0
 30
0.0
 11
-135.0
 21
12.0
 31
0.0
  0
TEXT
  5
BD2
330
B9E
100
AcDbEntity
  8
1
100
AcDbText
 10
-179.0
 20
13.75
 30
0.0
 40
1.5
  1
Proj.
 41
0.8
  7
SANINDUSA
 11
-179.0
 21
14.5
 31
0.0
100
AcDbText
 73
     2
  0
TEXT
  5
BD3
330
B9E
100
AcDbEntity
  8
1
100
AcDbText
 10
-167.9210461879161
 20
17.75
 30
0.0
 40
1.5
  1
Data
 41
0.8
  7
SANINDUSA
 11
-167.9210461879161
 21
18.5
 31
0.0
100
AcDbText
 73
     2
  0
TEXT
  5
BD4
330
B9E
100
AcDbEntity
  8
1
100
AcDbText
 10
-153.0988595589306
 20
17.75
 30
0.0
 40
1.5
  1
Nome
 41
0.8
  7
SANINDUSA
 11
-153.0988595589306
 21
18.5
 31
0.0
100
AcDbText
 73
     2
  0
LINE
  5
BD5
330
B9E
100
AcDbEntity
  8
leg fin
100
AcDbLine
 10
-130.0
 20
20.0
 30
0.0
 11
-130.0
 21
28.5
 31
0.0
  0
TEXT
  5
BD6
330
B9E
100
AcDbEntity
  8
1
100
AcDbText
 10
-134.0
 20
17.25
 30
0.0
 40
2.0
  1
Material:
 41
0.8
  7
SANINDUSA
 11
-134.0
 21
18.25
 31
0.0
100
AcDbText
 73
     2
  0
TEXT
  5
BD7
330
B9E
100
AcDbEntity
  8
1
100
AcDbText
 10
-129.0
 20
26.43288406845113
 30
0.0
 40
1.5
  1
Ano:
 41
0.8
  7
SANINDUSA
 11
-129.0
 21
27.18288406845113
 31
0.0
100
AcDbText
 73
     2
  0
LINE
  5
BD8
330
B9E
100
AcDbEntity
  8
1
100
AcDbLine
 10
-180.0
 20
55.5
 30
0.0
 11
-135.0
 21
55.5
 31
0.0
  0
TEXT
  5
BD9
330
B9E
100
AcDbEntity
  8
1
100
AcDbText
 10
-179.0
 20
52.67772246885193
 30
0.0
 40
1.5
  1
descrição
 41
0.8
  7
SANINDUSA
 11
-179.0
 21
53.42772246885193
 31
0.0
100
AcDbText
 73
     2
  0
TEXT
  5
BDA
330
B9E
100
AcDbEntity
  8
1
100
AcDbText
 10
-134.0
 20
47.25
 30
0.0
 40
2.0
  1
Peça:
 41
0.8
  7
SANINDUSA
 11
-134.0
 21
48.25
 31
0.0
100
AcDbText
 73
     2
  0
LINE
  5
BDB
330
B9E
100
AcDbEntity
  8
1
100
AcDbLine
 10
-180.0
 20
59.5
 30
0.0
 11
-135.0
 21
59.5
 31
0.0
  0
TEXT
  5
BDC
330
B9E
100
AcDbEntity
  8
1
100
AcDbText
 10
-173.5810776056337
 20
62.75
 30
0.0
 40
1.5
  1
Alt.
 41
0.8
  7
SANINDUSA
 11
-173.5810776056337
 21
63.5
 31
0.0
100
AcDbText
 73
     2
  0
TEXT
  5
BDD
330
B9E
100
AcDbEntity
  8
1
100
AcDbText
 10
-179.0
 20
62.75
 30
0.0
 40
1.5
  1
Rev.
 41
0.8
  7
SANINDUSA
 11
-179.0
 21
63.5
 31
0.0
100
AcDbText
 73
     2
  0
TEXT
  5
BDE
330
B9E
100
AcDbEntity
  8
1
100
AcDbText
 10
-167.9210461879161
 20
62.75
 30
0.0
 40
1.5
  1
Data
 41
0.8
  7
SANINDUSA
 11
-167.9210461879161
 21
63.5
 31
0.0
100
AcDbText
 73
     2
  0
TEXT
  5
BDF
330
B9E
100
AcDbEntity
  8
1
100
AcDbText
 10
-153.0988595589306
 20
62.75
 30
0.0
 40
1.5
  1
Nome
 41
0.8
  7
SANINDUSA
 11
-153.0988595589306
 21
63.5
 31
0.0
100
AcDbText
 73
     2
  0
TEXT
  5
BE0
330
B9E
100
AcDbEntity
  8
1
100
AcDbText
 10
-134.0
 20
62.25
 30
0.0
 40
2.0
  1
Produto:
 41
0.8
  7
SANINDUSA
 11
-134.0
 21
63.25
 31
0.0
100
AcDbText
 73
     2
  0
LINE
  5
BE1
330
B9E
100
AcDbEntity
  8
3
100
AcDbLine
 10
-40.0
 20
4.0
 30
0.0
 11
-40.0
 21
65.0
 31
0.0
  0
LWPOLYLINE
  5
BE2
102
{ACAD_REACTORS
330
BEC
102
}
330
B9E
100
AcDbEntity
  8
9
100
AcDbPolyline
 90
       12
 70
     1
 43
0.0
 10
-3.038714600644652
 20
58.90010174665076
 10
-5.726962862472191
 20
58.90010174665076
 10
-5.726962862472191
 20
58.5001017466509
 10
-3.038748516195028
 20
58.5001017466509
 42
-0.4142135623731731
 10
-2.638748516194482
 20
58.1001017466508
 10
-2.638748516194482
 20
57.42799728675596
 10
-5.21497371544865
 20
57.42799728675596
 42
0.4142135623731289
 10
-6.014973715448377
 20
56.627997286756
 10
-6.014973715448377
 20
55.92380871629643
 42
0.4142135623731132
 10
-5.21497371544865
 20
55.12380871629648
 10
-2.23871460064447
 20
55.12380871629648
 10
-2.23871460064447
 20
58.10010174665103
 42
0.4142135623730717
  0
LWPOLYLINE
  5
BE3
102
{ACAD_REACTORS
330
BEC
102
}
330
B9E
100
AcDbEntity
  8
9
100
AcDbPolyline
 90
       20
 70
     1
 43
0.0
 10
-10.01531287095122
 20
57.82799728675581
 10
-10.01531287095122
 20
58.10010174665103
 42
-0.4142135623730744
 10
-9.615312870951584
 20
58.5001017466509
 10
-6.92703069357276
 20
58.5001017466509
 10
-6.92703069357276
 20
58.90010174665076
 10
-9.615346786501959
 20
58.90010174665076
 42
0.4142135623730883
 10
-10.41534678650168
 20
58.1001017466508
 10
-10.41534678650168
 20
57.82796337120567
 42
0.4142135623730717
 10
-9.615346786501959
 20
57.02796337120571
 10
-7.423079531965413
 20
57.02796337120571
 42
-0.4142135623730847
 10
-7.023079531965322
 20
56.62796337120562
 10
-7.023079531965322
 20
55.90786840766487
 42
-0.4142135623730744
 10
-7.423079531965413
 20
55.507868407665
 10
-10.41534678650168
 20
55.507868407665
 10
-10.41534678650168
 20
55.12380871629648
 10
-7.445787917283723
 20
55.12380871629648
 42
0.4114777732064574
 10
-6.645822882998345
 20
55.9163291493976
 10
-6.639238813324936
 20
56.62051771985716
 42
0.4169546541682913
 10
-7.439203847610315
 20
57.42799728675596
 10
-9.615312870951584
 20
57.42799728675596
 42
-0.4142135623731576
  0
LWPOLYLINE
  5
BE4
102
{ACAD_REACTORS
330
BEC
102
}
330
B9E
100
AcDbEntity
  8
9
100
AcDbPolyline
 90
       12
 70
     1
 43
0.0
 10
-14.41561811090378
 20
58.90010174665076
 10
-14.79964388672215
 20
58.90010174665076
 10
-14.79964388672215
 20
55.92380871629643
 42
0.4142135623731133
 10
-13.99964388672242
 20
55.12380871629648
 10
-11.8233508563676
 20
55.12380871629648
 42
0.4142135623730872
 10
-11.02335085636741
 20
55.92380871629643
 10
-11.02335085636741
 20
58.90010174665076
 10
-11.42338477191788
 20
58.90010174665076
 10
-11.42338477191788
 20
55.91567577726095
 42
-0.4131711701795318
 10
-11.82196067063523
 20
55.51567831234956
 10
-14.0141940096214
 20
55.50787335710947
 42
-0.4152567234624407
 10
-14.41561811090378
 20
55.90787082202087
  0
LWPOLYLINE
  5
BE5
102
{ACAD_REACTORS
330
BEC
102
}
330
B9E
100
AcDbEntity
  8
9
100
AcDbPolyline
 90
        6
 70
     1
 43
0.0
 10
-15.80771578768872
 20
55.507868407665
 10
-18.39994912667453
 20
55.507868407665
 42
-0.4142135623731731
 10
-18.79994912667462
 20
55.90786840766487
 10
-18.79994912667462
 20
58.10010174665103
 42
-0.4142135623730744
 10
-18.39994912667453
 20
58.5001017466509
 10
-15.80771578768872
 20
58.5001017466509
  0
LWPOLYLINE
  5
BE6
102
{ACAD_REACTORS
330
BEC
102
}
330
B9E
100
AcDbEntity
  8
9
100
AcDbPolyline
 90
        8
 70
     1
 43
0.0
 10
-15.4236900118708
 20
59.87619128370352
 10
-15.80771578768872
 20
59.87619128370352
 10
-15.80771578768872
 20
58.90010174665076
 10
-18.39176256411201
 20
58.90010174665076
 42
0.4131164467977967
 10
-19.19175694739761
 20
58.1030995310698
 10
-19.1999120763262
 20
55.92680650071542
 42
0.4153115297271718
 10
-18.39991769304061
 20
55.12380871629648
 10
-15.4236900118708
 20
55.12380871629648
  0
LWPOLYLINE
  5
BE7
102
{ACAD_REACTORS
330
BEC
102
}
330
B9E
100
AcDbEntity
  8
9
100
AcDbPolyline
 90
       10
 70
     1
 43
0.0
 10
-20.59201288790928
 20
58.90010174665076
 10
-23.56830591826338
 20
58.90010174665076
 10
-23.56830591826338
 20
55.12380871629648
 10
-23.18424622689509
 20
55.12380871629648
 10
-23.18424622689509
 20
58.5001017466509
 10
-20.59204680345965
 20
58.5001017466509
 42
-0.4142135623730898
 10
-20.19204680345956
 20
58.1001017466508
 10
-20.19204680345956
 20
55.12380871629648
 10
-19.79201288790909
 20
55.12380871629648
 10
-19.79201288790909
 20
58.10010174665103
 42
0.4142135623731132
  0
LWPOLYLINE
  5
BE8
102
{ACAD_REACTORS
330
BEC
102
}
330
B9E
100
AcDbEntity
  8
9
100
AcDbPolyline
 90
        4
 70
     1
 43
0.0
 10
-24.19231812786165
 20
58.90010174665076
 10
-24.57637781922995
 20
58.90010174665076
 10
-24.57637781922995
 20
55.12380871629648
 10
-24.19231812786165
 20
55.12380871629648
  0
LWPOLYLINE
  5
BE9
102
{ACAD_REACTORS
330
BEC
102
}
330
B9E
100
AcDbEntity
  8
9
100
AcDbPolyline
 90
       10
 70
     1
 43
0.0
 10
-28.57661522808212
 20
58.5001017466509
 10
-25.98444972019706
 20
58.5001017466509
 42
-0.4142135623731731
 10
-25.58444972019652
 20
58.1001017466508
 10
-25.58444972019652
 20
55.12380871629648
 10
-25.2004239443786
 20
55.12380871629648
 10
-25.2004239443786
 20
58.10010174665103
 42
0.4142135623730717
 10
-26.00042394437833
 20
58.90010174665076
 10
-28.97664914363259
 20
58.90010174665076
 10
-28.97664914363259
 20
55.12380871629648
 10
-28.57661522808212
 20
55.12380871629648
  0
LWPOLYLINE
  5
BEA
102
{ACAD_REACTORS
330
BEC
102
}
330
B9E
100
AcDbEntity
  8
9
100
AcDbPolyline
 90
       12
 70
     1
 43
0.0
 10
-29.58465321349832
 20
58.10010174665103
 42
0.4142135623730716
 10
-30.3846532134985
 20
58.90010174665076
 10
-33.07296930642724
 20
58.90010174665076
 10
-33.07296930642724
 20
58.5001017466509
 10
-30.38468712904842
 20
58.5001017466509
 42
-0.4142135623730067
 10
-29.98468712904878
 20
58.1001017466508
 10
-29.98468712904878
 20
57.42799728675618
 10
-32.56098015940324
 20
57.42799728675596
 42
0.4142135623731289
 10
-33.36098015940343
 20
56.627997286756
 10
-33.36098015940343
 20
55.92380871629643
 42
0.4142135623731132
 10
-32.56098015940324
 20
55.12380871629648
 10
-29.58465321349832
 20
55.12380871629648
  0
LWPOLYLINE
  5
BEB
102
{ACAD_REACTORS
330
BEC
102
}
330
B9E
100
AcDbEntity
  8
9
100
AcDbPolyline
 90
       20
 70
     1
 43
0.0
 10
-34.7850262845518
 20
57.42799728675596
 10
-36.96125148380543
 20
57.42799728675596
 42
-0.4142135623730898
 10
-37.36125148380552
 20
57.82799728675604
 10
-37.36125148380552
 20
58.10010174665103
 42
-0.4142135623730744
 10
-36.96125148380543
 20
58.5001017466509
 10
-34.27303713752781
 20
58.50010174665067
 10
-34.27303713752781
 20
58.90010174665076
 10
-36.96128539935535
 20
58.90010174665076
 42
0.4142135623731289
 10
-37.76128539935553
 20
58.1001017466508
 10
-37.76128539935553
 20
57.82796337120567
 42
0.4142135623730716
 10
-36.9612853993558
 20
57.02796337120571
 10
-34.76901814481926
 20
57.02796337120571
 42
-0.414213562373168
 10
-34.36901814481962
 20
56.62796337120562
 10
-34.36901814481962
 20
55.90786840766487
 42
-0.4142135623730744
 10
-34.76901814481926
 20
55.507868407665
 10
-37.76128539935553
 20
55.507868407665
 10
-37.76128539935553
 20
55.12380871629648
 10
-34.7850262845518
 20
55.12380871629648
 42
0.4142135623731289
 10
-33.98502628455162
 20
55.92380871629643
 10
-33.98502628455162
 20
56.627997286756
 42
0.4142135623731132
  0
HATCH
  5
BEC
330
B9E
100
AcDbEntity
  8
9
100
AcDbHatch
 10
0.0
 20
0.0
 30
0.0
210
0.0
220
0.0
230
1.0
  2
SOLID
 70
     1
 71
     1
 91
       13
 92
        7
 72
     1
 73
     1
 93
       20
 10
-34.36901814481962
 20
55.90786840766487
 42
-0.414213562372991
 10
-34.76901814481926
 20
55.507868407665
 42
0.0
 10
-37.76128539935553
 20
55.507868407665
 42
0.0
 10
-37.76128539935553
 20
55.12380871629648
 42
0.0
 10
-34.7850262845518
 20
55.12380871629648
 42
0.4142135623731705
 10
-33.98502628455162
 20
55.92380871629666
 42
0.0
 10
-33.98502628455162
 20
56.627997286756
 42
0.4142135623731547
 10
-34.7850262845518
 20
57.42799728675596
 42
0.0
 10
-36.96125148380543
 20
57.42799728675596
 42
-0.4142135623730898
 10
-37.36125148380552
 20
57.82799728675604
 42
0.0
 10
-37.36125148380552
 20
58.1001017466508
 42
-0.4142135623731575
 10
-36.96125148380543
 20
58.5001017466509
 42
0.0
 10
-34.27303713752781
 20
58.50010174665067
 42
0.0
 10
-34.27303713752781
 20
58.90010174665076
 42
0.0
 10
-36.96128539935535
 20
58.90010174665076
 42
0.4142135623731705
 10
-37.76128539935553
 20
58.10010174665058
 42
0.0
 10
-37.76128539935553
 20
57.82796337120544
 42
0.4142135623730299
 10
-36.9612853993558
 20
57.02796337120571
 42
0.0
 10
-34.76901814481926
 20
57.02796337120571
 42
-0.4142135623730015
 10
-34.36901814481962
 20
56.62796337120608
 42
0.0
 97
        1
330
BEB
 92
        7
 72
     1
 73
     1
 93
       12
 10
-33.36098015940343
 20
55.92380871629666
 42
0.4142135623731547
 10
-32.56098015940324
 20
55.12380871629648
 42
0.0
 10
-29.58465321349877
 20
55.12380871629648
 42
0.0
 10
-29.58465321349832
 20
58.10010174665058
 42
0.4142135623731964
 10
-30.3846532134985
 20
58.90010174665076
 42
0.0
 10
-33.07296930642724
 20
58.90010174665076
 42
0.0
 10
-33.07296930642724
 20
58.50010174665067
 42
0.0
 10
-30.38468712904887
 20
58.5001017466509
 42
-0.4142135623732564
 10
-29.98468712904878
 20
58.10010174665103
 42
0.0
 10
-29.98468712904923
 20
57.42799728675596
 42
0.0
 10
-32.56098015940324
 20
57.42799728675596
 42
0.4142135623731705
 10
-33.36098015940343
 20
56.627997286756
 42
0.0
 97
        1
330
BEA
 92
       22
 72
     1
 73
     1
 93
        6
 10
-32.97692046803468
 20
56.62796337120562
 42
-0.4142135623731576
 10
-32.57692046803459
 20
57.02796337120571
 42
0.0
 10
-29.98468712904878
 20
57.02796337120571
 42
0.0
 10
-29.98468712904878
 20
55.507868407665
 42
0.0
 10
-32.57692046803459
 20
55.507868407665
 42
-0.4142135623731731
 10
-32.97692046803468
 20
55.90786840766487
 42
0.0
 97
        1
330
C11
 92
        7
 72
     1
 73
     1
 93
       10
 10
-28.57661522808212
 20
58.5001017466509
 42
0.0
 10
-25.98444972019661
 20
58.5001017466509
 42
-0.4142135623730067
 10
-25.58444972019652
 20
58.10010174665058
 42
0.0
 10
-25.58444972019606
 20
55.12380871629648
 42
0.0
 10
-25.20042394437906
 20
55.12380871629648
 42
0.0
 10
-25.2004239443786
 20
58.1001017466508
 42
0.4142135623731134
 10
-26.00042394437833
 20
58.90010174665076
 42
0.0
 10
-28.97664914363259
 20
58.90010174665076
 42
0.0
 10
-28.97664914363259
 20
55.12380871629648
 42
0.0
 10
-28.57661522808212
 20
55.12380871629648
 42
0.0
 97
        1
330
BE9
 92
        7
 72
     0
 73
     1
 93
        4
 10
-24.57637781922995
 20
55.12380871629648
 10
-24.19231812786165
 20
55.12380871629648
 10
-24.19231812786165
 20
58.90010174665076
 10
-24.57637781922995
 20
58.90010174665076
 97
        1
330
BE8
 92
        7
 72
     0
 73
     1
 93
        4
 10
-24.19231812786165
 20
59.87619128370352
 10
-24.5763778192304
 20
59.87619128370352
 10
-24.5763778192304
 20
59.28412752246913
 10
-24.1923181278612
 20
59.28412752246913
 97
        1
330
C12
 92
        7
 72
     1
 73
     1
 93
       10
 10
-23.18424622689509
 20
58.5001017466509
 42
0.0
 10
-20.59204680345965
 20
58.5001017466509
 42
-0.4142135623730898
 10
-20.19204680345956
 20
58.1001017466508
 42
0.0
 10
-20.19204680345956
 20
55.12380871629648
 42
0.0
 10
-19.79201288790909
 20
55.12380871629648
 42
0.0
 10
-19.79201288790909
 20
58.1001017466508
 42
0.4142135623731547
 10
-20.59201288790928
 20
58.90010174665076
 42
0.0
 10
-23.56830591826338
 20
58.90010174665076
 42
0.0
 10
-23.56830591826338
 20
55.12380871629648
 42
0.0
 10
-23.18424622689463
 20
55.12380871629648
 42
0.0
 97
        1
330
BE7
 92
        7
 72
     1
 73
     1
 93
        8
 10
-19.1999120763262
 20
55.92680650071542
 42
0.4153115297271299
 10
-18.39991769304061
 20
55.12380871629648
 42
0.0
 10
-15.4236900118708
 20
55.12380871629648
 42
0.0
 10
-15.4236900118708
 20
59.87619128370352
 42
0.0
 10
-15.80771578768872
 20
59.87619128370352
 42
0.0
 10
-15.80771578768872
 20
58.90010174665076
 42
0.0
 10
-18.39176256411201
 20
58.90010174665076
 42
0.4131164467977965
 10
-19.19175694739761
 20
58.1030995310698
 42
0.0
 97
        1
330
BE6
 92
       22
 72
     1
 73
     1
 93
        6
 10
-18.79994912667462
 20
58.1001017466508
 42
-0.4142135623731575
 10
-18.39994912667453
 20
58.5001017466509
 42
0.0
 10
-15.80771578768872
 20
58.50010174665067
 42
0.0
 10
-15.80771578768827
 20
55.507868407665
 42
0.0
 10
-18.39994912667453
 20
55.507868407665
 42
-0.4142135623731731
 10
-18.79994912667462
 20
55.90786840766487
 42
0.0
 97
        1
330
BE5
 92
        7
 72
     1
 73
     1
 93
       12
 10
-14.79964388672215
 20
55.92380871629621
 42
0.4142135623729885
 10
-13.99964388672242
 20
55.12380871629648
 42
0.0
 10
-11.8233508563676
 20
55.12380871629648
 42
0.4142135623731289
 10
-11.02335085636741
 20
55.92380871629666
 42
0.0
 10
-11.02335085636741
 20
58.90010174665076
 42
0.0
 10
-11.42338477191788
 20
58.90010174665076
 42
0.0
 10
-11.42338477191788
 20
55.91567577726095
 42
-0.4131711701795319
 10
-11.82196067063523
 20
55.51567831234956
 42
0.0
 10
-14.01419400962095
 20
55.50787335710947
 42
-0.4152567234626918
 10
-14.41561811090378
 20
55.90787082202087
 42
0.0
 10
-14.41561811090378
 20
58.90010174665076
 42
0.0
 10
-14.7996438867226
 20
58.90010174665076
 42
0.0
 97
        1
330
BE4
 92
        7
 72
     1
 73
     1
 93
       20
 10
-7.423079531965413
 20
57.02796337120571
 42
-0.414213562373168
 10
-7.023079531965322
 20
56.62796337120562
 42
0.0
 10
-7.023079531965322
 20
55.90786840766487
 42
-0.4142135623731575
 10
-7.423079531965413
 20
55.507868407665
 42
0.0
 10
-10.41534678650168
 20
55.507868407665
 42
0.0
 10
-10.41534678650168
 20
55.12380871629648
 42
0.0
 10
-7.445787917283723
 20
55.12380871629648
 42
0.4114777732065809
 10
-6.645822882998345
 20
55.91632914939783
 42
0.0
 10
-6.639238813324936
 20
56.62051771985716
 42
0.4169546541682913
 10
-7.439203847610315
 20
57.42799728675596
 42
0.0
 10
-9.615312870951584
 20
57.42799728675596
 42
-0.4142135623729911
 10
-10.01531287095122
 20
57.82799728675581
 42
0.0
 10
-10.01531287095122
 20
58.10010174665103
 42
-0.414213562372991
 10
-9.615312870951584
 20
58.5001017466509
 42
0.0
 10
-6.92703069357276
 20
58.50010174665067
 42
0.0
 10
-6.927030693572305
 20
58.90010174665076
 42
0.0
 10
-9.615346786501959
 20
58.90010174665076
 42
0.4142135623730467
 10
-10.41534678650168
 20
58.10010174665103
 42
0.0
 10
-10.41534678650168
 20
57.82796337120544
 42
0.4142135623730301
 10
-9.615346786501959
 20
57.02796337120571
 42
0.0
 97
        1
330
BE3
 92
        7
 72
     1
 73
     1
 93
       12
 10
-5.21497371544865
 20
57.42799728675596
 42
0.4142135623730871
 10
-6.014973715448377
 20
56.627997286756
 42
0.0
 10
-6.014973715448377
 20
55.92380871629621
 42
0.4142135623730715
 10
-5.21497371544865
 20
55.12380871629648
 42
0.0
 10
-2.23871460064447
 20
55.12380871629648
 42
0.0
 10
-2.23871460064447
 20
58.10010174665058
 42
0.414213562373155
 10
-3.038714600644652
 20
58.90010174665076
 42
0.0
 10
-5.726962862471737
 20
58.90010174665076
 42
0.0
 10
-5.726962862472191
 20
58.5001017466509
 42
0.0
 10
-3.038748516194573
 20
58.5001017466509
 42
-0.4142135623730067
 10
-2.638748516194482
 20
58.10010174665058
 42
0.0
 10
-2.638748516194482
 20
57.42799728675596
 42
0.0
 97
        1
330
BE2
 92
       22
 72
     1
 73
     1
 93
        6
 10
-2.638748516194937
 20
57.02796337120571
 42
0.0
 10
-2.638748516194482
 20
55.50786840766477
 42
0.0
 10
-5.21497371544865
 20
55.507868407665
 42
-0.4142135623731731
 10
-5.614973715448741
 20
55.90786840766509
 42
0.0
 10
-5.614973715448741
 20
56.62796337120562
 42
-0.4142135623731576
 10
-5.21497371544865
 20
57.02796337120571
 42
0.0
 97
        1
330
C0D
 75
     0
 76
     1
 47
0.0407044778999864
 98
       13
 10
-34.18710075113677
 20
56.16907953933765
 10
-33.12851374392494
 20
56.49471602641233
 10
-33.12851374392494
 20
56.49471602641233
 10
-28.77202873835904
 20
57.51232930166111
 10
-24.41554807250941
 20
57.91937341678636
 10
-24.41554807250941
 20
59.384734621186
 10
-23.31624584658039
 20
58.3264175319116
 10
-19.04119127844888
 20
57.75655517324913
 10
-19.04119127844888
 20
57.75655517324913
 10
-14.64399105416578
 20
57.43091868617466
 10
-8.048195057457178
 20
57.22739662861204
 10
-4.017427461911665
 20
57.18669281458665
 10
-4.017427461911665
 20
57.18669281458665
  0
TEXT
  5
BED
330
B9E
100
AcDbEntity
  8
leg fin
100
AcDbText
 10
3.391127401597259
 20
2.107634911895729
 30
0.0
 40
1.5
  1
Este desenho é propriedade da Sanindusa, S.A., e não pode ser copiado nem divulgado sem nossa autorização.
 50
90.0
 41
0.8
  7
SANINDUSA
100
AcDbText
  0
LINE
  5
BEE
330
B9E
100
AcDbEntity
  8
3
100
AcDbLine
 10
-90.0
 20
4.0
 30
0.0
 11
-90.0
 21
12.0
 31
0.0
  0
TEXT
  5
BEF
330
B9E
100
AcDbEntity
  8
1
100
AcDbText
 10
-39.0
 20
9.25
 30
0.0
 40
2.0
  1
Substituido por:
 41
0.8
  7
SANINDUSA
 11
-39.0
 21
10.25
 31
0.0
100
AcDbText
 73
     2
  0
POINT
  5
BF0
330
B9E
100
AcDbEntity
  8
SANINDUSA
100
AcDbPoint
 10
0.0
 20
0.0
 30
0.0
  0
TEXT
  5
BF1
330
B9E
100
AcDbEntity
  8
1
100
AcDbText
 10
-89.0
 20
16.74927010445663
 30
0.0
 40
2.0
  1
Normas:
 41
0.8
  7
SANINDUSA
 11
-89.0
 21
17.74927010445663
 31
0.0
100
AcDbText
 73
     2
  0
LINE
  5
BF2
330
B9E
100
AcDbEntity
  8
3
100
AcDbLine
 10
-90.0
 20
12.0
 30
0.0
 11
-90.0
 21
20.0
 31
0.0
  0
LINE
  5
BF3
330
B9E
100
AcDbEntity
  8
3
100
AcDbLine
 10
-110.546019464768
 20
12.0
 30
0.0
 11
-110.546019464768
 21
20.0
 31
0.0
  0
TEXT
  5
BF4
330
B9E
100
AcDbEntity
  8
1
100
AcDbText
 10
-109.6177520618648
 20
17.25
 30
0.0
 40
2.0
  1
Cor:
 41
0.8
  7
SANINDUSA
 11
-109.6177520618648
 21
18.25
 31
0.0
100
AcDbText
 73
     2
  0
LINE
  5
BF5
330
B9E
100
AcDbEntity
  8
leg fin
100
AcDbLine
 10
-91.42857142857156
 20
20.0
 30
0.0
 11
-91.42857142857156
 21
28.5
 31
0.0
  0
LINE
  5
BF6
330
B9E
100
AcDbEntity
  8
leg fin
100
AcDbLine
 10
-104.2857142857142
 20
20.0
 30
0.0
 11
-104.2857142857142
 21
28.5
 31
0.0
  0
LINE
  5
BF7
330
B9E
100
AcDbEntity
  8
leg fin
100
AcDbLine
 10
-117.1428571428573
 20
20.0
 30
0.0
 11
-117.1428571428573
 21
28.5
 31
0.0
  0
POINT
  5
BF8
330
B9E
100
AcDbEntity
  8
SANINDUSA
100
AcDbPoint
 10
-117.1428571428573
 20
28.5
 30
0.0
  0
POINT
  5
BF9
330
B9E
100
AcDbEntity
  8
SANINDUSA
100
AcDbPoint
 10
-104.2857142857142
 20
28.5
 30
0.0
  0
POINT
  5
BFA
330
B9E
100
AcDbEntity
  8
SANINDUSA
100
AcDbPoint
 10
-91.42857142857156
 20
28.5
 30
0.0
  0
TEXT
  5
BFB
330
B9E
100
AcDbEntity
  8
1
100
AcDbText
 10
-116.200160604496
 20
26.43288406845113
 30
0.0
 40
1.5
  1
Nº Seq.:
 41
0.8
  7
SANINDUSA
 11
-116.200160604496
 21
27.18288406845113
 31
0.0
100
AcDbText
 73
     2
  0
TEXT
  5
BFC
330
B9E
100
AcDbEntity
  8
1
100
AcDbText
 10
-103.2106584078738
 20
26.43288406845113
 30
0.0
 40
1.5
  1
Tipo:
 41
0.8
  7
SANINDUSA
 11
-103.2106584078738
 21
27.18288406845113
 31
0.0
100
AcDbText
 73
     2
  0
TEXT
  5
BFD
330
B9E
100
AcDbEntity
  8
1
100
AcDbText
 10
-90.22114672289353
 20
26.43288406845113
 30
0.0
 40
1.5
  1
Prod.:
 41
0.8
  7
SANINDUSA
 11
-90.22114672289353
 21
27.18288406845113
 31
0.0
100
AcDbText
 73
     2
  0
TEXT
  5
BFE
330
B9E
100
AcDbEntity
  8
1
100
AcDbText
 10
-64.77320576346574
 20
26.43288406845113
 30
0.0
 40
1.5
  1
Rev.:
 41
0.8
  7
SANINDUSA
 11
-64.77320576346574
 21
27.18288406845113
 31
0.0
100
AcDbText
 73
     2
  0
LINE
  5
BFF
330
B9E
100
AcDbEntity
  8
leg fin
100
AcDbLine
 10
-52.85714285714266
 20
20.0
 30
0.0
 11
-52.85714285714266
 21
28.5
 31
0.0
  0
LINE
  5
C00
330
B9E
100
AcDbEntity
  8
leg fin
100
AcDbLine
 10
-65.71428571428578
 20
20.0
 30
0.0
 11
-65.71428571428578
 21
28.5
 31
0.0
  0
LINE
  5
C01
330
B9E
100
AcDbEntity
  8
leg fin
100
AcDbLine
 10
-78.57142857142844
 20
20.0
 30
0.0
 11
-78.57142857142844
 21
28.5
 31
0.0
  0
POINT
  5
C02
330
B9E
100
AcDbEntity
  8
SANINDUSA
100
AcDbPoint
 10
-78.57142857142844
 20
28.5
 30
0.0
  0
POINT
  5
C03
330
B9E
100
AcDbEntity
  8
SANINDUSA
100
AcDbPoint
 10
-65.71428571428578
 20
28.5
 30
0.0
  0
POINT
  5
C04
330
B9E
100
AcDbEntity
  8
SANINDUSA
100
AcDbPoint
 10
-52.85714285714266
 20
28.5
 30
0.0
  0
TEXT
  5
C05
330
B9E
100
AcDbEntity
  8
1
100
AcDbText
 10
-77.61097961686573
 20
26.43288406845113
 30
0.0
 40
1.5
  1
Peça:
 41
0.8
  7
SANINDUSA
 11
-77.61097961686573
 21
27.18288406845113
 31
0.0
100
AcDbText
 73
     2
  0
TEXT
  5
C06
330
B9E
100
AcDbEntity
  8
1
100
AcDbText
 10
-52.06538060077036
 20
26.43288406845113
 30
0.0
 40
1.5
  1
Alt.:
 41
0.8
  7
SANINDUSA
 11
-52.06538060077036
 21
27.18288406845113
 31
0.0
100
AcDbText
 73
     2
  0
LINE
  5
C07
330
B9E
100
AcDbEntity
  8
3
100
AcDbLine
 10
0.0
 20
12.0
 30
0.0
 11
-40.0
 21
12.0
 31
0.0
  0
LINE
  5
C08
330
B9E
100
AcDbEntity
  8
3
100
AcDbLine
 10
-40.0
 20
32.5
 30
0.0
 11
0.0
 21
32.5
 31
0.0
  0
TEXT
  5
C09
330
B9E
100
AcDbEntity
  8
1
100
AcDbText
 10
-19.0
 20
29.75
 30
0.0
 40
2.0
  1
Folha:
 41
0.8
  7
SANINDUSA
 11
-19.0
 21
30.75
 31
0.0
100
AcDbText
 73
     2
  0
LINE
  5
C0A
330
B9E
100
AcDbEntity
  8
3
100
AcDbLine
 10
-20.0
 20
32.5
 30
0.0
 11
-20.0
 21
20.0
 31
0.0
  0
TEXT
  5
C0B
330
B9E
100
AcDbEntity
  8
1
100
AcDbText
 10
-39.0
 20
29.75
 30
0.0
 40
2.0
  1
Escala:
 41
0.8
  7
SANINDUSA
 11
-39.0
 21
30.75
 31
0.0
100
AcDbText
 73
     2
  0
TEXT
  5
C0C
330
B9E
100
AcDbEntity
  8
1
100
AcDbText
 10
-39.0
 20
17.25
 30
0.0
 40
2.0
  1
Substitui:
 41
0.8
  7
SANINDUSA
 11
-39.0
 21
18.25
 31
0.0
100
AcDbText
 73
     2
  0
LWPOLYLINE
  5
C0D
102
{ACAD_REACTORS
330
BEC
102
}
330
B9E
100
AcDbEntity
  8
9
100
AcDbPolyline
 90
        6
 70
     1
 43
0.0
 10
-2.638748516194482
 20
57.02796337120571
 10
-2.638748516194482
 20
55.50786840766477
 10
-5.21497371544865
 20
55.507868407665
 42
-0.4142135623730898
 10
-5.614973715448741
 20
55.90786840766487
 10
-5.614973715448741
 20
56.62796337120562
 42
-0.4142135623731576
 10
-5.21497371544865
 20
57.02796337120571
  0
LINE
  5
C0E
330
B9E
100
AcDbEntity
  8
3
100
AcDbLine
 10
-40.0
 20
50.0
 30
0.0
 11
0.0
 21
50.0
 31
0.0
  0
ATTDEF
  5
C0F
330
B9E
100
AcDbEntity
  8
1
100
AcDbText
 10
-31.30691739422431
 20
40.25
 30
0.0
 40
2.0
  1
XXXXXXXXXXXXXXX
 41
0.8
  7
SANINDUSA
 72
     4
 11
-20.0
 21
41.25
 31
0.0
100
AcDbAttributeDefinition
  3
Observações:
  2
OBS
 70
     0
  0
TEXT
  5
C10
330
B9E
100
AcDbEntity
  8
1
100
AcDbText
 10
-39.0
 20
47.25
 30
0.0
 40
2.0
  1
Observações:
 41
0.8
  7
SANINDUSA
 11
-39.0
 21
48.25
 31
0.0
100
AcDbText
 73
     2
  0
LWPOLYLINE
  5
C11
102
{ACAD_REACTORS
330
BEC
102
}
330
B9E
100
AcDbEntity
  8
9
100
AcDbPolyline
 90
        6
 70
     1
 43
0.0
 10
-29.98468712904878
 20
57.02796337120571
 10
-29.98468712904878
 20
55.507868407665
 10
-32.57692046803459
 20
55.507868407665
 42
-0.4142135623731731
 10
-32.97692046803468
 20
55.90786840766487
 10
-32.97692046803468
 20
56.62796337120562
 42
-0.4142135623731576
 10
-32.57692046803459
 20
57.02796337120571
  0
LWPOLYLINE
  5
C12
102
{ACAD_REACTORS
330
BEC
102
}
330
B9E
100
AcDbEntity
  8
9
100
AcDbPolyline
 90
        4
 70
     1
 43
0.0
 10
-24.19231812786165
 20
59.87619128370352
 10
-24.57637781922995
 20
59.87619128370352
 10
-24.57637781922995
 20
59.28412752246913
 10
-24.19231812786165
 20
59.28412752246913
  0
ENDBLK
  5
C14
330
B9E
100
AcDbEntity
  8
0
100
AcDbBlockEnd
  0
ENDSEC
  0
SECTION
  2
ENTITIES
  0
LINE
  5
13BA
330
1F
100
AcDbEntity
  8
SANINDUSA
100
AcDbLine
 10
4122.027562815327
 20
2328.70713331884
 30
0.0
 11
4122.042736961756
 21
2328.70713331884
 31
0.0
  0
LINE
  5
13BE
330
1F
100
AcDbEntity
  8
SANINDUSA
100
AcDbLine
 10
4121.942844359216
 20
2328.963943099807
 30
0.0
 11
4121.942844359216
 21
2328.721611671182
 31
0.0
  0
LINE
  5
13BF
330
1F
100
AcDbEntity
  8
SANINDUSA
100
AcDbLine
 10
4121.962837848391
 20
2328.701618182017
 30
0.0
 11
4122.107481317151
 21
2328.701618182017
 31
0.0
  0
LINE
  5
13C0
330
1F
100
AcDbEntity
  8
SANINDUSA
100
AcDbLine
 10
4122.127455417866
 20
2328.721611671192
 30
0.0
 11
4122.127455417866
 21
2328.963923711343
 31
0.0
  0
LINE
  5
13C1
330
1F
100
AcDbEntity
  8
SANINDUSA
100
AcDbLine
 10
4122.215988027849
 20
2329.019369781617
 30
0.0
 11
4122.216091378789
 21
2329.019697433705
 31
0.0
  0
LINE
  5
13C2
330
1F
100
AcDbEntity
  8
SANINDUSA
100
AcDbLine
 10
4122.156010494154
 20
2328.970486557373
 30
0.0
 11
4122.157637912219
 21
2328.970650705582
 31
0.0
  0
LINE
  5
13C4
330
1F
100
AcDbEntity
  8
SANINDUSA
100
AcDbLine
 10
4121.852253168806
 20
2329.019697433702
 30
0.0
 11
4121.852353807218
 21
2329.019368921887
 31
0.0
  0
SPLINE
  5
13C5
330
1F
100
AcDbEntity
  8
SANINDUSA
100
AcDbSpline
210
0.0
220
0.0
230
1.0
 70
     8
 71
     3
 72
     9
 73
     5
 74
     0
 42
0.0000000001
 43
0.0000000001
 40
0.0
 40
0.0
 40
0.0
 40
0.0
 40
0.5062625810725744
 40
1.0
 40
1.0
 40
1.0
 40
1.0
 10
4121.910578312794
 20
2328.970593209991
 30
0.0
 10
4121.91883217117
 20
2328.970174882979
 30
0.0
 10
4121.931444414159
 20
2328.969569887011
 30
0.0
 10
4121.944168386087
 20
2328.968959541672
 30
0.0
 10
4121.948948003317
 20
2328.968923711343
 30
0.0
  0
SPLINE
  5
13C6
330
1F
100
AcDbEntity
  8
SANINDUSA
100
AcDbSpline
210
0.0
220
0.0
230
1.0
 70
     8
 71
     3
 72
     9
 73
     5
 74
     0
 42
0.0000000001
 43
0.0000000001
 40
0.0
 40
0.0
 40
0.0
 40
0.0
 40
0.4686519288443226
 40
1.0
 40
1.0
 40
1.0
 40
1.0
 10
4122.121084560848
 20
2328.968923711343
 30
0.0
 10
4122.125374563609
 20
2328.969017027071
 30
0.0
 10
4122.137496933557
 20
2328.969598514758
 30
0.0
 10
4122.149512849405
 20
2328.970174905624
 30
0.0
 10
4122.155897483113
 20
2328.970481169799
 30
0.0
  0
LINE
  5
13C9
330
1F
100
AcDbEntity
  8
SANINDUSA
100
AcDbLine
 10
4121.948007850401
 20
2328.726774819693
 30
0.0
 11
4121.948007850401
 21
2328.967923711343
 31
0.0
  0
LINE
  5
13CE
330
1F
100
AcDbEntity
  8
SANINDUSA
100
AcDbLine
 10
4122.038320711382
 20
2328.708413702262
 30
0.0
 11
4122.031979065701
 21
2328.708413702262
 31
0.0
  0
LINE
  5
13D2
330
1F
100
AcDbEntity
  8
SANINDUSA
100
AcDbLine
 10
4122.122291926682
 20
2328.967923711343
 30
0.0
 11
4122.122291926682
 21
2328.726774819614
 31
0.0
  0
ARC
  5
13D4
330
1F
100
AcDbEntity
  8
SANINDUSA
100
AcDbCircle
 10
4122.102282841352
 20
2328.726790758532
 30
0.0
 40
0.0200090916783807
100
AcDbArc
 50
270.0456406261938
 51
359.9543591132552
  0
SPLINE
  5
13D5
330
1F
100
AcDbEntity
  8
SANINDUSA
100
AcDbSpline
210
0.0
220
0.0
230
1.0
 70
     8
 71
     3
 72
    19
 73
    15
 74
     0
 42
0.0000000001
 43
0.0000000001
 40
0.0
 40
0.0
 40
0.0
 40
0.0
 40
0.08334874101508
 40
0.1666880674038049
 40
0.2500386627933006
 40
0.333381624839939
 40
0.416713053747697
 40
0.5000541513106352
 40
0.5833866430253609
 40
0.6667073195661915
 40
0.7500380886234919
 40
0.8333613589023634
 40
0.9166745290213334
 40
1.0
 40
1.0
 40
1.0
 40
1.0
 10
4122.102298780183
 20
2328.706781673202
 30
0.0
 10
4122.102124772292
 20
2328.706853485412
 30
0.0
 10
4122.101776776168
 20
2328.70699710172
 30
0.0
 10
4122.099921211453
 20
2328.70720805017
 30
0.0
 10
4122.097122395357
 20
2328.707411270145
 30
0.0
 10
4122.093330403994
 20
2328.707603334367
 30
0.0
 10
4122.088633658366
 20
2328.707781082158
 30
0.0
 10
4122.083102967686
 20
2328.707941564255
 30
0.0
 10
4122.076831780188
 20
2328.708082141983
 30
0.0
 10
4122.069923257289
 20
2328.708200437707
 30
0.0
 10
4122.062491856396
 20
2328.708294675506
 30
0.0
 10
4122.054660548987
 20
2328.708362622747
 30
0.0
 10
4122.046558866906
 20
2328.70840567566
 30
0.0
 10
4122.04106689836
 20
2328.708411026596
 30
0.0
 10
4122.038320711384
 20
2328.708413702262
 30
0.0
  0
SPLINE
  5
13D6
330
1F
100
AcDbEntity
  8
SANINDUSA
100
AcDbSpline
210
0.0
220
0.0
230
1.0
 70
     8
 71
     3
 72
    19
 73
    15
 74
     0
 42
0.0000000001
 43
0.0000000001
 40
0.0
 40
0.0
 40
0.0
 40
0.0
 40
0.0833205309870654
 40
0.1666337010765215
 40
0.2499619113725253
 40
0.3332877400552303
 40
0.4166084164014947
 40
0.4999458486838615
 40
0.5832820051808821
 40
0.6666134339328202
 40
0.7499613372047575
 40
0.833306990999287
 40
0.9166463173809344
 40
1.0
 40
1.0
 40
1.0
 40
1.0
 10
4122.031979065698
 20
2328.708413702262
 30
0.0
 10
4122.029233041209
 20
2328.708411027039
 30
0.0
 10
4122.023741234825
 20
2328.708405676829
 30
0.0
 10
4122.01563954644
 20
2328.708362624789
 30
0.0
 10
4122.007808222854
 20
2328.708294678717
 30
0.0
 10
4122.000376802616
 20
2328.708200442054
 30
0.0
 10
4121.993468262277
 20
2328.708082147027
 30
0.0
 10
4121.987197043043
 20
2328.707941570215
 30
0.0
 10
4121.981666318222
 20
2328.707781088974
 30
0.0
 10
4121.976969546439
 20
2328.707603341657
 30
0.0
 10
4121.973177512209
 20
2328.707411277971
 30
0.0
 10
4121.970378651895
 20
2328.70720805845
 30
0.0
 10
4121.968523054042
 20
2328.706997110188
 30
0.0
 10
4121.968175025939
 20
2328.706853489654
 30
0.0
 10
4121.9680009969
 20
2328.706781673202
 30
0.0
  0
ARC
  5
13D7
330
1F
100
AcDbEntity
  8
SANINDUSA
100
AcDbCircle
 10
4121.96801693573
 20
2328.726790758532
 30
0.0
 40
0.0200090916783572
100
AcDbArc
 50
180.045640678304
 51
269.9543593738062
  0
LINE
  5
13D9
330
1F
100
AcDbEntity
  8
SANINDUSA
100
AcDbLine
 10
4122.121292269357
 20
2328.968923711343
 30
0.0
 11
4122.121084560848
 21
2328.968923711343
 31
0.0
  0
ARC
  5
13DB
330
1F
100
AcDbEntity
  8
SANINDUSA
100
AcDbCircle
 10
4122.121292097989
 20
2328.96792388265
 30
0.0
 40
0.000999828707732
100
AcDbArc
 50
359.9901831402744
 51
89.99017962283101
  0
LINE
  5
13DF
330
1F
100
AcDbEntity
  8
SANINDUSA
100
AcDbLine
 10
4122.107461928684
 20
2328.701618524692
 30
0.0
 11
4122.102298780172
 21
2328.706781673202
 31
0.0
  0
LINE
  5
13E0
330
1F
100
AcDbEntity
  8
SANINDUSA
100
AcDbLine
 10
4121.962837848391
 20
2328.701618524692
 30
0.0
 11
4122.107461928689
 21
2328.701618524692
 31
0.0
  0
SPLINE
  5
13E1
330
1F
100
AcDbEntity
  8
SANINDUSA
100
AcDbSpline
210
0.0
220
0.0
230
1.0
 70
     8
 71
     3
 72
    15
 73
    11
 74
     0
 42
0.0000000001
 43
0.0000000001
 40
0.0
 40
0.0
 40
0.0
 40
0.0
 40
0.1249786504145754
 40
0.2499606036955602
 40
0.374948642996876
 40
0.4999445938619039
 40
0.6249490372282708
 40
0.7499612182391479
 40
0.8749791652574719
 40
1.0
 40
1.0
 40
1.0
 40
1.0
 10
4122.024142552242
 20
2328.702089871281
 30
0.0
 10
4122.022079793986
 20
2328.702092994381
 30
0.0
 10
4122.017954222961
 20
2328.702099240663
 30
0.0
 10
4122.012011806486
 20
2328.702149118354
 30
0.0
 10
4122.006550762709
 20
2328.70222656928
 30
0.0
 10
4122.00179014008
 20
2328.702331450623
 30
0.0
 10
4121.997910963653
 20
2328.702458815334
 30
0.0
 10
4121.995097301737
 20
2328.702603794861
 30
0.0
 10
4121.993348847986
 20
2328.702760651522
 30
0.0
 10
4121.993218399944
 20
2328.702868806319
 30
0.0
 10
4121.993153175169
 20
2328.702922884342
 30
0.0
  0
LINE
  5
13E2
330
1F
100
AcDbEntity
  8
SANINDUSA
100
AcDbLine
 10
4122.046157224822
 20
2328.702089871281
 30
0.0
 11
4122.024142552261
 21
2328.702089871281
 31
0.0
  0
SPLINE
  5
13E3
330
1F
100
AcDbEntity
  8
SANINDUSA
100
AcDbSpline
210
0.0
220
0.0
230
1.0
 70
     8
 71
     3
 72
    15
 73
    11
 74
     0
 42
0.0000000001
 43
0.0000000001
 40
0.0
 40
0.0
 40
0.0
 40
0.0
 40
0.1250208347432049
 40
0.2500387817649348
 40
0.3750509627764886
 40
0.5000554061435329
 40
0.6250513570014935
 40
0.7500393963034861
 40
0.8750213495948122
 40
1.0
 40
1.0
 40
1.0
 40
1.0
 10
4122.077146601915
 20
2328.702922884342
 30
0.0
 10
4122.077081377141
 20
2328.702868806319
 30
0.0
 10
4122.076950929097
 20
2328.702760651522
 30
0.0
 10
4122.075202475346
 20
2328.702603794861
 30
0.0
 10
4122.07238881343
 20
2328.702458815334
 30
0.0
 10
4122.068509637005
 20
2328.702331450623
 30
0.0
 10
4122.063749014374
 20
2328.70222656928
 30
0.0
 10
4122.058287970597
 20
2328.702149118354
 30
0.0
 10
4122.052345554123
 20
2328.702099240663
 30
0.0
 10
4122.048219983097
 20
2328.702092994381
 30
0.0
 10
4122.046157224842
 20
2328.702089871281
 30
0.0
  0
LINE
  5
13E4
330
1F
100
AcDbEntity
  8
SANINDUSA
100
AcDbLine
 10
4122.073726338757
 20
2328.706343147442
 30
0.0
 11
4122.077146601919
 21
2328.702922884346
 31
0.0
  0
SPLINE
  5
13E5
330
1F
100
AcDbEntity
  8
SANINDUSA
100
AcDbSpline
210
0.0
220
0.0
230
1.0
 70
     8
 71
     3
 72
    14
 73
    10
 74
     0
 42
0.0000000001
 43
0.0000000001
 40
0.0
 40
0.0
 40
0.0
 40
0.0
 40
0.1458566069564109
 40
0.2917168277404988
 40
0.4375837437010147
 40
0.5834594498593044
 40
0.7293447464532812
 40
0.8752390212977147
 40
1.0
 40
1.0
 40
1.0
 40
1.0
 10
4122.042736961744
 20
2328.707133661515
 30
0.0
 10
4122.04473205434
 20
2328.707130740276
 30
0.0
 10
4122.048722288963
 20
2328.707124897724
 30
0.0
 10
4122.054485699414
 20
2328.707078211456
 30
0.0
 10
4122.059810333472
 20
2328.707005569048
 30
0.0
 10
4122.064508428375
 20
2328.706906995178
 30
0.0
 10
4122.068367578885
 20
2328.706786623611
 30
0.0
 10
4122.071239772121
 20
2328.706656335731
 30
0.0
 10
4122.072256982206
 20
2328.706563025564
 30
0.0
 10
4122.072725874363
 20
2328.706520013402
 30
0.0
  0
LINE
  5
13E6
330
1F
100
AcDbEntity
  8
SANINDUSA
100
AcDbLine
 10
4122.027562815277
 20
2328.707133661517
 30
0.0
 11
4122.042736961806
 21
2328.707133661517
 31
0.0
  0
SPLINE
  5
13E7
330
1F
100
AcDbEntity
  8
SANINDUSA
100
AcDbSpline
210
0.0
220
0.0
230
1.0
 70
     8
 71
     3
 72
    15
 73
    11
 74
     0
 42
0.0000000001
 43
0.0000000001
 40
0.0
 40
0.0
 40
0.0
 40
0.0
 40
0.0606800081277638
 40
0.1948907725859604
 40
0.3290950573989078
 40
0.4632910833748979
 40
0.5974782873642578
 40
0.7316574054644669
 40
0.8658303648588978
 40
1.0
 40
1.0
 40
1.0
 40
1.0
 10
4121.996974239023
 20
2328.706428241386
 30
0.0
 10
4121.997061302397
 20
2328.706451757175
 30
0.0
 10
4121.997340930703
 20
2328.706527284691
 30
0.0
 10
4121.999024549596
 20
2328.706649097376
 30
0.0
 10
4122.001902642075
 20
2328.706786791323
 30
0.0
 10
4122.005799267284
 20
2328.706906950245
 30
0.0
 10
4122.010487322762
 20
2328.707005581082
 30
0.0
 10
4122.015814643185
 20
2328.707078208247
 30
0.0
 10
4122.021577346748
 20
2328.707124898526
 30
0.0
 10
4122.02556767562
 20
2328.707130740543
 30
0.0
 10
4122.02756281534
 20
2328.707133661515
 30
0.0
  0
LINE
  5
13E8
330
1F
100
AcDbEntity
  8
SANINDUSA
100
AcDbLine
 10
4121.993153175163
 20
2328.702922884346
 30
0.0
 11
4121.996573438326
 21
2328.706343147442
 31
0.0
  0
LINE
  5
13E9
330
1F
100
AcDbEntity
  8
SANINDUSA
100
AcDbLine
 10
4122.122291926682
 20
2328.726774819614
 30
0.0
 11
4122.127455075192
 21
2328.721611671264
 31
0.0
  0
SPLINE
  5
13EA
330
1F
100
AcDbEntity
  8
SANINDUSA
100
AcDbSpline
210
0.0
220
0.0
230
1.0
 70
     8
 71
     3
 72
    15
 73
    11
 74
     0
 42
0.0000000001
 43
0.0000000001
 40
0.0
 40
0.0
 40
0.0
 40
0.0
 40
0.1277468393553191
 40
0.250020247216302
 40
0.3758261411195724
 40
0.4999999997295107
 40
0.6241754212855869
 40
0.7499797524539527
 40
0.8722540099536178
 40
1.0
 40
1.0
 40
1.0
 40
1.0
 10
4122.127455075191
 20
2328.721611671192
 30
0.0
 10
4122.127377545123
 20
2328.720274205529
 30
0.0
 10
4122.127225806834
 20
2328.717656579156
 30
0.0
 10
4122.126027043697
 20
2328.713877276909
 30
0.0
 10
4122.124190704822
 20
2328.710424216877
 30
0.0
 10
4122.121689029005
 20
2328.707384547835
 30
0.0
 10
4122.118649368895
 20
2328.704882885611
 30
0.0
 10
4122.115196299474
 20
2328.703046547087
 30
0.0
 10
4122.111417011686
 20
2328.701847791164
 30
0.0
 10
4122.108799385412
 20
2328.701696053782
 30
0.0
 10
4122.107461928693
 20
2328.701618524693
 30
0.0
  0
SPLINE
  5
13EC
330
1F
100
AcDbEntity
  8
SANINDUSA
100
AcDbSpline
210
0.0
220
0.0
230
1.0
 70
     8
 71
     3
 72
    15
 73
    11
 74
     0
 42
0.0000000001
 43
0.0000000001
 40
0.0
 40
0.0
 40
0.0
 40
0.0
 40
0.1277468306061994
 40
0.2500202472101883
 40
0.3758261358075244
 40
0.4999999997374587
 40
0.6241754264877094
 40
0.7499797524599087
 40
0.87225401289508
 40
1.0
 40
1.0
 40
1.0
 40
1.0
 10
4121.962837848391
 20
2328.701618524692
 30
0.0
 10
4121.96150038282
 20
2328.70169605475
 30
0.0
 10
4121.958882756448
 20
2328.70184779303
 30
0.0
 10
4121.955103454242
 20
2328.703046556126
 30
0.0
 10
4121.951650394122
 20
2328.70488289503
 30
0.0
 10
4121.948610725026
 20
2328.70738457087
 30
0.0
 10
4121.946109062778
 20
2328.710424231036
 30
0.0
 10
4121.944272724254
 20
2328.71387730049
 30
0.0
 10
4121.943073968355
 20
2328.71765658823
 30
0.0
 10
4121.942922230976
 20
2328.720274214504
 30
0.0
 10
4121.94284470189
 20
2328.721611671192
 30
0.0
  0
LINE
  5
13ED
330
1F
100
AcDbEntity
  8
SANINDUSA
100
AcDbLine
 10
4122.127455075192
 20
2328.721611671192
 30
0.0
 11
4122.127455075192
 21
2328.963923711343
 31
0.0
  0
SPLINE
  5
13EF
330
1F
100
AcDbEntity
  8
SANINDUSA
100
AcDbSpline
210
0.0
220
0.0
230
1.0
 70
     8
 71
     3
 72
    11
 73
     7
 74
     0
 42
0.0000000001
 43
0.0000000001
 40
0.0
 40
0.0
 40
0.0
 40
0.0
 40
0.2499604181521367
 40
0.4999440245830691
 40
0.7499604206898219
 40
1.0
 40
1.0
 40
1.0
 40
1.0
 10
4122.127455075192
 20
2328.963923711343
 30
0.0
 10
4122.127453500604
 20
2328.964447867554
 30
0.0
 10
4122.127450351282
 20
2328.965496228599
 30
0.0
 10
4122.12742612781
 20
2328.966818415775
 30
0.0
 10
4122.127391505511
 20
2328.967743352432
 30
0.0
 10
4122.127364056598
 20
2328.967863589848
 30
0.0
 10
4122.127350331505
 20
2328.967923711343
 30
0.0
  0
SPLINE
  5
13F0
330
1F
100
AcDbEntity
  8
SANINDUSA
100
AcDbSpline
210
0.0
220
0.0
230
1.0
 70
     8
 71
     3
 72
    15
 73
    11
 74
     0
 42
0.0000000001
 43
0.0000000001
 40
0.0
 40
0.0
 40
0.0
 40
0.0
 40
0.1244819325072142
 40
0.2495284389349574
 40
0.3745977724308231
 40
0.4996751570250308
 40
0.6247376134404215
 40
0.7497857616188661
 40
0.874821394112647
 40
1.0
 40
1.0
 40
1.0
 40
1.0
 10
4122.126565323284
 20
2328.910423752156
 30
0.0
 10
4122.126591508306
 20
2328.910529352773
 30
0.0
 10
4122.126643997108
 20
2328.910741032947
 30
0.0
 10
4122.126712972192
 20
2328.912355782136
 30
0.0
 10
4122.126763611864
 20
2328.91471597737
 30
0.0
 10
4122.126789468176
 20
2328.917619787498
 30
0.0
 10
4122.126787364619
 20
2328.920685784456
 30
0.0
 10
4122.126757370774
 20
2328.923513757666
 30
0.0
 10
4122.126703968914
 20
2328.925842642751
 30
0.0
 10
4122.126655323483
 20
2328.92663982938
 30
0.0
 10
4122.126630986869
 20
2328.927038650452
 30
0.0
  0
LINE
  5
13F1
330
1F
100
AcDbEntity
  8
SANINDUSA
100
AcDbLine
 10
4122.126630986869
 20
2328.927038650452
 30
0.0
 11
4122.126565327738
 21
2328.927423670093
 31
0.0
  0
SPLINE
  5
13F2
330
1F
100
AcDbEntity
  8
SANINDUSA
100
AcDbSpline
210
0.0
220
0.0
230
1.0
 70
     8
 71
     3
 72
    13
 73
     9
 74
     0
 42
0.0000000001
 43
0.0000000001
 40
0.0
 40
0.0
 40
0.0
 40
0.0
 40
0.0921041628052774
 40
0.2854846102109312
 40
0.4787788785725534
 40
0.6720728664364159
 40
0.8654525118532648
 40
1.0
 40
1.0
 40
1.0
 40
1.0
 10
4122.126442226326
 20
2328.925822842605
 30
0.0
 10
4122.126430228091
 20
2328.925553324162
 30
0.0
 10
4122.126393038558
 20
2328.924717929047
 30
0.0
 10
4122.126354561785
 20
2328.922239003061
 30
0.0
 10
4122.126336079079
 20
2328.918934842937
 30
0.0
 10
4122.126354171141
 20
2328.915611541571
 30
0.0
 10
4122.126396954796
 20
2328.912957956998
 30
0.0
 10
4122.126440078903
 20
2328.912015475152
 30
0.0
 10
4122.126457772592
 20
2328.911628777767
 30
0.0
  0
SPLINE
  5
13F3
330
1F
100
AcDbEntity
  8
SANINDUSA
100
AcDbSpline
210
0.0
220
0.0
230
1.0
 70
     8
 71
     3
 72
    11
 73
     7
 74
     0
 42
0.0000000001
 43
0.0000000001
 40
0.0
 40
0.0
 40
0.0
 40
0.0
 40
0.2500395793101888
 40
0.5000559754169337
 40
0.7500395818478677
 40
1.0
 40
1.0
 40
1.0
 40
1.0
 10
4121.942949445577
 20
2328.967923711343
 30
0.0
 10
4121.942935720485
 20
2328.967863589848
 30
0.0
 10
4121.942908271573
 20
2328.967743352432
 30
0.0
 10
4121.942873649273
 20
2328.966818415775
 30
0.0
 10
4121.942849425802
 20
2328.965496228599
 30
0.0
 10
4121.94284627648
 20
2328.964447867554
 30
0.0
 10
4121.942844701892
 20
2328.963923711343
 30
0.0
  0
LINE
  5
13F5
330
1F
100
AcDbEntity
  8
SANINDUSA
100
AcDbLine
 10
4121.942844701892
 20
2328.963923711343
 30
0.0
 11
4121.942844701892
 21
2328.721611671192
 31
0.0
  0
SPLINE
  5
13F6
330
1F
100
AcDbEntity
  8
SANINDUSA
100
AcDbSpline
210
0.0
220
0.0
230
1.0
 70
     8
 71
     3
 72
    15
 73
    11
 74
     0
 42
0.0000000001
 43
0.0000000001
 40
0.0
 40
0.0
 40
0.0
 40
0.0
 40
0.1251786058863752
 40
0.2502142383801654
 40
0.3752623865589366
 40
0.5003248429743355
 40
0.6254022275688972
 40
0.7504715610640758
 40
0.8755180674925691
 40
1.0
 40
1.0
 40
1.0
 40
1.0
 10
4121.943668790214
 20
2328.927038650452
 30
0.0
 10
4121.9436444536
 20
2328.92663982938
 30
0.0
 10
4121.94359580817
 20
2328.925842642751
 30
0.0
 10
4121.943542406309
 20
2328.923513757666
 30
0.0
 10
4121.943512412463
 20
2328.920685784456
 30
0.0
 10
4121.943510308907
 20
2328.917619787498
 30
0.0
 10
4121.94353616522
 20
2328.91471597737
 30
0.0
 10
4121.943586804892
 20
2328.912355782136
 30
0.0
 10
4121.943655779976
 20
2328.910741032947
 30
0.0
 10
4121.943708268777
 20
2328.910529352773
 30
0.0
 10
4121.943734453799
 20
2328.910423752156
 30
0.0
  0
SPLINE
  5
13F7
330
1F
100
AcDbEntity
  8
SANINDUSA
100
AcDbSpline
210
0.0
220
0.0
230
1.0
 70
     8
 71
     3
 72
    13
 73
     9
 74
     0
 42
0.0000000001
 43
0.0000000001
 40
0.0
 40
0.0
 40
0.0
 40
0.0
 40
0.0921128872238647
 40
0.2854933903808545
 40
0.4787882356047478
 40
0.672083361327644
 40
0.8654646664768263
 40
1.0
 40
1.0
 40
1.0
 40
1.0
 10
4121.94385788528
 20
2328.912033260556
 30
0.0
 10
4121.943869871401
 20
2328.912303659337
 30
0.0
 10
4121.943907021015
 20
2328.913141729528
 30
0.0
 10
4121.943945377217
 20
2328.915623424588
 30
0.0
 10
4121.943963698151
 20
2328.91892889873
 30
0.0
 10
4121.943945443434
 20
2328.922250902156
 30
0.0
 10
4121.943902531234
 20
2328.92490138147
 30
0.0
 10
4121.94385936272
 20
2328.92584074987
 30
0.0
 10
4121.943841651846
 20
2328.926226147334
 30
0.0
  0
LINE
  5
13F8
330
1F
100
AcDbEntity
  8
SANINDUSA
100
AcDbLine
 10
4121.943734449346
 20
2328.927423670093
 30
0.0
 11
4121.943668790214
 21
2328.927038650452
 31
0.0
  0
ARC
  5
13F9
330
1F
100
AcDbEntity
  8
SANINDUSA
100
AcDbCircle
 10
4121.943949274269
 20
2328.967923882651
 30
0.0
 40
0.0009998287065411
100
AcDbArc
 50
90.00982063772005
 51
180.009817224497
  0
LINE
  5
13FA
330
1F
100
AcDbEntity
  8
SANINDUSA
100
AcDbLine
 10
4121.948948003317
 20
2328.968923711343
 30
0.0
 11
4121.943949102948
 21
2328.968923711343
 31
0.0
  0
ARC
  5
13FB
330
1F
100
AcDbEntity
  8
SANINDUSA
100
AcDbCircle
 10
4122.126350502814
 20
2328.967923882651
 30
0.0
 40
0.0009998287065411
100
AcDbArc
 50
359.990182775503
 51
89.99017936227998
  0
LINE
  5
13FF
330
1F
100
AcDbEntity
  8
SANINDUSA
100
AcDbLine
 10
4122.127455075192
 20
2328.963923711343
 30
0.0
 11
4122.127455417866
 21
2328.963923711343
 31
0.0
  0
LINE
  5
1400
330
1F
100
AcDbEntity
  8
SANINDUSA
100
AcDbLine
 10
4122.127455417866
 20
2328.721611671192
 30
0.0
 11
4122.127455075192
 21
2328.721611671192
 31
0.0
  0
LINE
  5
1407
330
1F
100
AcDbEntity
  8
SANINDUSA
100
AcDbLine
 10
4121.819172273798
 20
2329.052441089563
 30
0.0
 11
4121.819172273798
 21
2329.082441089563
 31
0.0
  0
LINE
  5
1408
330
1F
100
AcDbEntity
  8
SANINDUSA
100
AcDbLine
 10
4122.244172273798
 20
2329.042441089563
 30
0.0
 11
4121.824172273798
 21
2329.042441089563
 31
0.0
  0
LINE
  5
140C
330
1F
100
AcDbEntity
  8
SANINDUSA
100
AcDbLine
 10
4121.824172273796
 20
2329.092441089563
 30
0.0
 11
4122.244172273798
 21
2329.092441089563
 31
0.0
  0
LINE
  5
140F
330
1F
100
AcDbEntity
  8
SANINDUSA
100
AcDbLine
 10
4122.249172273797
 20
2329.082441089563
 30
0.0
 11
4122.249172273797
 21
2329.052441089563
 31
0.0
  0
SPLINE
  5
1411
330
1F
100
AcDbEntity
  8
SANINDUSA
100
AcDbSpline
210
0.0
220
0.0
230
1.0
 70
     8
 71
     3
 72
    11
 73
     7
 74
     0
 42
0.0000000001
 43
0.0000000001
 40
0.0
 40
0.0
 40
0.0
 40
0.0
 40
0.2500000000000019
 40
0.5000000000000007
 40
0.7500000000000004
 40
1.0
 40
1.0
 40
1.0
 40
1.0
 10
4122.249172273797
 20
2329.087441089561
 30
0.0
 10
4122.249097115934
 20
2329.08809627478
 30
0.0
 10
4122.248946800207
 20
2329.089406645218
 30
0.0
 10
4122.247790554141
 20
2329.091059369905
 30
0.0
 10
4122.246137829455
 20
2329.092215615971
 30
0.0
 10
4122.244827459017
 20
2329.092365931699
 30
0.0
 10
4122.244172273798
 20
2329.092441089563
 30
0.0
  0
SPLINE
  5
1412
330
1F
100
AcDbEntity
  8
SANINDUSA
100
AcDbSpline
210
0.0
220
0.0
230
1.0
 70
    24
 71
     3
 72
    11
 73
     7
 74
     0
 42
0.0000000001
 43
0.0000000001
 40
0.0
 40
0.0
 40
0.0
 40
0.0
 40
0.2499999999977466
 40
0.5000000000000016
 40
0.7500000000022444
 40
1.0
 40
1.0
 40
1.0
 40
1.0
 10
4122.249172273797
 20
2329.082441089561
 30
0.0
 10
4122.249172273797
 20
2329.08309627478
 30
0.0
 10
4122.249172273797
 20
2329.084406645219
 30
0.0
 10
4122.249172273797
 20
2329.086059369904
 30
0.0
 10
4122.249172273797
 20
2329.087215615971
 30
0.0
 10
4122.249172273797
 20
2329.087365931698
 30
0.0
 10
4122.249172273797
 20
2329.087441089562
 30
0.0
  0
SPLINE
  5
1413
330
1F
100
AcDbEntity
  8
SANINDUSA
100
AcDbSpline
210
0.0
220
0.0
230
1.0
 70
    24
 71
     3
 72
    11
 73
     7
 74
     0
 42
0.0000000001
 43
0.0000000001
 40
0.0
 40
0.0
 40
0.0
 40
0.0
 40
0.2499999999977496
 40
0.4999999999999982
 40
0.7500000000022574
 40
1.0
 40
1.0
 40
1.0
 40
1.0
 10
4121.819172273798
 20
2329.087441089562
 30
0.0
 10
4121.819172273798
 20
2329.087365931699
 30
0.0
 10
4121.819172273798
 20
2329.087215615971
 30
0.0
 10
4121.819172273798
 20
2329.086059369905
 30
0.0
 10
4121.819172273798
 20
2329.08440664522
 30
0.0
 10
4121.819172273798
 20
2329.083096274782
 30
0.0
 10
4121.819172273798
 20
2329.082441089563
 30
0.0
  0
SPLINE
  5
1414
330
1F
100
AcDbEntity
  8
SANINDUSA
100
AcDbSpline
210
0.0
220
0.0
230
1.0
 70
     8
 71
     3
 72
    11
 73
     7
 74
     0
 42
0.0000000001
 43
0.0000000001
 40
0.0
 40
0.0
 40
0.0
 40
0.0
 40
0.2500000000000048
 40
0.5
 40
0.7500000000000007
 40
1.0
 40
1.0
 40
1.0
 40
1.0
 10
4121.824172273796
 20
2329.092441089563
 30
0.0
 10
4121.823517088578
 20
2329.092365931699
 30
0.0
 10
4121.822206718141
 20
2329.092215615971
 30
0.0
 10
4121.820553993455
 20
2329.091059369906
 30
0.0
 10
4121.81939774739
 20
2329.089406645222
 30
0.0
 10
4121.819247431662
 20
2329.088096274784
 30
0.0
 10
4121.819172273798
 20
2329.087441089565
 30
0.0
  0
SPLINE
  5
1415
330
1F
100
AcDbEntity
  8
SANINDUSA
100
AcDbSpline
210
0.0
220
0.0
230
1.0
 70
    24
 71
     3
 72
    11
 73
     7
 74
     0
 42
0.0000000001
 43
0.0000000001
 40
0.0
 40
0.0
 40
0.0
 40
0.0
 40
0.2499999999977507
 40
0.5000000000000027
 40
0.7500000000022529
 40
1.0
 40
1.0
 40
1.0
 40
1.0
 10
4121.819172273798
 20
2329.047441089564
 30
0.0
 10
4121.819172273798
 20
2329.047516247428
 30
0.0
 10
4121.819172273798
 20
2329.047666563155
 30
0.0
 10
4121.819172273798
 20
2329.048822809222
 30
0.0
 10
4121.819172273798
 20
2329.050475533907
 30
0.0
 10
4121.819172273798
 20
2329.051785904346
 30
0.0
 10
4121.819172273798
 20
2329.052441089565
 30
0.0
  0
SPLINE
  5
1416
330
1F
100
AcDbEntity
  8
SANINDUSA
100
AcDbSpline
210
0.0
220
0.0
230
1.0
 70
     8
 71
     3
 72
    11
 73
     7
 74
     0
 42
0.0000000001
 43
0.0000000001
 40
0.0
 40
0.0
 40
0.0
 40
0.0
 40
0.2500000000000016
 40
0.4999999999999999
 40
0.7500000000000002
 40
0.9999999999999998
 40
0.9999999999999998
 40
0.9999999999999998
 40
0.9999999999999998
 10
4121.819172273798
 20
2329.047441089565
 30
0.0
 10
4121.819247431661
 20
2329.046785904346
 30
0.0
 10
4121.819397747389
 20
2329.045475533908
 30
0.0
 10
4121.820553993454
 20
2329.043822809222
 30
0.0
 10
4121.822206718139
 20
2329.042666563156
 30
0.0
 10
4121.823517088578
 20
2329.042516247427
 30
0.0
 10
4121.824172273796
 20
2329.042441089563
 30
0.0
  0
SPLINE
  5
1417
330
1F
100
AcDbEntity
  8
SANINDUSA
100
AcDbSpline
210
0.0
220
0.0
230
1.0
 70
    24
 71
     3
 72
    11
 73
     7
 74
     0
 42
0.0000000001
 43
0.0000000001
 40
0.0
 40
0.0
 40
0.0
 40
0.0
 40
0.2499999999977398
 40
0.5000000000000006
 40
0.7500000000022459
 40
1.0
 40
1.0
 40
1.0
 40
1.0
 10
4122.249172273797
 20
2329.052441089561
 30
0.0
 10
4122.249172273797
 20
2329.051785904343
 30
0.0
 10
4122.249172273797
 20
2329.050475533906
 30
0.0
 10
4122.249172273797
 20
2329.048822809221
 30
0.0
 10
4122.249172273797
 20
2329.047666563155
 30
0.0
 10
4122.249172273797
 20
2329.047516247428
 30
0.0
 10
4122.249172273797
 20
2329.047441089564
 30
0.0
  0
SPLINE
  5
1418
330
1F
100
AcDbEntity
  8
SANINDUSA
100
AcDbSpline
210
0.0
220
0.0
230
1.0
 70
     8
 71
     3
 72
    11
 73
     7
 74
     0
 42
0.0000000001
 43
0.0000000001
 40
0.0
 40
0.0
 40
0.0
 40
0.0
 40
0.2500000000000011
 40
0.5000000000000023
 40
0.7500000000000007
 40
0.9999999999999998
 40
0.9999999999999998
 40
0.9999999999999998
 40
0.9999999999999998
 10
4122.244172273799
 20
2329.042441089563
 30
0.0
 10
4122.244827459017
 20
2329.042516247427
 30
0.0
 10
4122.246137829455
 20
2329.042666563156
 30
0.0
 10
4122.24779055414
 20
2329.04382280922
 30
0.0
 10
4122.248946800205
 20
2329.045475533905
 30
0.0
 10
4122.249097115933
 20
2329.046785904342
 30
0.0
 10
4122.249172273797
 20
2329.047441089561
 30
0.0
  0
LINE
  5
1419
330
1F
100
AcDbEntity
  8
SANINDUSA
100
AcDbLine
 10
4121.852253167981
 20
2329.019697433534
 30
0.0
 11
4121.846582537646
 21
2329.042441089563
 31
0.0
  0
LINE
  5
141B
330
1F
100
AcDbEntity
  8
SANINDUSA
100
AcDbLine
 10
4122.221762009949
 20
2329.042441089563
 30
0.0
 11
4122.216091379613
 21
2329.019697433534
 31
0.0
  0
SPLINE
  5
1420
330
1F
100
AcDbEntity
  8
SANINDUSA
100
AcDbSpline
210
0.0
220
0.0
230
1.0
 70
    24
 71
     3
 72
    19
 73
    15
 74
     0
 42
0.0000000001
 43
0.0000000001
 40
0.0
 40
0.0
 40
0.0
 40
0.0
 40
0.0439148796304148
 40
0.0985309224292792
 40
0.2501651584638918
 40
0.382324720851022
 40
0.4990832205256459
 40
0.5673361876576095
 40
0.6295349547026059
 40
0.6890806059897537
 40
0.7498239036310835
 40
0.8099653109454227
 40
0.870008307117644
 40
1.0
 40
1.0
 40
1.0
 40
1.0
 10
4122.215919899946
 20
2329.019024995261
 30
0.0
 10
4122.215920890037
 20
2329.019028804203
 30
0.0
 10
4122.215923111486
 20
2329.01903735025
 30
0.0
 10
4122.215936181818
 20
2329.019087731484
 30
0.0
 10
4122.215957981956
 20
2329.019172187963
 30
0.0
 10
4122.215986078088
 20
2329.019281907718
 30
0.0
 10
4122.216010661466
 20
2329.019378447998
 30
0.0
 10
4122.216030470927
 20
2329.019456527436
 30
0.0
 10
4122.216045617918
 20
2329.019516345373
 30
0.0
 10
4122.21605918894
 20
2329.019570004823
 30
0.0
 10
4122.216070661499
 20
2329.019615399226
 30
0.0
 10
4122.21607989964
 20
2329.019651985115
 30
0.0
 10
4122.216089267459
 20
2329.019689089873
 30
0.0
 10
4122.216090521194
 20
2329.019694044547
 30
0.0
 10
4122.216091378801
 20
2329.019697433752
 30
0.0
  0
SPLINE
  5
1421
330
1F
100
AcDbEntity
  8
SANINDUSA
100
AcDbSpline
210
0.0
220
0.0
230
1.0
 70
     8
 71
     3
 72
    21
 73
    17
 74
     0
 42
0.0000000001
 43
0.0000000001
 40
0.0
 40
0.0
 40
0.0
 40
0.0
 40
0.0605750986758029
 40
0.1230668634792469
 40
0.1856850294856109
 40
0.248325963231736
 40
0.331840191576035
 40
0.3795886978867374
 40
0.4153578349527295
 40
0.4988768266939927
 40
0.582396381852489
 40
0.665917434301205
 40
0.7494396677356638
 40
0.8329597591740876
 40
0.9164799069591616
 40
1.0
 40
1.0
 40
1.0
 40
1.0
 10
4122.157766234801
 20
2328.970593209991
 30
0.0
 10
4122.159390031452
 20
2328.970748140863
 30
0.0
 10
4122.162689003555
 20
2328.971062904796
 30
0.0
 10
4122.167601973421
 20
2328.972016628198
 30
0.0
 10
4122.172487342453
 20
2328.973330329323
 30
0.0
 10
4122.177772431246
 20
2328.975242267247
 30
0.0
 10
4122.182568673143
 20
2328.97735271214
 30
0.0
 10
4122.186369113772
 20
2328.97976177198
 30
0.0
 10
4122.190283008271
 20
2328.981979549295
 30
0.0
 10
4122.194604897902
 20
2328.98535122637
 30
0.0
 10
4122.19959190791
 20
2328.989897365669
 30
0.0
 10
4122.204051343568
 20
2328.994976263208
 30
0.0
 10
4122.207971788838
 20
2329.000478273461
 30
0.0
 10
4122.211285873155
 20
2329.006362851993
 30
0.0
 10
4122.214021865982
 20
2329.012546695191
 30
0.0
 10
4122.215287099454
 20
2329.016865081361
 30
0.0
 10
4122.215919715983
 20
2329.019024273738
 30
0.0
  0
LINE
  5
1422
330
1F
100
AcDbEntity
  8
SANINDUSA
100
AcDbLine
 10
4122.157766231958
 20
2328.970593209781
 30
0.0
 11
4122.157736536645
 21
2328.97059145987
 31
0.0
  0
SPLINE
  5
1423
330
1F
100
AcDbEntity
  8
SANINDUSA
100
AcDbSpline
210
0.0
220
0.0
230
1.0
 70
    24
 71
     3
 72
    11
 73
     7
 74
     0
 42
0.0000000001
 43
0.0000000001
 40
0.0
 40
0.0
 40
0.0
 40
0.0
 40
0.2499999944978572
 40
0.4999999926617628
 40
0.7499999944951587
 40
1.0
 40
1.0
 40
1.0
 40
1.0
 10
4122.157603240579
 20
2328.970583822932
 30
0.0
 10
4122.157614337765
 20
2328.97058460872
 30
0.0
 10
4122.157636532133
 20
2328.970586180297
 30
0.0
 10
4122.157669822124
 20
2328.970588559637
 30
0.0
 10
4122.157703111066
 20
2328.970590953627
 30
0.0
 10
4122.157725302635
 20
2328.970592564268
 30
0.0
 10
4122.15773639842
 20
2328.970593369589
 30
0.0
  0
LINE
  5
1424
330
1F
100
AcDbEntity
  8
SANINDUSA
100
AcDbLine
 10
4122.157750669355
 20
2328.970592060739
 30
0.0
 11
4122.157603240871
 21
2328.970583818286
 31
0.0
  0
SPLINE
  5
1425
330
1F
100
AcDbEntity
  8
SANINDUSA
100
AcDbSpline
210
0.0
220
0.0
230
1.0
 70
     8
 71
     3
 72
    21
 73
    17
 74
     0
 42
0.0000000001
 43
0.0000000001
 40
0.0
 40
0.0
 40
0.0
 40
0.0
 40
0.0835200930408385
 40
0.1670402408259124
 40
0.2505603322643363
 40
0.3340825656987951
 40
0.4176036181475111
 40
0.4876269235054245
 40
0.5011231733060074
 40
0.5846421650472705
 40
0.668159808423965
 40
0.7516740367682639
 40
0.8143149705143889
 40
0.8769331365207529
 40
0.9394249013241969
 40
1.0
 40
1.0
 40
1.0
 40
1.0
 10
4121.852424831611
 20
2329.019024273738
 30
0.0
 10
4121.853057380127
 20
2329.016865009652
 30
0.0
 10
4121.854322477573
 20
2329.012546480065
 30
0.0
 10
4121.857059490596
 20
2329.006363712498
 30
0.0
 10
4121.860369698139
 20
2329.000475046538
 30
0.0
 10
4121.86430463059
 20
2328.994988310656
 30
0.0
 10
4121.868472705767
 20
2328.990129043063
 30
0.0
 10
4121.87188972326
 20
2328.987196882851
 30
0.0
 10
4121.875167866885
 20
2328.984118907058
 30
0.0
 10
4121.879166914769
 20
2328.981316256842
 30
0.0
 10
4121.884934076997
 20
2328.977818031499
 30
0.0
 10
4121.89056375921
 20
2328.975227480573
 30
0.0
 10
4121.895859166801
 20
2328.97333380018
 30
0.0
 10
4121.900742051781
 20
2328.972015703903
 30
0.0
 10
4121.905655669868
 20
2328.971063127431
 30
0.0
 10
4121.908954557648
 20
2328.970748214299
 30
0.0
 10
4121.910578312794
 20
2328.970593209991
 30
0.0
  0
SPLINE
  5
1426
330
1F
100
AcDbEntity
  8
SANINDUSA
100
AcDbSpline
210
0.0
220
0.0
230
1.0
 70
    24
 71
     3
 72
    19
 73
    15
 74
     0
 42
0.0000000001
 43
0.0000000001
 40
0.0
 40
0.0
 40
0.0
 40
0.0
 40
0.1299508514738177
 40
0.1900031585376392
 40
0.2501686649940033
 40
0.3108691717245487
 40
0.3703995464114081
 40
0.4326137900753172
 40
0.500910972163604
 40
0.6175956615392156
 40
0.7498296979047807
 40
0.9014472819750237
 40
0.9560683938008555
 40
1.0
 40
1.0
 40
1.0
 40
1.0
 10
4121.852253168793
 20
2329.019697433752
 30
0.0
 10
4121.852254027024
 20
2329.019694042017
 30
0.0
 10
4121.852255281857
 20
2329.019689082906
 30
0.0
 10
4121.852264649211
 20
2329.019651979907
 30
0.0
 10
4121.852273881999
 20
2329.019615415457
 30
0.0
 10
4121.852285349391
 20
2329.019570041649
 30
0.0
 10
4121.852298917857
 20
2329.019516392087
 30
0.0
 10
4121.852314068024
 20
2329.019456561372
 30
0.0
 10
4121.852333876883
 20
2329.019378484463
 30
0.0
 10
4121.852358464274
 20
2329.019281928224
 30
0.0
 10
4121.852386558718
 20
2329.019172214771
 30
0.0
 10
4121.85240836697
 20
2329.01908772698
 30
0.0
 10
4121.852421436196
 20
2329.019037349931
 30
0.0
 10
4121.852423657474
 20
2329.019028804526
 30
0.0
 10
4121.852424647649
 20
2329.019024995261
 30
0.0
  0
LINE
  5
1431
330
1F
100
AcDbEntity
  8
SANINDUSA
100
AcDbLine
 10
4122.157736537345
 20
2328.970591459878
 30
0.0
 11
4122.157750669948
 21
2328.970592061052
 31
0.0
  0
LWPOLYLINE
  5
1432
330
1F
100
AcDbEntity
  8
SANINDUSA
100
AcDbPolyline
 90
        3
 70
   128
 43
0.0
 10
4122.15776623272
 20
2328.970593209838
 10
4122.1577584541
 20
2328.970592635696
 10
4122.157750683752
 20
2328.970592063083
  0
ARC
  5
1435
330
1F
100
AcDbEntity
  8
SANINDUSA
100
AcDbCircle
 10
4121.949007902002
 20
2328.967923783861
 30
0.0
 40
0.0010000516041176
100
AcDbArc
 50
122.3493515965577
 51
180.0041547729342
  0
SPLINE
  5
1436
330
1F
100
AcDbEntity
  8
SANINDUSA
100
AcDbSpline
210
0.0
220
0.0
230
1.0
 70
     8
 71
     3
 72
     9
 73
     5
 74
     0
 42
0.0000000001
 43
0.0000000001
 40
0.0
 40
0.0
 40
0.0
 40
0.0
 40
0.1265542073398213
 40
1.0
 40
1.0
 40
1.0
 40
1.0
 10
4122.072725874363
 20
2328.706520013402
 30
0.0
 10
4122.072818953191
 20
2328.706512849022
 30
0.0
 10
4122.073554439038
 20
2328.706456237868
 30
0.0
 10
4122.073646194978
 20
2328.706395872936
 30
0.0
 10
4122.073726338817
 20
2328.70634314744
 30
0.0
  0
LINE
  5
1437
330
1F
100
AcDbEntity
  8
SANINDUSA
100
AcDbLine
 10
4121.996573438265
 20
2328.70634314744
 30
0.0
 11
4121.996974239023
 21
2328.706428241386
 31
0.0
  0
LINE
  5
1438
330
1F
100
AcDbEntity
  8
SANINDUSA
100
AcDbLine
 10
4122.027562815327
 20
2328.70713331884
 30
0.0
 11
4122.027562815327
 21
2328.707133661515
 31
0.0
  0
LINE
  5
1439
330
1F
100
AcDbEntity
  8
SANINDUSA
100
AcDbLine
 10
4122.042736961756
 20
2328.707133661515
 30
0.0
 11
4122.042736961756
 21
2328.70713331884
 31
0.0
  0
SPLINE
  5
143A
330
1F
100
AcDbEntity
  8
SANINDUSA
100
AcDbSpline
210
0.0
220
0.0
230
1.0
 70
     8
 71
     3
 72
     9
 73
     5
 74
     0
 42
0.0000000001
 43
0.0000000001
 40
0.0
 40
0.0
 40
0.0
 40
0.0
 40
0.7879124878127049
 40
1.0
 40
1.0
 40
1.0
 40
1.0
 10
4121.996573438265
 20
2328.706343147439
 30
0.0
 10
4121.996700788896
 20
2328.706353052795
 30
0.0
 10
4121.996862419322
 20
2328.706365624441
 30
0.0
 10
4121.997001589163
 20
2328.706443070764
 30
0.0
 10
4121.997031105349
 20
2328.706459496163
 30
0.0
  0
SPLINE
  5
143C
330
1F
100
AcDbEntity
  8
SANINDUSA
100
AcDbSpline
210
0.0
220
0.0
230
1.0
 70
     8
 71
     3
 72
     9
 73
     5
 74
     0
 42
0.0000000001
 43
0.0000000001
 40
0.0
 40
0.0
 40
0.0
 40
0.0
 40
0.6551853928344961
 40
1.0
 40
1.0
 40
1.0
 40
1.0
 10
4122.126565327738
 20
2328.927423670093
 30
0.0
 10
4122.126535561095
 20
2328.927342056648
 30
0.0
 10
4122.126490128698
 20
2328.927217491225
 30
0.0
 10
4122.126454508641
 20
2328.926180434807
 30
0.0
 10
4122.126442226326
 20
2328.925822842605
 30
0.0
  0
SPLINE
  5
143D
330
1F
100
AcDbEntity
  8
SANINDUSA
100
AcDbSpline
210
0.0
220
0.0
230
1.0
 70
     8
 71
     3
 72
     9
 73
     5
 74
     0
 42
0.0000000001
 43
0.0000000001
 40
0.0
 40
0.0
 40
0.0
 40
0.0
 40
0.2335258089177427
 40
1.0
 40
1.0
 40
1.0
 40
1.0
 10
4122.126457772592
 20
2328.911628777767
 30
0.0
 10
4122.126464979143
 20
2328.911427033372
 30
0.0
 10
4122.126495838908
 20
2328.910563127171
 30
0.0
 10
4122.126535173973
 20
2328.910484227057
 30
0.0
 10
4122.126565323284
 20
2328.910423752156
 30
0.0
  0
SPLINE
  5
143E
330
1F
100
AcDbEntity
  8
SANINDUSA
100
AcDbSpline
210
0.0
220
0.0
230
1.0
 70
     8
 71
     3
 72
     9
 73
     5
 74
     0
 42
0.0000000001
 43
0.0000000001
 40
0.0
 40
0.0
 40
0.0
 40
0.0
 40
0.6562578381608727
 40
1.0
 40
1.0
 40
1.0
 40
1.0
 10
4121.943734453799
 20
2328.910423752156
 30
0.0
 10
4121.943764364452
 20
2328.910506332303
 30
0.0
 10
4121.943809942045
 20
2328.910632167213
 30
0.0
 10
4121.943845620941
 20
2328.911674847411
 30
0.0
 10
4121.94385788528
 20
2328.912033260556
 30
0.0
  0
SPLINE
  5
143F
330
1F
100
AcDbEntity
  8
SANINDUSA
100
AcDbSpline
210
0.0
220
0.0
230
1.0
 70
     8
 71
     3
 72
     9
 73
     5
 74
     0
 42
0.0000000001
 43
0.0000000001
 40
0.0
 40
0.0
 40
0.0
 40
0.0
 40
0.2344031565120081
 40
1.0
 40
1.0
 40
1.0
 40
1.0
 10
4121.943841651846
 20
2328.926226147334
 30
0.0
 10
4121.943834434076
 20
2328.926427442494
 30
0.0
 10
4121.943803641958
 20
2328.927286198682
 30
0.0
 10
4121.943764452597
 20
2328.927364059838
 30
0.0
 10
4121.943734449346
 20
2328.927423670093
 30
0.0
  0
ARC
  5
1446
330
1F
100
AcDbEntity
  8
SANINDUSA
100
AcDbCircle
 10
4121.944609914925
 20
2328.927051152593
 30
0.0
 40
0.0009412077486591
100
AcDbArc
 50
180.7610869402414
 51
226.2122367751401
  0
LINE
  5
1447
330
1F
100
AcDbEntity
  8
SANINDUSA
100
AcDbLine
 10
4121.942844701894
 20
2328.721611671182
 30
0.0
 11
4121.942844359216
 21
2328.721611671182
 31
0.0
  0
LINE
  5
1448
330
1F
100
AcDbEntity
  8
SANINDUSA
100
AcDbLine
 10
4121.962837848391
 20
2328.701618182017
 30
0.0
 11
4121.962837848391
 21
2328.701618524692
 31
0.0
  0
LINE
  5
144F
330
1F
100
AcDbEntity
  8
SANINDUSA
100
AcDbLine
 10
4122.162883237086
 20
2328.971183329018
 30
0.0
 11
4122.163202027826
 21
2328.971223463857
 31
0.0
  0
LINE
  5
146A
330
1F
100
AcDbEntity
  8
SANINDUSA
100
AcDbLine
 10
4121.504790090976
 20
2328.984336545341
 30
0.0
 11
4121.37349008864
 21
2328.984336545341
 31
0.0
  0
LINE
  5
146C
330
1F
100
AcDbEntity
  8
SANINDUSA
100
AcDbLine
 10
4121.37349008864
 20
2328.738026646548
 30
0.0
 11
4121.504790090976
 21
2328.738026646548
 31
0.0
  0
LINE
  5
146F
330
1F
100
AcDbEntity
  8
SANINDUSA
100
AcDbLine
 10
4121.224140101133
 20
2328.72028159874
 30
0.0
 11
4121.224140101133
 21
2329.082281587296
 31
0.0
  0
LINE
  5
1472
330
1F
100
AcDbEntity
  8
SANINDUSA
100
AcDbLine
 10
4121.649140090702
 20
2328.710281593375
 30
0.0
 11
4121.229140096365
 21
2328.710281593375
 31
0.0
  0
LINE
  5
1475
330
1F
100
AcDbEntity
  8
SANINDUSA
100
AcDbLine
 10
4121.654140093385
 20
2329.082281587296
 30
0.0
 11
4121.654140093385
 21
2328.72028159874
 31
0.0
  0
ARC
  5
1478
330
1F
100
AcDbEntity
  8
SANINDUSA
100
AcDbCircle
 10
4121.504790091816
 20
2328.861181593176
 30
0.0
 40
0.1231549495013687
100
AcDbArc
 50
270.0
 51
90.0
  0
ARC
  5
1479
330
1F
100
AcDbEntity
  8
SANINDUSA
100
AcDbCircle
 10
4121.373490091816
 20
2328.861181593176
 30
0.0
 40
0.1231549495013686
100
AcDbArc
 50
90.0
 51
270.0
  0
ARC
  5
147C
330
1F
100
AcDbEntity
  8
SANINDUSA
100
AcDbCircle
 10
4121.439140091816
 20
2329.037452223317
 30
0.0
 40
0.0175000000002523
100
AcDbArc
 50
270.0
 51
90.0
  0
ARC
  5
147D
330
1F
100
AcDbEntity
  8
SANINDUSA
100
AcDbCircle
 10
4121.439140091816
 20
2329.037452223317
 30
0.0
 40
0.0175000000002523
100
AcDbArc
 50
90.0
 51
270.0
  0
SPLINE
  5
147E
330
1F
100
AcDbEntity
  8
SANINDUSA
100
AcDbSpline
210
0.0
220
0.0
230
1.0
 70
    24
 71
     3
 72
    11
 73
     7
 74
     0
 42
0.0000000001
 43
0.0000000001
 40
0.0
 40
0.0
 40
0.0
 40
0.0
 40
0.2499995904247846
 40
0.4999990635853297
 40
0.7499985367458749
 40
1.0
 40
1.0
 40
1.0
 40
1.0
 10
4121.654140093385
 20
2328.715281588607
 30
0.0
 10
4121.654140093385
 20
2328.715356747359
 30
0.0
 10
4121.654140093385
 20
2328.715507064827
 30
0.0
 10
4121.654140093385
 20
2328.716663315728
 30
0.0
 10
4121.654140093385
 20
2328.718316035434
 30
0.0
 10
4121.654140093385
 20
2328.719626409233
 30
0.0
 10
4121.654140093385
 20
2328.72028159874
 30
0.0
  0
SPLINE
  5
147F
330
1F
100
AcDbEntity
  8
SANINDUSA
100
AcDbSpline
210
0.0
220
0.0
230
1.0
 70
     8
 71
     3
 72
    11
 73
     7
 74
     0
 42
0.0000000001
 43
0.0000000001
 40
0.0
 40
0.0
 40
0.0
 40
0.0
 40
0.2500007609437829
 40
0.5000004682077388
 40
0.7500001754716948
 40
0.9999999999999998
 40
0.9999999999999998
 40
0.9999999999999998
 40
0.9999999999999998
 10
4121.649140090702
 20
2328.710281593375
 30
0.0
 10
4121.649795277606
 20
2328.710356751715
 30
0.0
 10
4121.651105648651
 20
2328.710507068077
 30
0.0
 10
4121.652758366256
 20
2328.711663320531
 30
0.0
 10
4121.653914617167
 20
2328.713316036013
 30
0.0
 10
4121.654064934634
 20
2328.714626404307
 30
0.0
 10
4121.654140093385
 20
2328.715281588607
 30
0.0
  0
SPLINE
  5
1480
330
1F
100
AcDbEntity
  8
SANINDUSA
100
AcDbSpline
210
0.0
220
0.0
230
1.0
 70
    24
 71
     3
 72
    11
 73
     7
 74
     0
 42
0.0000000001
 43
0.0000000001
 40
0.0
 40
0.0
 40
0.0
 40
0.0
 40
0.2500014632541252
 40
0.5000009364146703
 40
0.7500004095752155
 40
1.0
 40
1.0
 40
1.0
 40
1.0
 10
4121.224140101133
 20
2328.72028159874
 30
0.0
 10
4121.224140101133
 20
2328.719626409233
 30
0.0
 10
4121.224140101133
 20
2328.718316035434
 30
0.0
 10
4121.224140101133
 20
2328.716663315728
 30
0.0
 10
4121.224140101133
 20
2328.715507064827
 30
0.0
 10
4121.224140101133
 20
2328.715356747359
 30
0.0
 10
4121.224140101133
 20
2328.715281588607
 30
0.0
  0
SPLINE
  5
1481
330
1F
100
AcDbEntity
  8
SANINDUSA
100
AcDbSpline
210
0.0
220
0.0
230
1.0
 70
     8
 71
     3
 72
    11
 73
     7
 74
     0
 42
0.0000000001
 43
0.0000000001
 40
0.0
 40
0.0
 40
0.0
 40
0.0
 40
0.2499998556426181
 40
0.4999985331478002
 40
0.7499982715260546
 40
1.0
 40
1.0
 40
1.0
 40
1.0
 10
4121.224140101133
 20
2328.715281588607
 30
0.0
 10
4121.224215260934
 20
2328.714626405035
 30
0.0
 10
4121.224365580181
 20
2328.713316040978
 30
0.0
 10
4121.225521811743
 20
2328.711663316249
 30
0.0
 10
4121.227174534046
 20
2328.71050706723
 30
0.0
 10
4121.228484907187
 20
2328.710356751526
 30
0.0
 10
4121.229140096365
 20
2328.710281593375
 30
0.0
  0
LINE
  5
1483
330
1F
100
AcDbEntity
  8
SANINDUSA
100
AcDbLine
 10
4121.649140090702
 20
2329.085281593375
 30
0.0
 11
4121.651140094756
 21
2329.085281593375
 31
0.0
  0
ARC
  5
1484
330
1F
100
AcDbEntity
  8
SANINDUSA
100
AcDbCircle
 10
4121.651140091816
 20
2329.082281593176
 30
0.0
 40
0.0030000000000001
100
AcDbArc
 50
0.0
 51
90.0
  0
LINE
  5
1485
330
1F
100
AcDbEntity
  8
SANINDUSA
100
AcDbLine
 10
4121.229140096365
 20
2329.085281593375
 30
0.0
 11
4121.649140090702
 21
2329.085281593375
 31
0.0
  0
LINE
  5
1487
330
1F
100
AcDbEntity
  8
SANINDUSA
100
AcDbLine
 10
4121.229140096365
 20
2329.085281593375
 30
0.0
 11
4121.227140092312
 21
2329.085281593375
 31
0.0
  0
ARC
  5
1488
330
1F
100
AcDbEntity
  8
SANINDUSA
100
AcDbCircle
 10
4121.227140091816
 20
2329.082281593176
 30
0.0
 40
0.0030000000000001
100
AcDbArc
 50
90.0
 51
180.0
  0
SPLINE
  5
148A
330
1F
100
AcDbEntity
  8
SANINDUSA
100
AcDbSpline
210
0.0
220
0.0
230
1.0
 70
     8
 71
     3
 72
    14
 73
    10
 74
     0
 42
0.0000000001
 43
0.0000000001
 40
0.0
 40
0.0
 40
0.0
 40
0.0
 40
0.1497775813138525
 40
0.2877940425255086
 40
0.4290316373074162
 40
0.5693775040448039
 40
0.7165417223807962
 40
0.8589462080230624
 40
1.0
 40
1.0
 40
1.0
 40
1.0
 10
4121.504790090976
 20
2328.967395679676
 30
0.0
 10
4121.501513586002
 20
2328.967363955916
 30
0.0
 10
4121.495217860007
 20
2328.967302999472
 30
0.0
 10
4121.485831244955
 20
2328.967219598604
 30
0.0
 10
4121.476649556838
 20
2328.967147892226
 30
0.0
 10
4121.467266029955
 20
2328.967088169157
 30
0.0
 10
4121.457858857126
 20
2328.967014064797
 30
0.0
 10
4121.448434193263
 20
2328.966951210547
 30
0.0
 10
4121.442228267105
 20
2328.966942828426
 30
0.0
 10
4121.439140089808
 20
2328.966938657337
 30
0.0
  0
SPLINE
  5
148B
330
1F
100
AcDbEntity
  8
SANINDUSA
100
AcDbSpline
210
0.0
220
0.0
230
1.0
 70
     8
 71
     3
 72
    13
 73
     9
 74
     0
 42
0.0000000001
 43
0.0000000001
 40
0.0
 40
0.0
 40
0.0
 40
0.0
 40
0.1634417863407943
 40
0.3273298313978488
 40
0.4999197305319711
 40
0.6644102145870471
 40
0.8270475928629799
 40
1.0
 40
1.0
 40
1.0
 40
1.0
 10
4121.439140089808
 20
2328.966938657337
 30
0.0
 10
4121.435561752551
 20
2328.966944347373
 30
0.0
 10
4121.428395307803
 20
2328.96695574298
 30
0.0
 10
4121.417455073099
 20
2328.967037814535
 30
0.0
 10
4121.406492563359
 20
2328.967119173892
 30
0.0
 10
4121.395556120122
 20
2328.967191879649
 30
0.0
 10
4121.384614927128
 20
2328.967288553123
 30
0.0
 10
4121.37727358512
 20
2328.967359246524
 30
0.0
 10
4121.37349008864
 20
2328.967395679676
 30
0.0
  0
SPLINE
  5
148D
330
1F
100
AcDbEntity
  8
SANINDUSA
100
AcDbSpline
210
0.0
220
0.0
230
1.0
 70
     8
 71
     3
 72
    23
 73
    19
 74
     0
 42
0.0000000001
 43
0.0000000001
 40
0.0
 40
0.0
 40
0.0
 40
0.0
 40
0.042423849609491
 40
0.090420722659775
 40
0.144503522020335
 40
0.2049698118889443
 40
0.2717344514175914
 40
0.3441509337658375
 40
0.4208945059469828
 40
0.4999999483325579
 40
0.5791054103849611
 40
0.6558490938649796
 40
0.7282655925292188
 40
0.7950302185714496
 40
0.8554965187751118
 40
0.909579253694207
 40
0.9575761596479159
 40
1.0
 40
1.0
 40
1.0
 40
1.0
 10
4121.439140089808
 20
2328.971398858004
 30
0.0
 10
4121.439783557284
 20
2328.971404905549
 30
0.0
 10
4121.441155021557
 20
2328.971417795075
 30
0.0
 10
4121.44330599534
 20
2328.971532047428
 30
0.0
 10
4121.445615229968
 20
2328.971746531799
 30
0.0
 10
4121.447974412427
 20
2328.972095693329
 30
0.0
 10
4121.450208336769
 20
2328.972597339899
 30
0.0
 10
4121.45208269369
 20
2328.973254792918
 30
0.0
 10
4121.453344018035
 20
2328.974042963974
 30
0.0
 10
4121.453790368685
 20
2328.974906723195
 30
0.0
 10
4121.453344017244
 20
2328.975770496706
 30
0.0
 10
4121.452082694778
 20
2328.976558648549
 30
0.0
 10
4121.450208337449
 20
2328.977216115008
 30
0.0
 10
4121.447974411394
 20
2328.977717750335
 30
0.0
 10
4121.445615232484
 20
2328.978066921872
 30
0.0
 10
4121.443305992374
 20
2328.978281398816
 30
0.0
 10
4121.441155022927
 20
2328.978395651232
 30
0.0
 10
4121.439783557511
 20
2328.9784085439
 30
0.0
 10
4121.439140089808
 20
2328.978414592915
 30
0.0
  0
SPLINE
  5
148E
330
1F
100
AcDbEntity
  8
SANINDUSA
100
AcDbSpline
210
0.0
220
0.0
230
1.0
 70
     8
 71
     3
 72
    23
 73
    19
 74
     0
 42
0.0000000001
 43
0.0000000001
 40
0.0
 40
0.0
 40
0.0
 40
0.0
 40
0.0424236883756936
 40
0.0904207676619965
 40
0.1445033644172354
 40
0.2049696810318432
 40
0.2717343251944259
 40
0.3441508435129719
 40
0.4208945478217231
 40
0.50000005166729
 40
0.5791055358460282
 40
0.6558491288558761
 40
0.7282656308584246
 40
0.7950302885074271
 40
0.855496594786979
 40
0.9095792559838823
 40
0.9575763023668613
 40
1.0
 40
1.0
 40
1.0
 40
1.0
 10
4121.439140089808
 20
2328.978414592915
 30
0.0
 10
4121.43849662466
 20
2328.978408543808
 30
0.0
 10
4121.437125159451
 20
2328.978395650896
 30
0.0
 10
4121.434974191354
 20
2328.978281399487
 30
0.0
 10
4121.432664952986
 20
2328.978066921317
 30
0.0
 10
4121.430305775509
 20
2328.977717750418
 30
0.0
 10
4121.428071849852
 20
2328.97721611498
 30
0.0
 10
4121.426197491453
 20
2328.976558648571
 30
0.0
 10
4121.424936173038
 20
2328.975770496575
 30
0.0
 10
4121.424489805498
 20
2328.974906723195
 30
0.0
 10
4121.424936172249
 20
2328.974042964105
 30
0.0
 10
4121.426197492541
 20
2328.973254792896
 30
0.0
 10
4121.428071850533
 20
2328.972597339927
 30
0.0
 10
4121.430305774478
 20
2328.972095693246
 30
0.0
 10
4121.4326649555
 20
2328.971746532355
 30
0.0
 10
4121.434974188388
 20
2328.971532046757
 30
0.0
 10
4121.437125160822
 20
2328.971417795411
 30
0.0
 10
4121.438496624888
 20
2328.97140490564
 30
0.0
 10
4121.439140089808
 20
2328.971398858004
 30
0.0
  0
SPLINE
  5
148F
330
1F
100
AcDbEntity
  8
SANINDUSA
100
AcDbSpline
210
0.0
220
0.0
230
1.0
 70
     8
 71
     3
 72
    47
 73
    43
 74
     0
 42
0.0000000001
 43
0.0000000001
 40
0.0
 40
0.0
 40
0.0
 40
0.0
 40
0.0281756426045241
 40
0.0572364956443115
 40
0.0871823967730366
 40
0.1180131773148744
 40
0.149728441315221
 40
0.1823279135856459
 40
0.1956202838584954
 40
0.2090541571264031
 40
0.222629568857778
 40
0.2363464431150612
 40
0.2502048133706152
 40
0.2807989561248722
 40
0.3118397742561435
 40
0.3433269028880113
 40
0.3752598380255015
 40
0.406472047623763
 40
0.4376994766725579
 40
0.4689416819894099
 40
0.5001981607011984
 40
0.5257084677757577
 40
0.550953224272908
 40
0.5759322037006763
 40
0.6006451589479557
 40
0.6250919012426542
 40
0.6467508834019108
 40
0.6680730786702373
 40
0.6890583518823853
 40
0.7097066462287351
 40
0.7300178502721081
 40
0.7499918230620047
 40
0.7718907870213878
 40
0.7933609036198173
 40
0.8144021080665739
 40
0.8350142950006651
 40
0.8551974643230101
 40
0.8749514741738266
 40
0.9077159223738545
 40
0.9394789836699576
 40
0.9702403664873207
 40
0.9999999999999998
 40
0.9999999999999998
 40
0.9999999999999998
 40
0.9999999999999998
 10
4121.37349008864
 20
2328.754811284714
 30
0.0
 10
4121.370348086887
 20
2328.754882182381
 30
0.0
 10
4121.363965369299
 20
2328.755026205147
 30
0.0
 10
4121.35431728202
 20
2328.756352637725
 30
0.0
 10
4121.344539918029
 20
2328.758572596809
 30
0.0
 10
4121.334738585171
 20
2328.761828945267
 30
0.0
 10
4121.325033730869
 20
2328.766149272453
 30
0.0
 10
4121.31751225278
 20
2328.770458415341
 30
0.0
 10
4121.312024808067
 20
2328.774152180359
 30
0.0
 10
4121.308405383135
 20
2328.776816225692
 30
0.0
 10
4121.3048655982
 20
2328.779661215632
 30
0.0
 10
4121.301415456773
 20
2328.78268683384
 30
0.0
 10
4121.296728802644
 20
2328.787170794479
 30
0.0
 10
4121.291059606716
 20
2328.793409928441
 30
0.0
 10
4121.284845442502
 20
2328.801745718712
 30
0.0
 10
4121.27940192464
 20
2328.810780155307
 30
0.0
 10
4121.274876692772
 20
2328.820329494703
 30
0.0
 10
4121.271330301403
 20
2328.830252128226
 30
0.0
 10
4121.268792348038
 20
2328.840399950909
 30
0.0
 10
4121.267260946576
 20
2328.850752422853
 30
0.0
 10
4121.266783715154
 20
2328.860568281116
 30
0.0
 10
4121.267155781037
 20
2328.869712660463
 30
0.0
 10
4121.268171431009
 20
2328.878103086341
 30
0.0
 10
4121.269828138223
 20
2328.886299728392
 30
0.0
 10
4121.272095145497
 20
2328.894256194762
 30
0.0
 10
4121.274841233991
 20
2328.90166637515
 30
0.0
 10
4121.277959376175
 20
2328.908512082964
 30
0.0
 10
4121.281349426985
 20
2328.914791634492
 30
0.0
 10
4121.285089482765
 20
2328.92073617601
 30
0.0
 10
4121.289144435233
 20
2328.92633161911
 30
0.0
 10
4121.293479412994
 20
2328.931567180366
 30
0.0
 10
4121.298232866101
 20
2328.93661888614
 30
0.0
 10
4121.303404275974
 20
2328.941435262033
 30
0.0
 10
4121.308984547289
 20
2328.945962147102
 30
0.0
 10
4121.314737851671
 20
2328.950022491339
 30
0.0
 10
4121.320622383051
 20
2328.953621538653
 30
0.0
 10
4121.326599002707
 20
2328.95676811378
 30
0.0
 10
4121.33399760918
 20
2328.960085810345
 30
0.0
 10
4121.34287562482
 20
2328.963217628267
 30
0.0
 10
4121.353217658155
 20
2328.965697562978
 30
0.0
 10
4121.363422676114
 20
2328.9671701808
 30
0.0
 10
4121.370171520291
 20
2328.967321347425
 30
0.0
 10
4121.37349008864
 20
2328.967395679676
 30
0.0
  0
SPLINE
  5
1492
330
1F
100
AcDbEntity
  8
SANINDUSA
100
AcDbSpline
210
0.0
220
0.0
230
1.0
 70
     8
 71
     3
 72
    47
 73
    43
 74
     0
 42
0.0000000001
 43
0.0000000001
 40
0.0
 40
0.0
 40
0.0
 40
0.0
 40
0.0197322425867458
 40
0.0399100254508007
 40
0.0605333340720469
 40
0.0816021401367244
 40
0.1031163834035924
 40
0.1250759924234066
 40
0.1448297454421545
 40
0.1650126543119619
 40
0.1856246723896555
 40
0.2066657468862601
 40
0.2281357951969693
 40
0.2500347280167008
 40
0.2740418816480838
 40
0.2985345491481853
 40
0.3235125621032471
 40
0.348975745559267
 40
0.374923892499975
 40
0.4055192420348456
 40
0.4365304428673359
 40
0.4679570664495102
 40
0.4997986333031745
 40
0.5310546921773164
 40
0.5622966063669239
 40
0.5935238654522812
 40
0.6247360345633641
 40
0.6430429210244267
 40
0.6612042388637876
 40
0.679219864238962
 40
0.6970897539570694
 40
0.7148138071270962
 40
0.7323919669854213
 40
0.7498241281404108
 40
0.7841903591768063
 40
0.8176733236392209
 40
0.850272532263601
 40
0.8819875721800034
 40
0.9128180918739749
 40
0.9427638222993289
 40
0.9718245143011776
 40
1.0
 40
1.0
 40
1.0
 40
1.0
 10
4121.504790090976
 20
2328.967395679676
 30
0.0
 10
4121.506989946184
 20
2328.967366685968
 30
0.0
 10
4121.511439327796
 20
2328.967308043894
 30
0.0
 10
4121.518164203654
 20
2328.966680573819
 30
0.0
 10
4121.524983681913
 20
2328.96562867061
 30
0.0
 10
4121.531864548193
 20
2328.964088974828
 30
0.0
 10
4121.538769737948
 20
2328.962050366696
 30
0.0
 10
4121.545381762596
 20
2328.959593257994
 30
0.0
 10
4121.551681237305
 20
2328.956768000111
 30
0.0
 10
4121.557657712703
 20
2328.953621605061
 30
0.0
 10
4121.563542277603
 20
2328.950022528204
 30
0.0
 10
4121.569295569478
 20
2328.945962195513
 30
0.0
 10
4121.574875907298
 20
2328.941435263327
 30
0.0
 10
4121.580376484172
 20
2328.936312332129
 30
0.0
 10
4121.585723206334
 20
2328.930557363472
 30
0.0
 10
4121.590829451339
 20
2328.924142288258
 30
0.0
 10
4121.595512428604
 20
2328.917214545789
 30
0.0
 10
4121.599711557021
 20
2328.909795538764
 30
0.0
 10
4121.603561286682
 20
2328.90149278467
 30
0.0
 10
4121.606869467417
 20
2328.892293599217
 30
0.0
 10
4121.609422361163
 20
2328.882224584917
 30
0.0
 10
4121.610996755367
 20
2328.871815659592
 30
0.0
 10
4121.611530858203
 20
2328.86127396748
 30
0.0
 10
4121.611019235002
 20
2328.850752623413
 30
0.0
 10
4121.609487841777
 20
2328.840399912985
 30
0.0
 10
4121.606949990191
 20
2328.830252450098
 30
0.0
 10
4121.60391516589
 20
2328.82176139991
 30
0.0
 10
4121.600829457725
 20
2328.814872299059
 30
0.0
 10
4121.59803157968
 20
2328.809477429888
 30
0.0
 10
4121.594956487455
 20
2328.804292448433
 30
0.0
 10
4121.591621119256
 20
2328.799329605033
 30
0.0
 10
4121.588042876539
 20
2328.794600105769
 30
0.0
 10
4121.58423919672
 20
2328.79011359628
 30
0.0
 10
4121.578918663408
 20
2328.78449614508
 30
0.0
 10
4121.571825837896
 20
2328.778135182689
 30
0.0
 10
4121.56272347259
 20
2328.771578581815
 30
0.0
 10
4121.553246827377
 20
2328.766149528199
 30
0.0
 10
4121.543541546414
 20
2328.761828900084
 30
0.0
 10
4121.533740322634
 20
2328.75857262822
 30
0.0
 10
4121.523962926874
 20
2328.756352629012
 30
0.0
 10
4121.514314828465
 20
2328.755026207217
 30
0.0
 10
4121.507932098686
 20
2328.754882183063
 30
0.0
 10
4121.504790090976
 20
2328.754811284714
 30
0.0
  0
SPLINE
  5
1493
330
1F
100
AcDbEntity
  8
SANINDUSA
100
AcDbSpline
210
0.0
220
0.0
230
1.0
 70
     8
 71
     3
 72
    15
 73
    11
 74
     0
 42
0.0000000001
 43
0.0000000001
 40
0.0
 40
0.0
 40
0.0
 40
0.0
 40
0.1221704597326588
 40
0.2499806844836286
 40
0.3654073154668691
 40
0.499965784766154
 40
0.6249597724269572
 40
0.7499597002450617
 40
0.8692410796540002
 40
1.0
 40
1.0
 40
1.0
 40
1.0
 10
4121.439140089808
 20
2328.754976449185
 30
0.0
 10
4121.441813805676
 20
2328.75497593227
 30
0.0
 10
4121.447284664379
 20
2328.754974874579
 30
0.0
 10
4121.455281594355
 20
2328.754967042305
 30
0.0
 10
4121.463549550276
 20
2328.754955264405
 30
0.0
 10
4121.471755770325
 20
2328.754939974075
 30
0.0
 10
4121.480171532327
 20
2328.754925277146
 30
0.0
 10
4121.488252607747
 20
2328.754901045747
 30
0.0
 10
4121.496458905312
 20
2328.754862231348
 30
0.0
 10
4121.501929326602
 20
2328.754828778781
 30
0.0
 10
4121.504790090976
 20
2328.754811284714
 30
0.0
  0
SPLINE
  5
1494
330
1F
100
AcDbEntity
  8
SANINDUSA
100
AcDbSpline
210
0.0
220
0.0
230
1.0
 70
     8
 71
     3
 72
    14
 73
    10
 74
     0
 42
0.0000000001
 43
0.0000000001
 40
0.0
 40
0.0
 40
0.0
 40
0.0
 40
0.1485066493269952
 40
0.2871627552141185
 40
0.4247209267632367
 40
0.5792738167780068
 40
0.7189963366870016
 40
0.8599199104030251
 40
1.0
 40
1.0
 40
1.0
 40
1.0
 10
4121.37349008864
 20
2328.754811284714
 30
0.0
 10
4121.376739153856
 20
2328.754831014151
 30
0.0
 10
4121.383021771658
 20
2328.75486916436
 30
0.0
 10
4121.392315385786
 20
2328.754910668972
 30
0.0
 10
4121.401742447862
 20
2328.754931390795
 30
0.0
 10
4121.411192876862
 20
2328.754949152049
 30
0.0
 10
4121.420717056081
 20
2328.754964330998
 30
0.0
 10
4121.429924620024
 20
2328.754974413197
 30
0.0
 10
4121.436074419798
 20
2328.754975771882
 30
0.0
 10
4121.439140089808
 20
2328.754976449185
 30
0.0
  0
CIRCLE
  5
14AA
330
1F
100
AcDbEntity
  8
SANINDUSA
100
AcDbCircle
 10
4121.439140091816
 20
2328.873911547404
 30
0.0
 40
0.0359999999999998
  0
SPLINE
  5
14AB
330
1F
100
AcDbEntity
  8
SANINDUSA
100
AcDbSpline
210
0.0
220
0.0
230
1.0
 70
    11
 71
     3
 72
    45
 73
    41
 74
     0
 42
0.0000000001
 43
0.0000000001
 40
0.0
 40
0.0
 40
0.0
 40
0.0
 40
0.0230548065655051
 40
0.0461096162579484
 40
0.0729553983800324
 40
0.0998012315004005
 40
0.1266470204463074
 40
0.1534928364983284
 40
0.1803386285743823
 40
0.2071844442261322
 40
0.2340302497255333
 40
0.2608760587792147
 40
0.2877218569214213
 40
0.3145676774123344
 40
0.3414134695447151
 40
0.3682592610033275
 40
0.3951050934938601
 40
0.42195087190964
 40
0.4487966919524462
 40
0.475642511184871
 40
0.4999999670394116
 40
0.5230547227597998
 40
0.546109422909896
 40
0.5729552520488764
 40
0.5998010223443134
 40
0.6266468330362255
 40
0.6534926618395255
 40
0.680338453915589
 40
0.7071842633863811
 40
0.7340300688857821
 40
0.7608758787794667
 40
0.7877216769216736
 40
0.8145674934710664
 40
0.8414132840803297
 40
0.8682590855311023
 40
0.8951048978950245
 40
0.9219507324416779
 40
0.9487965160236164
 40
0.9756423412100076
 40
1.0
 40
1.0
 40
1.0
 40
1.0
 10
4121.439140089808
 20
2328.897411592886
 30
0.0
 10
4121.438005817489
 20
2328.897363290184
 30
0.0
 10
4121.435737272697
 20
2328.897266684772
 30
0.0
 10
4121.432222133408
 20
2328.896466064945
 30
0.0
 10
4121.428695345875
 20
2328.895084426055
 30
0.0
 10
4121.425285345726
 20
2328.893033468716
 30
0.0
 10
4121.422276580684
 20
2328.890431838456
 30
0.0
 10
4121.419736701024
 20
2328.887370022032
 30
0.0
 10
4121.417758960137
 20
2328.883918527879
 30
0.0
 10
4121.416375667701
 20
2328.880188755566
 30
0.0
 10
4121.415651886904
 20
2328.876277141418
 30
0.0
 10
4121.415581144797
 20
2328.872299754118
 30
0.0
 10
4121.416192938681
 20
2328.868369065239
 30
0.0
 10
4121.417442719105
 20
2328.86459247264
 30
0.0
 10
4121.419321107426
 20
2328.861085869299
 30
0.0
 10
4121.4217505018
 20
2328.857935852636
 30
0.0
 10
4121.424683711712
 20
2328.855248655638
 30
0.0
 10
4121.428018849112
 20
2328.853080464648
 30
0.0
 10
4121.431676114936
 20
2328.851515226139
 30
0.0
 10
4121.435421778327
 20
2328.850603850297
 30
0.0
 10
4121.439076192194
 20
2328.850324211774
 30
0.0
 10
4121.442542845914
 20
2328.850578541112
 30
0.0
 10
4121.446058047228
 20
2328.851350116682
 30
0.0
 10
4121.449584809815
 20
2328.852740740823
 30
0.0
 10
4121.452994815053
 20
2328.854789171594
 30
0.0
 10
4121.456003582705
 20
2328.857391471152
 30
0.0
 10
4121.458543473525
 20
2328.860453100622
 30
0.0
 10
4121.46052120834
 20
2328.86390464669
 30
0.0
 10
4121.461904515734
 20
2328.867634400324
 30
0.0
 10
4121.462628289053
 20
2328.87154601892
 30
0.0
 10
4121.462699045729
 20
2328.875523405847
 30
0.0
 10
4121.462087245719
 20
2328.879454090782
 30
0.0
 10
4121.46083747547
 20
2328.883230698721
 30
0.0
 10
4121.458959096452
 20
2328.88673725815
 30
0.0
 10
4121.456529698625
 20
2328.889887458651
 30
0.0
 10
4121.453596498422
 20
2328.892573968479
 30
0.0
 10
4121.450261350604
 20
2328.894744763902
 30
0.0
 10
4121.446604110935
 20
2328.896300269472
 30
0.0
 10
4121.442858358455
 20
2328.897246888817
 30
0.0
 10
4121.440338699513
 20
2328.897358499387
 30
0.0
 10
4121.439140089808
 20
2328.897411592886
 30
0.0
  0
SPLINE
  5
14B1
330
1F
100
AcDbEntity
  8
SANINDUSA
100
AcDbSpline
210
0.0
220
0.0
230
1.0
 70
    24
 71
     3
 72
     9
 73
     5
 74
     0
 42
0.0000000001
 43
0.0000000001
 40
0.0
 40
0.0
 40
0.0
 40
0.0
 40
0.8398446245630649
 40
1.0
 40
1.0
 40
1.0
 40
1.0
 10
4121.439140089808
 20
2328.978414592915
 30
0.0
 10
4121.439140089808
 20
2328.978384675383
 30
0.0
 10
4121.439140089808
 20
2328.978349052684
 30
0.0
 10
4121.439140089808
 20
2328.978421600451
 30
0.0
 10
4121.439140089808
 20
2328.978433219366
 30
0.0
  0
LINE
  5
14B5
330
1F
100
AcDbEntity
  8
SANINDUSA
100
AcDbLine
 10
4122.500369806455
 20
2328.97116167507
 30
0.0
 11
4122.648271818326
 21
2328.97116167507
 31
0.0
  0
SPLINE
  5
14B6
330
1F
100
AcDbEntity
  8
SANINDUSA
100
AcDbSpline
210
0.0
220
0.0
230
1.0
 70
     8
 71
     3
 72
    12
 73
     8
 74
     0
 42
0.0000000001
 43
0.0000000001
 40
0.0
 40
0.0
 40
0.0
 40
0.0
 40
0.1497898229770134
 40
0.3321513761416992
 40
0.5478483910869537
 40
0.7972416361903969
 40
0.9999999999999998
 40
0.9999999999999998
 40
0.9999999999999998
 40
0.9999999999999998
 10
4122.648271818326
 20
2328.971188712296
 30
0.0
 10
4122.649710365987
 20
2328.971180106572
 30
0.0
 10
4122.652900272856
 20
2328.971161023813
 30
0.0
 10
4122.65813988382
 20
2328.971063609073
 30
0.0
 10
4122.664288256262
 20
2328.970923142588
 30
0.0
 10
4122.670591489668
 20
2328.970768953827
 30
0.0
 10
4122.674846197144
 20
2328.970689271088
 30
0.0
 10
4122.676754135785
 20
2328.970653538954
 30
0.0
  0
SPLINE
  5
14B7
330
1F
100
AcDbEntity
  8
SANINDUSA
100
AcDbSpline
210
0.0
220
0.0
230
1.0
 70
     8
 71
     3
 72
    14
 73
    10
 74
     0
 42
0.0000000001
 43
0.0000000001
 40
0.0
 40
0.0
 40
0.0
 40
0.0
 40
0.2207068434360092
 40
0.3432075964494494
 40
0.4724919203305877
 40
0.6063783029467216
 40
0.7414652896379229
 40
0.8739204569579015
 40
1.0
 40
1.0
 40
1.0
 40
1.0
 10
4122.497369800375
 20
2328.974186390069
 30
0.0
 10
4122.497402499607
 20
2328.97383700429
 30
0.0
 10
4122.497453348168
 20
2328.973293696019
 30
0.0
 10
4122.497772464454
 20
2328.972624813186
 30
0.0
 10
4122.498130248927
 20
2328.97213270977
 30
0.0
 10
4122.498604517651
 20
2328.971708580008
 30
0.0
 10
4122.499162757406
 20
2328.971393130811
 30
0.0
 10
4122.499762001439
 20
2328.97119709056
 30
0.0
 10
4122.500170563244
 20
2328.971173284543
 30
0.0
 10
4122.500369806455
 20
2328.97116167507
 30
0.0
  0
LINE
  5
14B8
330
1F
100
AcDbEntity
  8
SANINDUSA
100
AcDbLine
 10
4122.677401181457
 20
2328.97063927668
 30
0.0
 11
4122.678467051738
 21
2328.970635091317
 31
0.0
  0
LINE
  5
14B9
330
1F
100
AcDbEntity
  8
SANINDUSA
100
AcDbLine
 10
4122.677103676048
 20
2328.97064044549
 30
0.0
 11
4122.677401181457
 21
2328.97063927668
 31
0.0
  0
SPLINE
  5
14BA
330
1F
100
AcDbEntity
  8
SANINDUSA
100
AcDbSpline
210
0.0
220
0.0
230
1.0
 70
     8
 71
     3
 72
    30
 73
    26
 74
     0
 42
0.0000000001
 43
0.0000000001
 40
0.0
 40
0.0
 40
0.0
 40
0.0
 40
0.0540573305379191
 40
0.1011000478114876
 40
0.1419251277971397
 40
0.1692032544578128
 40
0.19439282871861
 40
0.2184009485618401
 40
0.242261883126649
 40
0.2930811923227365
 40
0.3490466494845558
 40
0.410033283556233
 40
0.4755504378652335
 40
0.5397480678308984
 40
0.6004963223539061
 40
0.6389880788278468
 40
0.6758471381005543
 40
0.7125737613018618
 40
0.7412054893388691
 40
0.7712738499253215
 40
0.8031792059648379
 40
0.8372560136923322
 40
0.886523633362629
 40
0.940643737693518
 40
1.0
 40
1.0
 40
1.0
 40
1.0
 10
4122.779713806377
 20
2328.969199554425
 30
0.0
 10
4122.782562085404
 20
2328.969501951849
 30
0.0
 10
4122.78346221048
 20
2328.969616389068
 30
0.0
 10
4122.785212614971
 20
2328.969896784424
 30
0.0
 10
4122.78704504484
 20
2328.970243848359
 30
0.0
 10
4122.788901073364
 20
2328.970652178452
 30
0.0
 10
4122.790687943651
 20
2328.971094619495
 30
0.0
 10
4122.792616723092
 20
2328.971630928971
 30
0.0
 10
4122.795424038687
 20
2328.972506283972
 30
0.0
 10
4122.799195349517
 20
2328.973897742462
 30
0.0
 10
4122.80383910816
 20
2328.976024583278
 30
0.0
 10
4122.808699307898
 20
2328.978751471185
 30
0.0
 10
4122.813501648222
 20
2328.982040688557
 30
0.0
 10
4122.817979356516
 20
2328.98574942946
 30
0.0
 10
4122.82152702362
 20
2328.989256928397
 30
0.0
 10
4122.824267636754
 20
2328.992373668963
 30
0.0
 10
4122.826386524002
 20
2328.995057646565
 30
0.0
 10
4122.828185717324
 20
2328.99759732038
 30
0.0
 10
4122.829695177294
 20
2328.999945224257
 30
0.0
 10
4122.830979252177
 20
2329.002123690688
 30
0.0
 10
4122.83217653572
 20
2329.004348889446
 30
0.0
 10
4122.833423323601
 20
2329.00689921486
 30
0.0
 10
4122.834657450636
 20
2329.009757267975
 30
0.0
 10
4122.835837008003
 20
2329.012909453811
 30
0.0
 10
4122.83644316418
 20
2329.014907153189
 30
0.0
 10
4122.837377895282
 20
2329.018249505562
 30
0.0
  0
SPLINE
  5
14BB
330
1F
100
AcDbEntity
  8
SANINDUSA
100
AcDbSpline
210
0.0
220
0.0
230
1.0
 70
     8
 71
     3
 72
    12
 73
     8
 74
     0
 42
0.0000000001
 43
0.0000000001
 40
0.0
 40
0.0
 40
0.0
 40
0.0
 40
0.2496993398506466
 40
0.4993836967987196
 40
0.6299602704588203
 40
0.7571061713015079
 40
1.0
 40
1.0
 40
1.0
 40
1.0
 10
4122.502369795607
 20
2328.96892371158
 30
0.0
 10
4122.50171572344
 20
2328.968849035638
 30
0.0
 10
4122.500407618356
 20
2328.968699688235
 30
0.0
 10
4122.499003716748
 20
2328.967721276299
 30
0.0
 10
4122.498170027603
 20
2328.966694766887
 30
0.0
 10
4122.497542559254
 20
2328.965531402433
 30
0.0
 10
4122.49743826141
 20
2328.964560808738
 30
0.0
 10
4122.497369800375
 20
2328.963923711691
 30
0.0
  0
LINE
  5
14C1
330
1F
100
AcDbEntity
  8
SANINDUSA
100
AcDbLine
 10
4122.497369800375
 20
2328.963923711691
 30
0.0
 11
4122.497369800375
 21
2328.721611668718
 31
0.0
  0
SPLINE
  5
14C2
330
1F
100
AcDbEntity
  8
SANINDUSA
100
AcDbSpline
210
0.0
220
0.0
230
1.0
 70
    24
 71
     3
 72
    15
 73
    11
 74
     0
 42
0.0000000001
 43
0.0000000001
 40
0.0
 40
0.0
 40
0.0
 40
0.0
 40
0.1250192438761526
 40
0.250022591054436
 40
0.3750146196108202
 40
0.4999996932821242
 40
0.6249854709939716
 40
0.7499772637661996
 40
0.8749807561238473
 40
1.0
 40
1.0
 40
1.0
 40
1.0
 10
4122.497369800375
 20
2328.721611668718
 30
0.0
 10
4122.497369800375
 20
2328.720368325235
 30
0.0
 10
4122.497369800375
 20
2328.717881796366
 30
0.0
 10
4122.497369800375
 20
2328.71429549794
 30
0.0
 10
4122.497369800375
 20
2328.710990334221
 30
0.0
 10
4122.497369800375
 20
2328.708094497925
 30
0.0
 10
4122.497369800375
 20
2328.705714429174
 30
0.0
 10
4122.497369800375
 20
2328.703959353327
 30
0.0
 10
4122.497369800375
 20
2328.702830167802
 30
0.0
 10
4122.497369800375
 20
2328.702688840117
 30
0.0
 10
4122.497369800375
 20
2328.702618171823
 30
0.0
  0
ARC
  5
14C4
330
1F
100
AcDbEntity
  8
SANINDUSA
100
AcDbCircle
 10
4122.498369800574
 20
2328.702618182017
 30
0.0
 40
0.001
100
AcDbArc
 50
180.0
 51
271.4999999978369
  0
LINE
  5
14C7
330
1F
100
AcDbEntity
  8
SANINDUSA
100
AcDbLine
 10
4122.695568664611
 20
2328.70678167547
 30
0.0
 11
4122.498395983742
 21
2328.701618512523
 31
0.0
  0
LINE
  5
14CD
330
1F
100
AcDbEntity
  8
SANINDUSA
100
AcDbLine
 10
4122.776408120754
 20
2328.96892371158
 30
0.0
 11
4122.502369795607
 21
2328.96892371158
 31
0.0
  0
SPLINE
  5
14CF
330
1F
100
AcDbEntity
  8
SANINDUSA
100
AcDbSpline
210
0.0
220
0.0
230
1.0
 70
     8
 71
     3
 72
    15
 73
    11
 74
     0
 42
0.0000000001
 43
0.0000000001
 40
0.0
 40
0.0
 40
0.0
 40
0.0
 40
0.1244882983939256
 40
0.2495382368709022
 40
0.3746071212602334
 40
0.4996802753685309
 40
0.6247372290701709
 40
0.7497817273695663
 40
0.8748175032855179
 40
1.0
 40
1.0
 40
1.0
 40
1.0
 10
4122.532350619004
 20
2328.91142374779
 30
0.0
 10
4122.531468299095
 20
2328.911516922735
 30
0.0
 10
4122.529699678612
 20
2328.911703692992
 30
0.0
 10
4122.527375522927
 20
2328.913128451011
 30
0.0
 10
4122.525669158666
 20
2328.915210966959
 30
0.0
 10
4122.524797902136
 20
2328.917773176485
 30
0.0
 10
4122.524868768369
 20
2328.920478501608
 30
0.0
 10
4122.525879462211
 20
2328.922973791236
 30
0.0
 10
4122.527678896943
 20
2328.925028673199
 30
0.0
 10
4122.52931800193
 20
2328.925732053424
 30
0.0
 10
4122.530138034985
 20
2328.926083949756
 30
0.0
  0
LINE
  5
14D1
330
1F
100
AcDbEntity
  8
SANINDUSA
100
AcDbLine
 10
4122.530156750843
 20
2328.926089757484
 30
0.0
 11
4122.532350469993
 21
2328.92642367388
 31
0.0
  0
LINE
  5
14D2
330
1F
100
AcDbEntity
  8
SANINDUSA
100
AcDbLine
 10
4122.530138034985
 20
2328.926083949756
 30
0.0
 11
4122.530156750843
 21
2328.926089757484
 31
0.0
  0
SPLINE
  5
14D4
330
1F
100
AcDbEntity
  8
SANINDUSA
100
AcDbSpline
210
0.0
220
0.0
230
1.0
 70
     8
 71
     3
 72
     9
 73
     5
 74
     0
 42
0.0000000001
 43
0.0000000001
 40
0.0
 40
0.0
 40
0.0
 40
0.0
 40
0.497740844966376
 40
1.0
 40
1.0
 40
1.0
 40
1.0
 10
4122.534582887457
 20
2328.911757675362
 30
0.0
 10
4122.534218830803
 20
2328.911660171748
 30
0.0
 10
4122.533487412721
 20
2328.911464279417
 30
0.0
 10
4122.532730689946
 20
2328.911437298968
 30
0.0
 10
4122.532350619004
 20
2328.91142374779
 30
0.0
  0
SPLINE
  5
14D5
330
1F
100
AcDbEntity
  8
SANINDUSA
100
AcDbSpline
210
0.0
220
0.0
230
1.0
 70
     8
 71
     3
 72
    15
 73
    11
 74
     0
 42
0.0000000001
 43
0.0000000001
 40
0.0
 40
0.0
 40
0.0
 40
0.0
 40
0.1245097719090574
 40
0.249586961754041
 40
0.3746766705978042
 40
0.4997698651892364
 40
0.6248443320206426
 40
0.749904756108894
 40
0.8749563173688899
 40
1.0
 40
1.0
 40
1.0
 40
1.0
 10
4122.532350469993
 20
2328.92642367388
 30
0.0
 10
4122.53323581992
 20
2328.9263345044
 30
0.0
 10
4122.535010554506
 20
2328.926155759074
 30
0.0
 10
4122.537346905263
 20
2328.924734928227
 30
0.0
 10
4122.539063661768
 20
2328.922650558075
 30
0.0
 10
4122.53994146086
 20
2328.920082047359
 30
0.0
 10
4122.539871704179
 20
2328.917368656249
 30
0.0
 10
4122.538856774085
 20
2328.914866557397
 30
0.0
 10
4122.537049589438
 20
2328.912809097777
 30
0.0
 10
4122.535405104183
 20
2328.91210814214
 30
0.0
 10
4122.534582887457
 20
2328.911757675362
 30
0.0
  0
LINE
  5
14D8
330
1F
100
AcDbEntity
  8
SANINDUSA
100
AcDbLine
 10
4122.777369801567
 20
2328.967923711416
 30
0.0
 11
4122.777369801567
 21
2328.728406851542
 31
0.0
  0
SPLINE
  5
14DB
330
1F
100
AcDbEntity
  8
SANINDUSA
100
AcDbSpline
210
0.0
220
0.0
230
1.0
 70
    24
 71
     3
 72
    19
 73
    15
 74
     0
 42
0.0000000001
 43
0.0000000001
 40
0.0
 40
0.0
 40
0.0
 40
0.0
 40
0.0833205154621822
 40
0.1666336830001778
 40
0.2499619756015977
 40
0.3332876739833269
 40
0.4166084445707158
 40
0.4999458660032275
 40
0.5832820637141353
 40
0.6666134375670803
 40
0.7499613654875165
 40
0.8333070051288334
 40
0.9166463039806584
 40
0.9999999999999998
 40
0.9999999999999998
 40
0.9999999999999998
 40
0.9999999999999998
 10
4122.757893343137
 20
2328.708413695347
 30
0.0
 10
4122.75779117689
 20
2328.708411021344
 30
0.0
 10
4122.757586853403
 20
2328.708405673574
 30
0.0
 10
4122.755942773737
 20
2328.708362636613
 30
0.0
 10
4122.753348011711
 20
2328.708294677708
 30
0.0
 10
4122.749749261493
 20
2328.708200449181
 30
0.0
 10
4122.745231754814
 20
2328.708082151833
 30
0.0
 10
4122.739863346123
 20
2328.707941580297
 30
0.0
 10
4122.733734812261
 20
2328.707781079261
 30
0.0
 10
4122.726946913429
 20
2328.707603347675
 30
0.0
 10
4122.719612300244
 20
2328.707411276218
 30
0.0
 10
4122.711851661
 20
2328.707208052677
 30
0.0
 10
4122.703795870839
 20
2328.706997104919
 30
0.0
 10
4122.698311224589
 20
2328.706853489421
 30
0.0
 10
4122.695568664611
 20
2328.70678167547
 30
0.0
  0
ARC
  5
14DC
330
1F
100
AcDbEntity
  8
SANINDUSA
100
AcDbCircle
 10
4122.757369800575
 20
2328.728406848761
 30
0.0
 40
0.0199999999997758
100
AcDbArc
 50
271.4999999978369
 51
359.9999999739449
  0
ARC
  5
14DD
330
1F
100
AcDbEntity
  8
SANINDUSA
100
AcDbCircle
 10
4122.776369800575
 20
2328.967923711343
 30
0.0
 40
0.0010000000000002
100
AcDbArc
 50
0.0000019801878998
 51
88.15889842248576
  0
LINE
  5
14E2
330
1F
100
AcDbEntity
  8
SANINDUSA
100
AcDbLine
 10
4122.500369806455
 20
2329.092441087019
 30
0.0
 11
4122.862369795011
 21
2329.092441087019
 31
0.0
  0
LINE
  5
14E9
330
1F
100
AcDbEntity
  8
SANINDUSA
100
AcDbLine
 10
4122.862369795011
 20
2329.042441089999
 30
0.0
 11
4122.500369806455
 21
2329.042441089999
 31
0.0
  0
LINE
  5
14ED
330
1F
100
AcDbEntity
  8
SANINDUSA
100
AcDbLine
 10
4122.872369800375
 20
2329.082441096556
 30
0.0
 11
4122.872369800375
 21
2329.052441087913
 31
0.0
  0
SPLINE
  5
14EF
330
1F
100
AcDbEntity
  8
SANINDUSA
100
AcDbSpline
210
0.0
220
0.0
230
1.0
 70
     8
 71
     3
 72
    15
 73
    11
 74
     0
 42
0.0000000001
 43
0.0000000001
 40
0.0
 40
0.0
 40
0.0
 40
0.0
 40
0.1249992124716842
 40
0.2499996682086681
 40
0.3749992909192556
 40
0.4999994411604258
 40
0.6249995914015959
 40
0.7499996620185808
 40
0.8749998419405024
 40
1.0
 40
1.0
 40
1.0
 40
1.0
 10
4122.872369800375
 20
2329.082441096556
 30
0.0
 10
4122.872332581493
 20
2329.083095586979
 30
0.0
 10
4122.87225814336
 20
2329.084404574334
 30
0.0
 10
4122.871663518721
 20
2329.0862925649
 30
0.0
 10
4122.870739327036
 20
2329.088032686771
 30
0.0
 10
4122.869486128141
 20
2329.089557415575
 30
0.0
 10
4122.867961395965
 20
2329.090810609682
 30
0.0
 10
4122.866221285397
 20
2329.091734827888
 30
0.0
 10
4122.864333279563
 20
2329.092329426099
 30
0.0
 10
4122.863024289823
 20
2329.092403866715
 30
0.0
 10
4122.862369795011
 20
2329.092441087019
 30
0.0
  0
SPLINE
  5
14F0
330
1F
100
AcDbEntity
  8
SANINDUSA
100
AcDbSpline
210
0.0
220
0.0
230
1.0
 70
     8
 71
     3
 72
    15
 73
    11
 74
     0
 42
0.0000000001
 43
0.0000000001
 40
0.0
 40
0.0
 40
0.0
 40
0.0
 40
0.1250001092094538
 40
0.2500003781879738
 40
0.3750001760011358
 40
0.5000005787792866
 40
0.6249999456827067
 40
0.749999938528179
 40
0.8749998907905462
 40
1.0
 40
1.0
 40
1.0
 40
1.0
 10
4122.862369795011
 20
2329.042441089999
 30
0.0
 10
4122.863024290192
 20
2329.04247830933
 30
0.0
 10
4122.864333281389
 20
2329.042552748038
 30
0.0
 10
4122.86622128123
 20
2329.043147360997
 30
0.0
 10
4122.867961401681
 20
2329.044071563846
 30
0.0
 10
4122.869486119562
 20
2329.045324769869
 30
0.0
 10
4122.87073933477
 20
2329.046849484335
 30
0.0
 10
4122.871663514183
 20
2329.04858960953
 30
0.0
 10
4122.872258146455
 20
2329.050477601779
 30
0.0
 10
4122.872332582386
 20
2329.051786592261
 30
0.0
 10
4122.872369800375
 20
2329.052441087913
 30
0.0
  0
LINE
  5
14F3
330
1F
100
AcDbEntity
  8
SANINDUSA
100
AcDbLine
 10
4122.497369800375
 20
2329.047441092682
 30
0.0
 11
4122.497369800375
 21
2329.087441091788
 31
0.0
  0
LINE
  5
14F4
330
1F
100
AcDbEntity
  8
SANINDUSA
100
AcDbLine
 10
4122.497369800375
 20
2329.089441095841
 30
0.0
 11
4122.497369800375
 21
2329.087441091788
 31
0.0
  0
ARC
  5
14F5
330
1F
100
AcDbEntity
  8
SANINDUSA
100
AcDbCircle
 10
4122.500369800574
 20
2329.089441089563
 30
0.0
 40
0.0030000000000002
100
AcDbArc
 50
90.0
 51
180.0
  0
LINE
  5
14F6
330
1F
100
AcDbEntity
  8
SANINDUSA
100
AcDbLine
 10
4122.497369800375
 20
2329.045441088629
 30
0.0
 11
4122.497369800375
 21
2329.047441092682
 31
0.0
  0
ARC
  5
14F7
330
1F
100
AcDbEntity
  8
SANINDUSA
100
AcDbCircle
 10
4122.500369800574
 20
2329.045441089563
 30
0.0
 40
0.0030000000000002
100
AcDbArc
 50
180.0
 51
270.0
  0
LINE
  5
14F9
330
1F
100
AcDbEntity
  8
SANINDUSA
100
AcDbLine
 10
4122.497369800375
 20
2329.020427582216
 30
0.0
 11
4122.497369800375
 21
2329.045441088629
 31
0.0
  0
LINE
  5
14FB
330
1F
100
AcDbEntity
  8
SANINDUSA
100
AcDbLine
 10
4122.843409542606
 20
2329.042441089999
 30
0.0
 11
4122.837543059752
 21
2329.018911940408
 31
0.0
  0
ARC
  5
14FE
330
1F
100
AcDbEntity
  8
SANINDUSA
100
AcDbCircle
 10
4122.500351374056
 20
2328.974205038691
 30
0.0
 40
0.0029816319997205
100
AcDbArc
 50
180.3583588687676
 51
270.3542038332209
  0
SPLINE
  5
14FF
330
1F
100
AcDbEntity
  8
SANINDUSA
100
AcDbSpline
210
0.0
220
0.0
230
1.0
 70
    24
 71
     3
 72
    20
 73
    16
 74
     0
 42
0.0000000001
 43
0.0000000001
 40
0.0
 40
0.0
 40
0.0
 40
0.0
 40
0.1250149151155857
 40
0.249616780142491
 40
0.3750058546779725
 40
0.499451129646721
 40
0.6248782548905939
 40
0.7494223122665538
 40
0.7850666527435183
 40
0.8207838268883362
 40
0.8566942808559767
 40
0.8925984050864226
 40
0.9284754951233477
 40
0.964269884634524
 40
1.0
 40
1.0
 40
1.0
 40
1.0
 10
4122.497369800375
 20
2328.974186390069
 30
0.0
 10
4122.497369800375
 20
2328.974785957564
 30
0.0
 10
4122.497369800375
 20
2328.975983111577
 30
0.0
 10
4122.497369800375
 20
2328.979397041108
 30
0.0
 10
4122.497369800375
 20
2328.983905845012
 30
0.0
 10
4122.497369800375
 20
2328.989548636192
 30
0.0
 10
4122.497369800375
 20
2328.996147918989
 30
0.0
 10
4122.497369800375
 20
2329.001824655363
 30
0.0
 10
4122.497369800375
 20
2329.005939571865
 30
0.0
 10
4122.497369800375
 20
2329.008244497553
 30
0.0
 10
4122.497369800375
 20
2329.010602590658
 30
0.0
 10
4122.497369800375
 20
2329.01300775277
 30
0.0
 10
4122.497369800375
 20
2329.015450204595
 30
0.0
 10
4122.497369800375
 20
2329.017921802261
 30
0.0
 10
4122.497369800375
 20
2329.019592822775
 30
0.0
 10
4122.497369800375
 20
2329.020427582216
 30
0.0
  0
LINE
  5
1509
330
1F
100
AcDbEntity
  8
SANINDUSA
100
AcDbLine
 10
4122.713029735402
 20
2328.970597242367
 30
0.0
 11
4122.678946390428
 21
2328.970625067492
 31
0.0
  0
LINE
  5
150B
330
1F
100
AcDbEntity
  8
SANINDUSA
100
AcDbLine
 10
4122.713028628991
 20
2328.970602676634
 30
0.0
 11
4122.788649087812
 21
2328.970601531728
 31
0.0
  0
LINE
  5
150D
330
1F
100
AcDbEntity
  8
SANINDUSA
100
AcDbLine
 10
4122.779713806377
 20
2328.969199554425
 30
0.0
 11
4122.776401926444
 21
2328.968923194696
 31
0.0
  0
SPLINE
  5
1510
330
1F
100
AcDbEntity
  8
SANINDUSA
100
AcDbSpline
210
0.0
220
0.0
230
1.0
 70
    24
 71
     3
 72
    15
 73
    11
 74
     0
 42
0.0000000001
 43
0.0000000001
 40
0.0
 40
0.0
 40
0.0
 40
0.0
 40
0.1221703464131642
 40
0.249980571465716
 40
0.3654073156861481
 40
0.4999656720069488
 40
0.6249596030177168
 40
0.7499597578671107
 40
0.8692409661137245
 40
1.0
 40
1.0
 40
1.0
 40
1.0
 10
4122.837377895282
 20
2329.018249505562
 30
0.0
 10
4122.837378418605
 20
2329.018251589305
 30
0.0
 10
4122.837379489411
 20
2329.018255852985
 30
0.0
 10
4122.83738731439
 20
2329.018287254088
 30
0.0
 10
4122.837399101185
 20
2329.018334521125
 30
0.0
 10
4122.837414359676
 20
2329.018395781588
 30
0.0
 10
4122.837429087517
 20
2329.018454804532
 30
0.0
 10
4122.837453317396
 20
2329.01855197914
 30
0.0
 10
4122.837492108071
 20
2329.018707601534
 30
0.0
 10
4122.83752556394
 20
2329.018841774429
 30
0.0
 10
4122.837543059752
 20
2329.018911940408
 30
0.0
  0
LINE
  5
1515
330
1F
100
AcDbEntity
  8
SANINDUSA
100
AcDbLine
 10
4122.530118603871
 20
2328.926077758324
 30
0.0
 11
4122.530156750843
 21
2328.926089757484
 31
0.0
  0
LINE
  5
151B
330
1F
100
AcDbEntity
  8
SANINDUSA
100
AcDbLine
 10
4122.500369806455
 20
2328.97116167507
 30
0.0
 11
4122.500369806455
 21
2328.971223463666
 31
0.0
  0
LINE
  5
151C
330
1F
100
AcDbEntity
  8
SANINDUSA
100
AcDbLine
 10
4122.648271818326
 20
2328.971223463666
 30
0.0
 11
4122.648271818326
 21
2328.97116167507
 31
0.0
  0
LINE
  5
151D
330
1F
100
AcDbEntity
  8
SANINDUSA
100
AcDbLine
 10
4122.678680633806
 20
2328.970634252195
 30
0.0
 11
4122.678946390428
 21
2328.970625067492
 31
0.0
  0
LWPOLYLINE
  5
151E
330
1F
100
AcDbEntity
  8
SANINDUSA
100
AcDbPolyline
 90
        4
 70
   128
 43
0.0
 10
4122.678942182713
 20
2328.970633259405
 10
4122.678942851403
 20
2328.970628346679
 10
4122.678944612533
 20
2328.970622019273
 10
4122.678946390428
 20
2328.970625067492
  0
LINE
  5
1520
330
1F
100
AcDbEntity
  8
SANINDUSA
100
AcDbLine
 10
4122.664780900029
 20
2328.96892371158
 30
0.0
 11
4122.66505957782
 21
2328.969157001365
 31
0.0
  0
LINE
  5
1525
330
1F
100
AcDbEntity
  8
SANINDUSA
100
AcDbLine
 10
4123.211197736688
 20
2328.96691506951
 30
0.0
 11
4123.211372219041
 21
2328.966880856444
 31
0.0
  0
LINE
  5
1526
330
1F
100
AcDbEntity
  8
SANINDUSA
100
AcDbLine
 10
4123.052274166622
 20
2328.97116167507
 30
0.0
 11
4123.161804876306
 21
2328.97116167507
 31
0.0
  0
SPLINE
  5
1527
330
1F
100
AcDbEntity
  8
SANINDUSA
100
AcDbSpline
210
0.0
220
0.0
230
1.0
 70
     8
 71
     3
 72
    13
 73
     9
 74
     0
 42
0.0000000001
 43
0.0000000001
 40
0.0
 40
0.0
 40
0.0
 40
0.0
 40
0.1593217437866463
 40
0.3589949487479541
 40
0.489479069749576
 40
0.6484349909695946
 40
0.8248937382629744
 40
1.0
 40
1.0
 40
1.0
 40
1.0
 10
4123.049274160542
 20
2328.974516540196
 30
0.0
 10
4123.04927895727
 20
2328.974271696848
 30
0.0
 10
4123.049289765595
 20
2328.97371999861
 30
0.0
 10
4123.049463701425
 20
2328.973007435181
 30
0.0
 10
4123.049900784635
 20
2328.972271636835
 30
0.0
 10
4123.050508365128
 20
2328.971686941012
 30
0.0
 10
4123.051337808602
 20
2328.971247431279
 30
0.0
 10
4123.0519628488
 20
2328.971190187066
 30
0.0
 10
4123.052274166622
 20
2328.97116167507
 30
0.0
  0
SPLINE
  5
1528
330
1F
100
AcDbEntity
  8
SANINDUSA
100
AcDbSpline
210
0.0
220
0.0
230
1.0
 70
    24
 71
     3
 72
    15
 73
    11
 74
     0
 42
0.0000000001
 43
0.0000000001
 40
0.0
 40
0.0
 40
0.0
 40
0.0
 40
0.1249442796723749
 40
0.2505443898414846
 40
0.3751111258953746
 40
0.4997461666030614
 40
0.6254040342376089
 40
0.7502333194195662
 40
0.8746820537081116
 40
0.9999999999999998
 40
0.9999999999999998
 40
0.9999999999999998
 40
0.9999999999999998
 10
4123.268524861909
 20
2328.732493405592
 30
0.0
 10
4123.270154529331
 20
2328.732541155217
 30
0.0
 10
4123.273422418271
 20
2328.732636905103
 30
0.0
 10
4123.277646128945
 20
2328.732760679804
 30
0.0
 10
4123.281322182361
 20
2328.732868379287
 30
0.0
 10
4123.284374568882
 20
2328.732957817931
 30
0.0
 10
4123.286787651408
 20
2328.73302851277
 30
0.0
 10
4123.288513158396
 20
2328.733079060992
 30
0.0
 10
4123.289601988773
 20
2328.73311097976
 30
0.0
 10
4123.28973730779
 20
2328.733114931923
 30
0.0
 10
4123.289805202761
 20
2328.733116914881
 30
0.0
  0
SPLINE
  5
1529
330
1F
100
AcDbEntity
  8
SANINDUSA
100
AcDbSpline
210
0.0
220
0.0
230
1.0
 70
     8
 71
     3
 72
    14
 73
    10
 74
     0
 42
0.0000000001
 43
0.0000000001
 40
0.0
 40
0.0
 40
0.0
 40
0.0
 40
0.2729886254147661
 40
0.5444896796950154
 40
0.6749531005809512
 40
0.7972259329268905
 40
0.9057946284065238
 40
0.9541627769938184
 40
0.9999999999999998
 40
0.9999999999999998
 40
0.9999999999999998
 40
0.9999999999999998
 10
4123.278659376331
 20
2328.737608601701
 30
0.0
 10
4123.277576901879
 20
2328.737519181579
 30
0.0
 10
4123.2754178516
 20
2328.737340828605
 30
0.0
 10
4123.272833840021
 20
2328.736516556494
 30
0.0
 10
4123.270950059807
 20
2328.735576011379
 30
0.0
 10
4123.269748077381
 20
2328.734731603746
 30
0.0
 10
4123.268973058348
 20
2328.733863307185
 30
0.0
 10
4123.268600396338
 20
2328.733086403905
 30
0.0
 10
4123.268549580007
 20
2328.732687499368
 30
0.0
 10
4123.268524854459
 20
2328.732493405592
 30
0.0
  0
SPLINE
  5
152A
330
1F
100
AcDbEntity
  8
SANINDUSA
100
AcDbSpline
210
0.0
220
0.0
230
1.0
 70
    24
 71
     3
 72
    13
 73
     9
 74
     0
 42
0.0000000001
 43
0.0000000001
 40
0.0
 40
0.0
 40
0.0
 40
0.0
 40
0.1651036300851839
 40
0.3315442621324499
 40
0.498810593937083
 40
0.6662820234533818
 40
0.8327766071392291
 40
1.0
 40
1.0
 40
1.0
 40
1.0
 10
4123.294667198338
 20
2328.738027786267
 30
0.0
 10
4123.294578862434
 20
2328.738025467032
 30
0.0
 10
4123.294401475284
 20
2328.738020809783
 30
0.0
 10
4123.292972584854
 20
2328.737983420514
 30
0.0
 10
4123.290708348616
 20
2328.737924099317
 30
0.0
 10
4123.287536296184
 20
2328.73784106292
 30
0.0
 10
4123.28358715333
 20
2328.737737637963
 30
0.0
 10
4123.280304358438
 20
2328.737651676366
 30
0.0
 10
4123.278659376331
 20
2328.737608601701
 30
0.0
  0
SPLINE
  5
152B
330
1F
100
AcDbEntity
  8
SANINDUSA
100
AcDbSpline
210
0.0
220
0.0
230
1.0
 70
     8
 71
     3
 72
    12
 73
     8
 74
     0
 42
0.0000000001
 43
0.0000000001
 40
0.0
 40
0.0
 40
0.0
 40
0.0
 40
0.2208477710933848
 40
0.4416953033135707
 40
0.6625353482068313
 40
0.8833577290719588
 40
1.0
 40
1.0
 40
1.0
 40
1.0
 10
4123.294667198338
 20
2328.738027786267
 30
0.0
 10
4123.294106617128
 20
2328.737957800794
 30
0.0
 10
4123.292985455314
 20
2328.737817829924
 30
0.0
 10
4123.291510161461
 20
2328.736916763198
 30
0.0
 10
4123.29041204255
 20
2328.735618627589
 30
0.0
 10
4123.289880006125
 20
2328.73426695236
 30
0.0
 10
4123.289819356162
 20
2328.733412170479
 30
0.0
 10
4123.28979839293
 20
2328.733116721165
 30
0.0
  0
SPLINE
  5
152C
330
1F
100
AcDbEntity
  8
SANINDUSA
100
AcDbSpline
210
0.0
220
0.0
230
1.0
 70
     8
 71
     3
 72
    11
 73
     7
 74
     0
 42
0.0000000001
 43
0.0000000001
 40
0.0
 40
0.0
 40
0.0
 40
0.0
 40
0.2500003919306895
 40
0.5000004827290119
 40
0.7499992908751492
 40
1.0
 40
1.0
 40
1.0
 40
1.0
 10
4123.264990030803
 20
2328.717243795646
 30
0.0
 10
4123.265435064513
 20
2328.717327699722
 30
0.0
 10
4123.266325131394
 20
2328.717495507774
 30
0.0
 10
4123.267431247913
 20
2328.71863877198
 30
0.0
 10
4123.268198385462
 20
2328.72025692833
 30
0.0
 10
4123.268292446078
 20
2328.721539867891
 30
0.0
 10
4123.268339476563
 20
2328.72218134011
 30
0.0
  0
SPLINE
  5
152E
330
1F
100
AcDbEntity
  8
SANINDUSA
100
AcDbSpline
210
0.0
220
0.0
230
1.0
 70
     8
 71
     3
 72
    12
 73
     8
 74
     0
 42
0.0000000001
 43
0.0000000001
 40
0.0
 40
0.0
 40
0.0
 40
0.0
 40
0.2208532550160202
 40
0.4417070095240655
 40
0.6625467242856658
 40
0.8833647487113021
 40
0.9999999999999998
 40
0.9999999999999998
 40
0.9999999999999998
 40
0.9999999999999998
 10
4123.284747189858
 20
2328.717761163962
 30
0.0
 10
4123.285307792395
 20
2328.717831139657
 30
0.0
 10
4123.286428998734
 20
2328.717971091206
 30
0.0
 10
4123.287904318673
 20
2328.71887220944
 30
0.0
 10
4123.289002443779
 20
2328.720170357901
 30
0.0
 10
4123.289534472602
 20
2328.721522018969
 30
0.0
 10
4123.28959511107
 20
2328.722376779908
 30
0.0
 10
4123.289616069771
 20
2328.722672214162
 30
0.0
  0
LINE
  5
152F
330
1F
100
AcDbEntity
  8
SANINDUSA
100
AcDbLine
 10
4123.260914917119
 20
2328.707133655798
 30
0.0
 11
4123.309797703304
 21
2328.708413695347
 31
0.0
  0
ARC
  5
1530
330
1F
100
AcDbEntity
  8
SANINDUSA
100
AcDbCircle
 10
4123.26088873881
 20
2328.70813331884
 30
0.0
 40
0.0010000000000002
100
AcDbArc
 50
180.0
 51
271.5000021349873
  0
LINE
  5
1531
330
1F
100
AcDbEntity
  8
SANINDUSA
100
AcDbLine
 10
4123.259888737478
 20
2328.708133315098
 30
0.0
 11
4123.259888737478
 21
2328.716136058223
 31
0.0
  0
ARC
  5
1532
330
1F
100
AcDbEntity
  8
SANINDUSA
100
AcDbCircle
 10
4123.26088873881
 20
2328.71613606118
 30
0.0
 40
0.0010000000000002
100
AcDbArc
 50
91.49999348151871
 51
180.0
  0
LINE
  5
1533
330
1F
100
AcDbEntity
  8
SANINDUSA
100
AcDbLine
 10
4123.260862561889
 20
2328.717135717523
 30
0.0
 11
4123.284747197308
 21
2328.717761163962
 31
0.0
  0
LINE
  5
1534
330
1F
100
AcDbEntity
  8
SANINDUSA
100
AcDbLine
 10
4123.289798378028
 20
2328.733116721165
 30
0.0
 11
4123.289616069771
 21
2328.722672214162
 31
0.0
  0
LINE
  5
1535
330
1F
100
AcDbEntity
  8
SANINDUSA
100
AcDbLine
 10
4123.294667205788
 20
2328.738027786267
 30
0.0
 11
4123.314405045487
 21
2328.738544633043
 31
0.0
  0
ARC
  5
1536
330
1F
100
AcDbEntity
  8
SANINDUSA
100
AcDbCircle
 10
4123.314274160741
 20
2328.743542920256
 30
0.0
 40
0.005
100
AcDbArc
 50
271.4999999978369
 51
0.0
  0
LINE
  5
1537
330
1F
100
AcDbEntity
  8
SANINDUSA
100
AcDbLine
 10
4123.31927416382
 20
2328.743542914641
 30
0.0
 11
4123.31927416382
 21
2328.8667214414
 31
0.0
  0
ARC
  5
1538
330
1F
100
AcDbEntity
  8
SANINDUSA
100
AcDbCircle
 10
4123.299274160741
 20
2328.866721442009
 30
0.0
 40
0.0200000000001978
100
AcDbArc
 50
0.0000000260551039
 51
14.99999999022217
  0
LINE
  5
1539
330
1F
100
AcDbEntity
  8
SANINDUSA
100
AcDbLine
 10
4123.296960658409
 20
2328.952629616148
 30
0.0
 11
4123.318592674114
 21
2328.871897821677
 31
0.0
  0
ARC
  5
153A
330
1F
100
AcDbEntity
  8
SANINDUSA
100
AcDbCircle
 10
4123.301790287605
 20
2328.953923711343
 30
0.0
 40
0.0049999999999998
100
AcDbArc
 50
89.9999992704571
 51
194.9999999902221
  0
LINE
  5
153B
330
1F
100
AcDbEntity
  8
SANINDUSA
100
AcDbLine
 10
4123.314274161137
 20
2328.958923711338
 30
0.0
 11
4123.301790288665
 21
2328.958923711338
 31
0.0
  0
ARC
  5
153C
330
1F
100
AcDbEntity
  8
SANINDUSA
100
AcDbCircle
 10
4123.314274160741
 20
2328.963923711343
 30
0.0
 40
0.0050000000000002
100
AcDbArc
 50
270.0
 51
0.0
  0
ARC
  5
153D
330
1F
100
AcDbEntity
  8
SANINDUSA
100
AcDbCircle
 10
4123.324274160742
 20
2328.963923711343
 30
0.0
 40
0.0049999999999998
100
AcDbArc
 50
90.0
 51
180.0
  0
LINE
  5
153E
330
1F
100
AcDbEntity
  8
SANINDUSA
100
AcDbLine
 10
4123.324274159052
 20
2328.96892371158
 30
0.0
 11
4123.328274159708
 21
2328.96892371158
 31
0.0
  0
ARC
  5
153F
330
1F
100
AcDbEntity
  8
SANINDUSA
100
AcDbCircle
 10
4123.328274160741
 20
2328.967923711343
 30
0.0
 40
0.001
100
AcDbArc
 50
0.0
 51
90.0
  0
LINE
  5
1540
330
1F
100
AcDbEntity
  8
SANINDUSA
100
AcDbLine
 10
4123.329274161734
 20
2328.728406851542
 30
0.0
 11
4123.329274161734
 21
2328.967923711416
 31
0.0
  0
ARC
  5
1541
330
1F
100
AcDbEntity
  8
SANINDUSA
100
AcDbCircle
 10
4123.309274160741
 20
2328.728406848761
 30
0.0
 40
0.02
100
AcDbArc
 50
271.4999999978369
 51
0.0
  0
LINE
  5
1542
330
1F
100
AcDbEntity
  8
SANINDUSA
100
AcDbLine
 10
4123.06927415637
 20
2328.711092268479
 30
0.0
 11
4123.06927415637
 21
2328.702115366898
 31
0.0
  0
ARC
  5
1543
330
1F
100
AcDbEntity
  8
SANINDUSA
100
AcDbCircle
 10
4123.068274160742
 20
2328.711092270946
 30
0.0
 40
0.0010000000000002
100
AcDbArc
 50
0.0
 51
91.4999936898881
  0
LINE
  5
1545
330
1F
100
AcDbEntity
  8
SANINDUSA
100
AcDbLine
 10
4123.049274160542
 20
2328.701591647773
 30
0.0
 11
4123.049274160542
 21
2328.709646766436
 31
0.0
  0
ARC
  5
1546
330
1F
100
AcDbEntity
  8
SANINDUSA
100
AcDbCircle
 10
4123.051274160742
 20
2328.709646767486
 30
0.0
 40
0.002000000000059
100
AcDbArc
 50
91.49999999783688
 51
180.0000015633062
  0
LINE
  5
1547
330
1F
100
AcDbEntity
  8
SANINDUSA
100
AcDbLine
 10
4123.051221801914
 20
2328.711646085036
 30
0.0
 11
4123.068247987904
 21
2328.712091927779
 31
0.0
  0
LINE
  5
1548
330
1F
100
AcDbEntity
  8
SANINDUSA
100
AcDbLine
 10
4123.268524854459
 20
2328.732493405592
 30
0.0
 11
4123.268339476563
 21
2328.72218134011
 31
0.0
  0
SPLINE
  5
154D
330
1F
100
AcDbEntity
  8
SANINDUSA
100
AcDbSpline
210
0.0
220
0.0
230
1.0
 70
    24
 71
     3
 72
    10
 73
     6
 74
     0
 42
0.0000000001
 43
0.0000000001
 40
0.0
 40
0.0
 40
0.0
 40
0.0
 40
0.3738786311765602
 40
0.7582522909966033
 40
1.0
 40
1.0
 40
1.0
 40
1.0
 10
4123.301790288665
 20
2328.958923711338
 30
0.0
 10
4123.301688697339
 20
2328.958923711338
 30
0.0
 10
4123.301482662948
 20
2328.958923711338
 30
0.0
 10
4123.300226837876
 20
2328.958923711338
 30
0.0
 10
4123.298781575259
 20
2328.958923711338
 30
0.0
 10
4123.298223554171
 20
2328.958923711338
 30
0.0
  0
LINE
  5
154F
330
1F
100
AcDbEntity
  8
SANINDUSA
100
AcDbLine
 10
4123.316454730011
 20
2328.871897821677
 30
0.0
 11
4123.318592674114
 21
2328.871897821677
 31
0.0
  0
SPLINE
  5
1550
330
1F
100
AcDbEntity
  8
SANINDUSA
100
AcDbSpline
210
0.0
220
0.0
230
1.0
 70
     8
 71
     3
 72
    20
 73
    16
 74
     0
 42
0.0000000001
 43
0.0000000001
 40
0.0
 40
0.0
 40
0.0
 40
0.0
 40
0.1247334943694281
 40
0.2490065959130323
 40
0.37332837096908
 40
0.4984457191600577
 40
0.5627013155970012
 40
0.6231033363163061
 40
0.6881383631050638
 40
0.7484792013563672
 40
0.7926207607827031
 40
0.8343933813122657
 40
0.8741493893525793
 40
0.9383544221142775
 40
0.9999999999999998
 40
0.9999999999999998
 40
0.9999999999999998
 40
0.9999999999999998
 10
4123.293603568353
 20
2328.910048277479
 30
0.0
 10
4123.294486188848
 20
2328.908010678427
 30
0.0
 10
4123.296248172073
 20
2328.903943001126
 30
0.0
 10
4123.29906036464
 20
2328.897979169826
 30
0.0
 10
4123.301992311072
 20
2328.892157372414
 30
0.0
 10
4123.304552698619
 20
2328.887456490824
 30
0.0
 10
4123.306631987213
 20
2328.883891046415
 30
0.0
 10
4123.308224534474
 20
2328.881298242388
 30
0.0
 10
4123.309786246657
 20
2328.878905636356
 30
0.0
 10
4123.311195892674
 20
2328.876904859148
 30
0.0
 10
4123.312380423356
 20
2328.875358592126
 30
0.0
 10
4123.313362443987
 20
2328.87418765598
 30
0.0
 10
4123.314435069667
 20
2328.873056677602
 30
0.0
 10
4123.315552158245
 20
2328.872105495883
 30
0.0
 10
4123.31615797967
 20
2328.871966101446
 30
0.0
 10
4123.316454730011
 20
2328.871897821677
 30
0.0
  0
SPLINE
  5
1555
330
1F
100
AcDbEntity
  8
SANINDUSA
100
AcDbSpline
210
0.0
220
0.0
230
1.0
 70
    24
 71
     3
 72
    15
 73
    11
 74
     0
 42
0.0000000001
 43
0.0000000001
 40
0.0
 40
0.0
 40
0.0
 40
0.0
 40
0.1249793038994935
 40
0.2499617858683655
 40
0.3749499658816402
 40
0.4999457320531443
 40
0.6249495669631857
 40
0.7499612309524061
 40
0.8749788527819521
 40
1.0
 40
1.0
 40
1.0
 40
1.0
 10
4123.260914917119
 20
2328.707133655798
 30
0.0
 10
4123.26080336615
 20
2328.707130735963
 30
0.0
 10
4123.260580261375
 20
2328.707124896217
 30
0.0
 10
4123.258797267397
 20
2328.707078211917
 30
0.0
 10
4123.256023627221
 20
2328.707005571349
 30
0.0
 10
4123.252257511726
 20
2328.706906951814
 30
0.0
 10
4123.24766718053
 20
2328.706786750524
 30
0.0
 10
4123.242414989362
 20
2328.706649218131
 30
0.0
 10
4123.236700864945
 20
2328.706499601057
 30
0.0
 10
4123.232717907927
 20
2328.706395300307
 30
0.0
 10
4123.230726401337
 20
2328.706343149197
 30
0.0
  0
SPLINE
  5
1557
330
1F
100
AcDbEntity
  8
SANINDUSA
100
AcDbSpline
210
0.0
220
0.0
230
1.0
 70
    24
 71
     3
 72
    15
 73
    11
 74
     0
 42
0.0000000001
 43
0.0000000001
 40
0.0
 40
0.0
 40
0.0
 40
0.0
 40
0.1249792958561028
 40
0.2499617995394598
 40
0.3749499790186958
 40
0.4999457202939092
 40
0.62494958440842
 40
0.7499612138543025
 40
0.8749788614120708
 40
0.9999999999999998
 40
0.9999999999999998
 40
0.9999999999999998
 40
0.9999999999999998
 10
4123.260862561889
 20
2328.717135717523
 30
0.0
 10
4123.260751012854
 20
2328.717132797684
 30
0.0
 10
4123.260527911919
 20
2328.71712695793
 30
0.0
 10
4123.258744910942
 20
2328.717080273678
 30
0.0
 10
4123.255971272103
 20
2328.717007632966
 30
0.0
 10
4123.252205158379
 20
2328.716909013962
 30
0.0
 10
4123.247614825634
 20
2328.716788810579
 30
0.0
 10
4123.242362635258
 20
2328.716651286223
 30
0.0
 10
4123.236648511307
 20
2328.716501638856
 30
0.0
 10
4123.232665553664
 20
2328.716397354052
 30
0.0
 10
4123.230674047039
 20
2328.716345210922
 30
0.0
  0
SPLINE
  5
155E
330
1F
100
AcDbEntity
  8
SANINDUSA
100
AcDbSpline
210
0.0
220
0.0
230
1.0
 70
    24
 71
     3
 72
    15
 73
    11
 74
     0
 42
0.0000000001
 43
0.0000000001
 40
0.0
 40
0.0
 40
0.0
 40
0.0
 40
0.1250209605473194
 40
0.2500388974089627
 40
0.3750509920985883
 40
0.5000554253617474
 40
0.6250514049820481
 40
0.7500393662451085
 40
0.8750213514630408
 40
1.0
 40
1.0
 40
1.0
 40
1.0
 10
4123.100059471108
 20
2328.712924947393
 30
0.0
 10
4123.097994312625
 20
2328.712870865052
 30
0.0
 10
4123.093864045602
 20
2328.712762701679
 30
0.0
 10
4123.087873930422
 20
2328.712605843057
 30
0.0
 10
4123.082337388132
 20
2328.712460872058
 30
0.0
 10
4123.077473531775
 20
2328.712333500259
 30
0.0
 10
4123.073468261898
 20
2328.712228623647
 30
0.0
 10
4123.070510547381
 20
2328.712151167122
 30
0.0
 10
4123.068605790751
 20
2328.712101303187
 30
0.0
 10
4123.068367254459
 20
2328.712095052887
 30
0.0
 10
4123.068247987904
 20
2328.712091927779
 30
0.0
  0
LINE
  5
1565
330
1F
100
AcDbEntity
  8
SANINDUSA
100
AcDbLine
 10
4123.230674047039
 20
2328.716345210922
 30
0.0
 11
4123.100059471108
 21
2328.712924947393
 31
0.0
  0
LINE
  5
1567
330
1F
100
AcDbEntity
  8
SANINDUSA
100
AcDbLine
 10
4123.230726401337
 20
2328.706343149197
 30
0.0
 11
4123.049274160543
 21
2328.701591647773
 31
0.0
  0
SPLINE
  5
1590
330
1F
100
AcDbEntity
  8
SANINDUSA
100
AcDbSpline
210
0.0
220
0.0
230
1.0
 70
     8
 71
     3
 72
    18
 73
    14
 74
     0
 42
0.0000000001
 43
0.0000000001
 40
0.0
 40
0.0
 40
0.0
 40
0.0
 40
0.0986775559456038
 40
0.2048485313452016
 40
0.3122073867423571
 40
0.3441372132312296
 40
0.4514471329843853
 40
0.5587579068030247
 40
0.6559456780780965
 40
0.7632430961281509
 40
0.7952071469500125
 40
0.9095753449163643
 40
1.0
 40
1.0
 40
1.0
 40
1.0
 10
4123.081983446159
 20
2328.926065321442
 30
0.0
 10
4123.082742476593
 20
2328.926235044699
 30
0.0
 10
4123.084318177045
 20
2328.926587379729
 30
0.0
 10
4123.086783985743
 20
2328.926134032171
 30
0.0
 10
4123.088499163222
 20
2328.925199535893
 30
0.0
 10
4123.08994935771
 20
2328.923925620969
 30
0.0
 10
4123.091114125794
 20
2328.922337560211
 30
0.0
 10
4123.091833344356
 20
2328.919958171437
 30
0.0
 10
4123.091767931462
 20
2328.917484946827
 30
0.0
 10
4123.091122062263
 20
2328.915706850217
 30
0.0
 10
4123.090055496715
 20
2328.914036412154
 30
0.0
 10
4123.088710149934
 20
2328.912671353597
 30
0.0
 10
4123.087221974638
 20
2328.912054478418
 30
0.0
 10
4123.086564882674
 20
2328.91178210209
 30
0.0
  0
SPLINE
  5
1591
330
1F
100
AcDbEntity
  8
SANINDUSA
100
AcDbSpline
210
0.0
220
0.0
230
1.0
 70
     8
 71
     3
 72
    17
 73
    13
 74
     0
 42
0.0000000001
 43
0.0000000001
 40
0.0
 40
0.0
 40
0.0
 40
0.0
 40
0.0990260310134882
 40
0.2064340146172395
 40
0.3138424619942773
 40
0.4212342795211713
 40
0.5285911484371196
 40
0.6359151225370966
 40
0.7432233223279794
 40
0.8505390618309903
 40
0.9578826509071969
 40
1.0
 40
1.0
 40
1.0
 40
1.0
 10
4123.086564882674
 20
2328.91178210209
 30
0.0
 10
4123.085803345007
 20
2328.911612014822
 30
0.0
 10
4123.084215810132
 20
2328.911257443431
 30
0.0
 10
4123.081736587187
 20
2328.911721770552
 30
0.0
 10
4123.079495889442
 20
2328.912955768111
 30
0.0
 10
4123.077789319273
 20
2328.914877655505
 30
0.0
 10
4123.076815669112
 20
2328.917251750673
 30
0.0
 10
4123.076682741796
 20
2328.919814188003
 30
0.0
 10
4123.077405033137
 20
2328.922278069005
 30
0.0
 10
4123.078902409978
 20
2328.9243546976
 30
0.0
 10
4123.080575540803
 20
2328.925550390257
 30
0.0
 10
4123.081673926526
 20
2328.925952116879
 30
0.0
 10
4123.081983446159
 20
2328.926065321442
 30
0.0
  0
LINE
  5
1593
330
1F
100
AcDbEntity
  8
SANINDUSA
100
AcDbLine
 10
4123.051274164595
 20
2328.958923711338
 30
0.0
 11
4123.177868264742
 21
2328.958923711338
 31
0.0
  0
SPLINE
  5
1595
330
1F
100
AcDbEntity
  8
SANINDUSA
100
AcDbSpline
210
0.0
220
0.0
230
1.0
 70
    24
 71
     3
 72
     9
 73
     5
 74
     0
 42
0.0000000001
 43
0.0000000001
 40
0.0
 40
0.0
 40
0.0
 40
0.0
 40
0.4999538594831757
 40
1.0
 40
1.0
 40
1.0
 40
1.0
 10
4123.049274160542
 20
2328.711696033728
 30
0.0
 10
4123.049274160542
 20
2328.711108455486
 30
0.0
 10
4123.049274160542
 20
2328.709933190546
 30
0.0
 10
4123.049274160542
 20
2328.709742247013
 30
0.0
 10
4123.049274160542
 20
2328.709646766436
 30
0.0
  0
SPLINE
  5
15AB
330
1F
100
AcDbEntity
  8
SANINDUSA
100
AcDbSpline
210
0.0
220
0.0
230
1.0
 70
    24
 71
     3
 72
     9
 73
     5
 74
     0
 42
0.0000000001
 43
0.0000000001
 40
0.0
 40
0.0
 40
0.0
 40
0.0
 40
0.5000473704568896
 40
1.0
 40
1.0
 40
1.0
 40
1.0
 10
4123.049274160542
 20
2328.716644366634
 30
0.0
 10
4123.049274160542
 20
2328.715717645137
 30
0.0
 10
4123.049274160542
 20
2328.713864377723
 30
0.0
 10
4123.049274160542
 20
2328.712418769407
 30
0.0
 10
4123.049274160542
 20
2328.711696033728
 30
0.0
  0
LINE
  5
15B1
330
1F
100
AcDbEntity
  8
SANINDUSA
100
AcDbLine
 10
4123.049274160542
 20
2328.716644366634
 30
0.0
 11
4123.049274160542
 21
2328.736908232224
 31
0.0
  0
LINE
  5
15B4
330
1F
100
AcDbEntity
  8
SANINDUSA
100
AcDbLine
 10
4123.049274160542
 20
2328.800939192426
 30
0.0
 11
4123.049274160542
 21
2328.846908231628
 31
0.0
  0
LINE
  5
15B7
330
1F
100
AcDbEntity
  8
SANINDUSA
100
AcDbLine
 10
4123.049274160542
 20
2328.91093919183
 30
0.0
 11
4123.049274160542
 21
2328.95392371145
 31
0.0
  0
SPLINE
  5
15B9
330
1F
100
AcDbEntity
  8
SANINDUSA
100
AcDbSpline
210
0.0
220
0.0
230
1.0
 70
    24
 71
     3
 72
     9
 73
     5
 74
     0
 42
0.0000000001
 43
0.0000000001
 40
0.0
 40
0.0
 40
0.0
 40
0.0
 40
0.4999449875539076
 40
1.0
 40
1.0
 40
1.0
 40
1.0
 10
4123.049274160542
 20
2328.849029031944
 30
0.0
 10
4123.049274160542
 20
2328.848719279347
 30
0.0
 10
4123.049274160542
 20
2328.848099705984
 30
0.0
 10
4123.049274160542
 20
2328.847305418877
 30
0.0
 10
4123.049274160542
 20
2328.846908231628
 30
0.0
  0
ARC
  5
15BA
330
1F
100
AcDbEntity
  8
SANINDUSA
100
AcDbCircle
 10
4123.051274160742
 20
2328.956923711343
 30
0.0
 40
0.002
100
AcDbArc
 50
90.0
 51
180.0
  0
SPLINE
  5
15BB
330
1F
100
AcDbEntity
  8
SANINDUSA
100
AcDbSpline
210
0.0
220
0.0
230
1.0
 70
    24
 71
     3
 72
    11
 73
     7
 74
     0
 42
0.0000000001
 43
0.0000000001
 40
0.0
 40
0.0
 40
0.0
 40
0.0
 40
0.2500395627964944
 40
0.500056147961711
 40
0.7500396341263225
 40
1.0
 40
1.0
 40
1.0
 40
1.0
 10
4123.049274160542
 20
2328.956923711359
 30
0.0
 10
4123.049274160542
 20
2328.956878620154
 30
0.0
 10
4123.049274160542
 20
2328.956788441887
 30
0.0
 10
4123.049274160542
 20
2328.956094740341
 30
0.0
 10
4123.049274160542
 20
2328.955103099012
 30
0.0
 10
4123.049274160542
 20
2328.954316828517
 30
0.0
 10
4123.049274160542
 20
2328.95392371145
 30
0.0
  0
SPLINE
  5
15BD
330
1F
100
AcDbEntity
  8
SANINDUSA
100
AcDbSpline
210
0.0
220
0.0
230
1.0
 70
    24
 71
     3
 72
     9
 73
     5
 74
     0
 42
0.0000000001
 43
0.0000000001
 40
0.0
 40
0.0
 40
0.0
 40
0.0
 40
0.5000534514654108
 40
1.0
 40
1.0
 40
1.0
 40
1.0
 10
4123.049274160542
 20
2328.800939192426
 30
0.0
 10
4123.049274160542
 20
2328.800542007821
 30
0.0
 10
4123.049274160542
 20
2328.79974772352
 30
0.0
 10
4123.049274160542
 20
2328.799128152136
 30
0.0
 10
4123.049274160542
 20
2328.79881839956
 30
0.0
  0
SPLINE
  5
15BF
330
1F
100
AcDbEntity
  8
SANINDUSA
100
AcDbSpline
210
0.0
220
0.0
230
1.0
 70
    24
 71
     3
 72
     9
 73
     5
 74
     0
 42
0.0000000001
 43
0.0000000001
 40
0.0
 40
0.0
 40
0.0
 40
0.0
 40
0.5000535701321411
 40
1.0
 40
1.0
 40
1.0
 40
1.0
 10
4123.049274160542
 20
2328.91093919183
 30
0.0
 10
4123.049274160542
 20
2328.910542006018
 30
0.0
 10
4123.049274160542
 20
2328.909747719493
 30
0.0
 10
4123.049274160542
 20
2328.90912814538
 30
0.0
 10
4123.049274160542
 20
2328.908818391514
 30
0.0
  0
SPLINE
  5
15C1
330
1F
100
AcDbEntity
  8
SANINDUSA
100
AcDbSpline
210
0.0
220
0.0
230
1.0
 70
    24
 71
     3
 72
     9
 73
     5
 74
     0
 42
0.0000000001
 43
0.0000000001
 40
0.0
 40
0.0
 40
0.0
 40
0.0
 40
0.4999465485345893
 40
1.0
 40
1.0
 40
1.0
 40
1.0
 10
4123.049274160542
 20
2328.73902902509
 30
0.0
 10
4123.049274160542
 20
2328.738719272514
 30
0.0
 10
4123.049274160542
 20
2328.73809970113
 30
0.0
 10
4123.049274160542
 20
2328.73730541683
 30
0.0
 10
4123.049274160542
 20
2328.736908232224
 30
0.0
  0
LINE
  5
15C3
330
1F
100
AcDbEntity
  8
SANINDUSA
100
AcDbLine
 10
4123.049274160542
 20
2328.908818391514
 30
0.0
 11
4123.049274160542
 21
2328.906800882322
 31
0.0
  0
LINE
  5
15C5
330
1F
100
AcDbEntity
  8
SANINDUSA
100
AcDbLine
 10
4123.049274160542
 20
2328.79881839956
 30
0.0
 11
4123.049274160542
 21
2328.796800886643
 31
0.0
  0
LINE
  5
15C7
330
1F
100
AcDbEntity
  8
SANINDUSA
100
AcDbLine
 10
4123.049274160542
 20
2328.851046537411
 30
0.0
 11
4123.049274160542
 21
2328.849029031944
 31
0.0
  0
LINE
  5
15C9
330
1F
100
AcDbEntity
  8
SANINDUSA
100
AcDbLine
 10
4123.049274160542
 20
2328.741046538008
 30
0.0
 11
4123.049274160542
 21
2328.73902902509
 31
0.0
  0
SPLINE
  5
15CB
330
1F
100
AcDbEntity
  8
SANINDUSA
100
AcDbSpline
210
0.0
220
0.0
230
1.0
 70
    24
 71
     3
 72
     9
 73
     5
 74
     0
 42
0.0000000001
 43
0.0000000001
 40
0.0
 40
0.0
 40
0.0
 40
0.0
 40
0.5001005471869108
 40
1.0
 40
1.0
 40
1.0
 40
1.0
 10
4123.049274160542
 20
2328.906800882322
 30
0.0
 10
4123.049274160542
 20
2328.906078309498
 30
0.0
 10
4123.049274160542
 20
2328.904633454404
 30
0.0
 10
4123.049274160542
 20
2328.902780911001
 30
0.0
 10
4123.049274160542
 20
2328.901854825568
 30
0.0
  0
SPLINE
  5
15CD
330
1F
100
AcDbEntity
  8
SANINDUSA
100
AcDbSpline
210
0.0
220
0.0
230
1.0
 70
    24
 71
     3
 72
     9
 73
     5
 74
     0
 42
0.0000000001
 43
0.0000000001
 40
0.0
 40
0.0
 40
0.0
 40
0.0
 40
0.5001015002614845
 40
1.0
 40
1.0
 40
1.0
 40
1.0
 10
4123.049274160542
 20
2328.796800886643
 30
0.0
 10
4123.049274160542
 20
2328.796078312562
 30
0.0
 10
4123.049274160542
 20
2328.794633457705
 30
0.0
 10
4123.049274160542
 20
2328.792780916289
 30
0.0
 10
4123.049274160542
 20
2328.791854833615
 30
0.0
  0
SPLINE
  5
15CF
330
1F
100
AcDbEntity
  8
SANINDUSA
100
AcDbSpline
210
0.0
220
0.0
230
1.0
 70
    24
 71
     3
 72
     9
 73
     5
 74
     0
 42
0.0000000001
 43
0.0000000001
 40
0.0
 40
0.0
 40
0.0
 40
0.0
 40
0.4998984997385156
 40
1.0
 40
1.0
 40
1.0
 40
1.0
 10
4123.049274160542
 20
2328.745992591035
 30
0.0
 10
4123.049274160542
 20
2328.745066508361
 30
0.0
 10
4123.049274160542
 20
2328.743213966945
 30
0.0
 10
4123.049274160542
 20
2328.741769112089
 30
0.0
 10
4123.049274160542
 20
2328.741046538008
 30
0.0
  0
SPLINE
  5
15D1
330
1F
100
AcDbEntity
  8
SANINDUSA
100
AcDbSpline
210
0.0
220
0.0
230
1.0
 70
    24
 71
     3
 72
     9
 73
     5
 74
     0
 42
0.0000000001
 43
0.0000000001
 40
0.0
 40
0.0
 40
0.0
 40
0.0
 40
0.4998991691829236
 40
1.0
 40
1.0
 40
1.0
 40
1.0
 10
4123.049274160542
 20
2328.85599259789
 30
0.0
 10
4123.049274160542
 20
2328.855066512572
 30
0.0
 10
4123.049274160542
 20
2328.853213968349
 30
0.0
 10
4123.049274160542
 20
2328.851769111514
 30
0.0
 10
4123.049274160542
 20
2328.851046537411
 30
0.0
  0
LINE
  5
15D2
330
1F
100
AcDbEntity
  8
SANINDUSA
100
AcDbLine
 10
4123.049274160542
 20
2328.791854833615
 30
0.0
 11
4123.049274160542
 21
2328.745992591035
 31
0.0
  0
LINE
  5
15D3
330
1F
100
AcDbEntity
  8
SANINDUSA
100
AcDbLine
 10
4123.049274160542
 20
2328.901854825568
 30
0.0
 11
4123.049274160542
 21
2328.85599259789
 31
0.0
  0
LINE
  5
15D8
330
1F
100
AcDbEntity
  8
SANINDUSA
100
AcDbLine
 10
4123.054274155774
 20
2328.96892371158
 30
0.0
 11
4123.164203229375
 21
2328.96892371158
 31
0.0
  0
LINE
  5
15DC
330
1F
100
AcDbEntity
  8
SANINDUSA
100
AcDbLine
 10
4123.049274160542
 20
2328.963923711691
 30
0.0
 11
4123.049274160542
 21
2328.962183254667
 31
0.0
  0
LINE
  5
15DD
330
1F
100
AcDbEntity
  8
SANINDUSA
100
AcDbLine
 10
4123.049274160542
 20
2328.962183254667
 30
0.0
 11
4123.049274160542
 21
2328.957098721307
 31
0.0
  0
SPLINE
  5
15DE
330
1F
100
AcDbEntity
  8
SANINDUSA
100
AcDbSpline
210
0.0
220
0.0
230
1.0
 70
     8
 71
     3
 72
    13
 73
     9
 74
     0
 42
0.0000000001
 43
0.0000000001
 40
0.0
 40
0.0
 40
0.0
 40
0.0
 40
0.2659388074238647
 40
0.5224587633250913
 40
0.6487406146027741
 40
0.7663219454925069
 40
0.884648536790603
 40
1.0
 40
1.0
 40
1.0
 40
1.0
 10
4123.054274155774
 20
2328.96892371158
 30
0.0
 10
4123.053623938342
 20
2328.968851319535
 30
0.0
 10
4123.052346532464
 20
2328.968709099378
 30
0.0
 10
4123.050938835245
 20
2328.967749286423
 30
0.0
 10
4123.050092917397
 20
2328.966725576604
 30
0.0
 10
4123.049628371982
 20
2328.96585084241
 30
0.0
 10
4123.049330314077
 20
2328.964909523583
 30
0.0
 10
4123.049292718837
 20
2328.964249514635
 30
0.0
 10
4123.049274160542
 20
2328.963923711691
 30
0.0
  0
LINE
  5
15DF
330
1F
100
AcDbEntity
  8
SANINDUSA
100
AcDbLine
 10
4123.31927416382
 20
2328.948923711561
 30
0.0
 11
4123.308306417444
 21
2328.948923711561
 31
0.0
  0
LINE
  5
15E0
330
1F
100
AcDbEntity
  8
SANINDUSA
100
AcDbLine
 10
4123.31927416382
 20
2328.907991526079
 30
0.0
 11
4123.31927416382
 21
2328.948923711561
 31
0.0
  0
LINE
  5
15E1
330
1F
100
AcDbEntity
  8
SANINDUSA
100
AcDbLine
 10
4123.308306417444
 20
2328.948923711561
 30
0.0
 11
4123.31927416382
 21
2328.907991526079
 31
0.0
  0
LINE
  5
15E2
330
1F
100
AcDbEntity
  8
SANINDUSA
100
AcDbLine
 10
4123.29971416948
 20
2328.728156512034
 30
0.0
 11
4123.299539483167
 21
2328.718148504746
 31
0.0
  0
LINE
  5
15E3
330
1F
100
AcDbEntity
  8
SANINDUSA
100
AcDbLine
 10
4123.29971416948
 20
2328.728156512034
 30
0.0
 11
4123.31927416382
 21
2328.728668709648
 31
0.0
  0
LINE
  5
15E4
330
1F
100
AcDbEntity
  8
SANINDUSA
100
AcDbLine
 10
4123.31927416382
 20
2328.728406851542
 30
0.0
 11
4123.31927416382
 21
2328.728668709648
 31
0.0
  0
ARC
  5
15E5
330
1F
100
AcDbEntity
  8
SANINDUSA
100
AcDbCircle
 10
4123.309274160741
 20
2328.728406848761
 30
0.0
 40
0.0100000000002423
100
AcDbArc
 50
271.4999999978369
 51
0.0
  0
LINE
  5
15E6
330
1F
100
AcDbEntity
  8
SANINDUSA
100
AcDbLine
 10
4123.299539483167
 20
2328.718148504746
 30
0.0
 11
4123.309535927154
 21
2328.718410273445
 31
0.0
  0
LINE
  5
15E7
330
1F
100
AcDbEntity
  8
SANINDUSA
100
AcDbLine
 10
4123.40108173994
 20
2329.061441091251
 30
0.0
 11
4123.406068309225
 21
2329.08144109453
 31
0.0
  0
LINE
  5
15E8
330
1F
100
AcDbEntity
  8
SANINDUSA
100
AcDbLine
 10
4123.413274168052
 20
2329.061441091251
 30
0.0
 11
4123.413274168052
 21
2329.08144109453
 31
0.0
  0
LINE
  5
15E9
330
1F
100
AcDbEntity
  8
SANINDUSA
100
AcDbLine
 10
4123.40108173994
 20
2329.061441091251
 30
0.0
 11
4123.413274168052
 21
2329.061441091251
 31
0.0
  0
LINE
  5
15EA
330
1F
100
AcDbEntity
  8
SANINDUSA
100
AcDbLine
 10
4123.413274168052
 20
2329.08144109453
 30
0.0
 11
4123.406068309225
 21
2329.08144109453
 31
0.0
  0
LINE
  5
15EB
330
1F
100
AcDbEntity
  8
SANINDUSA
100
AcDbLine
 10
4123.2966442099
 20
2328.976441090357
 30
0.0
 11
4123.284144162215
 21
2328.965441009392
 31
0.0
  0
SPLINE
  5
15EC
330
1F
100
AcDbEntity
  8
SANINDUSA
100
AcDbSpline
210
0.0
220
0.0
230
1.0
 70
    24
 71
     3
 72
    26
 73
    22
 74
     0
 42
0.0000000001
 43
0.0000000001
 40
0.0
 40
0.0
 40
0.0
 40
0.0
 40
0.0456234936111031
 40
0.0922172470477609
 40
0.1451416682261399
 40
0.1996009194665909
 40
0.2525253610637446
 40
0.3069846697677324
 40
0.3599090881004368
 40
0.4143683603583572
 40
0.4672928099047105
 40
0.521752061858055
 40
0.5746764872467813
 40
0.6291357722984053
 40
0.682060184026926
 40
0.7365194229608012
 40
0.7894438811972841
 40
0.8439031889417918
 40
0.8968275882605908
 40
0.9512868772160679
 40
1.0
 40
1.0
 40
1.0
 40
1.0
 10
4123.284144162215
 20
2328.965441009392
 30
0.0
 10
4123.284097547768
 20
2328.96544100934
 30
0.0
 10
4123.284003327535
 20
2328.965441009235
 30
0.0
 10
4123.283205624462
 20
2328.965441010069
 30
0.0
 10
4123.281829710287
 20
2328.965441013002
 30
0.0
 10
4123.279786280393
 20
2328.965441016944
 30
0.0
 10
4123.277181572841
 20
2328.965441020109
 30
0.0
 10
4123.274132216047
 20
2328.96544102625
 30
0.0
 10
4123.270670698443
 20
2328.965441031554
 30
0.0
 10
4123.266957017471
 20
2328.965441038284
 30
0.0
 10
4123.263029527784
 20
2328.965441044577
 30
0.0
 10
4123.259070061807
 20
2328.965441052436
 30
0.0
 10
4123.255119438504
 20
2328.965441058738
 30
0.0
 10
4123.251360563224
 20
2328.965441065437
 30
0.0
 10
4123.247832255819
 20
2328.965441070856
 30
0.0
 10
4123.244697586402
 20
2328.965441076562
 30
0.0
 10
4123.241989989002
 20
2328.965441081331
 30
0.0
 10
4123.239830669343
 20
2328.965441084935
 30
0.0
 10
4123.238257423024
 20
2328.965441087749
 30
0.0
 10
4123.237310764362
 20
2328.965441089872
 30
0.0
 10
4123.237197594484
 20
2328.965441089609
 30
0.0
 10
4123.237144161031
 20
2328.965441089485
 30
0.0
  0
LINE
  5
15ED
330
1F
100
AcDbEntity
  8
SANINDUSA
100
AcDbLine
 10
4123.237144161031
 20
2328.965441089485
 30
0.0
 11
4123.224644206479
 21
2328.976441090357
 31
0.0
  0
LINE
  5
15EE
330
1F
100
AcDbEntity
  8
SANINDUSA
100
AcDbLine
 10
4123.224644206479
 20
2328.976441090357
 30
0.0
 11
4123.2966442099
 21
2328.976441090357
 31
0.0
  0
LINE
  5
15EF
330
1F
100
AcDbEntity
  8
SANINDUSA
100
AcDbLine
 10
4123.284144162215
 20
2328.929441090104
 30
0.0
 11
4123.237144161031
 21
2328.929441090104
 31
0.0
  0
LINE
  5
15F0
330
1F
100
AcDbEntity
  8
SANINDUSA
100
AcDbLine
 10
4123.237144161031
 20
2328.929441090104
 30
0.0
 11
4123.237144161031
 21
2328.949582129613
 31
0.0
  0
LWPOLYLINE
  5
15F1
330
1F
100
AcDbEntity
  8
SANINDUSA
100
AcDbPolyline
 90
        6
 70
   128
 43
0.0
 10
4123.242478978835
 20
2328.947072538909
 10
4123.240607487985
 20
2328.947952920001
 10
4123.239113957636
 20
2328.948655503233
 10
4123.238026558436
 20
2328.949167034485
 10
4123.237365805559
 20
2328.949477864326
 10
4123.237144161031
 20
2328.949582129613
  0
LINE
  5
15F2
330
1F
100
AcDbEntity
  8
SANINDUSA
100
AcDbLine
 10
4123.242947251551
 20
2328.957623281529
 30
0.0
 11
4123.242478978835
 21
2328.947072538909
 31
0.0
  0
LWPOLYLINE
  5
15F3
330
1F
100
AcDbEntity
  8
SANINDUSA
100
AcDbPolyline
 90
        6
 70
   128
 43
0.0
 10
4123.237144161031
 20
2328.959095012759
 10
4123.237386104666
 20
2328.959033652804
 10
4123.238106957653
 20
2328.958850836511
 10
4123.239291873775
 20
2328.95855032782
 10
4123.240916456111
 20
2328.958138314904
 10
4123.242947251551
 20
2328.957623281529
  0
LINE
  5
15F4
330
1F
100
AcDbEntity
  8
SANINDUSA
100
AcDbLine
 10
4123.237144161031
 20
2328.959095012759
 30
0.0
 11
4123.237144161031
 21
2328.965441089485
 31
0.0
  0
LINE
  5
15F5
330
1F
100
AcDbEntity
  8
SANINDUSA
100
AcDbLine
 10
4123.284144162215
 20
2328.965441009392
 30
0.0
 11
4123.284144162215
 21
2328.929441090104
 31
0.0
  0
LINE
  5
15F6
330
1F
100
AcDbEntity
  8
SANINDUSA
100
AcDbLine
 10
4123.298516443946
 20
2328.962271422509
 30
0.0
 11
4123.295724025942
 21
2328.930353933376
 31
0.0
  0
LINE
  5
15F7
330
1F
100
AcDbEntity
  8
SANINDUSA
100
AcDbLine
 10
4123.225564297304
 20
2328.930353933376
 30
0.0
 11
4123.224694921185
 21
2328.940290947807
 31
0.0
  0
ARC
  5
15F8
330
1F
100
AcDbEntity
  8
SANINDUSA
100
AcDbCircle
 10
4123.326213035777
 20
2329.033974430445
 30
0.0
 40
0.0549999999996391
100
AcDbArc
 50
274.7699897365686
 51
346.0000000060814
  0
LINE
  5
15F9
330
1F
100
AcDbEntity
  8
SANINDUSA
100
AcDbLine
 10
4123.379579304732
 20
2329.020668727708
 30
0.0
 11
4123.396529107369
 21
2329.088650693547
 31
0.0
  0
ARC
  5
15FA
330
1F
100
AcDbEntity
  8
SANINDUSA
100
AcDbCircle
 10
4123.401380588874
 20
2329.087441089563
 30
0.0
 40
0.0050000000000002
100
AcDbArc
 50
90.0000006774327
 51
165.9999999808002
  0
LINE
  5
15FB
330
1F
100
AcDbEntity
  8
SANINDUSA
100
AcDbLine
 10
4123.414274155178
 20
2329.092441087019
 30
0.0
 11
4123.401380582728
 21
2329.092441087019
 31
0.0
  0
ARC
  5
15FC
330
1F
100
AcDbEntity
  8
SANINDUSA
100
AcDbCircle
 10
4123.414274160741
 20
2329.082441089563
 30
0.0
 40
0.0100000000000005
100
AcDbArc
 50
359.9999999739449
 51
90.0
  0
LINE
  5
15FD
330
1F
100
AcDbEntity
  8
SANINDUSA
100
AcDbLine
 10
4123.424274160542
 20
2329.052441087913
 30
0.0
 11
4123.424274160542
 21
2329.082441096556
 31
0.0
  0
ARC
  5
15FE
330
1F
100
AcDbEntity
  8
SANINDUSA
100
AcDbCircle
 10
4123.414274160741
 20
2329.052441089563
 30
0.0
 40
0.0100000000000005
100
AcDbArc
 50
270.0
 51
0.0
  0
LINE
  5
15FF
330
1F
100
AcDbEntity
  8
SANINDUSA
100
AcDbLine
 10
4123.414274155178
 20
2329.042441089999
 30
0.0
 11
4123.413209288396
 21
2329.042441089999
 31
0.0
  0
ARC
  5
1600
330
1F
100
AcDbEntity
  8
SANINDUSA
100
AcDbCircle
 10
4123.413209282544
 20
2329.047441089563
 30
0.0
 40
0.005
100
AcDbArc
 50
194.0000000191997
 51
270.0000019801879
  0
LINE
  5
1601
330
1F
100
AcDbEntity
  8
SANINDUSA
100
AcDbLine
 10
4123.408357798137
 20
2329.046231483471
 30
0.0
 11
4123.408253281392
 21
2329.046650697839
 31
0.0
  0
ARC
  5
1602
330
1F
100
AcDbEntity
  8
SANINDUSA
100
AcDbCircle
 10
4123.403401802256
 20
2329.045441089563
 30
0.0
 40
0.0050000000000005
100
AcDbArc
 50
13.9999999939186
 51
90.0
  0
LINE
  5
1603
330
1F
100
AcDbEntity
  8
SANINDUSA
100
AcDbLine
 10
4123.401214956321
 20
2329.050441091311
 30
0.0
 11
4123.403401806035
 21
2329.050441091311
 31
0.0
  0
ARC
  5
1604
330
1F
100
AcDbEntity
  8
SANINDUSA
100
AcDbCircle
 10
4123.401214949048
 20
2329.045441089563
 30
0.0
 40
0.0050000000006021
100
AcDbArc
 50
90.0
 51
166.0000000060814
  0
LINE
  5
1605
330
1F
100
AcDbEntity
  8
SANINDUSA
100
AcDbLine
 10
4123.389282255448
 20
2329.018249505562
 30
0.0
 11
4123.396363466063
 21
2329.046650697839
 31
0.0
  0
ARC
  5
1606
330
1F
100
AcDbEntity
  8
SANINDUSA
100
AcDbCircle
 10
4123.326213035775
 20
2329.033974430445
 30
0.0
 40
0.0650000000011525
100
AcDbArc
 50
274.7699938152536
 51
346.0000000060814
  0
LINE
  5
1607
330
1F
100
AcDbEntity
  8
SANINDUSA
100
AcDbLine
 10
4123.331618166544
 20
2328.969199554425
 30
0.0
 11
4123.303081638195
 21
2328.966818326515
 31
0.0
  0
ARC
  5
1608
330
1F
100
AcDbEntity
  8
SANINDUSA
100
AcDbCircle
 10
4123.303497416189
 20
2328.961835643853
 30
0.0
 40
0.0049999999993493
100
AcDbArc
 50
94.76998973656863
 51
175.0000000037089
  0
SPLINE
  5
1609
330
1F
100
AcDbEntity
  8
SANINDUSA
100
AcDbSpline
210
0.0
220
0.0
230
1.0
 70
     8
 71
     3
 72
    11
 73
     7
 74
     0
 42
0.0000000001
 43
0.0000000001
 40
0.0
 40
0.0
 40
0.0
 40
0.0
 40
0.2713373491387693
 40
0.5621501141924075
 40
0.788661628197978
 40
1.0
 40
1.0
 40
1.0
 40
1.0
 10
4123.294727831163
 20
2328.929441090104
 30
0.0
 10
4123.294862194952
 20
2328.929456903471
 30
0.0
 10
4123.295140566581
 20
2328.92948966522
 30
0.0
 10
4123.295464478818
 20
2328.929731968862
 30
0.0
 10
4123.295666820284
 20
2328.930036996714
 30
0.0
 10
4123.295705403069
 20
2328.930250757021
 30
0.0
 10
4123.295724025942
 20
2328.930353933376
 30
0.0
  0
LINE
  5
160A
330
1F
100
AcDbEntity
  8
SANINDUSA
100
AcDbLine
 10
4123.284144162215
 20
2328.929441090104
 30
0.0
 11
4123.294727831163
 21
2328.929441090104
 31
0.0
  0
LINE
  5
160B
330
1F
100
AcDbEntity
  8
SANINDUSA
100
AcDbLine
 10
4123.330786607243
 20
2328.979164920178
 30
0.0
 11
4123.298144347049
 21
2328.976441090357
 31
0.0
  0
LINE
  5
160C
330
1F
100
AcDbEntity
  8
SANINDUSA
100
AcDbLine
 10
4123.298144347049
 20
2328.976441090357
 30
0.0
 11
4123.2966442099
 21
2328.976441090357
 31
0.0
  0
LINE
  5
160D
330
1F
100
AcDbEntity
  8
SANINDUSA
100
AcDbLine
 10
4123.140680021622
 20
2329.08144109453
 30
0.0
 11
4123.145467906274
 21
2329.062237915945
 31
0.0
  0
LINE
  5
160E
330
1F
100
AcDbEntity
  8
SANINDUSA
100
AcDbLine
 10
4123.140680021622
 20
2329.08144109453
 30
0.0
 11
4123.137288763203
 21
2329.08144109453
 31
0.0
  0
LINE
  5
160F
330
1F
100
AcDbEntity
  8
SANINDUSA
100
AcDbLine
 10
4123.149270652809
 20
2329.013921128017
 30
0.0
 11
4123.137288763203
 21
2329.08144109453
 31
0.0
  0
ARC
  5
1610
330
1F
100
AcDbEntity
  8
SANINDUSA
100
AcDbCircle
 10
4123.220983359941
 20
2329.032177302853
 30
0.0
 40
0.074
100
AcDbArc
 50
194.2826199708059
 51
256.3107411796101
  0
LINE
  5
1611
330
1F
100
AcDbEntity
  8
SANINDUSA
100
AcDbLine
 10
4123.226144160625
 20
2328.954756720819
 30
0.0
 11
4123.203470815919
 21
2328.960279383593
 31
0.0
  0
LINE
  5
1612
330
1F
100
AcDbEntity
  8
SANINDUSA
100
AcDbLine
 10
4123.226144160625
 20
2328.954756720819
 30
0.0
 11
4123.237144161031
 21
2328.949582129613
 31
0.0
  0
LINE
  5
1613
330
1F
100
AcDbEntity
  8
SANINDUSA
100
AcDbLine
 10
4123.226560492084
 20
2328.929441090104
 30
0.0
 11
4123.237144161031
 21
2328.929441090104
 31
0.0
  0
SPLINE
  5
1614
330
1F
100
AcDbEntity
  8
SANINDUSA
100
AcDbSpline
210
0.0
220
0.0
230
1.0
 70
     8
 71
     3
 72
    11
 73
     7
 74
     0
 42
0.0000000001
 43
0.0000000001
 40
0.0
 40
0.0
 40
0.0
 40
0.0
 40
0.2713364198622954
 40
0.5621519449558925
 40
0.7886616683984766
 40
1.0
 40
1.0
 40
1.0
 40
1.0
 10
4123.225564297304
 20
2328.930353933376
 30
0.0
 10
4123.225591761953
 20
2328.930221459939
 30
0.0
 10
4123.225648662924
 20
2328.929947002864
 30
0.0
 10
4123.225918270185
 20
2328.929645435831
 30
0.0
 10
4123.226239776253
 20
2328.929470452932
 30
0.0
 10
4123.226456085168
 20
2328.929450648978
 30
0.0
 10
4123.226560492084
 20
2328.929441090104
 30
0.0
  0
ARC
  5
1615
330
1F
100
AcDbEntity
  8
SANINDUSA
100
AcDbCircle
 10
4123.219713947713
 20
2328.939855168421
 30
0.0
 40
0.0050000000005005
100
AcDbArc
 50
5.000000022247073
 51
76.31074123640612
  0
LINE
  5
1616
330
1F
100
AcDbEntity
  8
SANINDUSA
100
AcDbLine
 10
4123.220897227773
 20
2328.944713135612
 30
0.0
 11
4123.200867599822
 21
2328.949591854949
 31
0.0
  0
ARC
  5
1617
330
1F
100
AcDbEntity
  8
SANINDUSA
100
AcDbCircle
 10
4123.220983359941
 20
2329.032177302853
 30
0.0
 40
0.0850000000000108
100
AcDbArc
 50
194.1212233517855
 51
256.3107411857762
  0
ARC
  5
1618
330
1F
100
AcDbEntity
  8
SANINDUSA
100
AcDbCircle
 10
4123.14340082318
 20
2329.012659362646
 30
0.0
 40
0.0050000000003855
100
AcDbArc
 50
190.0627819001111
 51
194.1212233770532
  0
LINE
  5
1619
330
1F
100
AcDbEntity
  8
SANINDUSA
100
AcDbLine
 10
4123.138477741756
 20
2329.011785728288
 30
0.0
 11
4123.127026616611
 21
2329.07631472255
 31
0.0
  0
ARC
  5
161A
330
1F
100
AcDbEntity
  8
SANINDUSA
100
AcDbCircle
 10
4123.122103530601
 20
2329.075441089563
 30
0.0
 40
0.005
100
AcDbArc
 50
10.06278187445685
 51
89.99999973944897
  0
LINE
  5
161B
330
1F
100
AcDbEntity
  8
SANINDUSA
100
AcDbLine
 10
4123.122103533723
 20
2329.080441092503
 30
0.0
 11
4123.115603528001
 21
2329.080441092503
 31
0.0
  0
SPLINE
  5
161C
330
1F
100
AcDbEntity
  8
SANINDUSA
100
AcDbSpline
210
0.0
220
0.0
230
1.0
 70
     8
 71
     3
 72
    11
 73
     7
 74
     0
 42
0.0000000001
 43
0.0000000001
 40
0.0
 40
0.0
 40
0.0
 40
0.0
 40
0.2702596147675232
 40
0.5624315319830137
 40
0.789736816100732
 40
1.0
 40
1.0
 40
1.0
 40
1.0
 10
4123.114603533425
 20
2329.08144109453
 30
0.0
 10
4123.114621161146
 20
2329.081299389676
 30
0.0
 10
4123.11465784582
 20
2329.081004490722
 30
0.0
 10
4123.114928339016
 20
2329.080669060628
 30
0.0
 10
4123.115264748794
 20
2329.080473839908
 30
0.0
 10
4123.115493572282
 20
2329.08045172115
 30
0.0
 10
4123.115603528001
 20
2329.080441092503
 30
0.0
  0
LINE
  5
161D
330
1F
100
AcDbEntity
  8
SANINDUSA
100
AcDbLine
 10
4123.114603533425
 20
2329.091441084993
 30
0.0
 11
4123.114603533425
 21
2329.08144109453
 31
0.0
  0
SPLINE
  5
161E
330
1F
100
AcDbEntity
  8
SANINDUSA
100
AcDbSpline
210
0.0
220
0.0
230
1.0
 70
     8
 71
     3
 72
    11
 73
     7
 74
     0
 42
0.0000000001
 43
0.0000000001
 40
0.0
 40
0.0
 40
0.0
 40
0.0
 40
0.2702600108851318
 40
0.5624285685569789
 40
0.7897365079194686
 40
1.0
 40
1.0
 40
1.0
 40
1.0
 10
4123.114603533425
 20
2329.091441084993
 30
0.0
 10
4123.114621160558
 20
2329.091582790405
 30
0.0
 10
4123.114657843762
 20
2329.091877688536
 30
0.0
 10
4123.114928343992
 20
2329.092213109978
 30
0.0
 10
4123.115264746505
 20
2329.092408341199
 30
0.0
 10
4123.115493571934
 20
2329.092430458925
 30
0.0
 10
4123.115603528001
 20
2329.092441087019
 30
0.0
  0
LINE
  5
161F
330
1F
100
AcDbEntity
  8
SANINDUSA
100
AcDbLine
 10
4123.145367733218
 20
2329.092441087019
 30
0.0
 11
4123.115603528001
 21
2329.092441087019
 31
0.0
  0
ARC
  5
1620
330
1F
100
AcDbEntity
  8
SANINDUSA
100
AcDbCircle
 10
4123.145367732607
 20
2329.087441089563
 30
0.0
 40
0.0050000000000002
100
AcDbArc
 50
14.00000001919975
 51
90.0000006774327
  0
LINE
  5
1621
330
1F
100
AcDbEntity
  8
SANINDUSA
100
AcDbLine
 10
4123.150219208576
 20
2329.088650693547
 30
0.0
 11
4123.156141161003
 21
2329.064899054718
 31
0.0
  0
SPLINE
  5
1622
330
1F
100
AcDbEntity
  8
SANINDUSA
100
AcDbSpline
210
0.0
220
0.0
230
1.0
 70
     8
 71
     3
 72
    11
 73
     7
 74
     0
 42
0.0000000001
 43
0.0000000001
 40
0.0
 40
0.0
 40
0.0
 40
0.0
 40
0.270259521546706
 40
0.5624263566666656
 40
0.7897352506117575
 40
1.0
 40
1.0
 40
1.0
 40
1.0
 10
4123.156141161003
 20
2329.064899054718
 30
0.0
 10
4123.156158335931
 20
2329.064757294306
 30
0.0
 10
4123.156194077994
 20
2329.064462282343
 30
0.0
 10
4123.156012762239
 20
2329.064071385433
 30
0.0
 10
4123.155733583859
 20
2329.06380056783
 30
0.0
 10
4123.155516904486
 20
2329.063723750429
 30
0.0
 10
4123.155412784792
 20
2329.063686837804
 30
0.0
  0
LINE
  5
1623
330
1F
100
AcDbEntity
  8
SANINDUSA
100
AcDbLine
 10
4123.146680123188
 20
2329.061509539736
 30
0.0
 11
4123.155412784792
 21
2329.063686837804
 31
0.0
  0
SPLINE
  5
1624
330
1F
100
AcDbEntity
  8
SANINDUSA
100
AcDbSpline
210
0.0
220
0.0
230
1.0
 70
     8
 71
     3
 72
    11
 73
     7
 74
     0
 42
0.0000000001
 43
0.0000000001
 40
0.0
 40
0.0
 40
0.0
 40
0.0
 40
0.270259521546706
 40
0.5624263566666656
 40
0.7897352506117575
 40
1.0
 40
1.0
 40
1.0
 40
1.0
 10
4123.146680123188
 20
2329.061509539736
 30
0.0
 10
4123.146538362776
 20
2329.061492364807
 30
0.0
 10
4123.146243350813
 20
2329.061456622745
 30
0.0
 10
4123.145852453903
 20
2329.061637938499
 30
0.0
 10
4123.1455816363
 20
2329.06191711688
 30
0.0
 10
4123.145504818899
 20
2329.062133796251
 30
0.0
 10
4123.145467906274
 20
2329.062237915945
 30
0.0
  0
LINE
  5
1625
330
1F
100
AcDbEntity
  8
SANINDUSA
100
AcDbLine
 10
4123.079603537001
 20
2329.08144109453
 30
0.0
 11
4123.079603537001
 21
2329.091441084993
 31
0.0
  0
SPLINE
  5
1626
330
1F
100
AcDbEntity
  8
SANINDUSA
100
AcDbSpline
210
0.0
220
0.0
230
1.0
 70
     8
 71
     3
 72
    11
 73
     7
 74
     0
 42
0.0000000001
 43
0.0000000001
 40
0.0
 40
0.0
 40
0.0
 40
0.0
 40
0.2702588831404442
 40
0.5624262216473185
 40
0.7897373853098579
 40
1.0
 40
1.0
 40
1.0
 40
1.0
 10
4123.078603534974
 20
2329.080441092503
 30
0.0
 10
4123.078745240286
 20
2329.08045871969
 30
0.0
 10
4123.079040138209
 20
2329.080495403008
 30
0.0
 10
4123.079375562961
 20
2329.08076590383
 30
0.0
 10
4123.07957078978
 20
2329.081102311466
 30
0.0
 10
4123.079592908521
 20
2329.081331138662
 30
0.0
 10
4123.079603537001
 20
2329.08144109453
 30
0.0
  0
LINE
  5
1627
330
1F
100
AcDbEntity
  8
SANINDUSA
100
AcDbLine
 10
4123.078603534974
 20
2329.080441092503
 30
0.0
 11
4123.06530862955
 21
2329.080441092503
 31
0.0
  0
SPLINE
  5
1628
330
1F
100
AcDbEntity
  8
SANINDUSA
100
AcDbSpline
210
0.0
220
0.0
230
1.0
 70
     8
 71
     3
 72
    12
 73
     8
 74
     0
 42
0.0000000001
 43
0.0000000001
 40
0.0
 40
0.0
 40
0.0
 40
0.0
 40
0.2300402268995842
 40
0.4600808260341293
 40
0.690121318101348
 40
0.9201612526968453
 40
1.0
 40
1.0
 40
1.0
 40
1.0
 10
4123.06530874876
 20
2329.080441092503
 30
0.0
 10
4123.064746588816
 20
2329.080385821308
 30
0.0
 10
4123.063622268019
 20
2329.08027527883
 30
0.0
 10
4123.062124502321
 20
2329.079413212607
 30
0.0
 10
4123.06099144359
 20
2329.078144511998
 30
0.0
 10
4123.060469033979
 20
2329.076902922852
 30
0.0
 10
4123.060363366563
 20
2329.076156138527
 30
0.0
 10
4123.060336141862
 20
2329.075963733149
 30
0.0
  0
LINE
  5
1629
330
1F
100
AcDbEntity
  8
SANINDUSA
100
AcDbLine
 10
4123.058886720815
 20
2329.062173401368
 30
0.0
 11
4123.060336141862
 21
2329.075963733149
 31
0.0
  0
SPLINE
  5
162A
330
1F
100
AcDbEntity
  8
SANINDUSA
100
AcDbSpline
210
0.0
220
0.0
230
1.0
 70
     8
 71
     3
 72
    12
 73
     8
 74
     0
 42
0.0000000001
 43
0.0000000001
 40
0.0
 40
0.0
 40
0.0
 40
0.0
 40
0.2300401659821579
 40
0.4600819952210875
 40
0.6901210687701857
 40
0.920160942448334
 40
0.9999999999999998
 40
0.9999999999999998
 40
0.9999999999999998
 40
0.9999999999999998
 10
4123.053914099016
 20
2329.057696049463
 30
0.0
 10
4123.054476257993
 20
2329.057751322366
 30
0.0
 10
4123.055600580011
 20
2329.05786186857
 30
0.0
 10
4123.057098359537
 20
2329.05872391105
 30
0.0
 10
4123.058231406695
 20
2329.059992628559
 30
0.0
 10
4123.058753801802
 20
2329.061234214227
 30
0.0
 10
4123.058859490537
 20
2329.061980996043
 30
0.0
 10
4123.058886720815
 20
2329.062173401368
 30
0.0
  0
LINE
  5
162B
330
1F
100
AcDbEntity
  8
SANINDUSA
100
AcDbLine
 10
4123.053914099016
 20
2329.057696049463
 30
0.0
 11
4123.052274166622
 21
2329.057696049463
 31
0.0
  0
ARC
  5
162C
330
1F
100
AcDbEntity
  8
SANINDUSA
100
AcDbCircle
 10
4123.052274160742
 20
2329.06069604654
 30
0.0
 40
0.003
100
AcDbArc
 50
180.0000003387163
 51
270.0
  0
LINE
  5
162D
330
1F
100
AcDbEntity
  8
SANINDUSA
100
AcDbLine
 10
4123.049274160542
 20
2329.089441095841
 30
0.0
 11
4123.049274160542
 21
2329.060696048093
 31
0.0
  0
ARC
  5
162E
330
1F
100
AcDbEntity
  8
SANINDUSA
100
AcDbCircle
 10
4123.052274160742
 20
2329.089441089563
 30
0.0
 40
0.0030000000000011
100
AcDbArc
 50
90.0
 51
180.0000000260551
  0
LINE
  5
162F
330
1F
100
AcDbEntity
  8
SANINDUSA
100
AcDbLine
 10
4123.078603534974
 20
2329.092441087019
 30
0.0
 11
4123.052274166622
 21
2329.092441087019
 31
0.0
  0
SPLINE
  5
1630
330
1F
100
AcDbEntity
  8
SANINDUSA
100
AcDbSpline
210
0.0
220
0.0
230
1.0
 70
     8
 71
     3
 72
    11
 73
     7
 74
     0
 42
0.0000000001
 43
0.0000000001
 40
0.0
 40
0.0
 40
0.0
 40
0.0
 40
0.2702604037843183
 40
0.5624253896579119
 40
0.7897369855229495
 40
1.0
 40
1.0
 40
1.0
 40
1.0
 10
4123.078603534974
 20
2329.092441087019
 30
0.0
 10
4123.078745239831
 20
2329.092423456371
 30
0.0
 10
4123.079040134708
 20
2329.092386766113
 30
0.0
 10
4123.079375564946
 20
2329.092116276218
 30
0.0
 10
4123.079570789534
 20
2329.091779867677
 30
0.0
 10
4123.079592908442
 20
2329.091551040737
 30
0.0
 10
4123.079603537001
 20
2329.091441084993
 30
0.0
  0
SPLINE
  5
1631
330
1F
100
AcDbEntity
  8
SANINDUSA
100
AcDbSpline
210
0.0
220
0.0
230
1.0
 70
     8
 71
     3
 72
    11
 73
     7
 74
     0
 42
0.0000000001
 43
0.0000000001
 40
0.0
 40
0.0
 40
0.0
 40
0.0
 40
0.2702638863425872
 40
0.5624302801854891
 40
0.7897355681871931
 40
1.0
 40
1.0
 40
1.0
 40
1.0
 10
4123.152483641185
 20
2329.034099338007
 30
0.0
 10
4123.152466466105
 20
2329.034241100768
 30
0.0
 10
4123.152430724053
 20
2329.034536114914
 30
0.0
 10
4123.152612037162
 20
2329.034927015197
 30
0.0
 10
4123.152891220973
 20
2329.035197824438
 30
0.0
 10
4123.153107898035
 20
2329.035274641962
 30
0.0
 10
4123.153212017395
 20
2329.035311554921
 30
0.0
  0
LINE
  5
1632
330
1F
100
AcDbEntity
  8
SANINDUSA
100
AcDbLine
 10
4123.161944679
 20
2329.03748885299
 30
0.0
 11
4123.153212017395
 21
2329.035311554921
 31
0.0
  0
SPLINE
  5
1633
330
1F
100
AcDbEntity
  8
SANINDUSA
100
AcDbSpline
210
0.0
220
0.0
230
1.0
 70
     8
 71
     3
 72
    11
 73
     7
 74
     0
 42
0.0000000001
 43
0.0000000001
 40
0.0
 40
0.0
 40
0.0
 40
0.0
 40
0.2702617039480941
 40
0.5624283184313149
 40
0.7897354093981868
 40
0.9999999999999998
 40
0.9999999999999998
 40
0.9999999999999998
 40
0.9999999999999998
 10
4123.161944679
 20
2329.03748885299
 30
0.0
 10
4123.162086440586
 20
2329.037506027995
 30
0.0
 10
4123.162381453641
 20
2329.037541770051
 30
0.0
 10
4123.162772352237
 20
2329.03736045562
 30
0.0
 10
4123.16304316566
 20
2329.037081274524
 30
0.0
 10
4123.163119983122
 20
2329.036864596307
 30
0.0
 10
4123.163156895913
 20
2329.03676047678
 30
0.0
  0
LINE
  5
1634
330
1F
100
AcDbEntity
  8
SANINDUSA
100
AcDbLine
 10
4123.163156895913
 20
2329.03676047678
 30
0.0
 11
4123.167617096581
 21
2329.018871595514
 31
0.0
  0
ARC
  5
1635
330
1F
100
AcDbEntity
  8
SANINDUSA
100
AcDbCircle
 10
4123.220983359941
 20
2329.032177302853
 30
0.0
 40
0.0550000000012291
100
AcDbArc
 50
193.9999994757568
 51
262.6388400523165
  0
LINE
  5
1636
330
1F
100
AcDbEntity
  8
SANINDUSA
100
AcDbLine
 10
4123.223144160715
 20
2328.976441090357
 30
0.0
 11
4123.213936577101
 21
2328.977630599764
 31
0.0
  0
LINE
  5
1637
330
1F
100
AcDbEntity
  8
SANINDUSA
100
AcDbLine
 10
4123.237144161031
 20
2328.959095012759
 30
0.0
 11
4123.226144160625
 21
2328.961884740171
 31
0.0
  0
LINE
  5
1638
330
1F
100
AcDbEntity
  8
SANINDUSA
100
AcDbLine
 10
4123.226144160625
 20
2328.961884740171
 30
0.0
 11
4123.222587811543
 21
2328.965441089485
 31
0.0
  0
LINE
  5
1639
330
1F
100
AcDbEntity
  8
SANINDUSA
100
AcDbLine
 10
4123.222587811543
 20
2328.965441089485
 30
0.0
 11
4123.222436566561
 21
2328.965441089485
 31
0.0
  0
LINE
  5
163A
330
1F
100
AcDbEntity
  8
SANINDUSA
100
AcDbLine
 10
4123.222436566561
 20
2328.965441089485
 30
0.0
 11
4123.212527220153
 21
2328.966721258488
 31
0.0
  0
ARC
  5
163B
330
1F
100
AcDbEntity
  8
SANINDUSA
100
AcDbCircle
 10
4123.22098335994
 20
2329.032177302854
 30
0.0
 40
0.06600000000097
100
AcDbArc
 50
193.9999999939186
 51
262.6388400523165
  0
LINE
  5
163C
330
1F
100
AcDbEntity
  8
SANINDUSA
100
AcDbLine
 10
4123.152483641185
 20
2329.034099338007
 30
0.0
 11
4123.156943841853
 21
2329.016210456741
 31
0.0
  0
LINE
  5
163D
330
1F
100
AcDbEntity
  8
SANINDUSA
100
AcDbLine
 10
4123.224644206479
 20
2328.976441090357
 30
0.0
 11
4123.223144160715
 21
2328.976441090357
 31
0.0
  0
SPLINE
  5
1640
330
1F
100
AcDbEntity
  8
SANINDUSA
100
AcDbSpline
210
0.0
220
0.0
230
1.0
 70
    24
 71
     3
 72
    11
 73
     7
 74
     0
 42
0.0000000001
 43
0.0000000001
 40
0.0
 40
0.0
 40
0.0
 40
0.0
 40
0.2543284525752535
 40
0.5068826777532318
 40
0.7559607316224727
 40
1.0
 40
1.0
 40
1.0
 40
1.0
 10
4123.053914099016
 20
2329.057696049463
 30
0.0
 10
4123.053974994987
 20
2329.057696049463
 30
0.0
 10
4123.05409636211
 20
2329.057696049463
 30
0.0
 10
4123.055083230922
 20
2329.057696049463
 30
0.0
 10
4123.056572190555
 20
2329.057696049463
 30
0.0
 10
4123.058034559663
 20
2329.057696049463
 30
0.0
 10
4123.058758272804
 20
2329.057696049463
 30
0.0
  0
SPLINE
  5
164C
330
1F
100
AcDbEntity
  8
SANINDUSA
100
AcDbSpline
210
0.0
220
0.0
230
1.0
 70
    24
 71
     3
 72
    24
 73
    20
 74
     0
 42
0.0000000001
 43
0.0000000001
 40
0.0
 40
0.0
 40
0.0
 40
0.0
 40
0.0424199179827695
 40
0.0904124800022514
 40
0.1444902243845025
 40
0.2049509288958186
 40
0.2376111629559363
 40
0.2718014095507403
 40
0.3442111819948514
 40
0.4209477461222149
 40
0.5000459899151845
 40
0.5791442337081542
 40
0.6558806780808756
 40
0.7282904505249865
 40
0.7950490024730268
 40
0.8555097739459043
 40
0.9095875646083429
 40
0.9575800734753595
 40
1.0
 40
1.0
 40
1.0
 40
1.0
 10
4123.115603528001
 20
2329.092441087019
 30
0.0
 10
4123.115571641526
 20
2329.092441087019
 30
0.0
 10
4123.115503679693
 20
2329.092441087019
 30
0.0
 10
4123.114901020245
 20
2329.092441087019
 30
0.0
 10
4123.11377027164
 20
2329.092441087019
 30
0.0
 10
4123.112273834283
 20
2329.092441087019
 30
0.0
 10
4123.110695217774
 20
2329.092441087019
 30
0.0
 10
4123.108760935133
 20
2329.092441087019
 30
0.0
 10
4123.105815189299
 20
2329.092441087019
 30
0.0
 10
4123.101659009943
 20
2329.092441087019
 30
0.0
 10
4123.097103497985
 20
2329.092441087019
 30
0.0
 10
4123.092548165234
 20
2329.092441087019
 30
0.0
 10
4123.08839148257
 20
2329.092441087019
 30
0.0
 10
4123.084924152196
 20
2329.092441087019
 30
0.0
 10
4123.0822785656
 20
2329.092441087019
 30
0.0
 10
4123.080437094293
 20
2329.092441087019
 30
0.0
 10
4123.079305960627
 20
2329.092441087019
 30
0.0
 10
4123.078703411112
 20
2329.092441087019
 30
0.0
 10
4123.078635430352
 20
2329.092441087019
 30
0.0
 10
4123.078603534974
 20
2329.092441087019
 30
0.0
  0
SPLINE
  5
164E
330
1F
100
AcDbEntity
  8
SANINDUSA
100
AcDbSpline
210
0.0
220
0.0
230
1.0
 70
    24
 71
     3
 72
    23
 73
    19
 74
     0
 42
0.0000000001
 43
0.0000000001
 40
0.0
 40
0.0
 40
0.0
 40
0.0
 40
0.042423849609491
 40
0.090420722659775
 40
0.144503522020335
 40
0.2049698118889443
 40
0.2717344514175914
 40
0.3441509337658375
 40
0.4208945059469828
 40
0.4999999483325579
 40
0.5791054103849611
 40
0.6558490938649796
 40
0.7282655925292188
 40
0.7950302185714496
 40
0.8554965187751118
 40
0.909579253694207
 40
0.9575761596479159
 40
1.0
 40
1.0
 40
1.0
 40
1.0
 10
4123.163156895913
 20
2329.03676047678
 30
0.0
 10
4123.163150848369
 20
2329.036784735359
 30
0.0
 10
4123.163137958843
 20
2329.036836439255
 30
0.0
 10
4123.16302370649
 20
2329.037294680054
 30
0.0
 10
4123.162809222119
 20
2329.038154911663
 30
0.0
 10
4123.16246006059
 20
2329.03955534195
 30
0.0
 10
4123.161958414019
 20
2329.041567327315
 30
0.0
 10
4123.161300961
 20
2329.044204235691
 30
0.0
 10
4123.160512789945
 20
2329.047365396419
 30
0.0
 10
4123.159649030723
 20
2329.050829766676
 30
0.0
 10
4123.158785257213
 20
2329.054294134791
 30
0.0
 10
4123.157997105368
 20
2329.057455303346
 30
0.0
 10
4123.15733963891
 20
2329.060092211036
 30
0.0
 10
4123.156838003582
 20
2329.062104196323
 30
0.0
 10
4123.156488832046
 20
2329.063504630507
 30
0.0
 10
4123.156274355102
 20
2329.06436484615
 30
0.0
 10
4123.156160102686
 20
2329.064823104383
 30
0.0
 10
4123.156147210018
 20
2329.064874800024
 30
0.0
 10
4123.156141161003
 20
2329.064899054718
 30
0.0
  0
SPLINE
  5
1650
330
1F
100
AcDbEntity
  8
SANINDUSA
100
AcDbSpline
210
0.0
220
0.0
230
1.0
 70
    24
 71
     3
 72
    24
 73
    20
 74
     0
 42
0.0000000001
 43
0.0000000001
 40
0.0
 40
0.0
 40
0.0
 40
0.0
 40
0.0424199258863581
 40
0.0904124340312429
 40
0.1444902238799861
 40
0.204950994443125
 40
0.2376110635951429
 40
0.2718014017596163
 40
0.3442111731141951
 40
0.4209476163322817
 40
0.5000458589350791
 40
0.5791441015378764
 40
0.6558806645106034
 40
0.7282904358651821
 40
0.7950490741880286
 40
0.8555097777896069
 40
0.9095875213581633
 40
0.9575800826555127
 40
1.0
 40
1.0
 40
1.0
 40
1.0
 10
4123.078603534974
 20
2329.080441092503
 30
0.0
 10
4123.078635425934
 20
2329.080441092503
 30
0.0
 10
4123.078703397276
 20
2329.080441092503
 30
0.0
 10
4123.079306027971
 20
2329.080441092503
 30
0.0
 10
4123.080436792525
 20
2329.080441092503
 30
0.0
 10
4123.081933240579
 20
2329.080441092503
 30
0.0
 10
4123.083511836914
 20
2329.080441092503
 30
0.0
 10
4123.085446131383
 20
2329.080441092503
 30
0.0
 10
4123.088391870179
 20
2329.080441092503
 30
0.0
 10
4123.092548047963
 20
2329.080441092503
 30
0.0
 10
4123.097103557672
 20
2329.080441092503
 30
0.0
 10
4123.101658892034
 20
2329.080441092503
 30
0.0
 10
4123.105815579315
 20
2329.080441092503
 30
0.0
 10
4123.109282910181
 20
2329.080441092503
 30
0.0
 10
4123.111928505081
 20
2329.080441092503
 30
0.0
 10
4123.113769971594
 20
2329.080441092503
 30
0.0
 10
4123.114901087205
 20
2329.080441092503
 30
0.0
 10
4123.115503665936
 20
2329.080441092503
 30
0.0
 10
4123.115571637132
 20
2329.080441092503
 30
0.0
 10
4123.115603528001
 20
2329.080441092503
 30
0.0
  0
SPLINE
  5
1652
330
1F
100
AcDbEntity
  8
SANINDUSA
100
AcDbSpline
210
0.0
220
0.0
230
1.0
 70
    24
 71
     3
 72
    23
 73
    19
 74
     0
 42
0.0000000001
 43
0.0000000001
 40
0.0
 40
0.0
 40
0.0
 40
0.0
 40
0.0424238430995136
 40
0.0904207521615719
 40
0.1445035478815245
 40
0.2049698520010724
 40
0.2717344823670774
 40
0.3441509857211143
 40
0.420894562872285
 40
0.499999990714094
 40
0.579105457889482
 40
0.6558490350406526
 40
0.7282655057627902
 40
0.7950301631017273
 40
0.8554964465512769
 40
0.9095792422712296
 40
0.957576159537256
 40
1.0
 40
1.0
 40
1.0
 40
1.0
 10
4123.145467906274
 20
2329.062237915945
 30
0.0
 10
4123.145473955285
 20
2329.062213661117
 30
0.0
 10
4123.145486847943
 20
2329.062161965193
 30
0.0
 10
4123.145601100489
 20
2329.061703709224
 30
0.0
 10
4123.14581557717
 20
2329.060843481963
 30
0.0
 10
4123.146164748677
 20
2329.059443050905
 30
0.0
 10
4123.14666638505
 20
2329.057431064814
 30
0.0
 10
4123.147323846646
 20
2329.054794157451
 30
0.0
 10
4123.148112016266
 20
2329.051632996729
 30
0.0
 10
4123.148975771592
 20
2329.048168625807
 30
0.0
 10
4123.14983954048
 20
2329.044704258384
 30
0.0
 10
4123.150627711313
 20
2329.041543097316
 30
0.0
 10
4123.151285156629
 20
2329.038906187749
 30
0.0
 10
4123.151786811656
 20
2329.03689420401
 30
0.0
 10
4123.152135968518
 20
2329.035493771637
 30
0.0
 10
4123.152350443848
 20
2329.034633544716
 30
0.0
 10
4123.152464711266
 20
2329.034175288788
 30
0.0
 10
4123.152477595927
 20
2329.034123592842
 30
0.0
 10
4123.152483641185
 20
2329.034099338007
 30
0.0
  0
SPLINE
  5
1655
330
1F
100
AcDbEntity
  8
SANINDUSA
100
AcDbSpline
210
0.0
220
0.0
230
1.0
 70
     8
 71
     3
 72
    10
 73
     6
 74
     0
 42
0.0000000001
 43
0.0000000001
 40
0.0
 40
0.0
 40
0.0
 40
0.0
 40
0.3274074591005009
 40
0.6608435532074188
 40
1.0
 40
1.0
 40
1.0
 40
1.0
 10
4123.058758272804
 20
2329.057696049463
 30
0.0
 10
4123.059547078695
 20
2329.057650442835
 30
0.0
 10
4123.061139214956
 20
2329.057558389811
 30
0.0
 10
4123.064003314694
 20
2329.056922235503
 30
0.0
 10
4123.0661624931
 20
2329.056281368005
 30
0.0
 10
4123.067251264133
 20
2329.05595820899
 30
0.0
  0
SPLINE
  5
165B
330
1F
100
AcDbEntity
  8
SANINDUSA
100
AcDbSpline
210
0.0
220
0.0
230
1.0
 70
    24
 71
     3
 72
    15
 73
    11
 74
     0
 42
0.0000000001
 43
0.0000000001
 40
0.0
 40
0.0
 40
0.0
 40
0.0
 40
0.1198920815964513
 40
0.2440578940709964
 40
0.3712456211477484
 40
0.4999999146558873
 40
0.6287544309135197
 40
0.7559422613379326
 40
0.880107947517089
 40
1.0
 40
1.0
 40
1.0
 40
1.0
 10
4123.049274160542
 20
2329.037717049372
 30
0.0
 10
4123.049274160542
 20
2329.039294960778
 30
0.0
 10
4123.049274160542
 20
2329.042507030578
 30
0.0
 10
4123.049274160542
 20
2329.046946308318
 30
0.0
 10
4123.049274160542
 20
2329.051009839938
 30
0.0
 10
4123.049274160542
 20
2329.054499009632
 30
0.0
 10
4123.049274160542
 20
2329.057287252752
 30
0.0
 10
4123.049274160542
 20
2329.05926469092
 30
0.0
 10
4123.049274160542
 20
2329.060476329627
 30
0.0
 10
4123.049274160542
 20
2329.06062366861
 30
0.0
 10
4123.049274160542
 20
2329.060696048093
 30
0.0
  0
SPLINE
  5
165D
330
1F
100
AcDbEntity
  8
SANINDUSA
100
AcDbSpline
210
0.0
220
0.0
230
1.0
 70
     8
 71
     3
 72
    12
 73
     8
 74
     0
 42
0.0000000001
 43
0.0000000001
 40
0.0
 40
0.0
 40
0.0
 40
0.0
 40
0.2508080539710567
 40
0.5008135609744917
 40
0.7499907314875141
 40
0.8787539948868465
 40
1.0
 40
1.0
 40
1.0
 40
1.0
 10
4123.079180642046
 20
2329.080441092503
 30
0.0
 10
4123.078662785615
 20
2329.080395595306
 30
0.0
 10
4123.077628729811
 20
2329.080304746497
 30
0.0
 10
4123.076110816504
 20
2329.079515955839
 30
0.0
 10
4123.075025170622
 20
2329.078353242213
 30
0.0
 10
4123.07441912561
 20
2329.077116628372
 30
0.0
 10
4123.07428471064
 20
2329.076407422355
 30
0.0
 10
4123.074219523944
 20
2329.076063481521
 30
0.0
  0
SPLINE
  5
165F
330
1F
100
AcDbEntity
  8
SANINDUSA
100
AcDbSpline
210
0.0
220
0.0
230
1.0
 70
     8
 71
     3
 72
    11
 73
     7
 74
     0
 42
0.0000000001
 43
0.0000000001
 40
0.0
 40
0.0
 40
0.0
 40
0.0
 40
0.2500003810316083
 40
0.5000009274756046
 40
0.7500005779458688
 40
1.0
 40
1.0
 40
1.0
 40
1.0
 10
4123.072212382235
 20
2329.060064283562
 30
0.0
 10
4123.072077513843
 20
2329.059504164547
 30
0.0
 10
4123.071807776971
 20
2329.058383926148
 30
0.0
 10
4123.070635309065
 20
2329.057036776792
 30
0.0
 10
4123.069067547883
 20
2329.056115977609
 30
0.0
 10
4123.067856691866
 20
2329.056010798513
 30
0.0
 10
4123.067251264133
 20
2329.05595820899
 30
0.0
  0
LINE
  5
1660
330
1F
100
AcDbEntity
  8
SANINDUSA
100
AcDbLine
 10
4123.074194504894
 20
2329.075863984776
 30
0.0
 11
4123.074219523944
 21
2329.076063481521
 31
0.0
  0
LINE
  5
1662
330
1F
100
AcDbEntity
  8
SANINDUSA
100
AcDbLine
 10
4123.072212382235
 20
2329.060064283562
 30
0.0
 11
4123.074194504894
 21
2329.075863984776
 31
0.0
  0
SPLINE
  5
1663
330
1F
100
AcDbEntity
  8
SANINDUSA
100
AcDbSpline
210
0.0
220
0.0
230
1.0
 70
    24
 71
     3
 72
    15
 73
    11
 74
     0
 42
0.0000000001
 43
0.0000000001
 40
0.0
 40
0.0
 40
0.0
 40
0.0
 40
0.1253438009207406
 40
0.2506013740410083
 40
0.3757605782319263
 40
0.5008138749252863
 40
0.6257587750880163
 40
0.7505984558711358
 40
0.875341134800702
 40
1.0
 40
1.0
 40
1.0
 40
1.0
 10
4123.069416924395
 20
2329.0377815714
 30
0.0
 10
4123.06957651108
 20
2329.039053631408
 30
0.0
 10
4123.069895574666
 20
2329.041596876337
 30
0.0
 10
4123.070343530693
 20
2329.045167647036
 30
0.0
 10
4123.070761817376
 20
2329.048501791711
 30
0.0
 10
4123.071143399404
 20
2329.05154336688
 30
0.0
 10
4123.071484370291
 20
2329.054261398733
 30
0.0
 10
4123.071779127553
 20
2329.056610779405
 30
0.0
 10
4123.072028926923
 20
2329.058602071377
 30
0.0
 10
4123.072151244167
 20
2329.05957698871
 30
0.0
 10
4123.072212382235
 20
2329.060064283562
 30
0.0
  0
LINE
  5
1669
330
1F
100
AcDbEntity
  8
SANINDUSA
100
AcDbLine
 10
4123.065028428115
 20
2329.002800514352
 30
0.0
 11
4123.069416924395
 21
2329.0377815714
 31
0.0
  0
LINE
  5
166B
330
1F
100
AcDbEntity
  8
SANINDUSA
100
AcDbLine
 10
4123.049274160542
 20
2329.002735988599
 30
0.0
 11
4123.049274160542
 21
2329.037717049372
 31
0.0
  0
ARC
  5
166D
330
1F
100
AcDbEntity
  8
SANINDUSA
100
AcDbCircle
 10
4123.060388669606
 20
2329.003603776937
 30
0.0
 40
0.0047087779526303
100
AcDbArc
 50
266.0868794276879
 51
350.1779722230271
  0
ARC
  5
166F
330
1F
100
AcDbEntity
  8
SANINDUSA
100
AcDbCircle
 10
4123.052136237844
 20
2329.001768802207
 30
0.0
 40
0.0028661462680026
100
AcDbArc
 50
183.0533870773849
 51
272.7583345359901
  0
SPLINE
  5
1670
330
1F
100
AcDbEntity
  8
SANINDUSA
100
AcDbSpline
210
0.0
220
0.0
230
1.0
 70
    24
 71
     3
 72
     9
 73
     5
 74
     0
 42
0.0000000001
 43
0.0000000001
 40
0.0
 40
0.0
 40
0.0
 40
0.0
 40
0.4999988176844833
 40
1.0
 40
1.0
 40
1.0
 40
1.0
 10
4123.049274160542
 20
2329.002735988599
 30
0.0
 10
4123.049274160542
 20
2329.002499146608
 30
0.0
 10
4123.049274160542
 20
2329.002025461504
 30
0.0
 10
4123.049274160542
 20
2329.001752575922
 30
0.0
 10
4123.049274160542
 20
2329.001616132808
 30
0.0
  0
LINE
  5
1671
330
1F
100
AcDbEntity
  8
SANINDUSA
100
AcDbLine
 10
4123.052274166622
 20
2328.998905976665
 30
0.0
 11
4123.060067324915
 21
2328.998905976665
 31
0.0
  0
LINE
  5
1672
330
1F
100
AcDbEntity
  8
SANINDUSA
100
AcDbLine
 10
4123.150219208576
 20
2329.088650693547
 30
0.0
 11
4123.396529107369
 21
2329.088650693547
 31
0.0
  0
SPLINE
  5
1674
330
1F
100
AcDbEntity
  8
SANINDUSA
100
AcDbSpline
210
0.0
220
0.0
230
1.0
 70
    24
 71
     3
 72
    51
 73
    47
 74
     0
 42
0.0000000001
 43
0.0000000001
 40
0.0
 40
0.0
 40
0.0
 40
0.0
 40
0.0164245744857787
 40
0.0336413648811728
 40
0.051681812648045
 40
0.0705734170528639
 40
0.09034242872158
 40
0.1113314895075751
 40
0.1332675451923772
 40
0.1561618968586558
 40
0.1800200911995813
 40
0.2048414495320995
 40
0.2265851401687731
 40
0.2488457257932256
 40
0.271609541834449
 40
0.2953247430975178
 40
0.319477597803917
 40
0.3440506740964703
 40
0.369275122561702
 40
0.3948910620198988
 40
0.4208385870290459
 40
0.4470852826856715
 40
0.4734968517054404
 40
0.5000004989061905
 40
0.526502927960066
 40
0.5529144923529858
 40
0.5791624041675251
 40
0.6051087538463285
 40
0.6307247106938041
 40
0.6559503193441226
 40
0.680522264467246
 40
0.7046751236204832
 40
0.7283914440635272
 40
0.7454666732049761
 40
0.7625431743665333
 40
0.7788536945370246
 40
0.7951654959034679
 40
0.8199860086232602
 40
0.8438438067897957
 40
0.8667381905366452
 40
0.8886746452591431
 40
0.9096645198467248
 40
0.9343745287061425
 40
0.9576197450895593
 40
0.9794699555470794
 40
1.0
 40
1.0
 40
1.0
 40
1.0
 10
4123.145367733218
 20
2329.092441087019
 30
0.0
 10
4123.145400646509
 20
2329.092441087019
 30
0.0
 10
4123.145468060617
 20
2329.092441087019
 30
0.0
 10
4123.146033009947
 20
2329.092441087019
 30
0.0
 10
4123.146997186781
 20
2329.092441087019
 30
0.0
 10
4123.148449939358
 20
2329.092441087019
 30
0.0
 10
4123.150449773781
 20
2329.092441087019
 30
0.0
 10
4123.153068983183
 20
2329.092441087019
 30
0.0
 10
4123.156377665725
 20
2329.092441087019
 30
0.0
 10
4123.160423350287
 20
2329.092441087019
 30
0.0
 10
4123.165260812641
 20
2329.092441087019
 30
0.0
 10
4123.170630668446
 20
2329.092441087019
 30
0.0
 10
4123.17641801029
 20
2329.092441087019
 30
0.0
 10
4123.182501204293
 20
2329.092441087019
 30
0.0
 10
4123.189226879088
 20
2329.092441087019
 30
0.0
 10
4123.19659229391
 20
2329.092441087019
 30
0.0
 10
4123.204584598657
 20
2329.092441087019
 30
0.0
 10
4123.213151436357
 20
2329.092441087019
 30
0.0
 10
4123.222260072942
 20
2329.092441087019
 30
0.0
 10
4123.231863239218
 20
2329.092441087019
 30
0.0
 10
4123.241868423042
 20
2329.092441087019
 30
0.0
 10
4123.2521887729
 20
2329.092441087019
 30
0.0
 10
4123.262727527577
 20
2329.092441087019
 30
0.0
 10
4123.273373998221
 20
2329.092441087019
 30
0.0
 10
4123.284020469305
 20
2329.092441087019
 30
0.0
 10
4123.294559226152
 20
2329.092441087019
 30
0.0
 10
4123.304879584635
 20
2329.092441087019
 30
0.0
 10
4123.314884787318
 20
2329.092441087019
 30
0.0
 10
4123.324487959669
 20
2329.092441087019
 30
0.0
 10
4123.33359661157
 20
2329.092441087019
 30
0.0
 10
4123.342163466551
 20
2329.092441087019
 30
0.0
 10
4123.350155747353
 20
2329.092441087019
 30
0.0
 10
4123.356928273954
 20
2329.092441087019
 30
0.0
 10
4123.362635297072
 20
2329.092441087019
 30
0.0
 10
4123.367358773021
 20
2329.092441087019
 30
0.0
 10
4123.371754583439
 20
2329.092441087019
 30
0.0
 10
4123.376531556622
 20
2329.092441087019
 30
0.0
 10
4123.381487394135
 20
2329.092441087019
 30
0.0
 10
4123.386324754069
 20
2329.092441087019
 30
0.0
 10
4123.390370440217
 20
2329.092441087019
 30
0.0
 10
4123.393679436379
 20
2329.092441087019
 30
0.0
 10
4123.396504276484
 20
2329.092441087019
 30
0.0
 10
4123.398750370073
 20
2329.092441087019
 30
0.0
 10
4123.400321511777
 20
2329.092441087019
 30
0.0
 10
4123.401222792443
 20
2329.092441087019
 30
0.0
 10
4123.401329089704
 20
2329.092441087019
 30
0.0
 10
4123.401380582728
 20
2329.092441087019
 30
0.0
  0
LINE
  5
1677
330
1F
100
AcDbEntity
  8
SANINDUSA
100
AcDbLine
 10
4123.049274160542
 20
2328.976129484725
 30
0.0
 11
4123.049274160542
 21
2329.001616132808
 31
0.0
  0
LINE
  5
167C
330
1F
100
AcDbEntity
  8
SANINDUSA
100
AcDbLine
 10
4123.062041684069
 20
2328.978992873234
 30
0.0
 11
4123.065028428115
 21
2329.002800514352
 31
0.0
  0
LINE
  5
1682
330
1F
100
AcDbEntity
  8
SANINDUSA
100
AcDbLine
 10
4123.062041684069
 20
2328.978992873234
 30
0.0
 11
4123.062138347902
 21
2328.977210714844
 31
0.0
  0
SPLINE
  5
1686
330
1F
100
AcDbEntity
  8
SANINDUSA
100
AcDbSpline
210
0.0
220
0.0
230
1.0
 70
     8
 71
     3
 72
    11
 73
     7
 74
     0
 42
0.0000000001
 43
0.0000000001
 40
0.0
 40
0.0
 40
0.0
 40
0.0
 40
0.250000548278041
 40
0.4999997932941548
 40
0.7500003472702604
 40
1.0
 40
1.0
 40
1.0
 40
1.0
 10
4123.062138347902
 20
2328.977210714844
 30
0.0
 10
4123.062002218399
 20
2328.976624820429
 30
0.0
 10
4123.061729960102
 20
2328.975453034652
 30
0.0
 10
4123.06062174131
 20
2328.974043704915
 30
0.0
 10
4123.059156485711
 20
2328.973076152133
 30
0.0
 10
4123.058032454528
 20
2328.972958325418
 30
0.0
 10
4123.057470439948
 20
2328.972899412167
 30
0.0
  0
LINE
  5
1687
330
1F
100
AcDbEntity
  8
SANINDUSA
100
AcDbLine
 10
4123.057470439948
 20
2328.972899412167
 30
0.0
 11
4123.05225296227
 21
2328.972936281365
 31
0.0
  0
ARC
  5
1689
330
1F
100
AcDbEntity
  8
SANINDUSA
100
AcDbCircle
 10
4123.052274160742
 20
2328.975936206169
 30
0.0
 40
0.0029999999999917
100
AcDbArc
 50
180.0
 51
269.59513293632
  0
SPLINE
  5
168A
330
1F
100
AcDbEntity
  8
SANINDUSA
100
AcDbSpline
210
0.0
220
0.0
230
1.0
 70
    24
 71
     3
 72
     9
 73
     5
 74
     0
 42
0.0000000001
 43
0.0000000001
 40
0.0
 40
0.0
 40
0.0
 40
0.0
 40
0.5000027899821742
 40
0.9999999999999998
 40
0.9999999999999998
 40
0.9999999999999998
 40
0.9999999999999998
 10
4123.049274160542
 20
2328.976129484725
 30
0.0
 10
4123.049274160542
 20
2328.976073397997
 30
0.0
 10
4123.049274160542
 20
2328.975961225168
 30
0.0
 10
4123.049274160542
 20
2328.975944545351
 30
0.0
 10
4123.049274160542
 20
2328.975936205488
 30
0.0
  0
SPLINE
  5
1692
330
1F
100
AcDbEntity
  8
SANINDUSA
100
AcDbSpline
210
0.0
220
0.0
230
1.0
 70
    24
 71
     3
 72
     9
 73
     5
 74
     0
 42
0.0000000001
 43
0.0000000001
 40
0.0
 40
0.0
 40
0.0
 40
0.0
 40
0.9650235282642587
 40
1.0
 40
1.0
 40
1.0
 40
1.0
 10
4123.049274160542
 20
2328.974516540196
 30
0.0
 10
4123.049274160542
 20
2328.974980219582
 30
0.0
 10
4123.049274160542
 20
2328.975460704638
 30
0.0
 10
4123.049274160542
 20
2328.97558196573
 30
0.0
 10
4123.049274160542
 20
2328.975586207014
 30
0.0
  0
LINE
  5
1695
330
1F
100
AcDbEntity
  8
SANINDUSA
100
AcDbLine
 10
4123.049274160542
 20
2328.974186390069
 30
0.0
 11
4123.049276336112
 21
2328.974073686999
 31
0.0
  0
SPLINE
  5
169A
330
1F
100
AcDbEntity
  8
SANINDUSA
100
AcDbSpline
210
0.0
220
0.0
230
1.0
 70
    24
 71
     3
 72
    15
 73
    11
 74
     0
 42
0.0000000001
 43
0.0000000001
 40
0.0
 40
0.0
 40
0.0
 40
0.0
 40
0.1265891731770959
 40
0.2518923027709233
 40
0.3762118366471715
 40
0.4999997187706905
 40
0.6237878069331737
 40
0.7481079166490271
 40
0.8734108268229041
 40
1.0
 40
1.0
 40
1.0
 40
1.0
 10
4123.398654847421
 20
2329.042441089999
 30
0.0
 10
4123.399622022805
 20
2329.042441089999
 30
0.0
 10
4123.401546547854
 20
2329.042441089999
 30
0.0
 10
4123.404315945825
 20
2329.042441089999
 30
0.0
 10
4123.406852516403
 20
2329.042441089999
 30
0.0
 10
4123.409063638901
 20
2329.042441089999
 30
0.0
 10
4123.410872654098
 20
2329.042441089999
 30
0.0
 10
4123.412201505003
 20
2329.042441089999
 30
0.0
 10
4123.41305174595
 20
2329.042441089999
 30
0.0
 10
4123.41315659578
 20
2329.042441089999
 30
0.0
 10
4123.413209288396
 20
2329.042441089999
 30
0.0
  0
LINE
  5
169B
330
1F
100
AcDbEntity
  8
SANINDUSA
100
AcDbLine
 10
4123.395313902773
 20
2329.042441089999
 30
0.0
 11
4123.398654847421
 21
2329.042441089999
 31
0.0
  0
LINE
  5
169C
330
1F
100
AcDbEntity
  8
SANINDUSA
100
AcDbLine
 10
4123.298954292216
 20
2328.963923711691
 30
0.0
 11
4123.31927416382
 21
2328.963923711691
 31
0.0
  0
SPLINE
  5
169D
330
1F
100
AcDbEntity
  8
SANINDUSA
100
AcDbSpline
210
0.0
220
0.0
230
1.0
 70
     8
 71
     3
 72
    10
 73
     6
 74
     0
 42
0.0000000001
 43
0.0000000001
 40
0.0
 40
0.0
 40
0.0
 40
0.0
 40
0.2261520925331142
 40
0.6101516630477609
 40
1.0
 40
1.0
 40
1.0
 40
1.0
 10
4123.284525870361
 20
2328.929441090104
 30
0.0
 10
4123.285271668277
 20
2328.92801066759
 30
0.0
 10
4123.287283809015
 20
2328.924151429913
 30
0.0
 10
4123.290297513589
 20
2328.917676162094
 30
0.0
 10
4123.292496011328
 20
2328.912603684997
 30
0.0
 10
4123.293603568353
 20
2328.910048277479
 30
0.0
  0
LINE
  5
16BC
330
1F
100
AcDbEntity
  8
SANINDUSA
100
AcDbLine
 10
4121.948948003317
 20
2328.968923711343
 30
0.0
 11
4122.121084560848
 21
2328.968923711343
 31
0.0
  0
ENDSEC
  0
SECTION
  2
OBJECTS
  0
DICTIONARY
  5
C
330
0
100
AcDbDictionary
281
     1
  3
ACAD_2007HEADERVARS_RT
350
1780
  3
ACAD_BACKGROUND
350
1733
  3
ACAD_COLOR
350
EE6
  3
ACAD_GROUP
350
D
  3
ACAD_LAYOUT
350
1A
  3
ACAD_MATERIAL
350
EE5
  3
ACAD_MLEADERSTYLE
350
10A8
  3
ACAD_MLINESTYLE
350
17
  3
ACAD_PLOTSETTINGS
350
19
  3
ACAD_PLOTSTYLENAME
350
E
  3
ACAD_SCALELIST
350
1096
  3
ACAD_TABLESTYLE
350
EE7
  3
ACAD_VISUALSTYLE
350
1082
  3
ACDB_RECOMPOSE_DATA
350
177E
  3
AcDbVariableDictionary
350
3D
  3
AEC_PROPERTY_SET_DEFS
350
13B6
  3
ASE_INDEX_DICTIONARY
350
1066
  3
Autodesk_PNP
350
10B4
  3
DWGPROPS
350
177F
  0
DICTIONARY
  5
173B
330
8
100
AcDbDictionary
280
     1
281
     1
  0
DICTIONARY
  5
1051
330
2
100
AcDbDictionary
280
     1
281
     1
  3
ACAD_LAYERFILTERS
360
1065
  3
ACLYDICTIONARY
360
1064
  0
DICTIONARY
  5
16D5
330
10
100
AcDbDictionary
280
     1
281
     1
  3
ADSK_XREC_LAYER_RECONCILED
360
16D6
  0
DICTIONARY
  5
16D7
330
2F
100
AcDbDictionary
280
     1
281
     1
  3
ADSK_XREC_LAYER_RECONCILED
360
16D8
  0
DICTIONARY
  5
16D9
330
30
100
AcDbDictionary
280
     1
281
     1
  3
ADSK_XREC_LAYER_RECONCILED
360
16DA
  0
DICTIONARY
  5
16DB
330
31
100
AcDbDictionary
280
     1
281
     1
  3
ADSK_XREC_LAYER_RECONCILED
360
16DC
  0
DICTIONARY
  5
16DD
330
32
100
AcDbDictionary
280
     1
281
     1
  3
ADSK_XREC_LAYER_RECONCILED
360
16DE
  0
DICTIONARY
  5
16DF
330
33
100
AcDbDictionary
280
     1
281
     1
  3
ADSK_XREC_LAYER_RECONCILED
360
16E0
  0
DICTIONARY
  5
16E1
330
34
100
AcDbDictionary
280
     1
281
     1
  3
ADSK_XREC_LAYER_RECONCILED
360
16E2
  0
DICTIONARY
  5
16E3
330
35
100
AcDbDictionary
280
     1
281
     1
  3
ADSK_XREC_LAYER_RECONCILED
360
16E4
  0
DICTIONARY
  5
16E5
330
36
100
AcDbDictionary
280
     1
281
     1
  3
ADSK_XREC_LAYER_RECONCILED
360
16E6
  0
DICTIONARY
  5
16E7
330
37
100
AcDbDictionary
280
     1
281
     1
  3
ADSK_XREC_LAYER_RECONCILED
360
16E8
  0
DICTIONARY
  5
16E9
330
5D6
100
AcDbDictionary
280
     1
281
     1
  3
ADSK_XREC_LAYER_RECONCILED
360
16EA
  0
DICTIONARY
  5
16EB
330
8AF
100
AcDbDictionary
280
     1
281
     1
  3
ADSK_XREC_LAYER_RECONCILED
360
16EC
  0
DICTIONARY
  5
16ED
330
8F8
100
AcDbDictionary
280
     1
281
     1
  3
ADSK_XREC_LAYER_RECONCILED
360
16EE
  0
DICTIONARY
  5
16EF
330
91D
100
AcDbDictionary
280
     1
281
     1
  3
ADSK_XREC_LAYER_RECONCILED
360
16F0
  0
DICTIONARY
  5
16F1
330
C7B
100
AcDbDictionary
280
     1
281
     1
  3
ADSK_XREC_LAYER_RECONCILED
360
16F2
  0
DICTIONARY
  5
16F3
330
1060
100
AcDbDictionary
280
     1
281
     1
  3
ADSK_XREC_LAYER_RECONCILED
360
16F4
  0
DICTIONARY
  5
1780
102
{ACAD_REACTORS
330
C
102
}
330
C
100
AcDbDictionary
281
     1
  3
DIMJOGANG
350
1781
  0
DICTIONARY
  5
1733
102
{ACAD_REACTORS
330
C
102
}
330
C
100
AcDbDictionary
281
     1
  0
DICTIONARY
  5
EE6
102
{ACAD_REACTORS
330
C
102
}
330
C
100
AcDbDictionary
281
     1
  0
DICTIONARY
  5
D
102
{ACAD_REACTORS
330
C
102
}
330
C
100
AcDbDictionary
281
     1
  0
DICTIONARY
  5
1A
102
{ACAD_REACTORS
330
C
102
}
330
C
100
AcDbDictionary
281
     1
  3
Layout1
350
1E
  3
Layout2
350
26
  3
Model
350
22
  0
DICTIONARY
  5
EE5
102
{ACAD_REACTORS
330
C
102
}
330
C
100
AcDbDictionary
281
     1
  3
ByBlock
350
1072
  3
ByLayer
350
106A
  3
Global
350
107A
  0
DICTIONARY
  5
10A8
102
{ACAD_REACTORS
330
C
102
}
330
C
100
AcDbDictionary
281
     1
  3
Standard
350
10A9
  0
DICTIONARY
  5
17
102
{ACAD_REACTORS
330
C
102
}
330
C
100
AcDbDictionary
281
     1
  3
Standard
350
18
  0
DICTIONARY
  5
19
102
{ACAD_REACTORS
330
C
102
}
330
C
100
AcDbDictionary
281
     1
  0
ACDBDICTIONARYWDFLT
  5
E
102
{ACAD_REACTORS
330
C
102
}
330
C
100
AcDbDictionary
281
     1
  3
Normal
350
F
100
AcDbDictionaryWithDefault
340
F
  0
DICTIONARY
  5
1096
102
{ACAD_REACTORS
330
C
102
}
330
C
100
AcDbDictionary
281
     1
  3
A0
350
1097
  3
A1
350
1098
  3
A2
350
1099
  3
A3
350
109A
  3
A4
350
109B
  3
A5
350
109C
  3
A6
350
109D
  3
A7
350
109E
  3
A8
350
109F
  3
A9
350
10A0
  3
B0
350
10A1
  3
B1
350
10A2
  3
B2
350
10A3
  3
B3
350
10A4
  3
B4
350
10A5
  3
B5
350
10A6
  3
B6
350
10A7
  0
DICTIONARY
  5
EE7
102
{ACAD_REACTORS
330
C
102
}
330
C
100
AcDbDictionary
281
     1
  3
Standard
350
EE8
  0
DICTIONARY
  5
1082
102
{ACAD_REACTORS
330
C
102
}
330
C
100
AcDbDictionary
281
     1
  3
2dWireframe
350
1088
  3
3D Hidden
350
108A
  3
3dWireframe
350
1089
  3
Basic
350
1087
  3
Brighten
350
108E
  3
ColorChange
350
1092
  3
Conceptual
350
108B
  3
Dim
350
108D
  3
EdgeColorOff
350
1095
  3
Facepattern
350
1091
  3
Flat
350
1083
  3
FlatWithEdges
350
1084
  3
Gouraud
350
1085
  3
GouraudWithEdges
350
1086
  3
JitterOff
350
1093
  3
Linepattern
350
1090
  3
OverhangOff
350
1094
  3
Realistic
350
108C
  3
Thicken
350
108F
  0
XRECORD
  5
177E
102
{ACAD_REACTORS
330
C
102
}
330
C
100
AcDbXrecord
280
     1
 90
        1
330
EE8
  0
DICTIONARY
  5
3D
102
{ACAD_REACTORS
330
C
102
}
330
C
100
AcDbDictionary
281
     1
  3
CANNOSCALE
350
176F
  3
CMLEADERSTYLE
350
176E
  3
CTABLESTYLE
350
1049
  3
DIMASSOC
350
3F
  3
HIDETEXT
350
3E
  3
INDEXCTL
350
1771
  3
SORTENTS
350
1770
  3
XCLIPFRAME
350
177C
  0
DICTIONARY
  5
13B6
102
{ACAD_REACTORS
330
C
102
}
330
C
100
AcDbDictionary
281
     1
  0
DICTIONARY
  5
1066
102
{ACAD_REACTORS
330
C
102
}
330
C
100
AcDbDictionary
281
     1
  3
ASEBlockHierarchyIndexRecord
350
1067
1001
DCO15
1040
1602247867.484
  0
DICTIONARY
  5
10B4
102
{ACAD_REACTORS
330
C
102
}
330
C
100
AcDbDictionary
281
     1
  0
XRECORD
  5
177F
102
{ACAD_REACTORS
330
C
102
}
330
C
100
AcDbXrecord
280
     1
  1
DWGPROPS COOKIE
  2

  3

  4

  6

  7

  8
Julio
  9

300
=
301
=
302
=
303
=
304
=
305
=
306
=
307
=
308
=
309
=
 40
0.0072037847222222
 41
2455779.636210567
 42
2456149.635670382
  1

 90
        0
  0
DICTIONARY
  5
1065
102
{ACAD_REACTORS
330
1051
102
}
330
1051
100
AcDbDictionary
281
     1
  0
DICTIONARY
  5
1064
102
{ACAD_REACTORS
330
1051
102
}
330
1051
100
AcDbDictionary
281
     1
1001
ACAD
1000
<All
  0
XRECORD
  5
16D6
102
{ACAD_REACTORS
330
16D5
102
}
330
16D5
100
AcDbXrecord
280
     1
290
     1
  0
XRECORD
  5
16D8
102
{ACAD_REACTORS
330
16D7
102
}
330
16D7
100
AcDbXrecord
280
     1
290
     1
  0
XRECORD
  5
16DA
102
{ACAD_REACTORS
330
16D9
102
}
330
16D9
100
AcDbXrecord
280
     1
290
     1
  0
XRECORD
  5
16DC
102
{ACAD_REACTORS
330
16DB
102
}
330
16DB
100
AcDbXrecord
280
     1
290
     1
  0
XRECORD
  5
16DE
102
{ACAD_REACTORS
330
16DD
102
}
330
16DD
100
AcDbXrecord
280
     1
290
     1
  0
XRECORD
  5
16E0
102
{ACAD_REACTORS
330
16DF
102
}
330
16DF
100
AcDbXrecord
280
     1
290
     1
  0
XRECORD
  5
16E2
102
{ACAD_REACTORS
330
16E1
102
}
330
16E1
100
AcDbXrecord
280
     1
290
     1
  0
XRECORD
  5
16E4
102
{ACAD_REACTORS
330
16E3
102
}
330
16E3
100
AcDbXrecord
280
     1
290
     1
  0
XRECORD
  5
16E6
102
{ACAD_REACTORS
330
16E5
102
}
330
16E5
100
AcDbXrecord
280
     1
290
     1
  0
XRECORD
  5
16E8
102
{ACAD_REACTORS
330
16E7
102
}
330
16E7
100
AcDbXrecord
280
     1
290
     1
  0
XRECORD
  5
16EA
102
{ACAD_REACTORS
330
16E9
102
}
330
16E9
100
AcDbXrecord
280
     1
290
     1
  0
XRECORD
  5
16EC
102
{ACAD_REACTORS
330
16EB
102
}
330
16EB
100
AcDbXrecord
280
     1
290
     1
  0
XRECORD
  5
16EE
102
{ACAD_REACTORS
330
16ED
102
}
330
16ED
100
AcDbXrecord
280
     1
290
     1
  0
XRECORD
  5
16F0
102
{ACAD_REACTORS
330
16EF
102
}
330
16EF
100
AcDbXrecord
280
     1
290
     1
  0
XRECORD
  5
16F2
102
{ACAD_REACTORS
330
16F1
102
}
330
16F1
100
AcDbXrecord
280
     1
290
     1
  0
XRECORD
  5
16F4
102
{ACAD_REACTORS
330
16F3
102
}
330
16F3
100
AcDbXrecord
280
     1
290
     1
  0
XRECORD
  5
1781
102
{ACAD_REACTORS
330
1780
102
}
330
1780
100
AcDbXrecord
280
     1
 40
1.570796326794896
  0
LAYOUT
  5
1E
102
{ACAD_XDICTIONARY
360
1782
102
}
102
{ACAD_REACTORS
330
1A
102
}
330
1A
100
AcDbPlotSettings
  1

  2
Ploter HP500
  4

  6

 40
0.0
 41
0.0
 42
0.0
 43
0.0
 44
0.0
 45
0.0
 46
0.0
 47
0.0
 48
0.0
 49
0.0
140
0.0
141
0.0
142
1.0
143
1.0
 70
   688
 72
     0
 73
     0
 74
     5
  7
sanindusa.ctb
 75
    16
147
1.0
148
0.0
149
0.0
100
AcDbLayout
  1
Layout1
 70
     1
 71
     1
 10
0.0
 20
0.0
 11
420.0
 21
297.0
 12
0.0
 22
0.0
 32
0.0
 14
1.000000000000000E+20
 24
1.000000000000000E+20
 34
1.000000000000000E+20
 15
-1.000000000000000E+20
 25
-1.000000000000000E+20
 35
-1.000000000000000E+20
146
0.0
 13
0.0
 23
0.0
 33
0.0
 16
1.0
 26
0.0
 36
0.0
 17
0.0
 27
1.0
 37
0.0
 76
     0
330
1B
  0
LAYOUT
  5
26
102
{ACAD_XDICTIONARY
360
1786
102
}
102
{ACAD_REACTORS
330
1A
102
}
330
1A
100
AcDbPlotSettings
  1

  2
Ploter HP500
  4

  6

 40
0.0
 41
0.0
 42
0.0
 43
0.0
 44
0.0
 45
0.0
 46
0.0
 47
0.0
 48
0.0
 49
0.0
140
0.0
141
0.0
142
1.0
143
1.0
 70
   688
 72
     0
 73
     0
 74
     5
  7
sanindusa.ctb
 75
    16
147
1.0
148
0.0
149
0.0
100
AcDbLayout
  1
Layout2
 70
     1
 71
     2
 10
0.0
 20
0.0
 11
12.0
 21
9.0
 12
0.0
 22
0.0
 32
0.0
 14
0.0
 24
0.0
 34
0.0
 15
0.0
 25
0.0
 35
0.0
146
0.0
 13
0.0
 23
0.0
 33
0.0
 16
1.0
 26
0.0
 36
0.0
 17
0.0
 27
1.0
 37
0.0
 76
     0
330
23
  0
LAYOUT
  5
22
102
{ACAD_XDICTIONARY
360
1784
102
}
102
{ACAD_REACTORS
330
1A
102
}
330
1A
100
AcDbPlotSettings
  1

  2
Ploter HP500
  4
User268
  6

 40
4.995333194732666
 41
16.97565841674804
 42
4.995330810546875
 43
16.97567749023437
 44
209.9733276367187
 45
296.9259948730469
 46
0.0
 47
0.0
 48
0.0
 49
0.0
140
0.0
141
0.0
142
1.0
143
1.0
 70
 11952
 72
     1
 73
     1
 74
     0
  7
sanindusa.ctb
 75
     0
147
1.0
148
-427.5957866592534
149
7.362384574453926
100
AcDbLayout
  1
Model
 70
     1
 71
     0
 10
0.0
 20
0.0
 11
12.0
 21
9.0
 12
0.0
 22
0.0
 32
0.0
 14
0.0
 24
0.0
 34
0.0
 15
0.0
 25
0.0
 35
0.0
146
0.0
 13
0.0
 23
0.0
 33
0.0
 16
1.0
 26
0.0
 36
0.0
 17
0.0
 27
1.0
 37
0.0
 76
     0
330
1F
331
1068
  0
MATERIAL
  5
1072
102
{ACAD_XDICTIONARY
360
1073
102
}
102
{ACAD_REACTORS
330
EE5
102
}
330
EE5
100
AcDbMaterial
  1
ByBlock
 72
     0
 43
0.0008202099737533
 43
0.0
 43
0.0
 43
0.0
 43
0.0
 43
0.0008202099737533
 43
0.0
 43
0.0
 43
0.0
 43
0.0
 43
1.0
 43
0.0
 43
0.0
 43
0.0
 43
0.0
 43
1.0
 77
     0
 47
0.0008202099737533
 47
0.0
 47
0.0
 47
0.0
 47
0.0
 47
0.0008202099737533
 47
0.0
 47
0.0
 47
0.0
 47
0.0
 47
1.0
 47
0.0
 47
0.0
 47
0.0
 47
0.0
 47
1.0
171
     0
 49
0.0008202099737533
 49
0.0
 49
0.0
 49
0.0
 49
0.0
 49
0.0008202099737533
 49
0.0
 49
0.0
 49
0.0
 49
0.0
 49
1.0
 49
0.0
 49
0.0
 49
0.0
 49
0.0
 49
1.0
175
     0
142
0.0008202099737533
142
0.0
142
0.0
142
0.0
142
0.0
142
0.0008202099737533
142
0.0
142
0.0
142
0.0
142
0.0
142
1.0
142
0.0
142
0.0
142
0.0
142
0.0
142
1.0
179
     0
144
0.0008202099737533
144
0.0
144
0.0
144
0.0
144
0.0
144
0.0008202099737533
144
0.0
144
0.0
144
0.0
144
0.0
144
1.0
144
0.0
144
0.0
144
0.0
144
0.0
144
1.0
147
0.0008202099737533
147
0.0
147
0.0
147
0.0
147
0.0
147
0.0008202099737533
147
0.0
147
0.0
147
0.0
147
0.0
147
1.0
147
0.0
147
0.0
147
0.0
147
0.0
147
1.0
  0
MATERIAL
  5
106A
102
{ACAD_XDICTIONARY
360
106B
102
}
102
{ACAD_REACTORS
330
EE5
102
}
330
EE5
100
AcDbMaterial
  1
ByLayer
 72
     0
 43
0.0008202099737533
 43
0.0
 43
0.0
 43
0.0
 43
0.0
 43
0.0008202099737533
 43
0.0
 43
0.0
 43
0.0
 43
0.0
 43
1.0
 43
0.0
 43
0.0
 43
0.0
 43
0.0
 43
1.0
 77
     0
 47
0.0008202099737533
 47
0.0
 47
0.0
 47
0.0
 47
0.0
 47
0.0008202099737533
 47
0.0
 47
0.0
 47
0.0
 47
0.0
 47
1.0
 47
0.0
 47
0.0
 47
0.0
 47
0.0
 47
1.0
171
     0
 49
0.0008202099737533
 49
0.0
 49
0.0
 49
0.0
 49
0.0
 49
0.0008202099737533
 49
0.0
 49
0.0
 49
0.0
 49
0.0
 49
1.0
 49
0.0
 49
0.0
 49
0.0
 49
0.0
 49
1.0
175
     0
142
0.0008202099737533
142
0.0
142
0.0
142
0.0
142
0.0
142
0.0008202099737533
142
0.0
142
0.0
142
0.0
142
0.0
142
1.0
142
0.0
142
0.0
142
0.0
142
0.0
142
1.0
179
     0
144
0.0008202099737533
144
0.0
144
0.0
144
0.0
144
0.0
144
0.0008202099737533
144
0.0
144
0.0
144
0.0
144
0.0
144
1.0
144
0.0
144
0.0
144
0.0
144
0.0
144
1.0
147
0.0008202099737533
147
0.0
147
0.0
147
0.0
147
0.0
147
0.0008202099737533
147
0.0
147
0.0
147
0.0
147
0.0
147
1.0
147
0.0
147
0.0
147
0.0
147
0.0
147
1.0
  0
MATERIAL
  5
107A
102
{ACAD_XDICTIONARY
360
107B
102
}
102
{ACAD_REACTORS
330
EE5
102
}
330
EE5
100
AcDbMaterial
  1
Global
 72
     0
 43
0.0008202099737533
 43
0.0
 43
0.0
 43
0.0
 43
0.0
 43
0.0008202099737533
 43
0.0
 43
0.0
 43
0.0
 43
0.0
 43
1.0
 43
0.0
 43
0.0
 43
0.0
 43
0.0
 43
1.0
 77
     0
 47
0.0008202099737533
 47
0.0
 47
0.0
 47
0.0
 47
0.0
 47
0.0008202099737533
 47
0.0
 47
0.0
 47
0.0
 47
0.0
 47
1.0
 47
0.0
 47
0.0
 47
0.0
 47
0.0
 47
1.0
171
     0
 49
0.0008202099737533
 49
0.0
 49
0.0
 49
0.0
 49
0.0
 49
0.0008202099737533
 49
0.0
 49
0.0
 49
0.0
 49
0.0
 49
1.0
 49
0.0
 49
0.0
 49
0.0
 49
0.0
 49
1.0
175
     0
142
0.0008202099737533
142
0.0
142
0.0
142
0.0
142
0.0
142
0.0008202099737533
142
0.0
142
0.0
142
0.0
142
0.0
142
1.0
142
0.0
142
0.0
142
0.0
142
0.0
142
1.0
179
     0
144
0.0008202099737533
144
0.0
144
0.0
144
0.0
144
0.0
144
0.0008202099737533
144
0.0
144
0.0
144
0.0
144
0.0
144
1.0
144
0.0
144
0.0
144
0.0
144
0.0
144
1.0
147
0.0008202099737533
147
0.0
147
0.0
147
0.0
147
0.0
147
0.0008202099737533
147
0.0
147
0.0
147
0.0
147
0.0
147
1.0
147
0.0
147
0.0
147
0.0
147
0.0
147
1.0
  0
MLEADERSTYLE
  5
10A9
102
{ACAD_REACTORS
330
10A8
102
}
330
10A8
100
AcDbMLeaderStyle
170
     2
171
     1
172
     0
 90
        2
 40
0.0
 41
0.0
173
     1
 91
-1056964608
340
14
 92
       -2
290
     1
 42
2.0
291
     1
 43
0.36
  3
Standard
 44
4.0
300

342
11
174
     1
178
     6
175
     1
176
     0
 93
-1056964608
 45
4.0
292
     0
297
     0
 46
4.0
 94
-1056964608
 47
1.0
 49
1.0
140
1.0
293
     1
141
0.0
294
     1
177
     0
142
1.0
295
     0
296
     0
143
0.125
1001
ACAD_MLEADERVER
1070
     2
  0
MLINESTYLE
  5
18
102
{ACAD_REACTORS
330
17
102
}
330
17
100
AcDbMlineStyle
  2
STANDARD
 70
     0
  3

 62
   256
 51
90.0
 52
90.0
 71
     2
 49
0.5
 62
   256
  6
BYLAYER
 49
-0.5
 62
   256
  6
BYLAYER
  0
ACDBPLACEHOLDER
  5
F
102
{ACAD_REACTORS
330
E
102
}
330
E
  0
SCALE
  5
1097
102
{ACAD_REACTORS
330
1096
102
}
330
1096
100
AcDbScale
 70
     0
300
1:1
140
1.0
141
1.0
290
     1
  0
SCALE
  5
1098
102
{ACAD_REACTORS
330
1096
102
}
330
1096
100
AcDbScale
 70
     0
300
1:2
140
1.0
141
2.0
290
     0
  0
SCALE
  5
1099
102
{ACAD_REACTORS
330
1096
102
}
330
1096
100
AcDbScale
 70
     0
300
1:4
140
1.0
141
4.0
290
     0
  0
SCALE
  5
109A
102
{ACAD_REACTORS
330
1096
102
}
330
1096
100
AcDbScale
 70
     0
300
1:5
140
1.0
141
5.0
290
     0
  0
SCALE
  5
109B
102
{ACAD_REACTORS
330
1096
102
}
330
1096
100
AcDbScale
 70
     0
300
1:8
140
1.0
141
8.0
290
     0
  0
SCALE
  5
109C
102
{ACAD_REACTORS
330
1096
102
}
330
1096
100
AcDbScale
 70
     0
300
1:10
140
1.0
141
10.0
290
     0
  0
SCALE
  5
109D
102
{ACAD_REACTORS
330
1096
102
}
330
1096
100
AcDbScale
 70
     0
300
1:16
140
1.0
141
16.0
290
     0
  0
SCALE
  5
109E
102
{ACAD_REACTORS
330
1096
102
}
330
1096
100
AcDbScale
 70
     0
300
1:20
140
1.0
141
20.0
290
     0
  0
SCALE
  5
109F
102
{ACAD_REACTORS
330
1096
102
}
330
1096
100
AcDbScale
 70
     0
300
1:30
140
1.0
141
30.0
290
     0
  0
SCALE
  5
10A0
102
{ACAD_REACTORS
330
1096
102
}
330
1096
100
AcDbScale
 70
     0
300
1:40
140
1.0
141
40.0
290
     0
  0
SCALE
  5
10A1
102
{ACAD_REACTORS
330
1096
102
}
330
1096
100
AcDbScale
 70
     0
300
1:50
140
1.0
141
50.0
290
     0
  0
SCALE
  5
10A2
102
{ACAD_REACTORS
330
1096
102
}
330
1096
100
AcDbScale
 70
     0
300
1:100
140
1.0
141
100.0
290
     0
  0
SCALE
  5
10A3
102
{ACAD_REACTORS
330
1096
102
}
330
1096
100
AcDbScale
 70
     0
300
2:1
140
2.0
141
1.0
290
     0
  0
SCALE
  5
10A4
102
{ACAD_REACTORS
330
1096
102
}
330
1096
100
AcDbScale
 70
     0
300
4:1
140
4.0
141
1.0
290
     0
  0
SCALE
  5
10A5
102
{ACAD_REACTORS
330
1096
102
}
330
1096
100
AcDbScale
 70
     0
300
8:1
140
8.0
141
1.0
290
     0
  0
SCALE
  5
10A6
102
{ACAD_REACTORS
330
1096
102
}
330
1096
100
AcDbScale
 70
     0
300
10:1
140
10.0
141
1.0
290
     0
  0
SCALE
  5
10A7
102
{ACAD_REACTORS
330
1096
102
}
330
1096
100
AcDbScale
 70
     0
300
100:1
140
100.0
141
1.0
290
     0
  0
TABLESTYLE
  5
EE8
102
{ACAD_XDICTIONARY
360
1735
102
}
102
{ACAD_REACTORS
330
EE7
102
}
330
EE7
100
AcDbTableStyle
  3
Standard
 70
     0
 71
     0
 40
1.5
 41
1.5
280
     0
281
     0
  7
Standard
140
4.5
170
     2
 62
     0
 63
     7
283
     0
274
    -2
284
     1
 64
     0
275
    -2
285
     1
 65
     0
276
    -2
286
     1
 66
     0
277
    -2
287
     1
 67
     0
278
    -2
288
     1
 68
     0
279
    -2
289
     1
 69
     0
  7
Standard
140
6.0
170
     5
 62
     0
 63
     7
283
     0
274
    -2
284
     1
 64
     0
275
    -2
285
     1
 65
     0
276
    -2
286
     1
 66
     0
277
    -2
287
     1
 67
     0
278
    -2
288
     1
 68
     0
279
    -2
289
     1
 69
     0
  7
Standard
140
4.5
170
     5
 62
     0
 63
     7
283
     0
274
    -2
284
     1
 64
     0
275
    -2
285
     1
 65
     0
276
    -2
286
     1
 66
     0
277
    -2
287
     1
 67
     0
278
    -2
288
     1
 68
     0
279
    -2
289
     1
 69
     0
  0
VISUALSTYLE
  5
1088
102
{ACAD_XDICTIONARY
360
1796
102
}
102
{ACAD_REACTORS
330
1082
102
}
330
1082
100
AcDbVisualStyle
  2
2dWireframe
 70
     4
 71
     0
 72
     2
 73
     0
 90
        0
 40
-0.6
 41
-30.0
 62
     5
 63
     7
 74
     1
 91
        4
 64
     7
 65
   257
 75
     1
175
     1
 42
1.0
 92
        0
 66
   257
 43
1.0
 76
     1
 77
     6
 78
     2
 67
     7
 79
     5
170
     0
171
     0
290
     0
174
     0
 93
        1
 44
0.0
173
     0
291
     0
 45
0.0
1001
ACAD
1000
AcDbSavedByObjectVersion
1070
     0
  0
VISUALSTYLE
  5
108A
102
{ACAD_XDICTIONARY
360
179A
102
}
102
{ACAD_REACTORS
330
1082
102
}
330
1082
100
AcDbVisualStyle
  2
3D Hidden
 70
     6
 71
     1
 72
     2
 73
     2
 90
        0
 40
-0.6
 41
-30.0
 62
     5
 63
     7
 74
     2
 91
        2
 64
     7
 65
   257
 75
     2
175
     1
 42
179.0
 92
        0
 66
   257
 43
1.0
 76
     1
 77
     6
 78
     2
 67
     7
 79
     3
170
     0
171
     0
290
     0
174
     0
 93
        1
 44
0.0
173
     0
291
     0
 45
0.0
1001
ACAD
1000
AcDbSavedByObjectVersion
1070
     0
  0
VISUALSTYLE
  5
1089
102
{ACAD_XDICTIONARY
360
1798
102
}
102
{ACAD_REACTORS
330
1082
102
}
330
1082
100
AcDbVisualStyle
  2
3dWireframe
 70
     5
 71
     0
 72
     2
 73
     0
 90
        0
 40
-0.6
 41
-30.0
 62
     5
 63
     7
 74
     1
 91
        4
 64
     7
 65
   257
 75
     1
175
     1
 42
1.0
 92
        0
 66
   257
 43
1.0
 76
     1
 77
     6
 78
     2
 67
     7
 79
     5
170
     0
171
     0
290
     0
174
     0
 93
        1
 44
0.0
173
     0
291
     0
 45
0.0
1001
ACAD
1000
AcDbSavedByObjectVersion
1070
     0
  0
VISUALSTYLE
  5
1087
102
{ACAD_XDICTIONARY
360
1794
102
}
102
{ACAD_REACTORS
330
1082
102
}
330
1082
100
AcDbVisualStyle
  2
Basic
 70
     7
 71
     1
 72
     0
 73
     1
 90
        0
 40
-0.6
 41
-30.0
 62
     5
 63
     7
 74
     0
 91
        4
 64
     7
 65
   257
 75
     1
175
     1
 42
1.0
 92
        8
 66
     7
 43
1.0
 76
     1
 77
     6
 78
     2
 67
     7
 79
     5
170
     0
171
     0
290
     0
174
     0
 93
        1
 44
0.0
173
     0
291
     1
 45
0.0
1001
ACAD
1000
AcDbSavedByObjectVersion
1070
     0
  0
VISUALSTYLE
  5
108E
102
{ACAD_XDICTIONARY
360
17A2
102
}
102
{ACAD_REACTORS
330
1082
102
}
330
1082
100
AcDbVisualStyle
  2
Brighten
 70
    12
 71
     2
 72
     2
 73
     0
 90
        0
 40
-0.6
 41
-30.0
 62
     5
 63
     7
 74
     1
 91
        4
 64
     7
 65
   257
 75
     1
175
     1
 42
1.0
 92
        8
 66
     7
 43
1.0
 76
     1
 77
     6
 78
     2
 67
     7
 79
     5
170
     0
171
     0
290
     0
174
     0
 93
        1
 44
50.0
173
     0
291
     1
 45
0.0
1001
ACAD
1000
AcDbSavedByObjectVersion
1070
     0
  0
VISUALSTYLE
  5
1092
102
{ACAD_XDICTIONARY
360
17AA
102
}
102
{ACAD_REACTORS
330
1082
102
}
330
1082
100
AcDbVisualStyle
  2
ColorChange
 70
    16
 71
     2
 72
     2
 73
     3
 90
        0
 40
-0.6
 41
-30.0
 62
     5
 63
     8
 74
     1
 91
        4
 64
     7
 65
   257
 75
     1
175
     1
 42
1.0
 92
        8
 66
     8
 43
1.0
 76
     1
 77
     6
 78
     2
 67
     7
 79
     5
170
     0
171
     0
290
     0
174
     0
 93
        1
 44
0.0
173
     0
291
     1
 45
0.0
1001
ACAD
1000
AcDbSavedByObjectVersion
1070
     0
  0
VISUALSTYLE
  5
108B
102
{ACAD_XDICTIONARY
360
179C
102
}
102
{ACAD_REACTORS
330
1082
102
}
330
1082
100
AcDbVisualStyle
  2
Conceptual
 70
     9
 71
     3
 72
     2
 73
     0
 90
        0
 40
-0.6
 41
-30.0
 62
     5
 63
     7
 74
     2
 91
        2
 64
     7
 65
   257
 75
     1
175
     1
 42
179.0
 92
        8
 66
     7
 43
1.0
 76
     1
 77
     6
 78
     2
 67
     7
 79
     3
170
     0
171
     0
290
     0
174
     0
 93
        1
 44
0.0
173
     0
291
     0
 45
0.0
1001
ACAD
1000
AcDbSavedByObjectVersion
1070
     0
  0
VISUALSTYLE
  5
108D
102
{ACAD_XDICTIONARY
360
17A0
102
}
102
{ACAD_REACTORS
330
1082
102
}
330
1082
100
AcDbVisualStyle
  2
Dim
 70
    11
 71
     2
 72
     2
 73
     0
 90
        0
 40
-0.6
 41
-30.0
 62
     5
 63
     7
 74
     1
 91
        4
 64
     7
 65
   257
 75
     1
175
     1
 42
1.0
 92
        8
 66
     7
 43
1.0
 76
     1
 77
     6
 78
     2
 67
     7
 79
     5
170
     0
171
     0
290
     0
174
     0
 93
        1
 44
-50.0
173
     0
291
     1
 45
0.0
1001
ACAD
1000
AcDbSavedByObjectVersion
1070
     0
  0
VISUALSTYLE
  5
1095
102
{ACAD_XDICTIONARY
360
17B0
102
}
102
{ACAD_REACTORS
330
1082
102
}
330
1082
100
AcDbVisualStyle
  2
EdgeColorOff
 70
    22
 71
     2
 72
     2
 73
     0
 90
        0
 40
-0.6
 41
-30.0
 62
     5
 63
     7
 74
     1
 91
        4
 64
     7
 65
   257
 75
     1
175
     1
 42
1.0
 92
        8
 66
     7
 43
1.0
 76
     1
 77
     6
 78
     2
 67
     7
 79
     5
170
     0
171
     0
290
     0
174
     0
 93
        1
 44
0.0
173
     0
291
     1
 45
0.0
1001
ACAD
1000
AcDbSavedByObjectVersion
1070
     0
  0
VISUALSTYLE
  5
1091
102
{ACAD_XDICTIONARY
360
17A8
102
}
102
{ACAD_REACTORS
330
1082
102
}
330
1082
100
AcDbVisualStyle
  2
Facepattern
 70
    15
 71
     2
 72
     2
 73
     0
 90
        0
 40
-0.6
 41
-30.0
 62
     5
 63
     7
 74
     1
 91
        4
 64
     7
 65
   257
 75
     1
175
     1
 42
1.0
 92
        8
 66
     7
 43
1.0
 76
     1
 77
     6
 78
     2
 67
     7
 79
     5
170
     0
171
     0
290
     0
174
     0
 93
        1
 44
0.0
173
     0
291
     1
 45
0.0
1001
ACAD
1000
AcDbSavedByObjectVersion
1070
     0
  0
VISUALSTYLE
  5
1083
102
{ACAD_XDICTIONARY
360
178C
102
}
102
{ACAD_REACTORS
330
1082
102
}
330
1082
100
AcDbVisualStyle
  2
Flat
 70
     0
 71
     2
 72
     1
 73
     1
 90
        2
 40
-0.6
 41
30.0
 62
     5
 63
     7
 74
     0
 91
        4
 64
     7
 65
   257
 75
     1
175
     1
 42
1.0
 92
        8
 66
     7
 43
1.0
 76
     1
 77
     6
 78
     2
 67
     7
 79
     5
170
     0
171
     0
290
     0
174
     0
 93
       13
 44
0.0
173
     0
291
     1
 45
0.0
1001
ACAD
1000
AcDbSavedByObjectVersion
1070
     0
  0
VISUALSTYLE
  5
1084
102
{ACAD_XDICTIONARY
360
178E
102
}
102
{ACAD_REACTORS
330
1082
102
}
330
1082
100
AcDbVisualStyle
  2
FlatWithEdges
 70
     1
 71
     2
 72
     1
 73
     1
 90
        2
 40
-0.6
 41
30.0
 62
     5
 63
     7
 74
     1
 91
        4
 64
     7
 65
   257
 75
     1
175
     1
 42
1.0
 92
        0
 66
   257
 43
1.0
 76
     1
 77
     6
 78
     2
 67
     7
 79
     5
170
     0
171
     0
290
     0
174
     0
 93
       13
 44
0.0
173
     0
291
     1
 45
0.0
1001
ACAD
1000
AcDbSavedByObjectVersion
1070
     0
  0
VISUALSTYLE
  5
1085
102
{ACAD_XDICTIONARY
360
1790
102
}
102
{ACAD_REACTORS
330
1082
102
}
330
1082
100
AcDbVisualStyle
  2
Gouraud
 70
     2
 71
     2
 72
     2
 73
     1
 90
        2
 40
-0.6
 41
30.0
 62
     5
 63
     7
 74
     0
 91
        4
 64
     7
 65
   257
 75
     1
175
     1
 42
1.0
 92
        0
 66
     7
 43
1.0
 76
     1
 77
     6
 78
     2
 67
     7
 79
     5
170
     0
171
     0
290
     0
174
     0
 93
       13
 44
0.0
173
     0
291
     1
 45
0.0
1001
ACAD
1000
AcDbSavedByObjectVersion
1070
     0
  0
VISUALSTYLE
  5
1086
102
{ACAD_XDICTIONARY
360
1792
102
}
102
{ACAD_REACTORS
330
1082
102
}
330
1082
100
AcDbVisualStyle
  2
GouraudWithEdges
 70
     3
 71
     2
 72
     2
 73
     1
 90
        2
 40
-0.6
 41
30.0
 62
     5
 63
     7
 74
     1
 91
        4
 64
     7
 65
   257
 75
     1
175
     1
 42
1.0
 92
        0
 66
   257
 43
1.0
 76
     1
 77
     6
 78
     2
 67
     7
 79
     5
170
     0
171
     0
290
     0
174
     0
 93
       13
 44
0.0
173
     0
291
     1
 45
0.0
1001
ACAD
1000
AcDbSavedByObjectVersion
1070
     0
  0
VISUALSTYLE
  5
1093
102
{ACAD_XDICTIONARY
360
17AC
102
}
102
{ACAD_REACTORS
330
1082
102
}
330
1082
100
AcDbVisualStyle
  2
JitterOff
 70
    20
 71
     2
 72
     2
 73
     0
 90
        0
 40
-0.6
 41
-30.0
 62
     5
 63
     7
 74
     1
 91
        4
 64
     7
 65
   257
 75
     1
175
     1
 42
1.0
 92
       10
 66
     7
 43
1.0
 76
     1
 77
     6
 78
     2
 67
     7
 79
     5
170
     0
171
     0
290
     0
174
     0
 93
        1
 44
0.0
173
     0
291
     1
 45
0.0
1001
ACAD
1000
AcDbSavedByObjectVersion
1070
     0
  0
VISUALSTYLE
  5
1090
102
{ACAD_XDICTIONARY
360
17A6
102
}
102
{ACAD_REACTORS
330
1082
102
}
330
1082
100
AcDbVisualStyle
  2
Linepattern
 70
    14
 71
     2
 72
     2
 73
     0
 90
        0
 40
-0.6
 41
-30.0
 62
     5
 63
     7
 74
     1
 91
        4
 64
     7
 65
   257
 75
     7
175
     7
 42
1.0
 92
        8
 66
     7
 43
1.0
 76
     1
 77
     6
 78
     2
 67
     7
 79
     5
170
     0
171
     0
290
     0
174
     0
 93
        1
 44
0.0
173
     0
291
     1
 45
0.0
1001
ACAD
1000
AcDbSavedByObjectVersion
1070
     0
  0
VISUALSTYLE
  5
1094
102
{ACAD_XDICTIONARY
360
17AE
102
}
102
{ACAD_REACTORS
330
1082
102
}
330
1082
100
AcDbVisualStyle
  2
OverhangOff
 70
    21
 71
     2
 72
     2
 73
     0
 90
        0
 40
-0.6
 41
-30.0
 62
     5
 63
     7
 74
     1
 91
        4
 64
     7
 65
   257
 75
     1
175
     1
 42
1.0
 92
        9
 66
     7
 43
1.0
 76
     1
 77
     6
 78
     2
 67
     7
 79
     5
170
     0
171
     0
290
     0
174
     0
 93
        1
 44
0.0
173
     0
291
     1
 45
0.0
1001
ACAD
1000
AcDbSavedByObjectVersion
1070
     0
  0
VISUALSTYLE
  5
108C
102
{ACAD_XDICTIONARY
360
179E
102
}
102
{ACAD_REACTORS
330
1082
102
}
330
1082
100
AcDbVisualStyle
  2
Realistic
 70
     8
 71
     2
 72
     2
 73
     0
 90
        0
 40
-0.6
 41
-30.0
 62
     5
 63
     7
 74
     1
 91
        0
 64
     7
 65
   257
 75
     1
175
     1
 42
1.0
 92
        8
 66
     8
 43
1.0
 76
     1
 77
     6
 78
     2
 67
     7
 79
     5
170
     0
171
     0
290
     0
174
     0
 93
       13
 44
0.0
173
     0
291
     0
 45
0.0
1001
ACAD
1000
AcDbSavedByObjectVersion
1070
     0
  0
VISUALSTYLE
  5
108F
102
{ACAD_XDICTIONARY
360
17A4
102
}
102
{ACAD_REACTORS
330
1082
102
}
330
1082
100
AcDbVisualStyle
  2
Thicken
 70
    13
 71
     2
 72
     2
 73
     0
 90
        0
 40
-0.6
 41
-30.0
 62
     5
 63
     7
 74
     1
 91
        4
 64
     7
 65
   257
 75
     1
175
     1
 42
1.0
 92
       12
 66
     7
 43
1.0
 76
     1
 77
     6
 78
     2
 67
     7
 79
     5
170
     0
171
     0
290
     0
174
     0
 93
        1
 44
0.0
173
     0
291
     1
 45
0.0
1001
ACAD
1000
AcDbSavedByObjectVersion
1070
     0
  0
DICTIONARYVAR
  5
176F
102
{ACAD_REACTORS
330
3D
102
}
330
3D
100
DictionaryVariables
280
     0
  1
1:1
  0
DICTIONARYVAR
  5
176E
102
{ACAD_REACTORS
330
3D
102
}
330
3D
100
DictionaryVariables
280
     0
  1
STANDARD
  0
DICTIONARYVAR
  5
1049
102
{ACAD_REACTORS
330
3D
102
}
330
3D
100
DictionaryVariables
280
     0
  1
STANDARD
  0
DICTIONARYVAR
  5
3F
102
{ACAD_REACTORS
330
3D
102
}
330
3D
100
DictionaryVariables
280
     0
  1
2
  0
DICTIONARYVAR
  5
3E
102
{ACAD_REACTORS
330
3D
102
}
330
3D
100
DictionaryVariables
280
     0
  1
1
  0
DICTIONARYVAR
  5
1771
102
{ACAD_REACTORS
330
3D
102
}
330
3D
100
DictionaryVariables
280
     0
  1
0
  0
DICTIONARYVAR
  5
1770
102
{ACAD_REACTORS
330
3D
102
}
330
3D
100
DictionaryVariables
280
     0
  1
127
  0
DICTIONARYVAR
  5
177C
102
{ACAD_REACTORS
330
3D
102
}
330
3D
100
DictionaryVariables
280
     0
  1
2
  0
XRECORD
  5
1067
102
{ACAD_REACTORS
330
1066
102
}
330
1066
100
AcDbXrecord
280
     1
  0
DICTIONARY
  5
1782
330
1E
100
AcDbDictionary
280
     1
281
     1
  3
ACAD_XREC_ROUNDTRIP
360
1783
  0
DICTIONARY
  5
1786
330
26
100
AcDbDictionary
280
     1
281
     1
  3
ACAD_XREC_ROUNDTRIP
360
1787
  0
DICTIONARY
  5
1784
330
22
100
AcDbDictionary
280
     1
281
     1
  3
ACAD_XREC_ROUNDTRIP
360
1785
  0
DICTIONARY
  5
1073
330
1072
100
AcDbDictionary
280
     1
281
     1
  3
ACAD_XREC_ROUNDTRIP
360
178A
  3
BUMPTILE
360
1075
  3
DIFFUSETILE
360
1074
  3
OPACITYTILE
360
1078
  3
REFLECTIONTILE
360
1077
  3
REFRACTIONTILE
360
1079
  3
SPECULARTILE
360
1076
  0
DICTIONARY
  5
106B
330
106A
100
AcDbDictionary
280
     1
281
     1
  3
ACAD_XREC_ROUNDTRIP
360
1789
  3
BUMPTILE
360
106D
  3
DIFFUSETILE
360
106C
  3
OPACITYTILE
360
1070
  3
REFLECTIONTILE
360
106F
  3
REFRACTIONTILE
360
1071
  3
SPECULARTILE
360
106E
  0
DICTIONARY
  5
107B
330
107A
100
AcDbDictionary
280
     1
281
     1
  3
ACAD_XREC_ROUNDTRIP
360
178B
  3
BUMPTILE
360
107D
  3
DIFFUSETILE
360
107C
  3
OPACITYTILE
360
1080
  3
REFLECTIONTILE
360
107F
  3
REFRACTIONTILE
360
1081
  3
SPECULARTILE
360
107E
  0
DICTIONARY
  5
1735
330
EE8
100
AcDbDictionary
280
     1
281
     1
  3
ACAD_ROUNDTRIP_2008_TABLESTYLE_CELLSTYLEMAP
360
177D
  3
ACAD_XREC_ROUNDTRIP
360
1788
  0
DICTIONARY
  5
1796
330
1088
100
AcDbDictionary
280
     1
281
     1
  3
ACAD_XREC_ROUNDTRIP
360
1797
  0
DICTIONARY
  5
179A
330
108A
100
AcDbDictionary
280
     1
281
     1
  3
ACAD_XREC_ROUNDTRIP
360
179B
  0
DICTIONARY
  5
1798
330
1089
100
AcDbDictionary
280
     1
281
     1
  3
ACAD_XREC_ROUNDTRIP
360
1799
  0
DICTIONARY
  5
1794
330
1087
100
AcDbDictionary
280
     1
281
     1
  3
ACAD_XREC_ROUNDTRIP
360
1795
  0
DICTIONARY
  5
17A2
330
108E
100
AcDbDictionary
280
     1
281
     1
  3
ACAD_XREC_ROUNDTRIP
360
17A3
  0
DICTIONARY
  5
17AA
330
1092
100
AcDbDictionary
280
     1
281
     1
  3
ACAD_XREC_ROUNDTRIP
360
17AB
  0
DICTIONARY
  5
179C
330
108B
100
AcDbDictionary
280
     1
281
     1
  3
ACAD_XREC_ROUNDTRIP
360
179D
  0
DICTIONARY
  5
17A0
330
108D
100
AcDbDictionary
280
     1
281
     1
  3
ACAD_XREC_ROUNDTRIP
360
17A1
  0
DICTIONARY
  5
17B0
330
1095
100
AcDbDictionary
280
     1
281
     1
  3
ACAD_XREC_ROUNDTRIP
360
17B1
  0
DICTIONARY
  5
17A8
330
1091
100
AcDbDictionary
280
     1
281
     1
  3
ACAD_XREC_ROUNDTRIP
360
17A9
  0
DICTIONARY
  5
178C
330
1083
100
AcDbDictionary
280
     1
281
     1
  3
ACAD_XREC_ROUNDTRIP
360
178D
  0
DICTIONARY
  5
178E
330
1084
100
AcDbDictionary
280
     1
281
     1
  3
ACAD_XREC_ROUNDTRIP
360
178F
  0
DICTIONARY
  5
1790
330
1085
100
AcDbDictionary
280
     1
281
     1
  3
ACAD_XREC_ROUNDTRIP
360
1791
  0
DICTIONARY
  5
1792
330
1086
100
AcDbDictionary
280
     1
281
     1
  3
ACAD_XREC_ROUNDTRIP
360
1793
  0
DICTIONARY
  5
17AC
330
1093
100
AcDbDictionary
280
     1
281
     1
  3
ACAD_XREC_ROUNDTRIP
360
17AD
  0
DICTIONARY
  5
17A6
330
1090
100
AcDbDictionary
280
     1
281
     1
  3
ACAD_XREC_ROUNDTRIP
360
17A7
  0
DICTIONARY
  5
17AE
330
1094
100
AcDbDictionary
280
     1
281
     1
  3
ACAD_XREC_ROUNDTRIP
360
17AF
  0
DICTIONARY
  5
179E
330
108C
100
AcDbDictionary
280
     1
281
     1
  3
ACAD_XREC_ROUNDTRIP
360
179F
  0
DICTIONARY
  5
17A4
330
108F
100
AcDbDictionary
280
     1
281
     1
  3
ACAD_XREC_ROUNDTRIP
360
17A5
  0
XRECORD
  5
1783
102
{ACAD_REACTORS
330
1782
102
}
330
1782
100
AcDbXrecord
280
     1
102
SHADEPLOT
 70
     0
102
SHADEPLOTRESLEVEL
 70
     2
102
SHADEPLOTCUSTOMDPI
 70
   300
  0
XRECORD
  5
1787
102
{ACAD_REACTORS
330
1786
102
}
330
1786
100
AcDbXrecord
280
     1
102
SHADEPLOT
 70
     0
102
SHADEPLOTRESLEVEL
 70
     2
102
SHADEPLOTCUSTOMDPI
 70
   300
  0
XRECORD
  5
1785
102
{ACAD_REACTORS
330
1784
102
}
330
1784
100
AcDbXrecord
280
     1
102
SHADEPLOT
 70
     0
102
SHADEPLOTRESLEVEL
 70
     2
102
SHADEPLOTCUSTOMDPI
 70
   300
  0
XRECORD
  5
178A
102
{ACAD_REACTORS
330
1073
102
}
330
1073
100
AcDbXrecord
280
     1
102
MATERIAL
148
0.0
149
0.0
149
0.0
 93
        0
 94
      127
282
     0
 72
     0
 77
     0
171
     0
175
     0
179
     0
273
     0
  0
XRECORD
  5
1075
102
{ACAD_REACTORS
330
1073
102
}
330
1073
100
AcDbXrecord
280
     1
270
     1
271
     1
  0
XRECORD
  5
1074
102
{ACAD_REACTORS
330
1073
102
}
330
1073
100
AcDbXrecord
280
     1
270
     1
271
     1
  0
XRECORD
  5
1078
102
{ACAD_REACTORS
330
1073
102
}
330
1073
100
AcDbXrecord
280
     1
270
     1
271
     1
  0
XRECORD
  5
1077
102
{ACAD_REACTORS
330
1073
102
}
330
1073
100
AcDbXrecord
280
     1
270
     1
271
     1
  0
XRECORD
  5
1079
102
{ACAD_REACTORS
330
1073
102
}
330
1073
100
AcDbXrecord
280
     1
270
     1
271
     1
  0
XRECORD
  5
1076
102
{ACAD_REACTORS
330
1073
102
}
330
1073
100
AcDbXrecord
280
     1
270
     1
271
     1
  0
XRECORD
  5
1789
102
{ACAD_REACTORS
330
106B
102
}
330
106B
100
AcDbXrecord
280
     1
102
MATERIAL
148
0.0
149
0.0
149
0.0
 93
        0
 94
      127
282
     0
 72
     0
 77
     0
171
     0
175
     0
179
     0
273
     0
  0
XRECORD
  5
106D
102
{ACAD_REACTORS
330
106B
102
}
330
106B
100
AcDbXrecord
280
     1
270
     1
271
     1
  0
XRECORD
  5
106C
102
{ACAD_REACTORS
330
106B
102
}
330
106B
100
AcDbXrecord
280
     1
270
     1
271
     1
  0
XRECORD
  5
1070
102
{ACAD_REACTORS
330
106B
102
}
330
106B
100
AcDbXrecord
280
     1
270
     1
271
     1
  0
XRECORD
  5
106F
102
{ACAD_REACTORS
330
106B
102
}
330
106B
100
AcDbXrecord
280
     1
270
     1
271
     1
  0
XRECORD
  5
1071
102
{ACAD_REACTORS
330
106B
102
}
330
106B
100
AcDbXrecord
280
     1
270
     1
271
     1
  0
XRECORD
  5
106E
102
{ACAD_REACTORS
330
106B
102
}
330
106B
100
AcDbXrecord
280
     1
270
     1
271
     1
  0
XRECORD
  5
178B
102
{ACAD_REACTORS
330
107B
102
}
330
107B
100
AcDbXrecord
280
     1
102
MATERIAL
148
0.0
149
0.0
149
0.0
 93
        0
 94
      127
282
     0
 72
     0
 77
     0
171
     0
175
     0
179
     0
273
     0
  0
XRECORD
  5
107D
102
{ACAD_REACTORS
330
107B
102
}
330
107B
100
AcDbXrecord
280
     1
270
     1
271
     1
  0
XRECORD
  5
107C
102
{ACAD_REACTORS
330
107B
102
}
330
107B
100
AcDbXrecord
280
     1
270
     1
271
     1
  0
XRECORD
  5
1080
102
{ACAD_REACTORS
330
107B
102
}
330
107B
100
AcDbXrecord
280
     1
270
     1
271
     1
  0
XRECORD
  5
107F
102
{ACAD_REACTORS
330
107B
102
}
330
107B
100
AcDbXrecord
280
     1
270
     1
271
     1
  0
XRECORD
  5
1081
102
{ACAD_REACTORS
330
107B
102
}
330
107B
100
AcDbXrecord
280
     1
270
     1
271
     1
  0
XRECORD
  5
107E
102
{ACAD_REACTORS
330
107B
102
}
330
107B
100
AcDbXrecord
280
     1
270
     1
271
     1
  0
CELLSTYLEMAP
  5
177D
102
{ACAD_REACTORS
330
1735
102
}
330
1735
100
AcDbCellStyleMap
 90
        3
300
CELLSTYLE
  1
TABLEFORMAT_BEGIN
 90
        5
170
     1
 91
        0
 92
    32768
 62
   257
 93
        1
300
CONTENTFORMAT
  1
CONTENTFORMAT_BEGIN
 90
        0
 91
        0
 92
        4
 93
        0
300

 40
0.0
140
1.0
 94
        5
 62
     0
340
11
144
6.0
309
CONTENTFORMAT_END
171
     1
301
MARGIN
  1
CELLMARGIN_BEGIN
 40
1.5
 40
1.5
 40
1.5
 40
1.5
 40
0.18
 40
0.18
309
CELLMARGIN_END
 94
        6
 95
        1
302
GRIDFORMAT
  1
GRIDFORMAT_BEGIN
 90
        0
 91
        1
 62
     0
 92
       -2
340
0
 93
        0
 40
0.045
309
GRIDFORMAT_END
 95
        2
302
GRIDFORMAT
  1
GRIDFORMAT_BEGIN
 90
        0
 91
        1
 62
     0
 92
       -2
340
0
 93
        0
 40
0.045
309
GRIDFORMAT_END
 95
        4
302
GRIDFORMAT
  1
GRIDFORMAT_BEGIN
 90
        0
 91
        1
 62
     0
 92
       -2
340
0
 93
        0
 40
0.045
309
GRIDFORMAT_END
 95
        8
302
GRIDFORMAT
  1
GRIDFORMAT_BEGIN
 90
        0
 91
        1
 62
     0
 92
       -2
340
0
 93
        0
 40
0.045
309
GRIDFORMAT_END
 95
       16
302
GRIDFORMAT
  1
GRIDFORMAT_BEGIN
 90
        0
 91
        1
 62
     0
 92
       -2
340
0
 93
        0
 40
0.045
309
GRIDFORMAT_END
 95
       32
302
GRIDFORMAT
  1
GRIDFORMAT_BEGIN
 90
        0
 91
        1
 62
     0
 92
       -2
340
0
 93
        0
 40
0.045
309
GRIDFORMAT_END
309
TABLEFORMAT_END
  1
CELLSTYLE_BEGIN
 90
        1
 91
        1
300
_TITLE
309
CELLSTYLE_END
300
CELLSTYLE
  1
TABLEFORMAT_BEGIN
 90
        5
170
     1
 91
        0
 92
        0
 62
   257
 93
        1
300
CONTENTFORMAT
  1
CONTENTFORMAT_BEGIN
 90
        0
 91
        0
 92
        4
 93
        0
300

 40
0.0
140
1.0
 94
        5
 62
     0
340
11
144
4.5
309
CONTENTFORMAT_END
171
     1
301
MARGIN
  1
CELLMARGIN_BEGIN
 40
1.5
 40
1.5
 40
1.5
 40
1.5
 40
0.18
 40
0.18
309
CELLMARGIN_END
 94
        6
 95
        1
302
GRIDFORMAT
  1
GRIDFORMAT_BEGIN
 90
        0
 91
        1
 62
     0
 92
       -2
340
0
 93
        0
 40
0.045
309
GRIDFORMAT_END
 95
        2
302
GRIDFORMAT
  1
GRIDFORMAT_BEGIN
 90
        0
 91
        1
 62
     0
 92
       -2
340
0
 93
        0
 40
0.045
309
GRIDFORMAT_END
 95
        4
302
GRIDFORMAT
  1
GRIDFORMAT_BEGIN
 90
        0
 91
        1
 62
     0
 92
       -2
340
0
 93
        0
 40
0.045
309
GRIDFORMAT_END
 95
        8
302
GRIDFORMAT
  1
GRIDFORMAT_BEGIN
 90
        0
 91
        1
 62
     0
 92
       -2
340
0
 93
        0
 40
0.045
309
GRIDFORMAT_END
 95
       16
302
GRIDFORMAT
  1
GRIDFORMAT_BEGIN
 90
        0
 91
        1
 62
     0
 92
       -2
340
0
 93
        0
 40
0.045
309
GRIDFORMAT_END
 95
       32
302
GRIDFORMAT
  1
GRIDFORMAT_BEGIN
 90
        0
 91
        1
 62
     0
 92
       -2
340
0
 93
        0
 40
0.045
309
GRIDFORMAT_END
309
TABLEFORMAT_END
  1
CELLSTYLE_BEGIN
 90
        2
 91
        1
300
_HEADER
309
CELLSTYLE_END
300
CELLSTYLE
  1
TABLEFORMAT_BEGIN
 90
        5
170
     1
 91
        0
 92
        0
 62
   257
 93
        1
300
CONTENTFORMAT
  1
CONTENTFORMAT_BEGIN
 90
        0
 91
        0
 92
        4
 93
        0
300

 40
0.0
140
1.0
 94
        2
 62
     0
340
11
144
4.5
309
CONTENTFORMAT_END
171
     1
301
MARGIN
  1
CELLMARGIN_BEGIN
 40
1.5
 40
1.5
 40
1.5
 40
1.5
 40
0.18
 40
0.18
309
CELLMARGIN_END
 94
        6
 95
        1
302
GRIDFORMAT
  1
GRIDFORMAT_BEGIN
 90
        0
 91
        1
 62
     0
 92
       -2
340
0
 93
        0
 40
0.045
309
GRIDFORMAT_END
 95
        2
302
GRIDFORMAT
  1
GRIDFORMAT_BEGIN
 90
        0
 91
        1
 62
     0
 92
       -2
340
0
 93
        0
 40
0.045
309
GRIDFORMAT_END
 95
        4
302
GRIDFORMAT
  1
GRIDFORMAT_BEGIN
 90
        0
 91
        1
 62
     0
 92
       -2
340
0
 93
        0
 40
0.045
309
GRIDFORMAT_END
 95
        8
302
GRIDFORMAT
  1
GRIDFORMAT_BEGIN
 90
        0
 91
        1
 62
     0
 92
       -2
340
0
 93
        0
 40
0.045
309
GRIDFORMAT_END
 95
       16
302
GRIDFORMAT
  1
GRIDFORMAT_BEGIN
 90
        0
 91
        1
 62
     0
 92
       -2
340
0
 93
        0
 40
0.045
309
GRIDFORMAT_END
 95
       32
302
GRIDFORMAT
  1
GRIDFORMAT_BEGIN
 90
        0
 91
        1
 62
     0
 92
       -2
340
0
 93
        0
 40
0.045
309
GRIDFORMAT_END
309
TABLEFORMAT_END
  1
CELLSTYLE_BEGIN
 90
        3
 91
        2
300
_DATA
309
CELLSTYLE_END
  0
XRECORD
  5
1788
102
{ACAD_REACTORS
330
1735
102
}
330
1735
100
AcDbXrecord
280
     1
102
ACAD_ROUNDTRIP_PRE2007_TABLESTYLE
 90
        4
 91
        0
  1

 92
        4
 93
        0
  2

 94
        4
 95
        0
  3

  0
XRECORD
  5
1797
102
{ACAD_REACTORS
330
1796
102
}
330
1796
100
AcDbXrecord
280
     1
102
RTVSPropertyOp0
 70
     1
102
RTVSPropertyOp1
 70
     1
102
RTVSPropertyOp2
 70
     1
102
RTVSPropertyOp3
 70
     1
102
RTVSPropertyOp4
 70
     1
102
RTVSPropertyOp5
 70
     1
102
RTVSPropertyOp6
 70
     1
102
RTVSPropertyOp7
 70
     1
102
RTVSPropertyOp8
 70
     1
102
RTVSPropertyOp9
 70
     1
102
RTVSPropertyOp10
 70
     1
102
RTVSPropertyOp11
 70
     1
102
RTVSPropertyOp12
 70
     1
102
RTVSPropertyOp13
 70
     1
102
RTVSPropertyOp14
 70
     1
102
RTVSPropertyOp15
 70
     1
102
RTVSPropertyOp16
 70
     1
102
RTVSPropertyOp17
 70
     1
102
RTVSPropertyOp18
 70
     1
102
RTVSPropertyOp19
 70
     1
102
RTVSPropertyOp20
 70
     1
102
RTVSPropertyOp21
 70
     1
102
RTVSPropertyOp22
 70
     1
102
RTVSPropertyOp23
 70
     1
102
RTVSPropertyOp24
 70
     1
102
RTVSPropertyOp25
 70
     1
102
RTVSPropertyOp26
 70
     1
102
RTVSPropertyOp27
 70
     1
  0
XRECORD
  5
179B
102
{ACAD_REACTORS
330
179A
102
}
330
179A
100
AcDbXrecord
280
     1
102
RTVSPropertyOp0
 70
     1
102
RTVSPropertyOp1
 70
     1
102
RTVSPropertyOp2
 70
     1
102
RTVSPropertyOp3
 70
     1
102
RTVSPropertyOp4
 70
     1
102
RTVSPropertyOp5
 70
     1
102
RTVSPropertyOp6
 70
     1
102
RTVSPropertyOp7
 70
     1
102
RTVSPropertyOp8
 70
     1
102
RTVSPropertyOp9
 70
     1
102
RTVSPropertyOp10
 70
     1
102
RTVSPropertyOp11
 70
     1
102
RTVSPropertyOp12
 70
     1
102
RTVSPropertyOp13
 70
     1
102
RTVSPropertyOp14
 70
     1
102
RTVSPropertyOp15
 70
     1
102
RTVSPropertyOp16
 70
     1
102
RTVSPropertyOp17
 70
     1
102
RTVSPropertyOp18
 70
     1
102
RTVSPropertyOp19
 70
     1
102
RTVSPropertyOp20
 70
     1
102
RTVSPropertyOp21
 70
     1
102
RTVSPropertyOp22
 70
     1
102
RTVSPropertyOp23
 70
     1
102
RTVSPropertyOp24
 70
     1
102
RTVSPropertyOp25
 70
     1
102
RTVSPropertyOp26
 70
     1
102
RTVSPropertyOp27
 70
     1
  0
XRECORD
  5
1799
102
{ACAD_REACTORS
330
1798
102
}
330
1798
100
AcDbXrecord
280
     1
102
RTVSPropertyOp0
 70
     1
102
RTVSPropertyOp1
 70
     1
102
RTVSPropertyOp2
 70
     1
102
RTVSPropertyOp3
 70
     1
102
RTVSPropertyOp4
 70
     1
102
RTVSPropertyOp5
 70
     1
102
RTVSPropertyOp6
 70
     1
102
RTVSPropertyOp7
 70
     1
102
RTVSPropertyOp8
 70
     1
102
RTVSPropertyOp9
 70
     1
102
RTVSPropertyOp10
 70
     1
102
RTVSPropertyOp11
 70
     1
102
RTVSPropertyOp12
 70
     1
102
RTVSPropertyOp13
 70
     1
102
RTVSPropertyOp14
 70
     1
102
RTVSPropertyOp15
 70
     1
102
RTVSPropertyOp16
 70
     1
102
RTVSPropertyOp17
 70
     1
102
RTVSPropertyOp18
 70
     1
102
RTVSPropertyOp19
 70
     1
102
RTVSPropertyOp20
 70
     1
102
RTVSPropertyOp21
 70
     1
102
RTVSPropertyOp22
 70
     1
102
RTVSPropertyOp23
 70
     1
102
RTVSPropertyOp24
 70
     1
102
RTVSPropertyOp25
 70
     1
102
RTVSPropertyOp26
 70
     1
102
RTVSPropertyOp27
 70
     1
  0
XRECORD
  5
1795
102
{ACAD_REACTORS
330
1794
102
}
330
1794
100
AcDbXrecord
280
     1
102
RTVSPropertyOp0
 70
     1
102
RTVSPropertyOp1
 70
     1
102
RTVSPropertyOp2
 70
     1
102
RTVSPropertyOp3
 70
     1
102
RTVSPropertyOp4
 70
     1
102
RTVSPropertyOp5
 70
     1
102
RTVSPropertyOp6
 70
     1
102
RTVSPropertyOp7
 70
     1
102
RTVSPropertyOp8
 70
     1
102
RTVSPropertyOp9
 70
     1
102
RTVSPropertyOp10
 70
     1
102
RTVSPropertyOp11
 70
     1
102
RTVSPropertyOp12
 70
     1
102
RTVSPropertyOp13
 70
     1
102
RTVSPropertyOp14
 70
     1
102
RTVSPropertyOp15
 70
     1
102
RTVSPropertyOp16
 70
     1
102
RTVSPropertyOp17
 70
     1
102
RTVSPropertyOp18
 70
     1
102
RTVSPropertyOp19
 70
     1
102
RTVSPropertyOp20
 70
     1
102
RTVSPropertyOp21
 70
     1
102
RTVSPropertyOp22
 70
     1
102
RTVSPropertyOp23
 70
     1
102
RTVSPropertyOp24
 70
     1
102
RTVSPropertyOp25
 70
     1
102
RTVSPropertyOp26
 70
     1
102
RTVSPropertyOp27
 70
     1
  0
XRECORD
  5
17A3
102
{ACAD_REACTORS
330
17A2
102
}
330
17A2
100
AcDbXrecord
280
     1
102
RTVSPropertyOp0
 70
     1
102
RTVSPropertyOp1
 70
     1
102
RTVSPropertyOp2
 70
     1
102
RTVSPropertyOp3
 70
     1
102
RTVSPropertyOp4
 70
     1
102
RTVSPropertyOp5
 70
     1
102
RTVSPropertyOp6
 70
     1
102
RTVSPropertyOp7
 70
     1
102
RTVSPropertyOp8
 70
     1
102
RTVSPropertyOp9
 70
     1
102
RTVSPropertyOp10
 70
     1
102
RTVSPropertyOp11
 70
     1
102
RTVSPropertyOp12
 70
     1
102
RTVSPropertyOp13
 70
     1
102
RTVSPropertyOp14
 70
     1
102
RTVSPropertyOp15
 70
     1
102
RTVSPropertyOp16
 70
     1
102
RTVSPropertyOp17
 70
     1
102
RTVSPropertyOp18
 70
     1
102
RTVSPropertyOp19
 70
     1
102
RTVSPropertyOp20
 70
     1
102
RTVSPropertyOp21
 70
     1
102
RTVSPropertyOp22
 70
     1
102
RTVSPropertyOp23
 70
     1
102
RTVSPropertyOp24
 70
     1
102
RTVSPropertyOp25
 70
     1
102
RTVSPropertyOp26
 70
     1
102
RTVSPropertyOp27
 70
     1
  0
XRECORD
  5
17AB
102
{ACAD_REACTORS
330
17AA
102
}
330
17AA
100
AcDbXrecord
280
     1
102
RTVSPropertyOp0
 70
     1
102
RTVSPropertyOp1
 70
     1
102
RTVSPropertyOp2
 70
     1
102
RTVSPropertyOp3
 70
     1
102
RTVSPropertyOp4
 70
     1
102
RTVSPropertyOp5
 70
     1
102
RTVSPropertyOp6
 70
     1
102
RTVSPropertyOp7
 70
     1
102
RTVSPropertyOp8
 70
     1
102
RTVSPropertyOp9
 70
     1
102
RTVSPropertyOp10
 70
     1
102
RTVSPropertyOp11
 70
     1
102
RTVSPropertyOp12
 70
     1
102
RTVSPropertyOp13
 70
     1
102
RTVSPropertyOp14
 70
     1
102
RTVSPropertyOp15
 70
     1
102
RTVSPropertyOp16
 70
     1
102
RTVSPropertyOp17
 70
     1
102
RTVSPropertyOp18
 70
     1
102
RTVSPropertyOp19
 70
     1
102
RTVSPropertyOp20
 70
     1
102
RTVSPropertyOp21
 70
     1
102
RTVSPropertyOp22
 70
     1
102
RTVSPropertyOp23
 70
     1
102
RTVSPropertyOp24
 70
     1
102
RTVSPropertyOp25
 70
     1
102
RTVSPropertyOp26
 70
     1
102
RTVSPropertyOp27
 70
     1
  0
XRECORD
  5
179D
102
{ACAD_REACTORS
330
179C
102
}
330
179C
100
AcDbXrecord
280
     1
102
RTVSPropertyOp0
 70
     1
102
RTVSPropertyOp1
 70
     1
102
RTVSPropertyOp2
 70
     1
102
RTVSPropertyOp3
 70
     1
102
RTVSPropertyOp4
 70
     1
102
RTVSPropertyOp5
 70
     1
102
RTVSPropertyOp6
 70
     1
102
RTVSPropertyOp7
 70
     1
102
RTVSPropertyOp8
 70
     1
102
RTVSPropertyOp9
 70
     1
102
RTVSPropertyOp10
 70
     1
102
RTVSPropertyOp11
 70
     1
102
RTVSPropertyOp12
 70
     1
102
RTVSPropertyOp13
 70
     1
102
RTVSPropertyOp14
 70
     1
102
RTVSPropertyOp15
 70
     1
102
RTVSPropertyOp16
 70
     1
102
RTVSPropertyOp17
 70
     1
102
RTVSPropertyOp18
 70
     1
102
RTVSPropertyOp19
 70
     1
102
RTVSPropertyOp20
 70
     1
102
RTVSPropertyOp21
 70
     1
102
RTVSPropertyOp22
 70
     1
102
RTVSPropertyOp23
 70
     1
102
RTVSPropertyOp24
 70
     1
102
RTVSPropertyOp25
 70
     1
102
RTVSPropertyOp26
 70
     1
102
RTVSPropertyOp27
 70
     1
  0
XRECORD
  5
17A1
102
{ACAD_REACTORS
330
17A0
102
}
330
17A0
100
AcDbXrecord
280
     1
102
RTVSPropertyOp0
 70
     1
102
RTVSPropertyOp1
 70
     1
102
RTVSPropertyOp2
 70
     1
102
RTVSPropertyOp3
 70
     1
102
RTVSPropertyOp4
 70
     1
102
RTVSPropertyOp5
 70
     1
102
RTVSPropertyOp6
 70
     1
102
RTVSPropertyOp7
 70
     1
102
RTVSPropertyOp8
 70
     1
102
RTVSPropertyOp9
 70
     1
102
RTVSPropertyOp10
 70
     1
102
RTVSPropertyOp11
 70
     1
102
RTVSPropertyOp12
 70
     1
102
RTVSPropertyOp13
 70
     1
102
RTVSPropertyOp14
 70
     1
102
RTVSPropertyOp15
 70
     1
102
RTVSPropertyOp16
 70
     1
102
RTVSPropertyOp17
 70
     1
102
RTVSPropertyOp18
 70
     1
102
RTVSPropertyOp19
 70
     1
102
RTVSPropertyOp20
 70
     1
102
RTVSPropertyOp21
 70
     1
102
RTVSPropertyOp22
 70
     1
102
RTVSPropertyOp23
 70
     1
102
RTVSPropertyOp24
 70
     1
102
RTVSPropertyOp25
 70
     1
102
RTVSPropertyOp26
 70
     1
102
RTVSPropertyOp27
 70
     1
  0
XRECORD
  5
17B1
102
{ACAD_REACTORS
330
17B0
102
}
330
17B0
100
AcDbXrecord
280
     1
102
RTVSPropertyOp0
 70
     0
102
RTVSPropertyOp1
 70
     0
102
RTVSPropertyOp2
 70
     0
102
RTVSPropertyOp3
 70
     0
102
RTVSPropertyOp4
 70
     0
102
RTVSPropertyOp5
 70
     0
102
RTVSPropertyOp6
 70
     0
102
RTVSPropertyOp7
 70
     0
102
RTVSPropertyOp8
 70
     0
102
RTVSPropertyOp9
 70
     0
102
RTVSPropertyOp10
 70
     0
102
RTVSPropertyOp11
 70
     0
102
RTVSPropertyOp12
 70
     0
102
RTVSPropertyOp13
 70
     0
102
RTVSPropertyOp14
 70
     2
102
RTVSPropertyOp15
 70
     0
102
RTVSPropertyOp16
 70
     0
102
RTVSPropertyOp17
 70
     0
102
RTVSPropertyOp18
 70
     0
102
RTVSPropertyOp19
 70
     0
102
RTVSPropertyOp20
 70
     0
102
RTVSPropertyOp21
 70
     0
102
RTVSPropertyOp22
 70
     0
102
RTVSPropertyOp23
 70
     0
102
RTVSPropertyOp24
 70
     0
102
RTVSPropertyOp25
 70
     0
102
RTVSPropertyOp26
 70
     0
102
RTVSPropertyOp27
 70
     0
  0
XRECORD
  5
17A9
102
{ACAD_REACTORS
330
17A8
102
}
330
17A8
100
AcDbXrecord
280
     1
102
RTVSPropertyOp0
 70
     1
102
RTVSPropertyOp1
 70
     1
102
RTVSPropertyOp2
 70
     1
102
RTVSPropertyOp3
 70
     1
102
RTVSPropertyOp4
 70
     1
102
RTVSPropertyOp5
 70
     1
102
RTVSPropertyOp6
 70
     1
102
RTVSPropertyOp7
 70
     1
102
RTVSPropertyOp8
 70
     1
102
RTVSPropertyOp9
 70
     1
102
RTVSPropertyOp10
 70
     1
102
RTVSPropertyOp11
 70
     1
102
RTVSPropertyOp12
 70
     1
102
RTVSPropertyOp13
 70
     1
102
RTVSPropertyOp14
 70
     1
102
RTVSPropertyOp15
 70
     1
102
RTVSPropertyOp16
 70
     1
102
RTVSPropertyOp17
 70
     1
102
RTVSPropertyOp18
 70
     1
102
RTVSPropertyOp19
 70
     1
102
RTVSPropertyOp20
 70
     1
102
RTVSPropertyOp21
 70
     1
102
RTVSPropertyOp22
 70
     1
102
RTVSPropertyOp23
 70
     1
102
RTVSPropertyOp24
 70
     1
102
RTVSPropertyOp25
 70
     1
102
RTVSPropertyOp26
 70
     1
102
RTVSPropertyOp27
 70
     1
  0
XRECORD
  5
178D
102
{ACAD_REACTORS
330
178C
102
}
330
178C
100
AcDbXrecord
280
     1
102
RTVSPropertyOp0
 70
     1
102
RTVSPropertyOp1
 70
     1
102
RTVSPropertyOp2
 70
     1
102
RTVSPropertyOp3
 70
     1
102
RTVSPropertyOp4
 70
     1
102
RTVSPropertyOp5
 70
     1
102
RTVSPropertyOp6
 70
     1
102
RTVSPropertyOp7
 70
     1
102
RTVSPropertyOp8
 70
     1
102
RTVSPropertyOp9
 70
     1
102
RTVSPropertyOp10
 70
     1
102
RTVSPropertyOp11
 70
     1
102
RTVSPropertyOp12
 70
     1
102
RTVSPropertyOp13
 70
     1
102
RTVSPropertyOp14
 70
     1
102
RTVSPropertyOp15
 70
     1
102
RTVSPropertyOp16
 70
     1
102
RTVSPropertyOp17
 70
     1
102
RTVSPropertyOp18
 70
     1
102
RTVSPropertyOp19
 70
     1
102
RTVSPropertyOp20
 70
     1
102
RTVSPropertyOp21
 70
     1
102
RTVSPropertyOp22
 70
     1
102
RTVSPropertyOp23
 70
     1
102
RTVSPropertyOp24
 70
     1
102
RTVSPropertyOp25
 70
     1
102
RTVSPropertyOp26
 70
     1
102
RTVSPropertyOp27
 70
     1
  0
XRECORD
  5
178F
102
{ACAD_REACTORS
330
178E
102
}
330
178E
100
AcDbXrecord
280
     1
102
RTVSPropertyOp0
 70
     1
102
RTVSPropertyOp1
 70
     1
102
RTVSPropertyOp2
 70
     1
102
RTVSPropertyOp3
 70
     1
102
RTVSPropertyOp4
 70
     1
102
RTVSPropertyOp5
 70
     1
102
RTVSPropertyOp6
 70
     1
102
RTVSPropertyOp7
 70
     1
102
RTVSPropertyOp8
 70
     1
102
RTVSPropertyOp9
 70
     1
102
RTVSPropertyOp10
 70
     1
102
RTVSPropertyOp11
 70
     1
102
RTVSPropertyOp12
 70
     1
102
RTVSPropertyOp13
 70
     1
102
RTVSPropertyOp14
 70
     1
102
RTVSPropertyOp15
 70
     1
102
RTVSPropertyOp16
 70
     1
102
RTVSPropertyOp17
 70
     1
102
RTVSPropertyOp18
 70
     1
102
RTVSPropertyOp19
 70
     1
102
RTVSPropertyOp20
 70
     1
102
RTVSPropertyOp21
 70
     1
102
RTVSPropertyOp22
 70
     1
102
RTVSPropertyOp23
 70
     1
102
RTVSPropertyOp24
 70
     1
102
RTVSPropertyOp25
 70
     1
102
RTVSPropertyOp26
 70
     1
102
RTVSPropertyOp27
 70
     1
  0
XRECORD
  5
1791
102
{ACAD_REACTORS
330
1790
102
}
330
1790
100
AcDbXrecord
280
     1
102
RTVSPropertyOp0
 70
     1
102
RTVSPropertyOp1
 70
     1
102
RTVSPropertyOp2
 70
     1
102
RTVSPropertyOp3
 70
     1
102
RTVSPropertyOp4
 70
     1
102
RTVSPropertyOp5
 70
     1
102
RTVSPropertyOp6
 70
     1
102
RTVSPropertyOp7
 70
     1
102
RTVSPropertyOp8
 70
     1
102
RTVSPropertyOp9
 70
     1
102
RTVSPropertyOp10
 70
     1
102
RTVSPropertyOp11
 70
     1
102
RTVSPropertyOp12
 70
     1
102
RTVSPropertyOp13
 70
     1
102
RTVSPropertyOp14
 70
     1
102
RTVSPropertyOp15
 70
     1
102
RTVSPropertyOp16
 70
     1
102
RTVSPropertyOp17
 70
     1
102
RTVSPropertyOp18
 70
     1
102
RTVSPropertyOp19
 70
     1
102
RTVSPropertyOp20
 70
     1
102
RTVSPropertyOp21
 70
     1
102
RTVSPropertyOp22
 70
     1
102
RTVSPropertyOp23
 70
     1
102
RTVSPropertyOp24
 70
     1
102
RTVSPropertyOp25
 70
     1
102
RTVSPropertyOp26
 70
     1
102
RTVSPropertyOp27
 70
     1
  0
XRECORD
  5
1793
102
{ACAD_REACTORS
330
1792
102
}
330
1792
100
AcDbXrecord
280
     1
102
RTVSPropertyOp0
 70
     1
102
RTVSPropertyOp1
 70
     1
102
RTVSPropertyOp2
 70
     1
102
RTVSPropertyOp3
 70
     1
102
RTVSPropertyOp4
 70
     1
102
RTVSPropertyOp5
 70
     1
102
RTVSPropertyOp6
 70
     1
102
RTVSPropertyOp7
 70
     1
102
RTVSPropertyOp8
 70
     1
102
RTVSPropertyOp9
 70
     1
102
RTVSPropertyOp10
 70
     1
102
RTVSPropertyOp11
 70
     1
102
RTVSPropertyOp12
 70
     1
102
RTVSPropertyOp13
 70
     1
102
RTVSPropertyOp14
 70
     1
102
RTVSPropertyOp15
 70
     1
102
RTVSPropertyOp16
 70
     1
102
RTVSPropertyOp17
 70
     1
102
RTVSPropertyOp18
 70
     1
102
RTVSPropertyOp19
 70
     1
102
RTVSPropertyOp20
 70
     1
102
RTVSPropertyOp21
 70
     1
102
RTVSPropertyOp22
 70
     1
102
RTVSPropertyOp23
 70
     1
102
RTVSPropertyOp24
 70
     1
102
RTVSPropertyOp25
 70
     1
102
RTVSPropertyOp26
 70
     1
102
RTVSPropertyOp27
 70
     1
  0
XRECORD
  5
17AD
102
{ACAD_REACTORS
330
17AC
102
}
330
17AC
100
AcDbXrecord
280
     1
102
RTVSPropertyOp0
 70
     0
102
RTVSPropertyOp1
 70
     0
102
RTVSPropertyOp2
 70
     0
102
RTVSPropertyOp3
 70
     0
102
RTVSPropertyOp4
 70
     0
102
RTVSPropertyOp5
 70
     0
102
RTVSPropertyOp6
 70
     0
102
RTVSPropertyOp7
 70
     0
102
RTVSPropertyOp8
 70
     0
102
RTVSPropertyOp9
 70
     0
102
RTVSPropertyOp10
 70
     0
102
RTVSPropertyOp11
 70
     0
102
RTVSPropertyOp12
 70
     0
102
RTVSPropertyOp13
 70
     0
102
RTVSPropertyOp14
 70
     2
102
RTVSPropertyOp15
 70
     0
102
RTVSPropertyOp16
 70
     0
102
RTVSPropertyOp17
 70
     0
102
RTVSPropertyOp18
 70
     0
102
RTVSPropertyOp19
 70
     0
102
RTVSPropertyOp20
 70
     0
102
RTVSPropertyOp21
 70
     0
102
RTVSPropertyOp22
 70
     0
102
RTVSPropertyOp23
 70
     0
102
RTVSPropertyOp24
 70
     0
102
RTVSPropertyOp25
 70
     0
102
RTVSPropertyOp26
 70
     0
102
RTVSPropertyOp27
 70
     0
  0
XRECORD
  5
17A7
102
{ACAD_REACTORS
330
17A6
102
}
330
17A6
100
AcDbXrecord
280
     1
102
RTVSPropertyOp0
 70
     1
102
RTVSPropertyOp1
 70
     1
102
RTVSPropertyOp2
 70
     1
102
RTVSPropertyOp3
 70
     1
102
RTVSPropertyOp4
 70
     1
102
RTVSPropertyOp5
 70
     1
102
RTVSPropertyOp6
 70
     1
102
RTVSPropertyOp7
 70
     1
102
RTVSPropertyOp8
 70
     1
102
RTVSPropertyOp9
 70
     1
102
RTVSPropertyOp10
 70
     1
102
RTVSPropertyOp11
 70
     1
102
RTVSPropertyOp12
 70
     1
102
RTVSPropertyOp13
 70
     1
102
RTVSPropertyOp14
 70
     1
102
RTVSPropertyOp15
 70
     1
102
RTVSPropertyOp16
 70
     1
102
RTVSPropertyOp17
 70
     1
102
RTVSPropertyOp18
 70
     1
102
RTVSPropertyOp19
 70
     1
102
RTVSPropertyOp20
 70
     1
102
RTVSPropertyOp21
 70
     1
102
RTVSPropertyOp22
 70
     1
102
RTVSPropertyOp23
 70
     1
102
RTVSPropertyOp24
 70
     1
102
RTVSPropertyOp25
 70
     1
102
RTVSPropertyOp26
 70
     1
102
RTVSPropertyOp27
 70
     1
  0
XRECORD
  5
17AF
102
{ACAD_REACTORS
330
17AE
102
}
330
17AE
100
AcDbXrecord
280
     1
102
RTVSPropertyOp0
 70
     0
102
RTVSPropertyOp1
 70
     0
102
RTVSPropertyOp2
 70
     0
102
RTVSPropertyOp3
 70
     0
102
RTVSPropertyOp4
 70
     0
102
RTVSPropertyOp5
 70
     0
102
RTVSPropertyOp6
 70
     0
102
RTVSPropertyOp7
 70
     0
102
RTVSPropertyOp8
 70
     0
102
RTVSPropertyOp9
 70
     0
102
RTVSPropertyOp10
 70
     0
102
RTVSPropertyOp11
 70
     0
102
RTVSPropertyOp12
 70
     0
102
RTVSPropertyOp13
 70
     0
102
RTVSPropertyOp14
 70
     2
102
RTVSPropertyOp15
 70
     0
102
RTVSPropertyOp16
 70
     0
102
RTVSPropertyOp17
 70
     0
102
RTVSPropertyOp18
 70
     0
102
RTVSPropertyOp19
 70
     0
102
RTVSPropertyOp20
 70
     0
102
RTVSPropertyOp21
 70
     0
102
RTVSPropertyOp22
 70
     0
102
RTVSPropertyOp23
 70
     0
102
RTVSPropertyOp24
 70
     0
102
RTVSPropertyOp25
 70
     0
102
RTVSPropertyOp26
 70
     0
102
RTVSPropertyOp27
 70
     0
  0
XRECORD
  5
179F
102
{ACAD_REACTORS
330
179E
102
}
330
179E
100
AcDbXrecord
280
     1
102
RTVSPropertyOp0
 70
     1
102
RTVSPropertyOp1
 70
     1
102
RTVSPropertyOp2
 70
     1
102
RTVSPropertyOp3
 70
     1
102
RTVSPropertyOp4
 70
     1
102
RTVSPropertyOp5
 70
     1
102
RTVSPropertyOp6
 70
     1
102
RTVSPropertyOp7
 70
     1
102
RTVSPropertyOp8
 70
     1
102
RTVSPropertyOp9
 70
     1
102
RTVSPropertyOp10
 70
     1
102
RTVSPropertyOp11
 70
     1
102
RTVSPropertyOp12
 70
     1
102
RTVSPropertyOp13
 70
     1
102
RTVSPropertyOp14
 70
     1
102
RTVSPropertyOp15
 70
     1
102
RTVSPropertyOp16
 70
     1
102
RTVSPropertyOp17
 70
     1
102
RTVSPropertyOp18
 70
     1
102
RTVSPropertyOp19
 70
     1
102
RTVSPropertyOp20
 70
     1
102
RTVSPropertyOp21
 70
     1
102
RTVSPropertyOp22
 70
     1
102
RTVSPropertyOp23
 70
     1
102
RTVSPropertyOp24
 70
     1
102
RTVSPropertyOp25
 70
     1
102
RTVSPropertyOp26
 70
     1
102
RTVSPropertyOp27
 70
     1
  0
XRECORD
  5
17A5
102
{ACAD_REACTORS
330
17A4
102
}
330
17A4
100
AcDbXrecord
280
     1
102
RTVSPropertyOp0
 70
     1
102
RTVSPropertyOp1
 70
     1
102
RTVSPropertyOp2
 70
     1
102
RTVSPropertyOp3
 70
     1
102
RTVSPropertyOp4
 70
     1
102
RTVSPropertyOp5
 70
     1
102
RTVSPropertyOp6
 70
     1
102
RTVSPropertyOp7
 70
     1
102
RTVSPropertyOp8
 70
     1
102
RTVSPropertyOp9
 70
     1
102
RTVSPropertyOp10
 70
     1
102
RTVSPropertyOp11
 70
     1
102
RTVSPropertyOp12
 70
     1
102
RTVSPropertyOp13
 70
     1
102
RTVSPropertyOp14
 70
     1
102
RTVSPropertyOp15
 70
     1
102
RTVSPropertyOp16
 70
     1
102
RTVSPropertyOp17
 70
     1
102
RTVSPropertyOp18
 70
     1
102
RTVSPropertyOp19
 70
     1
102
RTVSPropertyOp20
 70
     1
102
RTVSPropertyOp21
 70
     1
102
RTVSPropertyOp22
 70
     1
102
RTVSPropertyOp23
 70
     1
102
RTVSPropertyOp24
 70
     1
102
RTVSPropertyOp25
 70
     1
102
RTVSPropertyOp26
 70
     1
102
RTVSPropertyOp27
 70
     1
  0
ENDSEC
  0
EOF
