  0
SECTION
  2
HEADER
  9
$ACADVER
  1
AC1015
  9
$ACADMAINTVER
 70
    20
  9
$DWGCODEPAGE
  3
ANSI_1252
  9
$INSBASE
 10
0.0
 20
0.0
 30
0.0
  9
$EXTMIN
 10
4000.080253587685
 20
1839.394595892165
 30
-0.0000000000000001
  9
$EXTMAX
 10
4001.759987853535
 20
1839.654595892166
 30
0.0000000000000001
  9
$LIMMIN
 10
0.0
 20
0.0
  9
$LIMMAX
 10
420.0
 20
297.0
  9
$ORTHOMODE
 70
     1
  9
$REGENMODE
 70
     1
  9
$FILLMODE
 70
     1
  9
$QTEXTMODE
 70
     0
  9
$MIRRTEXT
 70
     1
  9
$LTSCALE
 40
1.0
  9
$ATTMODE
 70
     1
  9
$TEXTSIZE
 40
2.5
  9
$TRACEWID
 40
1.0
  9
$TEXTSTYLE
  7
SANINDUSA
  9
$CLAYER
  8
0
  9
$CELTYPE
  6
ByLayer
  9
$CECOLOR
 62
   256
  9
$CELTSCALE
 40
1.0
  9
$DISPSILH
 70
     0
  9
$DIMSCALE
 40
1.0
  9
$DIMASZ
 40
2.0
  9
$DIMEXO
 40
1.0
  9
$DIMDLI
 40
1.0
  9
$DIMRND
 40
0.0
  9
$DIMDLE
 40
0.0
  9
$DIMEXE
 40
1.0
  9
$DIMTP
 40
0.0
  9
$DIMTM
 40
0.0
  9
$DIMTXT
 40
2.0
  9
$DIMCEN
 40
0.0
  9
$DIMTSZ
 40
0.0
  9
$DIMTOL
 70
     0
  9
$DIMLIM
 70
     0
  9
$DIMTIH
 70
     0
  9
$DIMTOH
 70
     0
  9
$DIMSE1
 70
     0
  9
$DIMSE2
 70
     0
  9
$DIMTAD
 70
     1
  9
$DIMZIN
 70
     8
  9
$DIMBLK
  1

  9
$DIMASO
 70
     1
  9
$DIMSHO
 70
     1
  9
$DIMPOST
  1

  9
$DIMAPOST
  1

  9
$DIMALT
 70
     0
  9
$DIMALTD
 70
     3
  9
$DIMALTF
 40
0.03937007874016
  9
$DIMLFAC
 40
1.0
  9
$DIMTOFL
 70
     1
  9
$DIMTVP
 40
0.0
  9
$DIMTIX
 70
     0
  9
$DIMSOXD
 70
     0
  9
$DIMSAH
 70
     0
  9
$DIMBLK1
  1

  9
$DIMBLK2
  1

  9
$DIMSTYLE
  2
SANINDUSA
  9
$DIMCLRD
 70
   256
  9
$DIMCLRE
 70
   256
  9
$DIMCLRT
 70
   256
  9
$DIMTFAC
 40
1.0
  9
$DIMGAP
 40
1.0
  9
$DIMJUST
 70
     0
  9
$DIMSD1
 70
     0
  9
$DIMSD2
 70
     0
  9
$DIMTOLJ
 70
     0
  9
$DIMTZIN
 70
     8
  9
$DIMALTZ
 70
     0
  9
$DIMALTTZ
 70
     0
  9
$DIMUPT
 70
     0
  9
$DIMDEC
 70
     1
  9
$DIMTDEC
 70
     1
  9
$DIMALTU
 70
     2
  9
$DIMALTTD
 70
     3
  9
$DIMTXSTY
  7
SANINDUSA
  9
$DIMAUNIT
 70
     0
  9
$DIMADEC
 70
     1
  9
$DIMALTRND
 40
0.0
  9
$DIMAZIN
 70
     0
  9
$DIMDSEP
 70
    44
  9
$DIMATFIT
 70
     3
  9
$DIMFRAC
 70
     0
  9
$DIMLDRBLK
  1

  9
$DIMLUNIT
 70
     2
  9
$DIMLWD
 70
    -1
  9
$DIMLWE
 70
    -1
  9
$DIMTMOVE
 70
     0
  9
$LUNITS
 70
     2
  9
$LUPREC
 70
     4
  9
$SKETCHINC
 40
1.0
  9
$FILLETRAD
 40
0.0
  9
$AUNITS
 70
     0
  9
$AUPREC
 70
     0
  9
$MENU
  1
.
  9
$ELEVATION
 40
0.0
  9
$PELEVATION
 40
0.0
  9
$THICKNESS
 40
0.0
  9
$LIMCHECK
 70
     0
  9
$CHAMFERA
 40
10.0
  9
$CHAMFERB
 40
10.0
  9
$CHAMFERC
 40
20.0
  9
$CHAMFERD
 40
0.0
  9
$SKPOLY
 70
     0
  9
$TDCREATE
 40
2455030.590481227
  9
$TDUCREATE
 40
2455030.548814561
  9
$TDUPDATE
 40
2455030.600592083
  9
$TDUUPDATE
 40
2455030.558925417
  9
$TDINDWG
 40
0.0101119444
  9
$TDUSRTIMER
 40
0.0101119444
  9
$USRTIMER
 70
     1
  9
$ANGBASE
 50
0.0
  9
$ANGDIR
 70
     0
  9
$PDMODE
 70
     0
  9
$PDSIZE
 40
0.0
  9
$PLINEWID
 40
0.0
  9
$SPLFRAME
 70
     0
  9
$SPLINETYPE
 70
     6
  9
$SPLINESEGS
 70
     8
  9
$HANDSEED
  5
14C0
  9
$SURFTAB1
 70
     6
  9
$SURFTAB2
 70
     6
  9
$SURFTYPE
 70
     6
  9
$SURFU
 70
     6
  9
$SURFV
 70
     6
  9
$UCSBASE
  2

  9
$UCSNAME
  2

  9
$UCSORG
 10
0.0
 20
0.0
 30
0.0
  9
$UCSXDIR
 10
1.0
 20
0.0
 30
0.0
  9
$UCSYDIR
 10
0.0
 20
1.0
 30
0.0
  9
$UCSORTHOREF
  2

  9
$UCSORTHOVIEW
 70
     0
  9
$UCSORGTOP
 10
0.0
 20
0.0
 30
0.0
  9
$UCSORGBOTTOM
 10
0.0
 20
0.0
 30
0.0
  9
$UCSORGLEFT
 10
0.0
 20
0.0
 30
0.0
  9
$UCSORGRIGHT
 10
0.0
 20
0.0
 30
0.0
  9
$UCSORGFRONT
 10
0.0
 20
0.0
 30
0.0
  9
$UCSORGBACK
 10
0.0
 20
0.0
 30
0.0
  9
$PUCSBASE
  2

  9
$PUCSNAME
  2

  9
$PUCSORG
 10
0.0
 20
0.0
 30
0.0
  9
$PUCSXDIR
 10
1.0
 20
0.0
 30
0.0
  9
$PUCSYDIR
 10
0.0
 20
1.0
 30
0.0
  9
$PUCSORTHOREF
  2

  9
$PUCSORTHOVIEW
 70
     0
  9
$PUCSORGTOP
 10
0.0
 20
0.0
 30
0.0
  9
$PUCSORGBOTTOM
 10
0.0
 20
0.0
 30
0.0
  9
$PUCSORGLEFT
 10
0.0
 20
0.0
 30
0.0
  9
$PUCSORGRIGHT
 10
0.0
 20
0.0
 30
0.0
  9
$PUCSORGFRONT
 10
0.0
 20
0.0
 30
0.0
  9
$PUCSORGBACK
 10
0.0
 20
0.0
 30
0.0
  9
$USERI1
 70
     0
  9
$USERI2
 70
     0
  9
$USERI3
 70
     0
  9
$USERI4
 70
     0
  9
$USERI5
 70
     0
  9
$USERR1
 40
0.0
  9
$USERR2
 40
0.0
  9
$USERR3
 40
0.0
  9
$USERR4
 40
0.0
  9
$USERR5
 40
0.0
  9
$WORLDVIEW
 70
     1
  9
$SHADEDGE
 70
     3
  9
$SHADEDIF
 70
    70
  9
$TILEMODE
 70
     1
  9
$MAXACTVP
 70
    64
  9
$PINSBASE
 10
0.0
 20
0.0
 30
0.0
  9
$PLIMCHECK
 70
     0
  9
$PEXTMIN
 10
1.000000000000000E+20
 20
1.000000000000000E+20
 30
1.000000000000000E+20
  9
$PEXTMAX
 10
-1.000000000000000E+20
 20
-1.000000000000000E+20
 30
-1.000000000000000E+20
  9
$PLIMMIN
 10
0.0
 20
0.0
  9
$PLIMMAX
 10
420.0
 20
297.0
  9
$UNITMODE
 70
     0
  9
$VISRETAIN
 70
     1
  9
$PLINEGEN
 70
     0
  9
$PSLTSCALE
 70
     1
  9
$TREEDEPTH
 70
  3020
  9
$CMLSTYLE
  2
Standard
  9
$CMLJUST
 70
     0
  9
$CMLSCALE
 40
20.0
  9
$PROXYGRAPHICS
 70
     1
  9
$MEASUREMENT
 70
     1
  9
$CELWEIGHT
370
    -1
  9
$ENDCAPS
280
     0
  9
$JOINSTYLE
280
     0
  9
$LWDISPLAY
290
     0
  9
$INSUNITS
 70
     4
  9
$HYPERLINKBASE
  1

  9
$STYLESHEET
  1
sanindusa.ctb
  9
$XEDIT
290
     1
  9
$CEPSNTYPE
380
     0
  9
$PSTYLEMODE
290
     1
  9
$FINGERPRINTGUID
  2
{A0BCE0CC-ADB6-46E7-9585-2DE3D9C3B5ED}
  9
$VERSIONGUID
  2
{68E9D58E-0F7F-401E-BB33-ADE8D57451F4}
  9
$EXTNAMES
290
     1
  9
$PSVPSCALE
 40
0.0
  9
$OLESTARTUP
290
     0
  0
ENDSEC
  0
SECTION
  2
CLASSES
  0
CLASS
  1
ACDBDICTIONARYWDFLT
  2
AcDbDictionaryWithDefault
  3
ObjectDBX Classes
 90
        0
280
     0
281
     0
  0
CLASS
  1
ACDBPLACEHOLDER
  2
AcDbPlaceHolder
  3
ObjectDBX Classes
 90
        0
280
     0
281
     0
  0
CLASS
  1
LAYOUT
  2
AcDbLayout
  3
ObjectDBX Classes
 90
        0
280
     0
281
     0
  0
CLASS
  1
DICTIONARYVAR
  2
AcDbDictionaryVar
  3
ObjectDBX Classes
 90
        0
280
     0
281
     0
  0
CLASS
  1
DIMASSOC
  2
AcDbDimAssoc
  3
"AcDbDimAssoc|Product Desc:     AcDim ARX App For Dimension|Company:          Autodesk, Inc.|WEB Address:      www.autodesk.com"
 90
    32768
280
     0
281
     0
  0
CLASS
  1
TABLESTYLE
  2
AcDbTableStyle
  3
ObjectDBX Classes
 90
     4095
280
     0
281
     0
  0
CLASS
  1
MATERIAL
  2
AcDbMaterial
  3
ObjectDBX Classes
 90
     1153
280
     0
281
     0
  0
CLASS
  1
VISUALSTYLE
  2
AcDbVisualStyle
  3
ObjectDBX Classes
 90
     4095
280
     0
281
     0
  0
CLASS
  1
SCALE
  2
AcDbScale
  3
ObjectDBX Classes
 90
     1153
280
     0
281
     0
  0
CLASS
  1
MLEADERSTYLE
  2
AcDbMLeaderStyle
  3
ACDB_MLEADERSTYLE_CLASS
 90
     4095
280
     0
281
     0
  0
CLASS
  1
AEC_REFEDIT_STATUS_TRACKER
  2
AecDbRefEditStatusTracker
  3
AecArchBase60|Product Desc: Autodesk Architectural Desktop 2007 |Company: Autodesk,Inc. |WEB Address: www.autodesk.com
 90
      129
280
     0
281
     0
  0
CLASS
  1
NPOCOLLECTION
  2
AcDbImpNonPersistentObjectsCollection
  3
ObjectDBX Classes
 90
     1153
280
     0
281
     0
  0
CLASS
  1
CELLSTYLEMAP
  2
AcDbCellStyleMap
  3
ObjectDBX Classes
 90
     1152
280
     0
281
     0
  0
CLASS
  1
SOLID_BACKGROUND
  2
AcDbSolidBackground
  3
SCENEOE
 90
     4095
280
     0
281
     0
  0
ENDSEC
  0
SECTION
  2
TABLES
  0
TABLE
  2
VPORT
  5
8
330
0
100
AcDbSymbolTable
 70
     1
  0
VPORT
  5
1068
330
8
100
AcDbSymbolTableRecord
100
AcDbViewportTableRecord
  2
*Active
 70
     0
 10
0.0
 20
0.0
 11
1.0
 21
1.0
 12
4000.92012072061
 22
1839.524595892166
 13
0.0
 23
0.0
 14
10.0
 24
10.0
 15
10.0
 25
10.0
 16
0.0
 26
0.0
 36
1.0
 17
0.0
 27
0.0
 37
0.0
 40
1.027910080237056
 41
1.64033264033264
 42
50.0
 43
0.0
 44
0.0
 50
0.0
 51
0.0
 71
     0
 72
   100
 73
     1
 74
     2
 75
     0
 76
     0
 77
     0
 78
     0
281
     0
 65
     1
110
0.0
120
0.0
130
0.0
111
1.0
121
0.0
131
0.0
112
0.0
122
1.0
132
0.0
 79
     0
146
0.0
  0
ENDTAB
  0
TABLE
  2
LTYPE
  5
5
330
0
100
AcDbSymbolTable
 70
     6
  0
LTYPE
  5
14
330
5
100
AcDbSymbolTableRecord
100
AcDbLinetypeTableRecord
  2
ByBlock
 70
     0
  3

 72
    65
 73
     0
 40
0.0
  0
LTYPE
  5
15
330
5
100
AcDbSymbolTableRecord
100
AcDbLinetypeTableRecord
  2
ByLayer
 70
     0
  3

 72
    65
 73
     0
 40
0.0
  0
LTYPE
  5
16
330
5
100
AcDbSymbolTableRecord
100
AcDbLinetypeTableRecord
  2
Continuous
 70
     0
  3
Solid line
 72
    65
 73
     0
 40
0.0
  0
LTYPE
  5
2D
330
5
100
AcDbSymbolTableRecord
100
AcDbLinetypeTableRecord
  2
DASHDOT
 70
     0
  3
Dash dot __ . __ . __ . __ . __ . __ . __ . __
 72
    65
 73
     4
 40
25.4
 49
12.7
 74
     0
 49
-6.349999999999999
 74
     0
 49
0.0
 74
     0
 49
-6.349999999999999
 74
     0
  0
LTYPE
  5
2E
330
5
100
AcDbSymbolTableRecord
100
AcDbLinetypeTableRecord
  2
HIDDEN
 70
     0
  3
Hidden __ __ __ __ __ __ __ __ __ __ __ __ __ _
 72
    65
 73
     2
 40
9.524999999999998
 49
6.349999999999999
 74
     0
 49
-3.174999999999999
 74
     0
  0
LTYPE
  5
C75
330
5
100
AcDbSymbolTableRecord
100
AcDbLinetypeTableRecord
  2
AM_ISO02W050
 70
     0
  3
__ __ __ __ __ __ __ __ __ __ __ __ __ __ __
 72
    65
 73
     2
 40
7.5
 49
6.0
 74
     0
 49
-1.5
 74
     0
  0
LTYPE
  5
C76
330
5
100
AcDbSymbolTableRecord
100
AcDbLinetypeTableRecord
  2
AM_ISO08W050
 70
     0
  3
____ . ____ . ____ . ____ . ____ . ____ . ____
 72
    65
 73
     4
 40
18.0
 49
12.0
 74
     0
 49
-1.5
 74
     0
 49
3.0
 74
     0
 49
-1.5
 74
     0
  0
ENDTAB
  0
TABLE
  2
LAYER
  5
2
102
{ACAD_XDICTIONARY
360
1051
102
}
330
0
100
AcDbSymbolTable
 70
    17
  0
LAYER
  5
10
102
{ACAD_XDICTIONARY
360
13A0
102
}
330
2
100
AcDbSymbolTableRecord
100
AcDbLayerTableRecord
  2
0
 70
     0
 62
     7
  6
Continuous
370
    -3
390
F
  0
LAYER
  5
2F
102
{ACAD_XDICTIONARY
360
13A2
102
}
330
2
100
AcDbSymbolTableRecord
100
AcDbLayerTableRecord
  2
1
 70
     0
 62
     1
  6
Continuous
370
    -3
390
F
  0
LAYER
  5
30
102
{ACAD_XDICTIONARY
360
13A4
102
}
330
2
100
AcDbSymbolTableRecord
100
AcDbLayerTableRecord
  2
2
 70
     0
 62
     2
  6
Continuous
370
    -3
390
F
  0
LAYER
  5
31
102
{ACAD_XDICTIONARY
360
13A6
102
}
330
2
100
AcDbSymbolTableRecord
100
AcDbLayerTableRecord
  2
3
 70
     0
 62
     3
  6
Continuous
370
    -3
390
F
  0
LAYER
  5
32
102
{ACAD_XDICTIONARY
360
13A8
102
}
330
2
100
AcDbSymbolTableRecord
100
AcDbLayerTableRecord
  2
4
 70
     0
 62
     4
  6
Continuous
370
    -3
390
F
  0
LAYER
  5
33
102
{ACAD_XDICTIONARY
360
13AA
102
}
330
2
100
AcDbSymbolTableRecord
100
AcDbLayerTableRecord
  2
5
 70
     0
 62
     5
  6
Continuous
370
    -3
390
F
  0
LAYER
  5
34
102
{ACAD_XDICTIONARY
360
13AC
102
}
330
2
100
AcDbSymbolTableRecord
100
AcDbLayerTableRecord
  2
6
 70
     0
 62
     6
  6
Continuous
370
    -3
390
F
  0
LAYER
  5
35
102
{ACAD_XDICTIONARY
360
13AE
102
}
330
2
100
AcDbSymbolTableRecord
100
AcDbLayerTableRecord
  2
7
 70
     0
 62
     7
  6
Continuous
370
    -3
390
F
  0
LAYER
  5
36
102
{ACAD_XDICTIONARY
360
13B0
102
}
330
2
100
AcDbSymbolTableRecord
100
AcDbLayerTableRecord
  2
cen
 70
     0
 62
     7
  6
DASHDOT
370
    -3
390
F
  0
LAYER
  5
37
102
{ACAD_XDICTIONARY
360
13B2
102
}
330
2
100
AcDbSymbolTableRecord
100
AcDbLayerTableRecord
  2
hid
 70
     0
 62
     7
  6
HIDDEN
370
    -3
390
F
  0
LAYER
  5
5D6
102
{ACAD_XDICTIONARY
360
13B4
102
}
330
2
100
AcDbSymbolTableRecord
100
AcDbLayerTableRecord
  2
hatch
 70
     0
 62
     9
  6
Continuous
370
    -3
390
F
  0
LAYER
  5
8AF
102
{ACAD_XDICTIONARY
360
13B6
102
}
330
2
100
AcDbSymbolTableRecord
100
AcDbLayerTableRecord
  2
9
 70
     0
 62
     9
  6
Continuous
370
    -3
390
F
  0
LAYER
  5
8F8
102
{ACAD_XDICTIONARY
360
13B8
102
}
330
2
100
AcDbSymbolTableRecord
100
AcDbLayerTableRecord
  2
leg fin
 70
     0
 62
     9
  6
Continuous
370
    -3
390
F
  0
LAYER
  5
91D
102
{ACAD_XDICTIONARY
360
13BA
102
}
330
2
100
AcDbSymbolTableRecord
100
AcDbLayerTableRecord
  2
cotas
 70
     0
 62
     1
  6
Continuous
370
    -3
390
F
  0
LAYER
  5
92F
330
2
100
AcDbSymbolTableRecord
100
AcDbLayerTableRecord
  2
Defpoints
 70
     0
 62
     7
  6
Continuous
290
     0
370
    -3
390
F
  0
LAYER
  5
C7B
102
{ACAD_XDICTIONARY
360
13BC
102
}
330
2
100
AcDbSymbolTableRecord
100
AcDbLayerTableRecord
  2
SANINDUSA
 70
     0
 62
     3
  6
Continuous
370
    -3
390
F
  0
LAYER
  5
1060
102
{ACAD_XDICTIONARY
360
13BE
102
}
330
2
100
AcDbSymbolTableRecord
100
AcDbLayerTableRecord
  2
hid1
 70
     0
 62
     9
  6
HIDDEN
370
    -3
390
F
1001
AcAecLayerStandard
1000

1000

  0
ENDTAB
  0
TABLE
  2
STYLE
  5
3
330
0
100
AcDbSymbolTable
 70
     4
  0
STYLE
  5
11
330
3
100
AcDbSymbolTableRecord
100
AcDbTextStyleTableRecord
  2
Standard
 70
     0
 40
0.0
 41
1.0
 50
0.0
 71
     0
 42
2.5
  3
Avgardn.ttf
  4

1001
ACAD
1000
AvantGarde Bk BT
1071
       34
  0
STYLE
  5
2C
330
3
100
AcDbSymbolTableRecord
100
AcDbTextStyleTableRecord
  2

 70
     1
 40
0.0
 41
1.0
 50
0.0
 71
     0
 42
2.5
  3
ltypeshp.shx
  4

  0
STYLE
  5
91F
330
3
100
AcDbSymbolTableRecord
100
AcDbTextStyleTableRecord
  2
SANINDUSA
 70
     0
 40
0.0
 41
1.0
 50
0.0
 71
     0
 42
2.5
  3
verdana.TTF
  4

1001
ACAD
1000
Verdana
1071
       34
  0
STYLE
  5
C7C
330
3
100
AcDbSymbolTableRecord
100
AcDbTextStyleTableRecord
  2
futura
 70
     0
 40
0.0
 41
1.0
 50
0.0
 71
     0
 42
2.5
  3
ZURCHN.TTF
  4

1001
ACAD
1000
Zurich BT
1071
       34
  0
ENDTAB
  0
TABLE
  2
VIEW
  5
6
330
0
100
AcDbSymbolTable
 70
     0
  0
ENDTAB
  0
TABLE
  2
UCS
  5
7
330
0
100
AcDbSymbolTable
 70
     0
  0
ENDTAB
  0
TABLE
  2
APPID
  5
9
330
0
100
AcDbSymbolTable
 70
    13
  0
APPID
  5
12
330
9
100
AcDbSymbolTableRecord
100
AcDbRegAppTableRecord
  2
ACAD
 70
     0
  0
APPID
  5
3A
330
9
100
AcDbSymbolTableRecord
100
AcDbRegAppTableRecord
  2
DCO15
 70
     0
  0
APPID
  5
EEE
330
9
100
AcDbSymbolTableRecord
100
AcDbRegAppTableRecord
  2
ACAD_DSTYLE_DIMTEXT_FILL
 70
     0
  0
APPID
  5
EEF
330
9
100
AcDbSymbolTableRecord
100
AcDbRegAppTableRecord
  2
ACAD_DSTYLE_DIMEXT_LENGTH
 70
     0
  0
APPID
  5
EF0
330
9
100
AcDbSymbolTableRecord
100
AcDbRegAppTableRecord
  2
ACAD_DSTYLE_DIMEXT_ENABLED
 70
     0
  0
APPID
  5
EF1
330
9
100
AcDbSymbolTableRecord
100
AcDbRegAppTableRecord
  2
ACAD_DSTYLE_DIM_LINETYPE
 70
     0
  0
APPID
  5
EF2
330
9
100
AcDbSymbolTableRecord
100
AcDbRegAppTableRecord
  2
ACAD_DSTYLE_DIM_EXT1_LINETYPE
 70
     0
  0
APPID
  5
EF3
330
9
100
AcDbSymbolTableRecord
100
AcDbRegAppTableRecord
  2
ACAD_DSTYLE_DIM_EXT2_LINETYPE
 70
     0
  0
APPID
  5
FAF
330
9
100
AcDbSymbolTableRecord
100
AcDbRegAppTableRecord
  2
ACAD_DSTYLE_DIMJOGGED_JOGANGLE_SYMBOL
 70
     0
  0
APPID
  5
1013
330
9
100
AcDbSymbolTableRecord
100
AcDbRegAppTableRecord
  2
ACAD_DSTYLE_DIMARC_LENGTH_SYMBOL
 70
     0
  0
APPID
  5
1061
330
9
100
AcDbSymbolTableRecord
100
AcDbRegAppTableRecord
  2
AcAecLayerStandard
 70
     0
  0
APPID
  5
1397
330
9
100
AcDbSymbolTableRecord
100
AcDbRegAppTableRecord
  2
ACAD_EXEMPT_FROM_CAD_STANDARDS
 70
     0
  0
APPID
  5
14BF
330
9
100
AcDbSymbolTableRecord
100
AcDbRegAppTableRecord
  2
ACAD_MLEADERVER
 70
     0
  0
ENDTAB
  0
TABLE
  2
DIMSTYLE
  5
A
330
0
100
AcDbSymbolTable
 70
     5
100
AcDbDimStyleTable
 71
     1
340
921
  0
DIMSTYLE
105
45
330
A
100
AcDbSymbolTableRecord
100
AcDbDimStyleTableRecord
  2
STANDARD
 70
     0
289
     0
340
11
  0
DIMSTYLE
105
921
330
A
100
AcDbSymbolTableRecord
100
AcDbDimStyleTableRecord
  2
SANINDUSA
 70
     0
 41
2.0
 42
1.0
 43
1.0
 44
1.0
 73
     0
 74
     0
 77
     1
 78
     8
140
2.0
141
0.0
143
0.03937007874016
147
1.0
171
     3
172
     1
176
   256
177
   256
178
   256
179
     1
271
     1
272
     1
274
     3
278
    44
283
     0
284
     8
340
91F
371
    -1
372
    -1
1001
ACAD_DSTYLE_DIMJOGGED_JOGANGLE_SYMBOL
1070
   384
1040
1.570796326794896
  0
DIMSTYLE
105
C7D
330
A
100
AcDbSymbolTableRecord
100
AcDbDimStyleTableRecord
  2
AM_ISO
 70
     0
  4
"
 41
2.5
 42
1.0
 43
10.0
 44
1.0
 47
0.1
 48
0.1
 73
     0
 74
     0
 77
     1
 78
     8
 79
     2
140
3.5
141
0.0
143
0.0393701
146
0.71
147
1.5
172
     1
176
   256
177
   256
178
     2
271
     2
272
     3
274
     4
283
     0
284
     8
340
11
371
    -1
372
    -1
  0
DIMSTYLE
105
10B3
330
A
100
AcDbSymbolTableRecord
100
AcDbDimStyleTableRecord
  2
ISO-25
 70
     0
 41
2.5
 42
0.625
 43
3.75
 44
1.25
 73
     0
 74
     0
 77
     1
 78
     8
140
2.5
141
2.5
143
0.03937007874016
147
0.625
171
     3
172
     1
271
     2
272
     2
274
     3
278
    44
283
     0
284
     8
340
11
  0
ENDTAB
  0
TABLE
  2
BLOCK_RECORD
  5
1
330
0
100
AcDbSymbolTable
 70
     9
  0
BLOCK_RECORD
  5
1F
330
1
100
AcDbSymbolTableRecord
100
AcDbBlockTableRecord
  2
*Model_Space
340
22
  0
BLOCK_RECORD
  5
1B
330
1
100
AcDbSymbolTableRecord
100
AcDbBlockTableRecord
  2
*Paper_Space
340
1E
  0
BLOCK_RECORD
  5
23
330
1
100
AcDbSymbolTableRecord
100
AcDbBlockTableRecord
  2
*Paper_Space0
340
26
  0
BLOCK_RECORD
  5
919
330
1
100
AcDbSymbolTableRecord
100
AcDbBlockTableRecord
  2
_DotSmall
340
0
  0
BLOCK_RECORD
  5
922
330
1
100
AcDbSymbolTableRecord
100
AcDbBlockTableRecord
  2
base para cotas
340
0
310
2800000020000000200000000100080000000000000400000000000000000000000000000000000000000000000080000080000000808000800000008000800080800000C0C0C000C0DCC000F0CAA6000020400000206000002080000020A0000020C0000020E00000400000004020000040400000406000004080000040A0
310
000040C0000040E00000600000006020000060400000606000006080000060A0000060C0000060E00000800000008020000080400000806000008080000080A0000080C0000080E00000A0000000A0200000A0400000A0600000A0800000A0A00000A0C00000A0E00000C0000000C0200000C0400000C0600000C0800000C0
310
A00000C0C00000C0E00000E0000000E0200000E0400000E0600000E0800000E0A00000E0C00000E0E00040000000400020004000400040006000400080004000A0004000C0004000E00040200000402020004020400040206000402080004020A0004020C0004020E000404000004040200040404000404060004040800040
310
40A0004040C0004040E00040600000406020004060400040606000406080004060A0004060C0004060E00040800000408020004080400040806000408080004080A0004080C0004080E00040A0000040A0200040A0400040A0600040A0800040A0A00040A0C00040A0E00040C0000040C0200040C0400040C0600040C08000
310
40C0A00040C0C00040C0E00040E0000040E0200040E0400040E0600040E0800040E0A00040E0C00040E0E00080000000800020008000400080006000800080008000A0008000C0008000E00080200000802020008020400080206000802080008020A0008020C0008020E00080400000804020008040400080406000804080
310
008040A0008040C0008040E00080600000806020008060400080606000806080008060A0008060C0008060E00080800000808020008080400080806000808080008080A0008080C0008080E00080A0000080A0200080A0400080A0600080A0800080A0A00080A0C00080A0E00080C0000080C0200080C0400080C0600080C0
310
800080C0A00080C0C00080C0E00080E0000080E0200080E0400080E0600080E0800080E0A00080E0C00080E0E000C0000000C0002000C0004000C0006000C0008000C000A000C000C000C000E000C0200000C0202000C0204000C0206000C0208000C020A000C020C000C020E000C0400000C0402000C0404000C0406000C0
310
408000C040A000C040C000C040E000C0600000C0602000C0604000C0606000C0608000C060A000C060C000C060E000C0800000C0802000C0804000C0806000C0808000C080A000C080C000C080E000C0A00000C0A02000C0A04000C0A06000C0A08000C0A0A000C0A0C000C0A0E000C0C00000C0C02000C0C04000C0C06000
310
C0C08000C0C0A000F0FBFF00A4A0A000808080000000FF0000FF000000FFFF00FF000000FF00FF00FFFF0000FFFFFF00A4A4A4A4A4A4A4A4A4A4A4A4A4A4A4A4A4A4A4A4A4A4A4A4A4A4A4A4A4A4A4A4A4A4A4A4A4A4A4A4A4A4A4A4A4A4A4A4A4A4A4A4A4A4A4A4A4A4A4A4A4A4A4A4A4A4A4A4A4A4A4A4A4A4A4A4A4A4A4
310
A4A4A4A4A4A4A4A4A4A4A4A4A4A4A4A4A4A4A4A4A4A4A4A4A4A4A4A4A4A4A4A4A4A4A4A4A4A4A4A4A4A4A4A4A4A4A4A4A4A4A4A4A4A4A4A4A4A4A4A4A4A4A4A4A4A4A4A4A4A4A4A4A4A4A4A4A4A4A4A4A4A4A4A4A4A4A4A4A4A4A4A4A4A4A4A4A4A4A4A4A4A4A4A4A4A4A4A4A4A4A4A4A4A4A4A4A4A4A4A4A4A4A4A4A4A4A4
310
A4A4A4A4A4A4A4A4A4A4A4A4A4A4A4A4A4A4A4A4A4A4A4A4A4A4A4A4A4A4A4A4A4A4A4A4A4A4A4A4A4A4A4A4A4A4A4A4A4A4A4A4A4A4A4A4A4A4A4A4A4A4A4A4A4A4A4A4A4A4A4A4A4A4A4A4A4A4A4A4A4A4A4A4A4A4A4A4A4A4A4A4A4A4A4A4A4A4A4A4A4A4A4A4A4A4A4A4A4A4A4A4A4A4A4A4A4A4A4A4A4A4A4A4A4A4A4
310
A4A4A4A4A4A4A4A4A4A4A4A4A4A4A4A4A4A4A4A4A4A4A4A4A4A4A4A4A4A4A4A4A4A4A4A4A4A4A4A4A4A4A4A4A4A4A4A4A4A4A4A4A4A4A4A4A4A4A4A4A4A4A4A4A4A4A4A4A4A4A4A4A4A4A4A4A4A4A4A4A4A4A4A4A4A4A4A4A4A4A4A4A4A4A4A4A4A4A4A4A4A4A4A4A4A4A4A4A4A4A4A4A4A4A4A4F9F9F9F9F9F9F9F9F9F9F9
310
F9F9F9F9F9F9F9F9F9F9F9F9F9F9F9F9F9F9F9A4A4F9F9F9F9F9F9F9F9F9F9F9F9F9F9F9F9F9F9F9F9F9F9F9F9F9F9F9F9F9F9A4A4F9F9F9F9F9F9F9F9F9F9F9F9F9F9F9F9F9F9F9F9F9F9F9F9F9F9F9F9F9F9A4A4F9A4A4A4A4A4A4A4A4A4A4A4A4A4A4A4A4A4A4A4A4A4A4A4A4A4A4A4A4F9A4A4A4A4A4A4A4A4A4A4A4A4
310
A4A4A4A4A4A4A4A4A4A4A4A4A4A4A4A4A4A4A4A4A4A4A4A4A4A4A4A4A4A4A4A4A4A4A4A4A4A4A4A4A4A4A4A4A4A4A4A4A4A4A4A4A4A4A4A4A4A4A4A4A4A4A4A4A4A4A4A4A4A4A4A4A4A4A4A4A4A4A4A4A4A4A4A4A4A4A4A4A4A4A4A4A4A4A4A4A4A4A4A4A4A4A4A4A4A4A4A4A4A4A4A4A4A4A4A4A4A4A4A4A4A4A4A4A4A4A4
310
A4A4A4A4A4A4A4A4A4A4A4A4A4A4A4A4A4A4A4A4A4A4A4A4A4A4A4A4A4A4A4A4A4A4A4A4A4A4A4A4A4A4A4A4A4A4A4A4A4A4A4A4A4A4A4A4A4A4A4A4A4A4A4A4A4A4A4A4A4A4A4A4A4A4A4A4A4A4A4A4A4A4A4A4A4A4A4A4A4A4A4A4A4A4A4A4A4A4A4A4A4A4A4A4A4A4A4A4A4A4A4A4A4A4A4A4A4A4A4A4A4A4A4A4A4A4A4
310
A4A4A4A4A4A4A4A4A4A4A4A4A4A4A4A4A4A4A4A4A4A4A4A4A4A4A4A4A4A4A4A4A4A4A4A4A4A4A4A4A4A4A4A4A4A4A4A4A4A4A4A4A4A4A4A4A4A4A4A4A4A4A4A4A4A4A4A4A4A4A4A4A4A4A4A4A4A4A4A4A4A4A4A4A4A4A4A4A4A4A4A4A4A4A4A4A4A4A4A4A4A4A4A4A4A4A4A4A4A4A4A4A4A4A4A4A4A4A4A4A4A4A4A4A4A4A4
310
A4A4A4A4A4A4A4A4A4A4A4A4A4A4A4A4A4A4A4A4A4A4A4A4A4A4A4A4A4A4A4A4A4A4A4A4A4A4A4A4A4A4A4A4A4A4A4A4A4A4A4A4A4A4A4A4
1001
ACAD
1000
DesignCenter Data
1002
{
1070
     1
1070
     4
1002
}
  0
BLOCK_RECORD
  5
AA8
330
1
100
AcDbSymbolTableRecord
100
AcDbBlockTableRecord
  2
_CLOSED
340
0
  0
BLOCK_RECORD
  5
B79
330
1
100
AcDbSymbolTableRecord
100
AcDbBlockTableRecord
  2
nota revisoes
340
0
1001
ACAD
1000
DesignCenter Data
1002
{
1070
     1
1070
     4
1002
}
  0
BLOCK_RECORD
  5
B8E
330
1
100
AcDbSymbolTableRecord
100
AcDbBlockTableRecord
  2
a3l
340
0
1001
ACAD
1000
DesignCenter Data
1002
{
1070
     1
1070
     4
1002
}
  0
BLOCK_RECORD
  5
B9E
330
1
100
AcDbSymbolTableRecord
100
AcDbBlockTableRecord
  2
legenda desenvolvimento
340
0
1001
ACAD
1000
DesignCenter Data
1002
{
1070
     1
1070
     4
1002
}
  0
ENDTAB
  0
ENDSEC
  0
SECTION
  2
BLOCKS
  0
BLOCK
  5
20
330
1F
100
AcDbEntity
  8
0
100
AcDbBlockBegin
  2
*Model_Space
 70
     0
 10
0.0
 20
0.0
 30
0.0
  3
*Model_Space
  1

  0
ENDBLK
  5
21
330
1F
100
AcDbEntity
  8
0
100
AcDbBlockEnd
  0
BLOCK
  5
1C
330
1B
100
AcDbEntity
 67
     1
  8
0
100
AcDbBlockBegin
  2
*Paper_Space
 70
     0
 10
0.0
 20
0.0
 30
0.0
  3
*Paper_Space
  1

  0
ENDBLK
  5
1D
330
1B
100
AcDbEntity
 67
     1
  8
0
100
AcDbBlockEnd
  0
BLOCK
  5
24
330
23
100
AcDbEntity
 67
     1
  8
0
100
AcDbBlockBegin
  2
*Paper_Space0
 70
     0
 10
0.0
 20
0.0
 30
0.0
  3
*Paper_Space0
  1

  0
ENDBLK
  5
25
330
23
100
AcDbEntity
 67
     1
  8
0
100
AcDbBlockEnd
  0
BLOCK
  5
91B
330
919
100
AcDbEntity
  8
0
100
AcDbBlockBegin
  2
_DotSmall
 70
     0
 10
0.0
 20
0.0
 30
0.0
  3
_DotSmall
  1

  0
LWPOLYLINE
  5
91A
330
919
100
AcDbEntity
  8
0
  6
ByBlock
 62
     0
100
AcDbPolyline
 90
        2
 70
     1
 43
0.5
 10
-0.0625
 20
0.0
 42
1.0
 10
0.0625
 20
0.0
 42
1.0
  0
ENDBLK
  5
91C
330
919
100
AcDbEntity
  8
0
100
AcDbBlockEnd
  0
BLOCK
  5
92A
330
922
100
AcDbEntity
  8
0
100
AcDbBlockBegin
  2
base para cotas
 70
     0
 10
0.0
 20
0.0
 30
0.0
  3
base para cotas
  1

  0
LINE
  5
B36
330
922
100
AcDbEntity
  8
cotas
100
AcDbLine
 10
0.0
 20
-30.0
 30
0.0
 11
327.1260136525398
 21
-30.0
 31
0.0
  0
LINE
  5
B37
330
922
100
AcDbEntity
  8
cotas
100
AcDbLine
 10
0.0
 20
-25.0
 30
0.0
 11
327.1260136525398
 21
-25.0
 31
0.0
  0
LINE
  5
B38
330
922
100
AcDbEntity
  8
cotas
100
AcDbLine
 10
0.0
 20
-20.0
 30
0.0
 11
327.1260136525398
 21
-20.0
 31
0.0
  0
LINE
  5
B39
330
922
100
AcDbEntity
  8
cotas
100
AcDbLine
 10
0.0
 20
-15.0
 30
0.0
 11
327.1260136525398
 21
-15.0
 31
0.0
  0
LINE
  5
B3A
330
922
100
AcDbEntity
  8
cotas
100
AcDbLine
 10
0.0
 20
-10.0
 30
0.0
 11
327.1260136525398
 21
-10.0
 31
0.0
  0
LINE
  5
B3B
330
922
100
AcDbEntity
  8
cotas
100
AcDbLine
 10
0.0
 20
0.0
 30
0.0
 11
0.0
 21
-30.0
 31
0.0
  0
LINE
  5
B3C
330
922
100
AcDbEntity
  8
cotas
100
AcDbLine
 10
327.1260136525398
 20
-30.0
 30
0.0
 11
327.1260136525398
 21
0.0
 31
0.0
  0
ENDBLK
  5
92B
330
922
100
AcDbEntity
  8
0
100
AcDbBlockEnd
  0
BLOCK
  5
AAD
330
AA8
100
AcDbEntity
  8
0
100
AcDbBlockBegin
  2
_CLOSED
 70
     0
 10
0.0
 20
0.0
 30
0.0
  3
_CLOSED
  1

  0
LINE
  5
AA9
330
AA8
100
AcDbEntity
  8
0
100
AcDbLine
 10
-1.0
 20
0.166667
 30
0.0
 11
0.0
 21
0.0
 31
0.0
  0
LINE
  5
AAA
330
AA8
100
AcDbEntity
  8
0
100
AcDbLine
 10
0.0
 20
0.0
 30
0.0
 11
-1.0
 21
-0.166667
 31
0.0
  0
LINE
  5
AAB
330
AA8
100
AcDbEntity
  8
0
100
AcDbLine
 10
-1.0
 20
0.166667
 30
0.0
 11
-1.0
 21
-0.166667
 31
0.0
  0
LINE
  5
AAC
330
AA8
100
AcDbEntity
  8
0
100
AcDbLine
 10
0.0
 20
0.0
 30
0.0
 11
-1.0
 21
0.0
 31
0.0
  0
ENDBLK
  5
AAE
330
AA8
100
AcDbEntity
  8
0
100
AcDbBlockEnd
  0
BLOCK
  5
B7C
330
B79
100
AcDbEntity
  8
0
100
AcDbBlockBegin
  2
nota revisoes
 70
     0
 10
0.0
 20
0.0
 30
0.0
  3
nota revisoes
  1

  0
CIRCLE
  5
B7A
330
B79
100
AcDbEntity
  8
4
100
AcDbCircle
 10
0.0
 20
0.0
 30
0.0
 40
13.69426055101189
  0
TEXT
  5
B7B
330
B79
100
AcDbEntity
  8
4
100
AcDbText
 10
-5.496248358154345
 20
-5.354545554066362
 30
0.0
 40
12.0
  1
1
  7
SANINDUSA
 72
     1
 11
-0.249774214433728
 21
-5.354545554066362
 31
0.0
100
AcDbText
  0
ENDBLK
  5
B7D
330
B79
100
AcDbEntity
  8
0
100
AcDbBlockEnd
  0
BLOCK
  5
B9C
330
B8E
100
AcDbEntity
  8
0
100
AcDbBlockBegin
  2
a3l
 70
     0
 10
0.0
 20
0.0
 30
0.0
  3
a3l
  1

  0
LINE
  5
B8F
330
B8E
100
AcDbEntity
  8
1
100
AcDbLine
 10
-364.2925296599447
 20
-362.1188951399395
 30
0.0
 11
-364.2925296599447
 21
-65.11889513993946
 31
0.0
  0
LINE
  5
B90
330
B8E
100
AcDbEntity
  8
4
100
AcDbLine
 10
-369.2925296599447
 20
-357.1188951399395
 30
0.0
 11
-369.2925296599447
 21
-70.11889513993946
 31
0.0
  0
LINE
  5
B91
330
B8E
100
AcDbEntity
  8
1
100
AcDbLine
 10
-784.2925296599446
 20
-65.11889513993946
 30
0.0
 11
-784.2925296599446
 21
-362.1188951399395
 31
0.0
  0
LINE
  5
B92
330
B8E
100
AcDbEntity
  8
4
100
AcDbLine
 10
-759.2925296599446
 20
-357.1188951399395
 30
0.0
 11
-759.2925296599446
 21
-70.11889513993946
 31
0.0
  0
LINE
  5
B93
330
B8E
100
AcDbEntity
  8
1
100
AcDbLine
 10
-784.2925296599446
 20
-362.1188951399395
 30
0.0
 11
-364.2925296599447
 21
-362.1188951399395
 31
0.0
  0
LINE
  5
B94
330
B8E
100
AcDbEntity
  8
4
100
AcDbLine
 10
-759.2925296599446
 20
-357.1188951399395
 30
0.0
 11
-369.2925296599447
 21
-357.1188951399395
 31
0.0
  0
LINE
  5
B95
330
B8E
100
AcDbEntity
  8
1
100
AcDbLine
 10
-654.2925296599446
 20
-357.1188951399395
 30
0.0
 11
-654.2925296599446
 21
-362.1188951399395
 31
0.0
  0
LINE
  5
B96
330
B8E
100
AcDbEntity
  8
1
100
AcDbLine
 10
-364.2925296599447
 20
-65.11889513993946
 30
0.0
 11
-784.2925296599446
 21
-65.11889513993946
 31
0.0
  0
LINE
  5
B97
330
B8E
100
AcDbEntity
  8
4
100
AcDbLine
 10
-369.2925296599447
 20
-70.11889513993946
 30
0.0
 11
-759.2925296599446
 21
-70.11889513993946
 31
0.0
  0
LINE
  5
B98
330
B8E
100
AcDbEntity
  8
1
100
AcDbLine
 10
-654.2925296599446
 20
-65.11889513993946
 30
0.0
 11
-654.2925296599446
 21
-70.11889513993946
 31
0.0
  0
LINE
  5
B99
330
B8E
100
AcDbEntity
  8
1
100
AcDbLine
 10
-549.2925296599446
 20
-70.11889513993946
 30
0.0
 11
-549.2925296599446
 21
-65.11889513993946
 31
0.0
  0
LINE
  5
B9A
330
B8E
100
AcDbEntity
  8
1
100
AcDbLine
 10
-369.2925296599447
 20
-65.11889513993946
 30
0.0
 11
-364.2925296599447
 21
-65.11889513993946
 31
0.0
  0
LINE
  5
B9B
330
B8E
100
AcDbEntity
  8
1
100
AcDbLine
 10
-549.2925296599446
 20
-357.1188951399395
 30
0.0
 11
-549.2925296599446
 21
-362.1188951399395
 31
0.0
  0
ENDBLK
  5
B9D
330
B8E
100
AcDbEntity
  8
0
100
AcDbBlockEnd
  0
BLOCK
  5
C13
330
B9E
100
AcDbEntity
  8
0
100
AcDbBlockBegin
  2
legenda desenvolvimento
 70
     2
 10
0.0
 20
0.0
 30
0.0
  3
legenda desenvolvimento
  1

  0
ATTDEF
  5
B9F
330
B9E
100
AcDbEntity
  8
1
100
AcDbText
 10
-108.606245802552
 20
55.5
 30
0.0
 40
4.0
  1
XXXXXXXXXXXXXX
 41
0.8
  7
SANINDUSA
 72
     4
 11
-87.5
 21
57.5
 31
0.0
100
AcDbAttributeDefinition
  3
Nome do Produto:
  2
PRODUTO
 70
     0
  0
ATTDEF
  5
BA0
330
B9E
100
AcDbEntity
  8
1
100
AcDbText
 10
-97.9997966101695
 20
41.25
 30
0.0
 40
3.0
  1
XXXXXXXXX
 41
0.8
  7
futura
 72
     4
 11
-87.5
 21
42.75
 31
0.0
100
AcDbAttributeDefinition
  3
Nome da Peça:
  2
PECA
 70
     0
  0
ATTDEF
  5
BA1
330
B9E
100
AcDbEntity
  8
1
100
AcDbText
 10
-133.4422431161853
 20
21.11745296763252
 30
0.0
 40
2.5
  1
X
 41
0.8
  7
SANINDUSA
 72
     4
 11
-132.5
 21
22.36745296763252
 31
0.0
100
AcDbAttributeDefinition
  3
Cod. TESTE:
  2
TESTE
 70
     0
  0
ATTDEF
  5
BA2
330
B9E
100
AcDbEntity
  8
1
100
AcDbText
 10
-124.3844862323707
 20
21.11745296763252
 30
0.0
 40
2.5
  1
XX
 41
0.8
  7
SANINDUSA
 72
     4
 11
-122.5
 21
22.36745296763252
 31
0.0
100
AcDbAttributeDefinition
  3
Cod. Ano:
  2
ANO
 70
     0
  0
ATTDEF
  5
BA3
330
B9E
100
AcDbEntity
  8
1
100
AcDbText
 10
-112.526889953052
 20
21.11745296763252
 30
0.0
 40
2.5
  1
XXX
 41
0.8
  7
SANINDUSA
 72
     4
 11
-109.700160604496
 21
22.36745296763252
 31
0.0
100
AcDbAttributeDefinition
  3
Cod. Sequência:
  2
SEQUENCIA
 70
     0
  0
ATTDEF
  5
BA4
330
B9E
100
AcDbEntity
  8
1
100
AcDbText
 10
-99.35382430979316
 20
21.11745296763252
 30
0.0
 40
2.5
  1
XX
 41
0.8
  7
SANINDUSA
 72
     4
 11
-97.46933807742244
 21
22.36745296763252
 31
0.0
100
AcDbAttributeDefinition
  3
Cod. Tipo:
  2
TIPO
 70
     0
  0
ATTDEF
  5
BA5
330
B9E
100
AcDbEntity
  8
1
100
AcDbText
 10
-87.42035911468438
 20
21.11745296763252
 30
0.0
 40
2.5
  1
XXX
 41
0.8
  7
SANINDUSA
 72
     4
 11
-84.59362976612828
 21
22.36745296763252
 31
0.0
100
AcDbAttributeDefinition
  3
Cod. Produto:
  2
PRODUTO
 70
     0
  0
ATTDEF
  5
BA6
330
B9E
100
AcDbEntity
  8
1
100
AcDbText
 10
-74.62051971917853
 20
21.11745296763252
 30
0.0
 40
2.5
  1
XXX
 41
0.8
  7
SANINDUSA
 72
     4
 11
-71.79379037062244
 21
22.36745296763252
 31
0.0
100
AcDbAttributeDefinition
  3
Cod. Peça:
  2
PECA
 70
     0
  0
ATTDEF
  5
BA7
330
B9E
100
AcDbEntity
  8
1
100
AcDbText
 10
-61.10603446650329
 20
21.11745296763252
 30
0.0
 40
2.5
  1
XX
 41
0.8
  7
SANINDUSA
 72
     4
 11
-59.22154823413257
 21
22.36745296763252
 31
0.0
100
AcDbAttributeDefinition
  3
Cod. Revisão:
  2
REV
 70
     0
  0
ATTDEF
  5
BA8
330
B9E
100
AcDbEntity
  8
1
100
AcDbText
 10
-48.43615325006194
 20
21.11745296763252
 30
0.0
 40
2.5
  1
XX
 41
0.8
  7
SANINDUSA
 72
     4
 11
-46.55166701769121
 21
22.36745296763252
 31
0.0
100
AcDbAttributeDefinition
  3
Cod. Alteração:
  2
ALT
 70
     0
  0
ATTDEF
  5
BA9
330
B9E
100
AcDbEntity
  8
1
100
AcDbText
 10
-35.19086635325722
 20
23.98875083948959
 30
0.0
 40
3.0
  1
1/XXX
 41
0.8
  7
SANINDUSA
 72
     4
 11
-30.0
 21
25.25
 31
0.0
100
AcDbAttributeDefinition
  3
Escala geral:
  2
ESCALA
 70
     0
  0
ATTDEF
  5
BAA
330
B9E
100
AcDbEntity
  8
1
100
AcDbText
 10
-15.65345869711215
 20
23.75
 30
0.0
 40
3.0
  1
XXXXX
 41
0.8
  7
SANINDUSA
 72
     4
 11
-10.0
 21
25.25
 31
0.0
100
AcDbAttributeDefinition
  3
Folha:
  2
FOLHA
 70
     0
  0
ATTDEF
  5
BAB
330
B9E
100
AcDbEntity
  8
1
100
AcDbText
 10
-178.5146998822042
 20
56.9531347542807
 30
0.0
 40
2.0
  1
xx
 41
0.8
  7
SANINDUSA
 72
     4
 11
-177.2123493113513
 21
57.70330265219877
 31
0.0
100
AcDbAttributeDefinition
  3
revisão
  2
REV.
 70
     0
  0
ATTDEF
  5
BAC
330
B9E
100
AcDbEntity
  8
1
100
AcDbText
 10
-172.7849640077129
 20
56.9531347542807
 30
0.0
 40
2.0
  1
xx
 41
0.8
  7
SANINDUSA
 72
     4
 11
-171.48261343686
 21
57.70330265219877
 31
0.0
100
AcDbAttributeDefinition
  3
alteração
  2
ALT.
 70
     0
  0
ATTDEF
  5
BAD
330
B9E
100
AcDbEntity
  8
1
100
AcDbText
 10
-168.007199951307
 20
56.70330265219877
 30
0.0
 40
2.0
  1
xx/xx/xxxx
 41
0.8
  7
SANINDUSA
 11
-168.007199951307
 21
57.70330265219877
 31
0.0
100
AcDbAttributeDefinition
  3
data
  2
DATA
 70
     0
 74
     2
  0
ATTDEF
  5
BAE
330
B9E
100
AcDbEntity
  8
1
100
AcDbText
 10
-168.5396372253371
 20
13.15916722632639
 30
0.0
 40
2.0
  1
XX/XX/XXXX
 41
0.8
  7
SANINDUSA
 72
     4
 11
-161.5099528734231
 21
14.0
 31
0.0
100
AcDbAttributeDefinition
  3
Data projecto
  2
DATA_PROJ
 70
     0
  0
ATTDEF
  5
BAF
330
B9E
100
AcDbEntity
  8
1
100
AcDbText
 10
-150.8658110728766
 20
13.24983210208193
 30
0.0
 40
2.0
  1
xxxxxxxx
 41
0.8
  7
SANINDUSA
 72
     4
 11
-145.6564087894649
 21
14.0
 31
0.0
100
AcDbAttributeDefinition
  3
nome de quem projectou
  2
NOME
 70
     0
  0
ATTDEF
  5
BB0
330
B9E
100
AcDbEntity
  8
1
100
AcDbText
 10
-168.5396372253371
 20
9.159167226326394
 30
0.0
 40
2.0
  1
XX/XX/XXXX
 41
0.8
  7
SANINDUSA
 72
     4
 11
-161.5099528734231
 21
10.0
 31
0.0
100
AcDbAttributeDefinition
  3
Data desenhou
  2
DATA_DES
 70
     0
  0
ATTDEF
  5
BB1
330
B9E
100
AcDbEntity
  8
1
100
AcDbText
 10
-151.516986358303
 20
9.249832102081933
 30
0.0
 40
2.0
  1
xxxxxxxxx
 41
0.8
  7
SANINDUSA
 72
     4
 11
-145.6564087894649
 21
10.0
 31
0.0
100
AcDbAttributeDefinition
  3
nome
  2
NOME
 70
     0
  0
ATTDEF
  5
BB2
330
B9E
100
AcDbEntity
  8
1
100
AcDbText
 10
-127.2924214135946
 20
14.1979876583216
 30
0.0
 40
2.0
  1
Vitreous China
 41
0.8
  7
SANINDUSA
 72
     4
 11
-119.231709526422
 21
15.22216495852308
 31
0.0
100
AcDbAttributeDefinition
  3
Nome do Material:
  2
MATERIAL
 70
     0
  0
ATTDEF
  5
BB3
330
B9E
100
AcDbEntity
  8
1
100
AcDbText
 10
-103.1563452122093
 20
14.38019043949261
 30
0.0
 40
2.0
  1
Branco
 41
0.8
  7
SANINDUSA
 72
     4
 11
-99.33418268702462
 21
15.35937109765245
 31
0.0
100
AcDbAttributeDefinition
  3
cor da peça
  2
COR
 70
     0
  0
ATTDEF
  5
BB4
330
B9E
100
AcDbEntity
  8
1
100
AcDbText
 10
-116.7235057085292
 20
5.975822699798522
 30
0.0
 40
2.0
  1
Vidrado
 41
0.8
  7
SANINDUSA
 72
     4
 11
-112.5
 21
7.0
 31
0.0
100
AcDbAttributeDefinition
  3
Tipo de acabamento:
  2
ACABAMENTO
 70
     0
  0
ATTDEF
  5
BB5
330
B9E
100
AcDbEntity
  8
1
100
AcDbText
 10
-79.18527869967246
 20
16.65066409850533
 30
0.0
 40
2.0
  1
XXXXXXX
 41
0.8
  7
SANINDUSA
 72
     4
 11
-73.90871724903445
 21
17.65066409850533
 31
0.0
100
AcDbAttributeDefinition
  3
Normas
  2
NORMAS
 70
     0
  0
ATTDEF
  5
BB6
330
B9E
100
AcDbEntity
  8
1
100
AcDbText
 10
-30.55312290127603
 20
14.0
 30
0.0
 40
2.0
  1
XXXXXXXXXXXXXX
 41
0.8
  7
SANINDUSA
 72
     4
 11
-20.0
 21
15.0
 31
0.0
100
AcDbAttributeDefinition
  3
Substitui o desenho:
  2
SUBSTITUI
 70
     0
  0
ATTDEF
  5
BB7
330
B9E
100
AcDbEntity
  8
1
100
AcDbText
 10
-31.30691739422431
 20
6.0
 30
0.0
 40
2.0
  1
XXXXXXXXXXXXXXX
 41
0.8
  7
SANINDUSA
 72
     4
 11
-20.0
 21
7.0
 31
0.0
100
AcDbAttributeDefinition
  3
Substituido por:
  2
SUBSTITUIDO
 70
     0
  0
ATTDEF
  5
BB8
330
B9E
100
AcDbEntity
  8
1
100
AcDbText
 10
-110.0220608548302
 20
1.478208457928303
 30
0.0
 40
2.0
  1
XXXXXXXXXXXXXXXXXXXXXXXXXXXXXXXXXX
 41
0.8
  7
SANINDUSA
 11
-110.0220608548302
 21
2.478208457928303
 31
0.0
100
AcDbAttributeDefinition
  3
Localização do desenho:
  2
LOC-DWG
 70
     0
 74
     2
  0
LINE
  5
BB9
330
B9E
100
AcDbEntity
  8
3
100
AcDbLine
 10
-135.0
 20
4.0
 30
0.0
 11
0.0000000000004547
 21
4.0
 31
0.0
  0
LINE
  5
BBA
330
B9E
100
AcDbEntity
  8
3
100
AcDbLine
 10
-90.00000000000046
 20
12.0
 30
0.0
 11
-135.0
 21
12.0
 31
0.0
  0
LINE
  5
BBB
330
B9E
100
AcDbEntity
  8
3
100
AcDbLine
 10
-135.0
 20
32.5
 30
0.0
 11
-40.0
 21
32.5
 31
0.0
  0
TEXT
  5
BBC
330
B9E
100
AcDbEntity
  8
1
100
AcDbText
 10
-134.0
 20
1.25
 30
0.0
 40
2.0
  1
Localização do des.:
 41
0.8
  7
SANINDUSA
 11
-134.0
 21
2.25
 31
0.0
100
AcDbText
 73
     2
  0
LINE
  5
BBD
330
B9E
100
AcDbEntity
  8
3
100
AcDbLine
 10
-180.0
 20
65.0
 30
0.0
 11
0.0
 21
65.0
 31
0.0
  0
LINE
  5
BBE
330
B9E
100
AcDbEntity
  8
leg fin
100
AcDbLine
 10
-40.0
 20
25.05956924886846
 30
0.0
 11
-135.0
 21
25.05956924886846
 31
0.0
  0
LINE
  5
BBF
330
B9E
100
AcDbEntity
  8
leg fin
100
AcDbLine
 10
-40.0
 20
28.5
 30
0.0
 11
-135.0
 21
28.5
 31
0.0
  0
LINE
  5
BC0
330
B9E
100
AcDbEntity
  8
3
100
AcDbLine
 10
-135.0
 20
50.0
 30
0.0
 11
-40.0
 21
50.0
 31
0.0
  0
TEXT
  5
BC1
330
B9E
100
AcDbEntity
  8
1
100
AcDbText
 10
-134.0
 20
29.75
 30
0.0
 40
2.0
  1
Desenho nº:
 41
0.8
  7
SANINDUSA
 11
-134.0
 21
30.75
 31
0.0
100
AcDbText
 73
     2
  0
TEXT
  5
BC2
330
B9E
100
AcDbEntity
  8
1
100
AcDbText
 10
-134.0
 20
9.25
 30
0.0
 40
2.0
  1
Acabamento:
 41
0.8
  7
SANINDUSA
 11
-134.0
 21
10.25
 31
0.0
100
AcDbText
 73
     2
  0
LINE
  5
BC3
330
B9E
100
AcDbEntity
  8
3
100
AcDbLine
 10
-180.0
 20
20.0
 30
0.0
 11
0.0
 21
20.0
 31
0.0
  0
LINE
  5
BC4
330
B9E
100
AcDbEntity
  8
1
100
AcDbLine
 10
-174.5810776056337
 20
55.5
 30
0.0
 11
-174.5810776056337
 21
65.0
 31
0.0
  0
LINE
  5
BC5
330
B9E
100
AcDbEntity
  8
1
100
AcDbLine
 10
-168.9210461879161
 20
55.5
 30
0.0
 11
-168.9210461879161
 21
65.0
 31
0.0
  0
LINE
  5
BC6
330
B9E
100
AcDbEntity
  8
1
100
AcDbLine
 10
-154.0988595589306
 20
55.5
 30
0.0
 11
-154.0988595589306
 21
65.0
 31
0.0
  0
LINE
  5
BC7
330
B9E
100
AcDbEntity
  8
3
100
AcDbLine
 10
-180.0
 20
65.0
 30
0.0
 11
-180.0
 21
0.0
 31
0.0
  0
LINE
  5
BC8
330
B9E
100
AcDbEntity
  8
3
100
AcDbLine
 10
-135.0
 20
0.0
 30
0.0
 11
-135.0
 21
65.0
 31
0.0
  0
TEXT
  5
BC9
330
B9E
100
AcDbEntity
  8
1
100
AcDbText
 10
-179.0
 20
9.75
 30
0.0
 40
1.5
  1
Des.
 41
0.8
  7
SANINDUSA
 11
-179.0
 21
10.5
 31
0.0
100
AcDbText
 73
     2
  0
LINE
  5
BCA
330
B9E
100
AcDbEntity
  8
1
100
AcDbLine
 10
-168.9210461879161
 20
20.0
 30
0.0
 11
-168.9210461879161
 21
0.0
 31
0.0
  0
LINE
  5
BCB
330
B9E
100
AcDbEntity
  8
1
100
AcDbLine
 10
-154.0988595589306
 20
20.0
 30
0.0
 11
-154.0988595589306
 21
0.0
 31
0.0
  0
LINE
  5
BCC
330
B9E
100
AcDbEntity
  8
1
100
AcDbLine
 10
-180.0
 20
4.0
 30
0.0
 11
-135.0
 21
4.0
 31
0.0
  0
LINE
  5
BCD
330
B9E
100
AcDbEntity
  8
1
100
AcDbLine
 10
-180.0
 20
8.0
 30
0.0
 11
-135.0
 21
8.0
 31
0.0
  0
TEXT
  5
BCE
330
B9E
100
AcDbEntity
  8
1
100
AcDbText
 10
-179.0
 20
1.73257823687436
 30
0.0
 40
1.5
  1
Aprov.
 41
0.8
  7
SANINDUSA
 11
-179.0
 21
2.48257823687436
 31
0.0
100
AcDbText
 73
     2
  0
TEXT
  5
BCF
330
B9E
100
AcDbEntity
  8
1
100
AcDbText
 10
-179.0
 20
5.75
 30
0.0
 40
1.5
  1
Ver.
 41
0.8
  7
SANINDUSA
 11
-179.0
 21
6.5
 31
0.0
100
AcDbText
 73
     2
  0
LINE
  5
BD0
330
B9E
100
AcDbEntity
  8
1
100
AcDbLine
 10
-180.0
 20
16.0
 30
0.0
 11
-135.0
 21
16.0
 31
0.0
  0
LINE
  5
BD1
330
B9E
100
AcDbEntity
  8
1
100
AcDbLine
 10
-180.0
 20
12.0
 30
0.0
 11
-135.0
 21
12.0
 31
0.0
  0
TEXT
  5
BD2
330
B9E
100
AcDbEntity
  8
1
100
AcDbText
 10
-179.0
 20
13.75
 30
0.0
 40
1.5
  1
Proj.
 41
0.8
  7
SANINDUSA
 11
-179.0
 21
14.5
 31
0.0
100
AcDbText
 73
     2
  0
TEXT
  5
BD3
330
B9E
100
AcDbEntity
  8
1
100
AcDbText
 10
-167.9210461879161
 20
17.75
 30
0.0
 40
1.5
  1
Data
 41
0.8
  7
SANINDUSA
 11
-167.9210461879161
 21
18.5
 31
0.0
100
AcDbText
 73
     2
  0
TEXT
  5
BD4
330
B9E
100
AcDbEntity
  8
1
100
AcDbText
 10
-153.0988595589306
 20
17.75
 30
0.0
 40
1.5
  1
Nome
 41
0.8
  7
SANINDUSA
 11
-153.0988595589306
 21
18.5
 31
0.0
100
AcDbText
 73
     2
  0
LINE
  5
BD5
330
B9E
100
AcDbEntity
  8
leg fin
100
AcDbLine
 10
-130.0
 20
20.0
 30
0.0
 11
-130.0
 21
28.5
 31
0.0
  0
TEXT
  5
BD6
330
B9E
100
AcDbEntity
  8
1
100
AcDbText
 10
-134.0
 20
17.25
 30
0.0
 40
2.0
  1
Material:
 41
0.8
  7
SANINDUSA
 11
-134.0
 21
18.25
 31
0.0
100
AcDbText
 73
     2
  0
TEXT
  5
BD7
330
B9E
100
AcDbEntity
  8
1
100
AcDbText
 10
-129.0
 20
26.43288406845113
 30
0.0
 40
1.5
  1
Ano:
 41
0.8
  7
SANINDUSA
 11
-129.0
 21
27.18288406845113
 31
0.0
100
AcDbText
 73
     2
  0
LINE
  5
BD8
330
B9E
100
AcDbEntity
  8
1
100
AcDbLine
 10
-180.0
 20
55.5
 30
0.0
 11
-135.0
 21
55.5
 31
0.0
  0
TEXT
  5
BD9
330
B9E
100
AcDbEntity
  8
1
100
AcDbText
 10
-179.0
 20
52.67772246885193
 30
0.0
 40
1.5
  1
descrição
 41
0.8
  7
SANINDUSA
 11
-179.0
 21
53.42772246885193
 31
0.0
100
AcDbText
 73
     2
  0
TEXT
  5
BDA
330
B9E
100
AcDbEntity
  8
1
100
AcDbText
 10
-134.0
 20
47.25
 30
0.0
 40
2.0
  1
Peça:
 41
0.8
  7
SANINDUSA
 11
-134.0
 21
48.25
 31
0.0
100
AcDbText
 73
     2
  0
LINE
  5
BDB
330
B9E
100
AcDbEntity
  8
1
100
AcDbLine
 10
-180.0
 20
59.5
 30
0.0
 11
-135.0
 21
59.5
 31
0.0
  0
TEXT
  5
BDC
330
B9E
100
AcDbEntity
  8
1
100
AcDbText
 10
-173.5810776056337
 20
62.75
 30
0.0
 40
1.5
  1
Alt.
 41
0.8
  7
SANINDUSA
 11
-173.5810776056337
 21
63.5
 31
0.0
100
AcDbText
 73
     2
  0
TEXT
  5
BDD
330
B9E
100
AcDbEntity
  8
1
100
AcDbText
 10
-179.0
 20
62.75
 30
0.0
 40
1.5
  1
Rev.
 41
0.8
  7
SANINDUSA
 11
-179.0
 21
63.5
 31
0.0
100
AcDbText
 73
     2
  0
TEXT
  5
BDE
330
B9E
100
AcDbEntity
  8
1
100
AcDbText
 10
-167.9210461879161
 20
62.75
 30
0.0
 40
1.5
  1
Data
 41
0.8
  7
SANINDUSA
 11
-167.9210461879161
 21
63.5
 31
0.0
100
AcDbText
 73
     2
  0
TEXT
  5
BDF
330
B9E
100
AcDbEntity
  8
1
100
AcDbText
 10
-153.0988595589306
 20
62.75
 30
0.0
 40
1.5
  1
Nome
 41
0.8
  7
SANINDUSA
 11
-153.0988595589306
 21
63.5
 31
0.0
100
AcDbText
 73
     2
  0
TEXT
  5
BE0
330
B9E
100
AcDbEntity
  8
1
100
AcDbText
 10
-134.0
 20
62.25
 30
0.0
 40
2.0
  1
Produto:
 41
0.8
  7
SANINDUSA
 11
-134.0
 21
63.25
 31
0.0
100
AcDbText
 73
     2
  0
LINE
  5
BE1
330
B9E
100
AcDbEntity
  8
3
100
AcDbLine
 10
-40.0
 20
4.0
 30
0.0
 11
-40.0
 21
65.0
 31
0.0
  0
LWPOLYLINE
  5
BE2
102
{ACAD_REACTORS
330
BEC
102
}
330
B9E
100
AcDbEntity
  8
9
100
AcDbPolyline
 90
       12
 70
     1
 43
0.0
 10
-3.038714600644652
 20
58.90010174665076
 10
-5.726962862472191
 20
58.90010174665076
 10
-5.726962862472191
 20
58.5001017466509
 10
-3.038748516195028
 20
58.5001017466509
 42
-0.4142135623731731
 10
-2.638748516194482
 20
58.1001017466508
 10
-2.638748516194482
 20
57.42799728675596
 10
-5.21497371544865
 20
57.42799728675596
 42
0.4142135623731289
 10
-6.014973715448377
 20
56.627997286756
 10
-6.014973715448377
 20
55.92380871629643
 42
0.4142135623731132
 10
-5.21497371544865
 20
55.12380871629648
 10
-2.23871460064447
 20
55.12380871629648
 10
-2.23871460064447
 20
58.10010174665103
 42
0.4142135623730717
  0
LWPOLYLINE
  5
BE3
102
{ACAD_REACTORS
330
BEC
102
}
330
B9E
100
AcDbEntity
  8
9
100
AcDbPolyline
 90
       20
 70
     1
 43
0.0
 10
-10.01531287095122
 20
57.82799728675581
 10
-10.01531287095122
 20
58.10010174665103
 42
-0.4142135623730744
 10
-9.615312870951584
 20
58.5001017466509
 10
-6.92703069357276
 20
58.5001017466509
 10
-6.92703069357276
 20
58.90010174665076
 10
-9.615346786501959
 20
58.90010174665076
 42
0.4142135623730883
 10
-10.41534678650168
 20
58.1001017466508
 10
-10.41534678650168
 20
57.82796337120567
 42
0.4142135623730717
 10
-9.615346786501959
 20
57.02796337120571
 10
-7.423079531965413
 20
57.02796337120571
 42
-0.4142135623730847
 10
-7.023079531965322
 20
56.62796337120562
 10
-7.023079531965322
 20
55.90786840766487
 42
-0.4142135623730744
 10
-7.423079531965413
 20
55.507868407665
 10
-10.41534678650168
 20
55.507868407665
 10
-10.41534678650168
 20
55.12380871629648
 10
-7.445787917283723
 20
55.12380871629648
 42
0.4114777732064574
 10
-6.645822882998345
 20
55.9163291493976
 10
-6.639238813324936
 20
56.62051771985716
 42
0.4169546541682913
 10
-7.439203847610315
 20
57.42799728675596
 10
-9.615312870951584
 20
57.42799728675596
 42
-0.4142135623731576
  0
LWPOLYLINE
  5
BE4
102
{ACAD_REACTORS
330
BEC
102
}
330
B9E
100
AcDbEntity
  8
9
100
AcDbPolyline
 90
       12
 70
     1
 43
0.0
 10
-14.41561811090378
 20
58.90010174665076
 10
-14.79964388672215
 20
58.90010174665076
 10
-14.79964388672215
 20
55.92380871629643
 42
0.4142135623731133
 10
-13.99964388672242
 20
55.12380871629648
 10
-11.8233508563676
 20
55.12380871629648
 42
0.4142135623730872
 10
-11.02335085636741
 20
55.92380871629643
 10
-11.02335085636741
 20
58.90010174665076
 10
-11.42338477191788
 20
58.90010174665076
 10
-11.42338477191788
 20
55.91567577726095
 42
-0.4131711701795318
 10
-11.82196067063523
 20
55.51567831234956
 10
-14.0141940096214
 20
55.50787335710947
 42
-0.4152567234624407
 10
-14.41561811090378
 20
55.90787082202087
  0
LWPOLYLINE
  5
BE5
102
{ACAD_REACTORS
330
BEC
102
}
330
B9E
100
AcDbEntity
  8
9
100
AcDbPolyline
 90
        6
 70
     1
 43
0.0
 10
-15.80771578768872
 20
55.507868407665
 10
-18.39994912667453
 20
55.507868407665
 42
-0.4142135623731731
 10
-18.79994912667462
 20
55.90786840766487
 10
-18.79994912667462
 20
58.10010174665103
 42
-0.4142135623730744
 10
-18.39994912667453
 20
58.5001017466509
 10
-15.80771578768872
 20
58.5001017466509
  0
LWPOLYLINE
  5
BE6
102
{ACAD_REACTORS
330
BEC
102
}
330
B9E
100
AcDbEntity
  8
9
100
AcDbPolyline
 90
        8
 70
     1
 43
0.0
 10
-15.4236900118708
 20
59.87619128370352
 10
-15.80771578768872
 20
59.87619128370352
 10
-15.80771578768872
 20
58.90010174665076
 10
-18.39176256411201
 20
58.90010174665076
 42
0.4131164467977967
 10
-19.19175694739761
 20
58.1030995310698
 10
-19.1999120763262
 20
55.92680650071542
 42
0.4153115297271718
 10
-18.39991769304061
 20
55.12380871629648
 10
-15.4236900118708
 20
55.12380871629648
  0
LWPOLYLINE
  5
BE7
102
{ACAD_REACTORS
330
BEC
102
}
330
B9E
100
AcDbEntity
  8
9
100
AcDbPolyline
 90
       10
 70
     1
 43
0.0
 10
-20.59201288790928
 20
58.90010174665076
 10
-23.56830591826338
 20
58.90010174665076
 10
-23.56830591826338
 20
55.12380871629648
 10
-23.18424622689509
 20
55.12380871629648
 10
-23.18424622689509
 20
58.5001017466509
 10
-20.59204680345965
 20
58.5001017466509
 42
-0.4142135623730898
 10
-20.19204680345956
 20
58.1001017466508
 10
-20.19204680345956
 20
55.12380871629648
 10
-19.79201288790909
 20
55.12380871629648
 10
-19.79201288790909
 20
58.10010174665103
 42
0.4142135623731132
  0
LWPOLYLINE
  5
BE8
102
{ACAD_REACTORS
330
BEC
102
}
330
B9E
100
AcDbEntity
  8
9
100
AcDbPolyline
 90
        4
 70
     1
 43
0.0
 10
-24.19231812786165
 20
58.90010174665076
 10
-24.57637781922995
 20
58.90010174665076
 10
-24.57637781922995
 20
55.12380871629648
 10
-24.19231812786165
 20
55.12380871629648
  0
LWPOLYLINE
  5
BE9
102
{ACAD_REACTORS
330
BEC
102
}
330
B9E
100
AcDbEntity
  8
9
100
AcDbPolyline
 90
       10
 70
     1
 43
0.0
 10
-28.57661522808212
 20
58.5001017466509
 10
-25.98444972019706
 20
58.5001017466509
 42
-0.4142135623731731
 10
-25.58444972019652
 20
58.1001017466508
 10
-25.58444972019652
 20
55.12380871629648
 10
-25.2004239443786
 20
55.12380871629648
 10
-25.2004239443786
 20
58.10010174665103
 42
0.4142135623730717
 10
-26.00042394437833
 20
58.90010174665076
 10
-28.97664914363259
 20
58.90010174665076
 10
-28.97664914363259
 20
55.12380871629648
 10
-28.57661522808212
 20
55.12380871629648
  0
LWPOLYLINE
  5
BEA
102
{ACAD_REACTORS
330
BEC
102
}
330
B9E
100
AcDbEntity
  8
9
100
AcDbPolyline
 90
       12
 70
     1
 43
0.0
 10
-29.58465321349832
 20
58.10010174665103
 42
0.4142135623730716
 10
-30.3846532134985
 20
58.90010174665076
 10
-33.07296930642724
 20
58.90010174665076
 10
-33.07296930642724
 20
58.5001017466509
 10
-30.38468712904842
 20
58.5001017466509
 42
-0.4142135623730067
 10
-29.98468712904878
 20
58.1001017466508
 10
-29.98468712904878
 20
57.42799728675618
 10
-32.56098015940324
 20
57.42799728675596
 42
0.4142135623731289
 10
-33.36098015940343
 20
56.627997286756
 10
-33.36098015940343
 20
55.92380871629643
 42
0.4142135623731132
 10
-32.56098015940324
 20
55.12380871629648
 10
-29.58465321349832
 20
55.12380871629648
  0
LWPOLYLINE
  5
BEB
102
{ACAD_REACTORS
330
BEC
102
}
330
B9E
100
AcDbEntity
  8
9
100
AcDbPolyline
 90
       20
 70
     1
 43
0.0
 10
-34.7850262845518
 20
57.42799728675596
 10
-36.96125148380543
 20
57.42799728675596
 42
-0.4142135623730898
 10
-37.36125148380552
 20
57.82799728675604
 10
-37.36125148380552
 20
58.10010174665103
 42
-0.4142135623730744
 10
-36.96125148380543
 20
58.5001017466509
 10
-34.27303713752781
 20
58.50010174665067
 10
-34.27303713752781
 20
58.90010174665076
 10
-36.96128539935535
 20
58.90010174665076
 42
0.4142135623731289
 10
-37.76128539935553
 20
58.1001017466508
 10
-37.76128539935553
 20
57.82796337120567
 42
0.4142135623730716
 10
-36.9612853993558
 20
57.02796337120571
 10
-34.76901814481926
 20
57.02796337120571
 42
-0.414213562373168
 10
-34.36901814481962
 20
56.62796337120562
 10
-34.36901814481962
 20
55.90786840766487
 42
-0.4142135623730744
 10
-34.76901814481926
 20
55.507868407665
 10
-37.76128539935553
 20
55.507868407665
 10
-37.76128539935553
 20
55.12380871629648
 10
-34.7850262845518
 20
55.12380871629648
 42
0.4142135623731289
 10
-33.98502628455162
 20
55.92380871629643
 10
-33.98502628455162
 20
56.627997286756
 42
0.4142135623731132
  0
HATCH
  5
BEC
330
B9E
100
AcDbEntity
  8
9
100
AcDbHatch
 10
0.0
 20
0.0
 30
0.0
210
0.0
220
0.0
230
1.0
  2
SOLID
 70
     1
 71
     1
 91
       13
 92
        7
 72
     1
 73
     1
 93
       20
 10
-34.36901814481962
 20
55.90786840766487
 42
-0.414213562372991
 10
-34.76901814481926
 20
55.507868407665
 42
0.0
 10
-37.76128539935553
 20
55.507868407665
 42
0.0
 10
-37.76128539935553
 20
55.12380871629648
 42
0.0
 10
-34.7850262845518
 20
55.12380871629648
 42
0.4142135623731705
 10
-33.98502628455162
 20
55.92380871629666
 42
0.0
 10
-33.98502628455162
 20
56.627997286756
 42
0.4142135623731547
 10
-34.7850262845518
 20
57.42799728675596
 42
0.0
 10
-36.96125148380543
 20
57.42799728675596
 42
-0.4142135623730898
 10
-37.36125148380552
 20
57.82799728675604
 42
0.0
 10
-37.36125148380552
 20
58.1001017466508
 42
-0.4142135623731575
 10
-36.96125148380543
 20
58.5001017466509
 42
0.0
 10
-34.27303713752781
 20
58.50010174665067
 42
0.0
 10
-34.27303713752781
 20
58.90010174665076
 42
0.0
 10
-36.96128539935535
 20
58.90010174665076
 42
0.4142135623731705
 10
-37.76128539935553
 20
58.10010174665058
 42
0.0
 10
-37.76128539935553
 20
57.82796337120544
 42
0.4142135623730299
 10
-36.9612853993558
 20
57.02796337120571
 42
0.0
 10
-34.76901814481926
 20
57.02796337120571
 42
-0.4142135623730015
 10
-34.36901814481962
 20
56.62796337120608
 42
0.0
 97
        1
330
BEB
 92
        7
 72
     1
 73
     1
 93
       12
 10
-33.36098015940343
 20
55.92380871629666
 42
0.4142135623731547
 10
-32.56098015940324
 20
55.12380871629648
 42
0.0
 10
-29.58465321349877
 20
55.12380871629648
 42
0.0
 10
-29.58465321349832
 20
58.10010174665058
 42
0.4142135623731964
 10
-30.3846532134985
 20
58.90010174665076
 42
0.0
 10
-33.07296930642724
 20
58.90010174665076
 42
0.0
 10
-33.07296930642724
 20
58.50010174665067
 42
0.0
 10
-30.38468712904887
 20
58.5001017466509
 42
-0.4142135623732564
 10
-29.98468712904878
 20
58.10010174665103
 42
0.0
 10
-29.98468712904923
 20
57.42799728675596
 42
0.0
 10
-32.56098015940324
 20
57.42799728675596
 42
0.4142135623731705
 10
-33.36098015940343
 20
56.627997286756
 42
0.0
 97
        1
330
BEA
 92
       22
 72
     1
 73
     1
 93
        6
 10
-32.97692046803468
 20
56.62796337120562
 42
-0.4142135623731576
 10
-32.57692046803459
 20
57.02796337120571
 42
0.0
 10
-29.98468712904878
 20
57.02796337120571
 42
0.0
 10
-29.98468712904878
 20
55.507868407665
 42
0.0
 10
-32.57692046803459
 20
55.507868407665
 42
-0.4142135623731731
 10
-32.97692046803468
 20
55.90786840766487
 42
0.0
 97
        1
330
C11
 92
        7
 72
     1
 73
     1
 93
       10
 10
-28.57661522808212
 20
58.5001017466509
 42
0.0
 10
-25.98444972019661
 20
58.5001017466509
 42
-0.4142135623730067
 10
-25.58444972019652
 20
58.10010174665058
 42
0.0
 10
-25.58444972019606
 20
55.12380871629648
 42
0.0
 10
-25.20042394437906
 20
55.12380871629648
 42
0.0
 10
-25.2004239443786
 20
58.1001017466508
 42
0.4142135623731134
 10
-26.00042394437833
 20
58.90010174665076
 42
0.0
 10
-28.97664914363259
 20
58.90010174665076
 42
0.0
 10
-28.97664914363259
 20
55.12380871629648
 42
0.0
 10
-28.57661522808212
 20
55.12380871629648
 42
0.0
 97
        1
330
BE9
 92
        7
 72
     0
 73
     1
 93
        4
 10
-24.57637781922995
 20
55.12380871629648
 10
-24.19231812786165
 20
55.12380871629648
 10
-24.19231812786165
 20
58.90010174665076
 10
-24.57637781922995
 20
58.90010174665076
 97
        1
330
BE8
 92
        7
 72
     0
 73
     1
 93
        4
 10
-24.19231812786165
 20
59.87619128370352
 10
-24.5763778192304
 20
59.87619128370352
 10
-24.5763778192304
 20
59.28412752246913
 10
-24.1923181278612
 20
59.28412752246913
 97
        1
330
C12
 92
        7
 72
     1
 73
     1
 93
       10
 10
-23.18424622689509
 20
58.5001017466509
 42
0.0
 10
-20.59204680345965
 20
58.5001017466509
 42
-0.4142135623730898
 10
-20.19204680345956
 20
58.1001017466508
 42
0.0
 10
-20.19204680345956
 20
55.12380871629648
 42
0.0
 10
-19.79201288790909
 20
55.12380871629648
 42
0.0
 10
-19.79201288790909
 20
58.1001017466508
 42
0.4142135623731547
 10
-20.59201288790928
 20
58.90010174665076
 42
0.0
 10
-23.56830591826338
 20
58.90010174665076
 42
0.0
 10
-23.56830591826338
 20
55.12380871629648
 42
0.0
 10
-23.18424622689463
 20
55.12380871629648
 42
0.0
 97
        1
330
BE7
 92
        7
 72
     1
 73
     1
 93
        8
 10
-19.1999120763262
 20
55.92680650071542
 42
0.4153115297271299
 10
-18.39991769304061
 20
55.12380871629648
 42
0.0
 10
-15.4236900118708
 20
55.12380871629648
 42
0.0
 10
-15.4236900118708
 20
59.87619128370352
 42
0.0
 10
-15.80771578768872
 20
59.87619128370352
 42
0.0
 10
-15.80771578768872
 20
58.90010174665076
 42
0.0
 10
-18.39176256411201
 20
58.90010174665076
 42
0.4131164467977965
 10
-19.19175694739761
 20
58.1030995310698
 42
0.0
 97
        1
330
BE6
 92
       22
 72
     1
 73
     1
 93
        6
 10
-18.79994912667462
 20
58.1001017466508
 42
-0.4142135623731575
 10
-18.39994912667453
 20
58.5001017466509
 42
0.0
 10
-15.80771578768872
 20
58.50010174665067
 42
0.0
 10
-15.80771578768827
 20
55.507868407665
 42
0.0
 10
-18.39994912667453
 20
55.507868407665
 42
-0.4142135623731731
 10
-18.79994912667462
 20
55.90786840766487
 42
0.0
 97
        1
330
BE5
 92
        7
 72
     1
 73
     1
 93
       12
 10
-14.79964388672215
 20
55.92380871629621
 42
0.4142135623729885
 10
-13.99964388672242
 20
55.12380871629648
 42
0.0
 10
-11.8233508563676
 20
55.12380871629648
 42
0.4142135623731289
 10
-11.02335085636741
 20
55.92380871629666
 42
0.0
 10
-11.02335085636741
 20
58.90010174665076
 42
0.0
 10
-11.42338477191788
 20
58.90010174665076
 42
0.0
 10
-11.42338477191788
 20
55.91567577726095
 42
-0.4131711701795319
 10
-11.82196067063523
 20
55.51567831234956
 42
0.0
 10
-14.01419400962095
 20
55.50787335710947
 42
-0.4152567234626918
 10
-14.41561811090378
 20
55.90787082202087
 42
0.0
 10
-14.41561811090378
 20
58.90010174665076
 42
0.0
 10
-14.7996438867226
 20
58.90010174665076
 42
0.0
 97
        1
330
BE4
 92
        7
 72
     1
 73
     1
 93
       20
 10
-7.423079531965413
 20
57.02796337120571
 42
-0.414213562373168
 10
-7.023079531965322
 20
56.62796337120562
 42
0.0
 10
-7.023079531965322
 20
55.90786840766487
 42
-0.4142135623731575
 10
-7.423079531965413
 20
55.507868407665
 42
0.0
 10
-10.41534678650168
 20
55.507868407665
 42
0.0
 10
-10.41534678650168
 20
55.12380871629648
 42
0.0
 10
-7.445787917283723
 20
55.12380871629648
 42
0.4114777732065809
 10
-6.645822882998345
 20
55.91632914939783
 42
0.0
 10
-6.639238813324936
 20
56.62051771985716
 42
0.4169546541682913
 10
-7.439203847610315
 20
57.42799728675596
 42
0.0
 10
-9.615312870951584
 20
57.42799728675596
 42
-0.4142135623729911
 10
-10.01531287095122
 20
57.82799728675581
 42
0.0
 10
-10.01531287095122
 20
58.10010174665103
 42
-0.414213562372991
 10
-9.615312870951584
 20
58.5001017466509
 42
0.0
 10
-6.92703069357276
 20
58.50010174665067
 42
0.0
 10
-6.927030693572305
 20
58.90010174665076
 42
0.0
 10
-9.615346786501959
 20
58.90010174665076
 42
0.4142135623730467
 10
-10.41534678650168
 20
58.10010174665103
 42
0.0
 10
-10.41534678650168
 20
57.82796337120544
 42
0.4142135623730301
 10
-9.615346786501959
 20
57.02796337120571
 42
0.0
 97
        1
330
BE3
 92
        7
 72
     1
 73
     1
 93
       12
 10
-5.21497371544865
 20
57.42799728675596
 42
0.4142135623730871
 10
-6.014973715448377
 20
56.627997286756
 42
0.0
 10
-6.014973715448377
 20
55.92380871629621
 42
0.4142135623730715
 10
-5.21497371544865
 20
55.12380871629648
 42
0.0
 10
-2.23871460064447
 20
55.12380871629648
 42
0.0
 10
-2.23871460064447
 20
58.10010174665058
 42
0.414213562373155
 10
-3.038714600644652
 20
58.90010174665076
 42
0.0
 10
-5.726962862471737
 20
58.90010174665076
 42
0.0
 10
-5.726962862472191
 20
58.5001017466509
 42
0.0
 10
-3.038748516194573
 20
58.5001017466509
 42
-0.4142135623730067
 10
-2.638748516194482
 20
58.10010174665058
 42
0.0
 10
-2.638748516194482
 20
57.42799728675596
 42
0.0
 97
        1
330
BE2
 92
       22
 72
     1
 73
     1
 93
        6
 10
-2.638748516194937
 20
57.02796337120571
 42
0.0
 10
-2.638748516194482
 20
55.50786840766477
 42
0.0
 10
-5.21497371544865
 20
55.507868407665
 42
-0.4142135623731731
 10
-5.614973715448741
 20
55.90786840766509
 42
0.0
 10
-5.614973715448741
 20
56.62796337120562
 42
-0.4142135623731576
 10
-5.21497371544865
 20
57.02796337120571
 42
0.0
 97
        1
330
C0D
 75
     0
 76
     1
 47
0.0407044778999864
 98
       13
 10
-34.18710075113677
 20
56.16907953933765
 10
-33.12851374392494
 20
56.49471602641233
 10
-33.12851374392494
 20
56.49471602641233
 10
-28.77202873835904
 20
57.51232930166111
 10
-24.41554807250941
 20
57.91937341678636
 10
-24.41554807250941
 20
59.384734621186
 10
-23.31624584658039
 20
58.3264175319116
 10
-19.04119127844888
 20
57.75655517324913
 10
-19.04119127844888
 20
57.75655517324913
 10
-14.64399105416578
 20
57.43091868617466
 10
-8.048195057457178
 20
57.22739662861204
 10
-4.017427461911665
 20
57.18669281458665
 10
-4.017427461911665
 20
57.18669281458665
  0
TEXT
  5
BED
330
B9E
100
AcDbEntity
  8
leg fin
100
AcDbText
 10
3.391127401597259
 20
2.107634911895729
 30
0.0
 40
1.5
  1
Este desenho é propriedade da Sanindusa, S.A., e não pode ser copiado nem divulgado sem nossa autorização.
 50
90.0
 41
0.8
  7
SANINDUSA
100
AcDbText
  0
LINE
  5
BEE
330
B9E
100
AcDbEntity
  8
3
100
AcDbLine
 10
-90.0
 20
4.0
 30
0.0
 11
-90.0
 21
12.0
 31
0.0
  0
TEXT
  5
BEF
330
B9E
100
AcDbEntity
  8
1
100
AcDbText
 10
-39.0
 20
9.25
 30
0.0
 40
2.0
  1
Substituido por:
 41
0.8
  7
SANINDUSA
 11
-39.0
 21
10.25
 31
0.0
100
AcDbText
 73
     2
  0
POINT
  5
BF0
330
B9E
100
AcDbEntity
  8
SANINDUSA
100
AcDbPoint
 10
0.0
 20
0.0
 30
0.0
  0
TEXT
  5
BF1
330
B9E
100
AcDbEntity
  8
1
100
AcDbText
 10
-89.0
 20
16.74927010445663
 30
0.0
 40
2.0
  1
Normas:
 41
0.8
  7
SANINDUSA
 11
-89.0
 21
17.74927010445663
 31
0.0
100
AcDbText
 73
     2
  0
LINE
  5
BF2
330
B9E
100
AcDbEntity
  8
3
100
AcDbLine
 10
-90.0
 20
12.0
 30
0.0
 11
-90.0
 21
20.0
 31
0.0
  0
LINE
  5
BF3
330
B9E
100
AcDbEntity
  8
3
100
AcDbLine
 10
-110.546019464768
 20
12.0
 30
0.0
 11
-110.546019464768
 21
20.0
 31
0.0
  0
TEXT
  5
BF4
330
B9E
100
AcDbEntity
  8
1
100
AcDbText
 10
-109.6177520618648
 20
17.25
 30
0.0
 40
2.0
  1
Cor:
 41
0.8
  7
SANINDUSA
 11
-109.6177520618648
 21
18.25
 31
0.0
100
AcDbText
 73
     2
  0
LINE
  5
BF5
330
B9E
100
AcDbEntity
  8
leg fin
100
AcDbLine
 10
-91.42857142857156
 20
20.0
 30
0.0
 11
-91.42857142857156
 21
28.5
 31
0.0
  0
LINE
  5
BF6
330
B9E
100
AcDbEntity
  8
leg fin
100
AcDbLine
 10
-104.2857142857142
 20
20.0
 30
0.0
 11
-104.2857142857142
 21
28.5
 31
0.0
  0
LINE
  5
BF7
330
B9E
100
AcDbEntity
  8
leg fin
100
AcDbLine
 10
-117.1428571428573
 20
20.0
 30
0.0
 11
-117.1428571428573
 21
28.5
 31
0.0
  0
POINT
  5
BF8
330
B9E
100
AcDbEntity
  8
SANINDUSA
100
AcDbPoint
 10
-117.1428571428573
 20
28.5
 30
0.0
  0
POINT
  5
BF9
330
B9E
100
AcDbEntity
  8
SANINDUSA
100
AcDbPoint
 10
-104.2857142857142
 20
28.5
 30
0.0
  0
POINT
  5
BFA
330
B9E
100
AcDbEntity
  8
SANINDUSA
100
AcDbPoint
 10
-91.42857142857156
 20
28.5
 30
0.0
  0
TEXT
  5
BFB
330
B9E
100
AcDbEntity
  8
1
100
AcDbText
 10
-116.200160604496
 20
26.43288406845113
 30
0.0
 40
1.5
  1
Nº Seq.:
 41
0.8
  7
SANINDUSA
 11
-116.200160604496
 21
27.18288406845113
 31
0.0
100
AcDbText
 73
     2
  0
TEXT
  5
BFC
330
B9E
100
AcDbEntity
  8
1
100
AcDbText
 10
-103.2106584078738
 20
26.43288406845113
 30
0.0
 40
1.5
  1
Tipo:
 41
0.8
  7
SANINDUSA
 11
-103.2106584078738
 21
27.18288406845113
 31
0.0
100
AcDbText
 73
     2
  0
TEXT
  5
BFD
330
B9E
100
AcDbEntity
  8
1
100
AcDbText
 10
-90.22114672289353
 20
26.43288406845113
 30
0.0
 40
1.5
  1
Prod.:
 41
0.8
  7
SANINDUSA
 11
-90.22114672289353
 21
27.18288406845113
 31
0.0
100
AcDbText
 73
     2
  0
TEXT
  5
BFE
330
B9E
100
AcDbEntity
  8
1
100
AcDbText
 10
-64.77320576346574
 20
26.43288406845113
 30
0.0
 40
1.5
  1
Rev.:
 41
0.8
  7
SANINDUSA
 11
-64.77320576346574
 21
27.18288406845113
 31
0.0
100
AcDbText
 73
     2
  0
LINE
  5
BFF
330
B9E
100
AcDbEntity
  8
leg fin
100
AcDbLine
 10
-52.85714285714266
 20
20.0
 30
0.0
 11
-52.85714285714266
 21
28.5
 31
0.0
  0
LINE
  5
C00
330
B9E
100
AcDbEntity
  8
leg fin
100
AcDbLine
 10
-65.71428571428578
 20
20.0
 30
0.0
 11
-65.71428571428578
 21
28.5
 31
0.0
  0
LINE
  5
C01
330
B9E
100
AcDbEntity
  8
leg fin
100
AcDbLine
 10
-78.57142857142844
 20
20.0
 30
0.0
 11
-78.57142857142844
 21
28.5
 31
0.0
  0
POINT
  5
C02
330
B9E
100
AcDbEntity
  8
SANINDUSA
100
AcDbPoint
 10
-78.57142857142844
 20
28.5
 30
0.0
  0
POINT
  5
C03
330
B9E
100
AcDbEntity
  8
SANINDUSA
100
AcDbPoint
 10
-65.71428571428578
 20
28.5
 30
0.0
  0
POINT
  5
C04
330
B9E
100
AcDbEntity
  8
SANINDUSA
100
AcDbPoint
 10
-52.85714285714266
 20
28.5
 30
0.0
  0
TEXT
  5
C05
330
B9E
100
AcDbEntity
  8
1
100
AcDbText
 10
-77.61097961686573
 20
26.43288406845113
 30
0.0
 40
1.5
  1
Peça:
 41
0.8
  7
SANINDUSA
 11
-77.61097961686573
 21
27.18288406845113
 31
0.0
100
AcDbText
 73
     2
  0
TEXT
  5
C06
330
B9E
100
AcDbEntity
  8
1
100
AcDbText
 10
-52.06538060077036
 20
26.43288406845113
 30
0.0
 40
1.5
  1
Alt.:
 41
0.8
  7
SANINDUSA
 11
-52.06538060077036
 21
27.18288406845113
 31
0.0
100
AcDbText
 73
     2
  0
LINE
  5
C07
330
B9E
100
AcDbEntity
  8
3
100
AcDbLine
 10
0.0
 20
12.0
 30
0.0
 11
-40.0
 21
12.0
 31
0.0
  0
LINE
  5
C08
330
B9E
100
AcDbEntity
  8
3
100
AcDbLine
 10
-40.0
 20
32.5
 30
0.0
 11
0.0
 21
32.5
 31
0.0
  0
TEXT
  5
C09
330
B9E
100
AcDbEntity
  8
1
100
AcDbText
 10
-19.0
 20
29.75
 30
0.0
 40
2.0
  1
Folha:
 41
0.8
  7
SANINDUSA
 11
-19.0
 21
30.75
 31
0.0
100
AcDbText
 73
     2
  0
LINE
  5
C0A
330
B9E
100
AcDbEntity
  8
3
100
AcDbLine
 10
-20.0
 20
32.5
 30
0.0
 11
-20.0
 21
20.0
 31
0.0
  0
TEXT
  5
C0B
330
B9E
100
AcDbEntity
  8
1
100
AcDbText
 10
-39.0
 20
29.75
 30
0.0
 40
2.0
  1
Escala:
 41
0.8
  7
SANINDUSA
 11
-39.0
 21
30.75
 31
0.0
100
AcDbText
 73
     2
  0
TEXT
  5
C0C
330
B9E
100
AcDbEntity
  8
1
100
AcDbText
 10
-39.0
 20
17.25
 30
0.0
 40
2.0
  1
Substitui:
 41
0.8
  7
SANINDUSA
 11
-39.0
 21
18.25
 31
0.0
100
AcDbText
 73
     2
  0
LWPOLYLINE
  5
C0D
102
{ACAD_REACTORS
330
BEC
102
}
330
B9E
100
AcDbEntity
  8
9
100
AcDbPolyline
 90
        6
 70
     1
 43
0.0
 10
-2.638748516194482
 20
57.02796337120571
 10
-2.638748516194482
 20
55.50786840766477
 10
-5.21497371544865
 20
55.507868407665
 42
-0.4142135623730898
 10
-5.614973715448741
 20
55.90786840766487
 10
-5.614973715448741
 20
56.62796337120562
 42
-0.4142135623731576
 10
-5.21497371544865
 20
57.02796337120571
  0
LINE
  5
C0E
330
B9E
100
AcDbEntity
  8
3
100
AcDbLine
 10
-40.0
 20
50.0
 30
0.0
 11
0.0
 21
50.0
 31
0.0
  0
ATTDEF
  5
C0F
330
B9E
100
AcDbEntity
  8
1
100
AcDbText
 10
-31.30691739422431
 20
40.25
 30
0.0
 40
2.0
  1
XXXXXXXXXXXXXXX
 41
0.8
  7
SANINDUSA
 72
     4
 11
-20.0
 21
41.25
 31
0.0
100
AcDbAttributeDefinition
  3
Observações:
  2
OBS
 70
     0
  0
TEXT
  5
C10
330
B9E
100
AcDbEntity
  8
1
100
AcDbText
 10
-39.0
 20
47.25
 30
0.0
 40
2.0
  1
Observações:
 41
0.8
  7
SANINDUSA
 11
-39.0
 21
48.25
 31
0.0
100
AcDbText
 73
     2
  0
LWPOLYLINE
  5
C11
102
{ACAD_REACTORS
330
BEC
102
}
330
B9E
100
AcDbEntity
  8
9
100
AcDbPolyline
 90
        6
 70
     1
 43
0.0
 10
-29.98468712904878
 20
57.02796337120571
 10
-29.98468712904878
 20
55.507868407665
 10
-32.57692046803459
 20
55.507868407665
 42
-0.4142135623731731
 10
-32.97692046803468
 20
55.90786840766487
 10
-32.97692046803468
 20
56.62796337120562
 42
-0.4142135623731576
 10
-32.57692046803459
 20
57.02796337120571
  0
LWPOLYLINE
  5
C12
102
{ACAD_REACTORS
330
BEC
102
}
330
B9E
100
AcDbEntity
  8
9
100
AcDbPolyline
 90
        4
 70
     1
 43
0.0
 10
-24.19231812786165
 20
59.87619128370352
 10
-24.57637781922995
 20
59.87619128370352
 10
-24.57637781922995
 20
59.28412752246913
 10
-24.19231812786165
 20
59.28412752246913
  0
ENDBLK
  5
C14
330
B9E
100
AcDbEntity
  8
0
100
AcDbBlockEnd
  0
ENDSEC
  0
SECTION
  2
ENTITIES
  0
ARC
  5
1229
330
1F
100
AcDbEntity
  8
SANINDUSA
  6
Continuous
370
    15
100
AcDbCircle
 10
4000.991670792508
 20
1839.511484281231
 30
0.0
 40
0.040000000693385
100
AcDbArc
 50
282.5564909727802
 51
350.0004592929297
  0
ARC
  5
122A
330
1F
100
AcDbEntity
  8
SANINDUSA
  6
Continuous
370
    15
100
AcDbCircle
 10
4000.69213845197
 20
1839.511484281231
 30
0.0
 40
0.0400000006934088
100
AcDbArc
 50
189.9995407070703
 51
257.4458664300205
  0
SPLINE
  5
122B
330
1F
100
AcDbEntity
  8
SANINDUSA
  6
Continuous
370
    15
100
AcDbSpline
210
0.0
220
0.0
230
1.0
 70
     8
 71
     3
 72
    22
 73
    18
 74
     0
 42
0.0000000001
 43
0.0000000001
 40
0.0
 40
0.0
 40
0.0
 40
0.0
 40
0.0378619092021035
 40
0.1261734727636612
 40
0.2041345287344597
 40
0.2717539518690329
 40
0.3176324541814514
 40
0.3571319588387493
 40
0.3902536121207741
 40
0.4222750588563573
 40
0.4733511986211546
 40
0.5352293971489781
 40
0.6079121373618247
 40
0.6914043082250102
 40
0.7857141639228285
 40
0.8908544391115427
 40
1.0
 40
1.0
 40
1.0
 40
1.0
 10
4000.889097678883
 20
1839.45760947226
 30
0.0
 10
4000.890514911856
 20
1839.457668940807
 30
0.0
 10
4000.895237790595
 20
1839.457867117638
 30
0.0
 10
4000.902870811388
 20
1839.458352203939
 30
0.0
 10
4000.911609511144
 20
1839.458999103965
 30
0.0
 10
4000.918755129884
 20
1839.459626020205
 30
0.0
 10
4000.924460085163
 20
1839.460181688257
 30
0.0
 10
4000.928875365644
 20
1839.460644971379
 30
0.0
 10
4000.932771676102
 20
1839.461078547617
 30
0.0
 10
4000.937096246062
 20
1839.461584515654
 30
0.0
 10
4000.942486222665
 20
1839.462254504276
 30
0.0
 10
4000.949379246011
 20
1839.463179861738
 30
0.0
 10
4000.957462726812
 20
1839.464361323086
 30
0.0
 10
4000.966729561366
 20
1839.46584309597
 30
0.0
 10
4000.977169323792
 20
1839.467682084437
 30
0.0
 10
4000.988523427625
 20
1839.469866360055
 30
0.0
 10
4000.996367465439
 20
1839.471576466308
 30
0.0
 10
4001.000362792068
 20
1839.472447501508
 30
0.0
  0
SPLINE
  5
122C
330
1F
100
AcDbEntity
  8
SANINDUSA
  6
Continuous
370
    15
100
AcDbSpline
210
0.0
220
0.0
230
1.0
 70
     8
 71
     3
 72
    22
 73
    18
 74
     0
 42
0.0000000001
 43
0.0000000001
 40
0.0
 40
0.0
 40
0.0
 40
0.0
 40
0.0918376347251563
 40
0.1801537585156322
 40
0.2581183051600798
 40
0.3257406935401689
 40
0.3716214650123824
 40
0.4111234007954638
 40
0.4442478151349624
 40
0.4762679149005
 40
0.5273423001946983
 40
0.5892190714137288
 40
0.6619002667433655
 40
0.7453902514215307
 40
0.8396966749769269
 40
0.9448315832645155
 40
1.0
 40
1.0
 40
1.0
 40
1.0
 10
4000.68344620894
 20
1839.47244637415
 30
0.0
 10
4000.686807306181
 20
1839.471710566392
 30
0.0
 10
4000.693400619508
 20
1839.470267165397
 30
0.0
 10
4000.702888728445
 20
1839.468396331064
 30
0.0
 10
4000.711507691458
 20
1839.466813249792
 30
0.0
 10
4000.718579230114
 20
1839.465608911448
 30
0.0
 10
4000.724239226461
 20
1839.464701646535
 30
0.0
 10
4000.728628153091
 20
1839.46403146893
 30
0.0
 10
4000.732507381135
 20
1839.463464055888
 30
0.0
 10
4000.736819083273
 20
1839.462858219859
 30
0.0
 10
4000.742202841876
 20
1839.462141249232
 30
0.0
 10
4000.749105307215
 20
1839.461290569907
 30
0.0
 10
4000.757224278594
 20
1839.46038643127
 30
0.0
 10
4000.766563934246
 20
1839.459471700603
 30
0.0
 10
4000.777128928058
 20
1839.458611758598
 30
0.0
 10
4000.786646798832
 20
1839.457964263229
 30
0.0
 10
4000.792647071379
 20
1839.457707926222
 30
0.0
 10
4000.794712066203
 20
1839.457619707798
 30
0.0
  0
SPLINE
  5
122D
330
1F
100
AcDbEntity
  8
SANINDUSA
  6
Continuous
370
    15
100
AcDbSpline
210
0.0
220
0.0
230
1.0
 70
    24
 71
     1
 72
     4
 73
     2
 74
     0
 42
0.0000000001
 43
0.0000000001
 40
0.0
 40
0.0
 40
1.0
 40
1.0
 10
4000.804142776609
 20
1839.448466593824
 30
0.0
 10
4000.80690462224
 20
1839.416898553825
 30
0.0
  0
SPLINE
  5
122E
330
1F
100
AcDbEntity
  8
SANINDUSA
  6
Continuous
370
    15
100
AcDbSpline
210
0.0
220
0.0
230
1.0
 70
    24
 71
     1
 72
     4
 73
     2
 74
     0
 42
0.0000000001
 43
0.0000000001
 40
0.0
 40
0.0
 40
1.0
 40
1.0
 10
4000.87690462224
 20
1839.416898553825
 30
0.0
 10
4000.879666467869
 20
1839.448466593824
 30
0.0
  0
SPLINE
  5
122F
330
1F
100
AcDbEntity
  8
SANINDUSA
  6
Continuous
370
    15
100
AcDbSpline
210
0.0
220
0.0
230
1.0
 70
     8
 71
     3
 72
    19
 73
    15
 74
     0
 42
0.0000000001
 43
0.0000000001
 40
0.0
 40
0.0
 40
0.0
 40
0.0
 40
0.0148564252703011
 40
0.0490914468896594
 40
0.0967477614764318
 40
0.1855400954058161
 40
0.2728738392290133
 40
0.3943780122149572
 40
0.4996284906392945
 40
0.6095934299115705
 40
0.7248605466551635
 40
0.8430295848649207
 40
0.9628051384065376
 40
0.9999999999999998
 40
0.9999999999999998
 40
0.9999999999999998
 40
0.9999999999999998
 10
4000.795060171562
 20
1839.457560854715
 30
0.0
 10
4000.795128970835
 20
1839.457554829046
 30
0.0
 10
4000.795356310578
 20
1839.457534917875
 30
0.0
 10
4000.795802100237
 20
1839.457473412375
 30
0.0
 10
4000.79658187183
 20
1839.45732468568
 30
0.0
 10
4000.797582952945
 20
1839.457030859322
 30
0.0
 10
4000.798855867539
 20
1839.456481055975
 30
0.0
 10
4000.800104209996
 20
1839.455709347102
 30
0.0
 10
4000.801293547254
 20
1839.454683250938
 30
0.0
 10
4000.802296371088
 20
1839.453512189433
 30
0.0
 10
4000.803140408143
 20
1839.452146899539
 30
0.0
 10
4000.803749434214
 20
1839.450619342441
 30
0.0
 10
4000.804078946937
 20
1839.449369159567
 30
0.0
 10
4000.804106056214
 20
1839.448639244648
 30
0.0
 10
4000.80411247988
 20
1839.448466287952
 30
0.0
  0
SPLINE
  5
1230
330
1F
100
AcDbEntity
  8
SANINDUSA
  6
Continuous
370
    15
100
AcDbSpline
210
0.0
220
0.0
230
1.0
 70
     8
 71
     3
 72
    20
 73
    16
 74
     0
 42
0.0000000001
 43
0.0000000001
 40
0.0
 40
0.0
 40
0.0
 40
0.0
 40
0.1160378980074391
 40
0.2310460238539184
 40
0.3400575842520878
 40
0.4433584069668888
 40
0.5409136044019442
 40
0.6324182524834355
 40
0.7172957580187439
 40
0.7946645629672578
 40
0.8632898961038101
 40
0.9215588853012203
 40
0.9675862619197618
 40
0.9997036843152208
 40
1.0
 40
1.0
 40
1.0
 40
1.0
 10
4000.87967261138
 20
1839.448462425338
 30
0.0
 10
4000.879741719734
 20
1839.448998965336
 30
0.0
 10
4000.879879323147
 20
1839.450067283836
 30
0.0
 10
4000.880408912918
 20
1839.451569057641
 30
0.0
 10
4000.881117534662
 20
1839.45292130482
 30
0.0
 10
4000.881974670873
 20
1839.454086804471
 30
0.0
 10
4000.882927588082
 20
1839.455062498407
 30
0.0
 10
4000.883932931139
 20
1839.455850900818
 30
0.0
 10
4000.884946381437
 20
1839.456461052366
 30
0.0
 10
4000.88592491047
 20
1839.45690834288
 30
0.0
 10
4000.886826058489
 20
1839.457213548224
 30
0.0
 10
4000.887608434779
 20
1839.457404207056
 30
0.0
 10
4000.88823476346
 20
1839.457507064945
 30
0.0
 10
4000.888597300298
 20
1839.457550532779
 30
0.0
 10
4000.88874758065
 20
1839.457561955497
 30
0.0
 10
4000.888748954463
 20
1839.457562059919
 30
0.0
  0
LINE
  5
1231
330
1F
100
AcDbEntity
  8
SANINDUSA
  6
Continuous
370
    15
100
AcDbLine
 10
4000.621904622239
 20
1839.566898553825
 30
0.0
 11
4000.621904622239
 21
1839.556898553825
 31
0.0
  0
LINE
  5
1232
330
1F
100
AcDbEntity
  8
SANINDUSA
  6
Continuous
370
    15
100
AcDbLine
 10
4000.81940462224
 20
1839.556898553825
 30
0.0
 11
4000.81940462224
 21
1839.566898553825
 31
0.0
  0
LINE
  5
1233
330
1F
100
AcDbEntity
  8
SANINDUSA
  6
Continuous
370
    15
100
AcDbLine
 10
4000.621904622239
 20
1839.556898553825
 30
0.0
 11
4000.81940462224
 21
1839.556898553825
 31
0.0
  0
LINE
  5
1234
330
1F
100
AcDbEntity
  8
SANINDUSA
  6
Continuous
370
    15
100
AcDbLine
 10
4000.621904622239
 20
1839.566898553825
 30
0.0
 11
4000.81940462224
 21
1839.566898553825
 31
0.0
  0
LINE
  5
1235
330
1F
100
AcDbEntity
  8
SANINDUSA
  6
Continuous
370
    15
100
AcDbLine
 10
4000.86440462224
 20
1839.556898553825
 30
0.0
 11
4001.061904622239
 21
1839.556898553825
 31
0.0
  0
LINE
  5
1236
330
1F
100
AcDbEntity
  8
SANINDUSA
  6
Continuous
370
    15
100
AcDbLine
 10
4000.86440462224
 20
1839.566898553825
 30
0.0
 11
4000.86440462224
 21
1839.556898553825
 31
0.0
  0
LINE
  5
1237
330
1F
100
AcDbEntity
  8
SANINDUSA
  6
Continuous
370
    15
100
AcDbLine
 10
4000.86440462224
 20
1839.566898553825
 30
0.0
 11
4001.061904622239
 21
1839.566898553825
 31
0.0
  0
LINE
  5
1238
330
1F
100
AcDbEntity
  8
SANINDUSA
  6
Continuous
370
    15
100
AcDbLine
 10
4001.061904622239
 20
1839.566898553825
 30
0.0
 11
4001.061904622239
 21
1839.556898553825
 31
0.0
  0
LINE
  5
1239
330
1F
100
AcDbEntity
  8
SANINDUSA
  6
Continuous
370
    15
100
AcDbLine
 10
4000.86440462224
 20
1839.556898553825
 30
0.0
 11
4000.81940462224
 21
1839.556898553825
 31
0.0
  0
LINE
  5
123A
330
1F
100
AcDbEntity
  8
SANINDUSA
  6
Continuous
370
    15
100
AcDbLine
 10
4000.86440462224
 20
1839.566898553825
 30
0.0
 11
4000.81940462224
 21
1839.566898553825
 31
0.0
  0
ARC
  5
123E
330
1F
100
AcDbEntity
  8
SANINDUSA
  6
Continuous
370
    15
100
AcDbCircle
 10
4001.042812917445
 20
1839.553898553825
 30
0.0
 40
0.0030000000000001
100
AcDbArc
 50
90.0
 51
169.999999998777
  0
LINE
  5
1242
330
1F
100
AcDbEntity
  8
SANINDUSA
  6
Continuous
370
    15
100
AcDbLine
 10
4000.651138794231
 20
1839.513654075454
 30
0.0
 11
4000.643950750293
 21
1839.554419498358
 31
0.0
  0
LINE
  5
1245
330
1F
100
AcDbEntity
  8
SANINDUSA
  6
Continuous
370
    15
100
AcDbLine
 10
4001.039858494186
 20
1839.554419498358
 30
0.0
 11
4001.032670450247
 21
1839.513654075454
 31
0.0
  0
SPLINE
  5
125C
330
1F
100
AcDbEntity
  8
SANINDUSA
  6
Continuous
370
    15
100
AcDbSpline
210
0.0
220
0.0
230
1.0
 70
    24
 71
     3
 72
    22
 73
    18
 74
     0
 42
0.0000000001
 43
0.0000000001
 40
0.0
 40
0.0
 40
0.0
 40
0.0
 40
0.1250000000000009
 40
0.1250000000000009
 40
0.2500000000000019
 40
0.2500000000000019
 40
0.3750000000000028
 40
0.3750000000000028
 40
0.5000000000000038
 40
0.5000000000000038
 40
0.6250000000000047
 40
0.6250000000000047
 40
0.6875000000000041
 40
0.6875000000000041
 40
0.7500000000000035
 40
0.7500000000000035
 40
1.0
 40
1.0
 40
1.0
 40
1.0
 10
4000.652739793904
 20
1839.504574355119
 30
0.0
 10
4000.652739649649
 20
1839.504575173226
 30
0.0
 10
4000.652729218514
 20
1839.504634331136
 30
0.0
 10
4000.65268968546
 20
1839.504858534222
 30
0.0
 10
4000.652660609757
 20
1839.505023430728
 30
0.0
 10
4000.652584908528
 20
1839.505452753731
 30
0.0
 10
4000.652538137125
 20
1839.50571800754
 30
0.0
 10
4000.652427902661
 20
1839.506343178252
 30
0.0
 10
4000.652365102374
 20
1839.506699336373
 30
0.0
 10
4000.652225183504
 20
1839.507492855721
 30
0.0
 10
4000.65214805998
 20
1839.507930244958
 30
0.0
 10
4000.652021928252
 20
1839.508645573539
 30
0.0
 10
4000.651978138697
 20
1839.508893916446
 30
0.0
 10
4000.651887064951
 20
1839.509410421322
 30
0.0
 10
4000.651839691927
 20
1839.509679087092
 30
0.0
 10
4000.651596024492
 20
1839.511060993788
 30
0.0
 10
4000.651378550642
 20
1839.512294349276
 30
0.0
 10
4000.651138794231
 20
1839.513654075454
 30
0.0
  0
SPLINE
  5
125D
330
1F
100
AcDbEntity
  8
SANINDUSA
  6
Continuous
370
    15
100
AcDbSpline
210
0.0
220
0.0
230
1.0
 70
    24
 71
     3
 72
    20
 73
    16
 74
     0
 42
0.0000000001
 43
0.0000000001
 40
0.0
 40
0.0
 40
0.0
 40
0.0
 40
0.2499999999999998
 40
0.2499999999999998
 40
0.3749999999999993
 40
0.3749999999999993
 40
0.4999999999999987
 40
0.4999999999999987
 40
0.6249999999999981
 40
0.6249999999999981
 40
0.6874999999999978
 40
0.6874999999999978
 40
0.7499999999999976
 40
0.7499999999999976
 40
1.0
 40
1.0
 40
1.0
 40
1.0
 10
4001.032670450247
 20
1839.513654075454
 30
0.0
 10
4001.032430435199
 20
1839.512292882472
 30
0.0
 10
4001.032212981201
 20
1839.511059639567
 30
0.0
 10
4001.031920835841
 20
1839.509402800896
 30
0.0
 10
4001.031829028398
 20
1839.508882135013
 30
0.0
 10
4001.031660445803
 20
1839.507926055608
 30
0.0
 10
4001.031583236834
 20
1839.507488181785
 30
0.0
 10
4001.03144330968
 20
1839.506694615467
 30
0.0
 10
4001.031380587124
 20
1839.506338898173
 30
0.0
 10
4001.031298092228
 20
1839.505871046366
 30
0.0
 10
4001.031272496307
 20
1839.505725884686
 30
0.0
 10
4001.031225868517
 20
1839.505461445348
 30
0.0
 10
4001.031204760758
 20
1839.505341737299
 30
0.0
 10
4001.031110331002
 20
1839.50480619954
 30
0.0
 10
4001.031069739521
 20
1839.504575993813
 30
0.0
 10
4001.031069450575
 20
1839.504574355119
 30
0.0
  0
SPLINE
  5
125E
330
1F
100
AcDbEntity
  8
SANINDUSA
  6
Continuous
370
    15
100
AcDbSpline
210
0.0
220
0.0
230
1.0
 70
     8
 71
     3
 72
    38
 73
    34
 74
     0
 42
0.0000000001
 43
0.0000000001
 40
0.0
 40
0.0
 40
0.0
 40
0.0
 40
0.0625000000000002
 40
0.0625000000000002
 40
0.1250000000000004
 40
0.1250000000000004
 40
0.1875000000000005
 40
0.1875000000000005
 40
0.2500000000000006
 40
0.2500000000000006
 40
0.3125000000000007
 40
0.3125000000000007
 40
0.3750000000000008
 40
0.3750000000000008
 40
0.500000000000001
 40
0.500000000000001
 40
0.5625000000000013
 40
0.5625000000000013
 40
0.6250000000000014
 40
0.6250000000000014
 40
0.6875000000000015
 40
0.6875000000000015
 40
0.7187500000000014
 40
0.7187500000000014
 40
0.7500000000000011
 40
0.7500000000000011
 40
0.8750000000000007
 40
0.8750000000000007
 40
0.9062500000000007
 40
0.9062500000000007
 40
0.9375000000000005
 40
0.9375000000000005
 40
1.0
 40
1.0
 40
1.0
 40
1.0
 10
4000.804491159033
 20
1839.457497697932
 30
0.0
 10
4000.805636051743
 20
1839.457622713979
 30
0.0
 10
4000.806848769695
 20
1839.457759381545
 30
0.0
 10
4000.809402811404
 20
1839.458045029697
 30
0.0
 10
4000.810744161677
 20
1839.458194036861
 30
0.0
 10
4000.813553931951
 20
1839.458494487397
 30
0.0
 10
4000.815024294475
 20
1839.458646139224
 30
0.0
 10
4000.818087590258
 20
1839.458941549523
 30
0.0
 10
4000.819656280602
 20
1839.459082934627
 30
0.0
 10
4000.82286482243
 20
1839.459345249409
 30
0.0
 10
4000.824504686238
 20
1839.459466194905
 30
0.0
 10
4000.827855458529
 20
1839.459680755723
 30
0.0
 10
4000.829567290545
 20
1839.459774422502
 30
0.0
 10
4000.834807503591
 20
1839.460004628942
 30
0.0
 10
4000.838323054895
 20
1839.46008472365
 30
0.0
 10
4000.843628393755
 20
1839.460085719606
 30
0.0
 10
4000.845403357594
 20
1839.460066279961
 30
0.0
 10
4000.848959834437
 20
1839.4599876243
 30
0.0
 10
4000.85071252537
 20
1839.459929085884
 30
0.0
 10
4000.854168465077
 20
1839.459778025886
 30
0.0
 10
4000.855871710675
 20
1839.459685497669
 30
0.0
 10
4000.858389376128
 20
1839.45952503607
 30
0.0
 10
4000.859222383741
 20
1839.459467943082
 30
0.0
 10
4000.860875778549
 20
1839.459347265902
 30
0.0
 10
4000.861698255353
 20
1839.459283507852
 30
0.0
 10
4000.865752216164
 20
1839.458952621438
 30
0.0
 10
4000.868782051315
 20
1839.458651702068
 30
0.0
 10
4000.872304967214
 20
1839.45827539281
 30
0.0
 10
4000.872996169326
 20
1839.458200144454
 30
0.0
 10
4000.87435119387
 20
1839.458050928294
 30
0.0
 10
4000.87501630715
 20
1839.45797681463
 30
0.0
 10
4000.876954417246
 20
1839.457760070284
 30
0.0
 10
4000.878173486551
 20
1839.457622681896
 30
0.0
 10
4000.879318085447
 20
1839.457497697932
 30
0.0
  0
SPLINE
  5
125F
330
1F
100
AcDbEntity
  8
SANINDUSA
  6
Continuous
370
    15
100
AcDbSpline
210
0.0
220
0.0
230
1.0
 70
     8
 71
     3
 72
     8
 73
     4
 74
     0
 42
0.0000000001
 43
0.0000000001
 40
0.0
 40
0.0
 40
0.0
 40
0.0
 40
1.0
 40
1.0
 40
1.0
 40
1.0
 10
4000.800904179255
 20
1839.457337432157
 30
0.0
 10
4000.801970049892
 20
1839.457298914407
 30
0.0
 10
4000.803167034927
 20
1839.457356122692
 30
0.0
 10
4000.804491159033
 20
1839.457497697932
 30
0.0
  0
SPLINE
  5
1260
330
1F
100
AcDbEntity
  8
SANINDUSA
  6
Continuous
370
    15
100
AcDbSpline
210
0.0
220
0.0
230
1.0
 70
     8
 71
     3
 72
     8
 73
     4
 74
     0
 42
0.0000000001
 43
0.0000000001
 40
0.0
 40
0.0
 40
0.0
 40
0.0
 40
1.0
 40
1.0
 40
1.0
 40
1.0
 10
4000.879318085447
 20
1839.457497697932
 30
0.0
 10
4000.88064220955
 20
1839.457356122692
 30
0.0
 10
4000.881839194586
 20
1839.457298914407
 30
0.0
 10
4000.882905065224
 20
1839.457337432157
 30
0.0
  0
SPLINE
  5
1264
330
1F
100
AcDbEntity
  8
SANINDUSA
  6
Continuous
370
    15
100
AcDbSpline
210
0.0
220
0.0
230
1.0
 70
    24
 71
     3
 72
    11
 73
     7
 74
     0
 42
0.0000000001
 43
0.0000000001
 40
0.0
 40
0.0
 40
0.0
 40
0.0
 40
0.317833959675932
 40
0.6446720768766304
 40
0.9630226638993077
 40
1.0
 40
1.0
 40
1.0
 40
1.0
 10
4000.882905065224
 20
1839.457337432157
 30
0.0
 10
4000.884101542499
 20
1839.45738266626
 30
0.0
 10
4000.886528392959
 20
1839.457474415939
 30
0.0
 10
4000.888467816883
 20
1839.457559395545
 30
0.0
 10
4000.889336044809
 20
1839.457597688951
 30
0.0
 10
4000.88912103599
 20
1839.457588198642
 30
0.0
 10
4000.889098661016
 20
1839.457587211029
 30
0.0
  0
SPLINE
  5
1265
330
1F
100
AcDbEntity
  8
SANINDUSA
  6
Continuous
370
    15
100
AcDbSpline
210
0.0
220
0.0
230
1.0
 70
    24
 71
     3
 72
    12
 73
     8
 74
     0
 42
0.0000000001
 43
0.0000000001
 40
0.0
 40
0.0
 40
0.0
 40
0.0
 40
0.2902749913695675
 40
0.464703266969363
 40
0.6391310990959211
 40
0.8195660145523154
 40
1.0
 40
1.0
 40
1.0
 40
1.0
 10
4000.794710583671
 20
1839.45758721102
 30
0.0
 10
4000.794780929661
 20
1839.457584050969
 30
0.0
 10
4000.794893547048
 20
1839.457578992022
 30
0.0
 10
4000.795962506781
 20
1839.457532265259
 30
0.0
 10
4000.797187410337
 20
1839.45748077361
 30
0.0
 10
4000.798799661637
 20
1839.457415287566
 30
0.0
 10
4000.800202674589
 20
1839.457363383915
 30
0.0
 10
4000.800904179255
 20
1839.457337432157
 30
0.0
  0
LINE
  5
1267
330
1F
100
AcDbEntity
  8
SANINDUSA
  6
Continuous
370
    15
100
AcDbLine
 10
4000.80690462224
 20
1839.416898553825
 30
0.0
 11
4000.87690462224
 21
1839.416898553825
 31
0.0
  0
ELLIPSE
  5
126E
330
1F
100
AcDbEntity
  8
SANINDUSA
  6
Continuous
370
    15
100
AcDbEllipse
 10
4000.12040785381
 20
1839.614441626047
 30
0.0
 11
-0.0072876004564312
 21
0.0072876004564311
 31
0.0000000000000001
210
0.0000000000000098
220
-0.0000000000000098
230
1.0
 40
0.9702875252478165
 41
5.51286627427863
 42
7.053504340080571
  0
LINE
  5
1277
330
1F
100
AcDbEntity
  8
SANINDUSA
  6
Continuous
370
    15
100
AcDbLine
 10
4000.480405510161
 20
1839.624595892166
 30
0.0
 11
4000.120101665221
 21
1839.624595892166
 31
0.0
  0
LWPOLYLINE
  5
127B
330
1F
100
AcDbEntity
  8
SANINDUSA
  6
Continuous
370
    15
100
AcDbPolyline
 90
       36
 70
   128
 43
0.0
 10
4000.300253587691
 20
1839.622251641768
 10
4000.2982001834
 20
1839.622219549895
 10
4000.296212777214
 20
1839.622124305735
 10
4000.294355246
 20
1839.621968970514
 10
4000.292687292342
 20
1839.621758536834
 10
4000.291262525642
 20
1839.621499768205
 10
4000.290126739074
 20
1839.621200981666
 10
4000.289316437753
 20
1839.620871780461
 10
4000.28885766543
 20
1839.620522745387
 10
4000.288765167425
 20
1839.62016509472
 10
4000.2890419167
 20
1839.619810323646
 10
4000.289679018306
 20
1839.619469834799
 10
4000.290655995273
 20
1839.61915457177
 10
4000.291941446756
 20
1839.618874667374
 10
4000.29349405729
 20
1839.618639117967
 10
4000.295263924691
 20
1839.618455494301
 10
4000.297194163966
 20
1839.618329698193
 10
4000.299222735638
 20
1839.618265772831
 10
4000.301284439743
 20
1839.618265772831
 10
4000.303313011414
 20
1839.618329698193
 10
4000.30524325069
 20
1839.618455494301
 10
4000.307013118091
 20
1839.618639117967
 10
4000.308565728625
 20
1839.618874667374
 10
4000.309851180108
 20
1839.61915457177
 10
4000.310828157075
 20
1839.619469834799
 10
4000.311465258681
 20
1839.619810323646
 10
4000.311742007956
 20
1839.62016509472
 10
4000.311649509951
 20
1839.620522745387
 10
4000.311190737629
 20
1839.620871780461
 10
4000.310380436307
 20
1839.621200981666
 10
4000.30924464974
 20
1839.621499768205
 10
4000.307819883039
 20
1839.621758536834
 10
4000.306151929381
 20
1839.621968970514
 10
4000.304294398167
 20
1839.622124305735
 10
4000.302306991981
 20
1839.622219549895
 10
4000.300253587691
 20
1839.622251641768
  0
ELLIPSE
  5
127C
330
1F
100
AcDbEntity
  8
SANINDUSA
  6
Continuous
370
    15
100
AcDbEllipse
 10
4000.480099321572
 20
1839.614441626047
 30
0.0
 11
0.0072876004564312
 21
0.0072876004564312
 31
0.0000000000000001
210
-0.0000000000000098
220
-0.0000000000000098
230
1.0
 40
0.9702875252478172
 41
5.512866274278627
 42
7.053504340080566
  0
ELLIPSE
  5
127F
330
1F
100
AcDbEntity
  8
SANINDUSA
  6
Continuous
370
    15
100
AcDbEllipse
 10
4000.480099321572
 20
1839.434750158285
 30
0.0
 11
0.0072876004564312
 21
-0.0072876004564312
 31
-0.0000000000000001
210
0.0000000000000098
220
-0.0000000000000098
230
1.0
 40
0.9702875252478172
 41
5.512866274278634
 42
7.053504340080566
  0
ELLIPSE
  5
1283
330
1F
100
AcDbEntity
  8
SANINDUSA
  6
Continuous
370
    15
100
AcDbEllipse
 10
4000.12040785381
 20
1839.434750158285
 30
0.0
 11
-0.0072876004564312
 21
-0.0072876004564312
 31
-0.0000000000000001
210
-0.0000000000000098
220
-0.0000000000000098
230
1.0
 40
0.9702875252478143
 41
5.512866274278629
 42
7.05350434008057
  0
LINE
  5
128C
330
1F
100
AcDbEntity
  8
SANINDUSA
  6
Continuous
370
    15
100
AcDbLine
 10
4000.120101665221
 20
1839.424595892166
 30
0.0
 11
4000.480405510161
 21
1839.424595892166
 31
0.0
  0
LINE
  5
128F
330
1F
100
AcDbEntity
  8
SANINDUSA
  6
Continuous
370
    15
100
AcDbLine
 10
4000.110253587691
 20
1839.614747814636
 30
0.0
 11
4000.110253587691
 21
1839.434443969696
 31
0.0
  0
LINE
  5
1290
330
1F
100
AcDbEntity
  8
SANINDUSA
  6
Continuous
370
    15
100
AcDbLine
 10
4000.490253587691
 20
1839.434443969696
 30
0.0
 11
4000.490253587691
 21
1839.614747814636
 31
0.0
  0
LINE
  5
1291
330
1F
100
AcDbEntity
  8
SANINDUSA
  6
Continuous
370
    15
100
AcDbLine
 10
4000.520253587691
 20
1839.394595892166
 30
0.0
 11
4000.520253587691
 21
1839.502095892166
 31
0.0
  0
LINE
  5
1292
330
1F
100
AcDbEntity
  8
SANINDUSA
  6
Continuous
370
    15
100
AcDbLine
 10
4000.322753587691
 20
1839.394595892166
 30
0.0
 11
4000.520253587691
 21
1839.394595892166
 31
0.0
  0
ARC
  5
1293
330
1F
100
AcDbEntity
  8
SANINDUSA
  6
Continuous
370
    15
100
AcDbCircle
 10
4000.300253587691
 20
1839.38162473832
 30
0.0
 40
0.0259711538461538
100
AcDbArc
 50
29.96326514263067
 51
150.0367348573693
  0
LINE
  5
1294
330
1F
100
AcDbEntity
  8
SANINDUSA
  6
Continuous
370
    15
100
AcDbLine
 10
4000.08025358769
 20
1839.394595892166
 30
0.0
 11
4000.277753587691
 21
1839.394595892166
 31
0.0
  0
LINE
  5
1295
330
1F
100
AcDbEntity
  8
SANINDUSA
  6
Continuous
370
    15
100
AcDbLine
 10
4000.08025358769
 20
1839.502095892166
 30
0.0
 11
4000.08025358769
 21
1839.394595892166
 31
0.0
  0
ARC
  5
1296
330
1F
100
AcDbEntity
  8
SANINDUSA
  6
Continuous
370
    15
100
AcDbCircle
 10
4000.067282433845
 20
1839.524595892166
 30
0.0
 40
0.0259711538461538
100
AcDbArc
 50
299.9632651313443
 51
60.03673486865569
  0
ARC
  5
1297
330
1F
100
AcDbEntity
  8
SANINDUSA
  6
Continuous
370
    15
100
AcDbCircle
 10
4000.533224741537
 20
1839.524595892166
 30
0.0
 40
0.0259711538461539
100
AcDbArc
 50
119.9632651313443
 51
240.0367348686557
  0
LINE
  5
1298
330
1F
100
AcDbEntity
  8
SANINDUSA
  6
Continuous
370
    15
100
AcDbLine
 10
4000.520253587691
 20
1839.547095892166
 30
0.0
 11
4000.520253587691
 21
1839.654595892166
 31
0.0
  0
LINE
  5
1299
330
1F
100
AcDbEntity
  8
SANINDUSA
  6
Continuous
370
    15
100
AcDbLine
 10
4000.520253587691
 20
1839.654595892166
 30
0.0
 11
4000.08025358769
 21
1839.654595892166
 31
0.0
  0
LINE
  5
129A
330
1F
100
AcDbEntity
  8
SANINDUSA
  6
Continuous
370
    15
100
AcDbLine
 10
4000.08025358769
 20
1839.654595892166
 30
0.0
 11
4000.08025358769
 21
1839.547095892166
 31
0.0
  0
SPLINE
  5
12B0
330
1F
100
AcDbEntity
  8
SANINDUSA
  6
Continuous
370
    15
100
AcDbSpline
210
0.0
220
0.0
230
1.0
 70
    24
 71
     3
 72
     8
 73
     4
 74
     0
 42
0.0000000001
 43
0.0000000001
 40
0.0
 40
0.0
 40
0.0
 40
0.0
 40
1.0
 40
1.0
 40
1.0
 40
1.0
 10
4000.143994448143
 20
1839.464798366046
 30
0.0
 10
4000.146856887074
 20
1839.4649019946
 30
0.0
 10
4000.149723899954
 20
1839.465002683093
 30
0.0
 10
4000.152595489192
 20
1839.465100439696
 30
0.0
  0
SPLINE
  5
12B4
330
1F
100
AcDbEntity
  8
SANINDUSA
  6
Continuous
370
    15
100
AcDbSpline
210
0.0
220
0.0
230
1.0
 70
    24
 71
     3
 72
     8
 73
     4
 74
     0
 42
0.0000000001
 43
0.0000000001
 40
0.0
 40
0.0
 40
0.0
 40
0.0
 40
1.0
 40
1.0
 40
1.0
 40
1.0
 10
4000.456512727239
 20
1839.584393418286
 30
0.0
 10
4000.453650288307
 20
1839.584289789732
 30
0.0
 10
4000.450783275428
 20
1839.584189101239
 30
0.0
 10
4000.447911686189
 20
1839.584091344637
 30
0.0
  0
SPLINE
  5
12B6
330
1F
100
AcDbEntity
  8
SANINDUSA
  6
Continuous
370
    15
100
AcDbSpline
210
0.0
220
0.0
230
1.0
 70
    24
 71
     3
 72
     8
 73
     4
 74
     0
 42
0.0000000001
 43
0.0000000001
 40
0.0
 40
0.0
 40
0.0
 40
0.0
 40
1.0
 40
1.0
 40
1.0
 40
1.0
 10
4000.447911686189
 20
1839.465100439696
 30
0.0
 10
4000.450783275428
 20
1839.465002683093
 30
0.0
 10
4000.453650288307
 20
1839.4649019946
 30
0.0
 10
4000.456512727239
 20
1839.464798366046
 30
0.0
  0
SPLINE
  5
12BB
330
1F
100
AcDbEntity
  8
SANINDUSA
  6
Continuous
370
    15
100
AcDbSpline
210
0.0
220
0.0
230
1.0
 70
    24
 71
     3
 72
     8
 73
     4
 74
     0
 42
0.0000000001
 43
0.0000000001
 40
0.0
 40
0.0
 40
0.0
 40
0.0
 40
1.0
 40
1.0
 40
1.0
 40
1.0
 10
4000.152595489192
 20
1839.584091344637
 30
0.0
 10
4000.149723899954
 20
1839.584189101239
 30
0.0
 10
4000.146856887074
 20
1839.584289789732
 30
0.0
 10
4000.143994448143
 20
1839.584393418286
 30
0.0
  0
SPLINE
  5
12BF
330
1F
100
AcDbEntity
  8
SANINDUSA
  6
Continuous
370
    15
100
AcDbSpline
210
0.0
220
0.0
230
1.0
 70
     8
 71
     3
 72
    10
 73
     6
 74
     0
 42
0.0000000001
 43
0.0000000001
 40
0.0
 40
0.0
 40
0.0
 40
0.0
 40
0.5
 40
0.5
 40
1.0
 40
1.0
 40
1.0
 40
1.0
 10
4000.143994448143
 20
1839.584393418286
 30
0.0
 10
4000.143977057104
 20
1839.564460914857
 30
0.0
 10
4000.143959341496
 20
1839.544528405414
 30
0.0
 10
4000.143959341496
 20
1839.504663378733
 30
0.0
 10
4000.143977057105
 20
1839.484730869057
 30
0.0
 10
4000.143994448143
 20
1839.464798366046
 30
0.0
  0
SPLINE
  5
12C2
330
1F
100
AcDbEntity
  8
SANINDUSA
  6
Continuous
370
    15
100
AcDbSpline
210
0.0
220
0.0
230
1.0
 70
     8
 71
     3
 72
    10
 73
     6
 74
     0
 42
0.0000000001
 43
0.0000000001
 40
0.0
 40
0.0
 40
0.0
 40
0.0
 40
0.5
 40
0.5
 40
1.0
 40
1.0
 40
1.0
 40
1.0
 10
4000.456512727239
 20
1839.464798366046
 30
0.0
 10
4000.456530118277
 20
1839.484730869476
 30
0.0
 10
4000.456547833885
 20
1839.504663378918
 30
0.0
 10
4000.456547833885
 20
1839.544528405599
 30
0.0
 10
4000.456530118277
 20
1839.564460915276
 30
0.0
 10
4000.456512727239
 20
1839.584393418286
 30
0.0
  0
SPLINE
  5
12C9
330
1F
100
AcDbEntity
  8
SANINDUSA
  6
Continuous
370
    15
100
AcDbSpline
210
0.0
220
0.0
230
1.0
 70
     8
 71
     3
 72
    14
 73
    10
 74
     0
 42
0.0000000001
 43
0.0000000001
 40
0.0
 40
0.0
 40
0.0
 40
0.0
 40
0.1526381543162555
 40
0.3027277479543939
 40
0.4498239817158807
 40
0.593499104781702
 40
0.7333436024632687
 40
0.8689672387608636
 40
1.0
 40
1.0
 40
1.0
 40
1.0
 10
4000.328543623814
 20
1839.547007253105
 30
0.0
 10
4000.328641801471
 20
1839.546898782976
 30
0.0
 10
4000.328836517539
 20
1839.546683653818
 30
0.0
 10
4000.329119124156
 20
1839.546357846159
 30
0.0
 10
4000.329391420131
 20
1839.546034472266
 30
0.0
 10
4000.329652461462
 20
1839.54571445758
 30
0.0
 10
4000.329901774636
 20
1839.545399114692
 30
0.0
 10
4000.330139341093
 20
1839.545089964484
 30
0.0
 10
4000.330291278022
 20
1839.544884258903
 30
0.0
 10
4000.330365938579
 20
1839.544783176872
 30
0.0
  0
SPLINE
  5
12CA
330
1F
100
AcDbEntity
  8
SANINDUSA
  6
Continuous
370
    15
100
AcDbSpline
210
0.0
220
0.0
230
1.0
 70
     8
 71
     3
 72
    14
 73
    10
 74
     0
 42
0.0000000001
 43
0.0000000001
 40
0.0
 40
0.0
 40
0.0
 40
0.0
 40
0.152638176677965
 40
0.3027277860068429
 40
0.4498240282742551
 40
0.5934991521896364
 40
0.7333436426385779
 40
0.8689672632438899
 40
0.9999999999999998
 40
0.9999999999999998
 40
0.9999999999999998
 40
0.9999999999999998
 10
4000.271963551567
 20
1839.502184531228
 30
0.0
 10
4000.271865373897
 20
1839.502293001373
 30
0.0
 10
4000.271670657808
 20
1839.50250813056
 30
0.0
 10
4000.271388051163
 20
1839.502833938255
 30
0.0
 10
4000.271115755174
 20
1839.503157312168
 30
0.0
 10
4000.270854713842
 20
1839.503477326855
 30
0.0
 10
4000.270605400682
 20
1839.503792669726
 30
0.0
 10
4000.270367834252
 20
1839.504101819898
 30
0.0
 10
4000.270215897345
 20
1839.504307525449
 30
0.0
 10
4000.270141236802
 20
1839.504408607461
 30
0.0
  0
SPLINE
  5
12CB
330
1F
100
AcDbEntity
  8
SANINDUSA
  6
Continuous
370
    15
100
AcDbSpline
210
0.0
220
0.0
230
1.0
 70
     8
 71
     3
 72
    13
 73
     9
 74
     0
 42
0.0000000001
 43
0.0000000001
 40
0.0
 40
0.0
 40
0.0
 40
0.0
 40
0.1533276420451056
 40
0.3128211595161515
 40
0.4778848683952141
 40
0.6478861947257203
 40
0.822157797699991
 40
1.0
 40
1.0
 40
1.0
 40
1.0
 10
4000.270141236802
 20
1839.544783176872
 30
0.0
 10
4000.270228690307
 20
1839.544901392819
 30
0.0
 10
4000.270407114147
 20
1839.545142578617
 30
0.0
 10
4000.270687831743
 20
1839.545504922658
 30
0.0
 10
4000.270984276702
 20
1839.545875193783
 30
0.0
 10
4000.27129652613
 20
1839.546250795741
 30
0.0
 10
4000.271622980738
 20
1839.546630364345
 30
0.0
 10
4000.271849263088
 20
1839.546880777084
 30
0.0
 10
4000.271963551567
 20
1839.547007253105
 30
0.0
  0
SPLINE
  5
12CC
330
1F
100
AcDbEntity
  8
SANINDUSA
  6
Continuous
370
    15
100
AcDbSpline
210
0.0
220
0.0
230
1.0
 70
     8
 71
     3
 72
    34
 73
    30
 74
     0
 42
0.0000000001
 43
0.0000000001
 40
0.0
 40
0.0
 40
0.0
 40
0.0
 40
0.0145632891710876
 40
0.0289733236891977
 40
0.0432185174805491
 40
0.0572883993266145
 40
0.071173361517361
 40
0.0848644310801971
 40
0.0983520186712682
 40
0.1116196913988638
 40
0.1246489780237254
 40
0.1877872349410407
 40
0.2492849205643751
 40
0.375252222614317
 40
0.4991596870258407
 40
0.5605842413688312
 40
0.6230790074950395
 40
0.686194738344423
 40
0.7493339899685178
 40
0.7720894940479834
 40
0.7955446896827925
 40
0.8196341293553977
 40
0.8442928385937479
 40
0.8694480533268711
 40
0.8950182622574642
 40
0.9209129010502962
 40
0.9470619673386702
 40
0.9734359436290825
 40
1.0
 40
1.0
 40
1.0
 40
1.0
 10
4000.330365938579
 20
1839.544783176872
 30
0.0
 10
4000.330478533292
 20
1839.544609119644
 30
0.0
 10
4000.330702537844
 20
1839.544262836857
 30
0.0
 10
4000.331025712095
 20
1839.543739334657
 30
0.0
 10
4000.331337328137
 20
1839.543217058363
 30
0.0
 10
4000.331636586703
 20
1839.542696197138
 30
0.0
 10
4000.331923677544
 20
1839.542177532358
 30
0.0
 10
4000.332198530119
 20
1839.541661650438
 30
0.0
 10
4000.332461071923
 20
1839.541149250843
 30
0.0
 10
4000.33271134791
 20
1839.540641225284
 30
0.0
 10
4000.333256286201
 20
1839.539490691087
 30
0.0
 10
4000.334013754208
 20
1839.537681192538
 30
0.0
 10
4000.335156982029
 20
1839.534299480466
 30
0.0
 10
4000.336102515755
 20
1839.529952313267
 30
0.0
 10
4000.336437168241
 20
1839.525517749598
 30
0.0
 10
4000.336309923745
 20
1839.521989458063
 30
0.0
 10
4000.336024236963
 20
1839.519340086352
 30
0.0
 10
4000.335548801786
 20
1839.516693523069
 30
0.0
 10
4000.335024581966
 20
1839.514635910113
 30
0.0
 10
4000.33456083541
 20
1839.513149892093
 30
0.0
 10
4000.33423606088
 20
1839.512203231194
 30
0.0
 10
4000.333876030475
 20
1839.511240449062
 30
0.0
 10
4000.333480771071
 20
1839.510265420505
 30
0.0
 10
4000.333050355984
 20
1839.509282334454
 30
0.0
 10
4000.332584820363
 20
1839.508295893645
 30
0.0
 10
4000.33208412135
 20
1839.50731089039
 30
0.0
 10
4000.331547254697
 20
1839.506332115365
 30
0.0
 10
4000.330977655969
 20
1839.505360783644
 30
0.0
 10
4000.330570331891
 20
1839.504726758369
 30
0.0
 10
4000.330365938579
 20
1839.504408607461
 30
0.0
  0
SPLINE
  5
12CD
330
1F
100
AcDbEntity
  8
SANINDUSA
  6
Continuous
370
    15
100
AcDbSpline
210
0.0
220
0.0
230
1.0
 70
     8
 71
     3
 72
    34
 73
    30
 74
     0
 42
0.0000000001
 43
0.0000000001
 40
0.0
 40
0.0
 40
0.0
 40
0.0
 40
0.0145632891683742
 40
0.0289733236843791
 40
0.0432185174742631
 40
0.0572883993195311
 40
0.0711733615101764
 40
0.0848644310736368
 40
0.0983520186660921
 40
0.1116196913958589
 40
0.1246489780237027
 40
0.1877872349408056
 40
0.249284920564407
 40
0.3752522226184158
 40
0.4991596870258003
 40
0.5605842413712883
 40
0.6230790074983337
 40
0.6861947383468879
 40
0.7493339899685708
 40
0.7720894940497357
 40
0.7955446896858227
 40
0.8196341293592924
 40
0.8442928385981103
 40
0.8694480533313175
 40
0.8950182622616331
 40
0.9209129010538511
 40
0.9470619673413082
 40
0.9734359436305267
 40
0.9999999999999998
 40
0.9999999999999998
 40
0.9999999999999998
 40
0.9999999999999998
 10
4000.270141236802
 20
1839.504408607461
 30
0.0
 10
4000.270028642089
 20
1839.504582664688
 30
0.0
 10
4000.269804637537
 20
1839.504928947476
 30
0.0
 10
4000.269481463287
 20
1839.505452449676
 30
0.0
 10
4000.269169847245
 20
1839.50597472597
 30
0.0
 10
4000.268870588679
 20
1839.506495587194
 30
0.0
 10
4000.268583497837
 20
1839.507014251974
 30
0.0
 10
4000.268308645263
 20
1839.507530133894
 30
0.0
 10
4000.268046103459
 20
1839.508042533489
 30
0.0
 10
4000.267795827471
 20
1839.508550559048
 30
0.0
 10
4000.267250889179
 20
1839.509701093245
 30
0.0
 10
4000.266493421174
 20
1839.511510591794
 30
0.0
 10
4000.265350193352
 20
1839.514892303866
 30
0.0
 10
4000.264404659627
 20
1839.519239471066
 30
0.0
 10
4000.264070007141
 20
1839.523674034735
 30
0.0
 10
4000.264197251637
 20
1839.52720232627
 30
0.0
 10
4000.264482938418
 20
1839.529851697981
 30
0.0
 10
4000.264958373596
 20
1839.532498261264
 30
0.0
 10
4000.265482593415
 20
1839.534555874219
 30
0.0
 10
4000.265946339971
 20
1839.536041892239
 30
0.0
 10
4000.266271114502
 20
1839.536988553138
 30
0.0
 10
4000.266631144906
 20
1839.53795133527
 30
0.0
 10
4000.267026404309
 20
1839.538926363827
 30
0.0
 10
4000.267456819397
 20
1839.539909449878
 30
0.0
 10
4000.267922355018
 20
1839.540895890688
 30
0.0
 10
4000.268423054031
 20
1839.541880893943
 30
0.0
 10
4000.268959920684
 20
1839.542859668968
 30
0.0
 10
4000.269529519412
 20
1839.543831000688
 30
0.0
 10
4000.26993684349
 20
1839.544465025964
 30
0.0
 10
4000.270141236802
 20
1839.544783176872
 30
0.0
  0
SPLINE
  5
12CE
330
1F
100
AcDbEntity
  8
SANINDUSA
  6
Continuous
370
    15
100
AcDbSpline
210
0.0
220
0.0
230
1.0
 70
     8
 71
     3
 72
    13
 73
     9
 74
     0
 42
0.0000000001
 43
0.0000000001
 40
0.0
 40
0.0
 40
0.0
 40
0.0
 40
0.1533276572079607
 40
0.3128211833318935
 40
0.4778848946516233
 40
0.6478862175574687
 40
0.8221578116342509
 40
1.0
 40
1.0
 40
1.0
 40
1.0
 10
4000.330365938579
 20
1839.504408607461
 30
0.0
 10
4000.330278485067
 20
1839.504290391502
 30
0.0
 10
4000.330100061212
 20
1839.504049205685
 30
0.0
 10
4000.329819343601
 20
1839.503686861624
 30
0.0
 10
4000.329522898637
 20
1839.503316590494
 30
0.0
 10
4000.329210649215
 20
1839.502940988544
 30
0.0
 10
4000.328884194622
 20
1839.50256141996
 30
0.0
 10
4000.328657912285
 20
1839.502311007238
 30
0.0
 10
4000.328543623814
 20
1839.502184531228
 30
0.0
  0
SPLINE
  5
12CF
330
1F
100
AcDbEntity
  8
SANINDUSA
  6
Continuous
370
    15
100
AcDbSpline
210
0.0
220
0.0
230
1.0
 70
     8
 71
     3
 72
    43
 73
    39
 74
     0
 42
0.0000000001
 43
0.0000000001
 40
0.0
 40
0.0
 40
0.0
 40
0.0
 40
0.0092371924774969
 40
0.0188226323565762
 40
0.0287870173333637
 40
0.0391579779755911
 40
0.0499567443868611
 40
0.0611944097575326
 40
0.0893008327534677
 40
0.1224373360234475
 40
0.1490594512874254
 40
0.1845654156224714
 40
0.2130003512776823
 40
0.2343963735643252
 40
0.2471629372381599
 40
0.2695526760477346
 40
0.2916612665371292
 40
0.3132573886074824
 40
0.3341279050286397
 40
0.3540790742490127
 40
0.3729384041265051
 40
0.4154157544322973
 40
0.4579027749350488
 40
0.499651613842236
 40
0.562657777990837
 40
0.6266887056578211
 40
0.6865897055865428
 40
0.752416903985819
 40
0.7756732829518177
 40
0.8150742025612911
 40
0.839911955650186
 40
0.8602725888109965
 40
0.8768576509222508
 40
0.910301725641341
 40
0.9384656272307886
 40
0.9606123252648643
 40
0.9810633984594424
 40
1.0
 40
1.0
 40
1.0
 40
1.0
 10
4000.271963551567
 20
1839.547007253105
 30
0.0
 10
4000.272093556258
 20
1839.547154235437
 30
0.0
 10
4000.272358466889
 20
1839.547453741419
 30
0.0
 10
4000.272772974415
 20
1839.547903318867
 30
0.0
 10
4000.273212003194
 20
1839.548362836112
 30
0.0
 10
4000.27367841628
 20
1839.548831598
 30
0.0
 10
4000.274173680884
 20
1839.549309535397
 30
0.0
 10
4000.274953910498
 20
1839.550034168557
 30
0.0
 10
4000.276116085485
 20
1839.551044054613
 30
0.0
 10
4000.277592476897
 20
1839.55218602182
 30
0.0
 10
4000.279252029683
 20
1839.553342855354
 30
0.0
 10
4000.280890867344
 20
1839.554350827776
 30
0.0
 10
4000.282485143965
 20
1839.555212813746
 30
0.0
 10
4000.283678892546
 20
1839.555797603283
 30
0.0
 10
4000.284769905557
 20
1839.556299405271
 30
0.0
 10
4000.28589380282
 20
1839.556764928
 30
0.0
 10
4000.287209262848
 20
1839.557255597851
 30
0.0
 10
4000.288510626648
 20
1839.557689915078
 30
0.0
 10
4000.289781622865
 20
1839.558068569202
 30
0.0
 10
4000.291008001945
 20
1839.558391688843
 30
0.0
 10
4000.292692233258
 20
1839.558776096773
 30
0.0
 10
4000.294869103247
 20
1839.559149277909
 30
0.0
 10
4000.297550190068
 20
1839.55942599669
 30
0.0
 10
4000.300680659942
 20
1839.559540220735
 30
0.0
 10
4000.304270203093
 20
1839.559351683429
 30
0.0
 10
4000.308205777874
 20
1839.558751458045
 30
0.0
 10
4000.312107235342
 20
1839.557712959034
 30
0.0
 10
4000.315082886043
 20
1839.556615364623
 30
0.0
 10
4000.317553158683
 20
1839.555456567243
 30
0.0
 10
4000.319198376628
 20
1839.554590946006
 30
0.0
 10
4000.320736907734
 20
1839.553663367613
 30
0.0
 10
4000.321832798908
 20
1839.552942190865
 30
0.0
 10
4000.323052339064
 20
1839.552078455344
 30
0.0
 10
4000.324368261635
 20
1839.551064681554
 30
0.0
 10
4000.325711170154
 20
1839.549897723
 30
0.0
 10
4000.32680371489
 20
1839.548865642804
 30
0.0
 10
4000.32771892346
 20
1839.547931996671
 30
0.0
 10
4000.328275861863
 20
1839.547307496872
 30
0.0
 10
4000.328543623814
 20
1839.547007253105
 30
0.0
  0
SPLINE
  5
12D0
330
1F
100
AcDbEntity
  8
SANINDUSA
  6
Continuous
370
    15
100
AcDbSpline
210
0.0
220
0.0
230
1.0
 70
     8
 71
     3
 72
    43
 73
    39
 74
     0
 42
0.0000000001
 43
0.0000000001
 40
0.0
 40
0.0
 40
0.0
 40
0.0
 40
0.0092371924774964
 40
0.0188226323565756
 40
0.0287870173333628
 40
0.0391579779755902
 40
0.0499567443868603
 40
0.0611944097575326
 40
0.089300832754401
 40
0.1224373360234491
 40
0.1490594512825719
 40
0.1845654156224875
 40
0.2130003512998013
 40
0.2343963735877427
 40
0.2471629372381594
 40
0.2695526760505196
 40
0.2916612665417654
 40
0.3132573886128796
 40
0.334127905033579
 40
0.3540790742521756
 40
0.372938404126501
 40
0.4154157544329332
 40
0.4579027749356658
 40
0.4996516138421999
 40
0.5626577779867194
 40
0.6266887056577756
 40
0.6865897055833316
 40
0.7524169039858064
 40
0.7756732829465769
 40
0.8150742025612728
 40
0.8399119556548178
 40
0.8602725888152566
 40
0.8768576509222343
 40
0.9103017256443068
 40
0.9384656272307841
 40
0.960612325265699
 40
0.981063398460167
 40
1.0
 40
1.0
 40
1.0
 40
1.0
 10
4000.328543623814
 20
1839.502184531228
 30
0.0
 10
4000.328413619124
 20
1839.502037548896
 30
0.0
 10
4000.328148708493
 20
1839.501738042914
 30
0.0
 10
4000.327734200966
 20
1839.501288465466
 30
0.0
 10
4000.327295172187
 20
1839.50082894822
 30
0.0
 10
4000.326828759102
 20
1839.500360186332
 30
0.0
 10
4000.326333494497
 20
1839.499882248935
 30
0.0
 10
4000.325553264882
 20
1839.499157615776
 30
0.0
 10
4000.324391089896
 20
1839.498147729719
 30
0.0
 10
4000.322914698484
 20
1839.497005762513
 30
0.0
 10
4000.321255145698
 20
1839.495848928979
 30
0.0
 10
4000.319616308036
 20
1839.494840956557
 30
0.0
 10
4000.318022031416
 20
1839.493978970587
 30
0.0
 10
4000.316828282834
 20
1839.493394181048
 30
0.0
 10
4000.315737269824
 20
1839.492892379061
 30
0.0
 10
4000.314613372562
 20
1839.492426856333
 30
0.0
 10
4000.313297912533
 20
1839.491936186481
 30
0.0
 10
4000.311996548733
 20
1839.491501869255
 30
0.0
 10
4000.310725552515
 20
1839.491123215131
 30
0.0
 10
4000.309499173436
 20
1839.49080009549
 30
0.0
 10
4000.307814942123
 20
1839.490415687559
 30
0.0
 10
4000.305638072134
 20
1839.490042506423
 30
0.0
 10
4000.302956985313
 20
1839.489765787642
 30
0.0
 10
4000.29982651544
 20
1839.489651563598
 30
0.0
 10
4000.296236972288
 20
1839.489840100903
 30
0.0
 10
4000.292301397506
 20
1839.490440326287
 30
0.0
 10
4000.28839994004
 20
1839.491478825298
 30
0.0
 10
4000.285424289339
 20
1839.492576419709
 30
0.0
 10
4000.282954016698
 20
1839.493735217089
 30
0.0
 10
4000.281308798753
 20
1839.494600838327
 30
0.0
 10
4000.279770267647
 20
1839.49552841672
 30
0.0
 10
4000.278674376473
 20
1839.496249593468
 30
0.0
 10
4000.277454836317
 20
1839.497113328989
 30
0.0
 10
4000.276138913746
 20
1839.498127102778
 30
0.0
 10
4000.274796005228
 20
1839.499294061332
 30
0.0
 10
4000.273703460492
 20
1839.500326141528
 30
0.0
 10
4000.272788251921
 20
1839.501259787662
 30
0.0
 10
4000.272231313519
 20
1839.50188428746
 30
0.0
 10
4000.271963551567
 20
1839.502184531228
 30
0.0
  0
SPLINE
  5
12D1
330
1F
100
AcDbEntity
  8
SANINDUSA
  6
Continuous
370
    15
100
AcDbSpline
210
0.0
220
0.0
230
1.0
 70
     8
 71
     3
 72
    37
 73
    33
 74
     0
 42
0.0000000001
 43
0.0000000001
 40
0.0
 40
0.0
 40
0.0
 40
0.0
 40
0.0112582372024406
 40
0.0231922253535359
 40
0.03580211142108
 40
0.0490880190573894
 40
0.0630500530649843
 40
0.077688302832588
 40
0.0930028450136452
 40
0.1089937456391757
 40
0.1256610618024314
 40
0.1879218726866526
 40
0.2296125787210953
 40
0.2507194186440023
 40
0.2966160908165627
 40
0.3407819218952975
 40
0.3832226276502933
 40
0.4239446666492198
 40
0.4629553675127481
 40
0.5002630838589214
 40
0.5006450858807593
 40
0.6175912648741057
 40
0.7497532866837675
 40
0.7884367402694698
 40
0.8750566779137544
 40
0.8961771675580118
 40
0.9162069218198398
 40
0.9351460620757421
 40
0.9529947363348407
 40
0.9697531259071251
 40
0.9854214543885579
 40
1.0
 40
1.0
 40
1.0
 40
1.0
 10
4000.318502933573
 20
1839.539401680725
 30
0.0
 10
4000.318403455353
 20
1839.53952285146
 30
0.0
 10
4000.318198527951
 20
1839.539772465935
 30
0.0
 10
4000.317872355134
 20
1839.540149363477
 30
0.0
 10
4000.317519775538
 20
1839.540540419953
 30
0.0
 10
4000.317138823344
 20
1839.540943556563
 30
0.0
 10
4000.316728479797
 20
1839.541357360735
 30
0.0
 10
4000.316287448974
 20
1839.541780054624
 30
0.0
 10
4000.315814536834
 20
1839.542209780879
 30
0.0
 10
4000.315308520788
 20
1839.542644536673
 30
0.0
 10
4000.314283115589
 20
1839.543475151546
 30
0.0
 10
4000.312906218984
 20
1839.544439070375
 30
0.0
 10
4000.311394853751
 20
1839.545301309045
 30
0.0
 10
4000.310042371117
 20
1839.545976046759
 30
0.0
 10
4000.308617782522
 20
1839.546583875234
 30
0.0
 10
4000.306866571744
 20
1839.547170469461
 30
0.0
 10
4000.305144225909
 20
1839.547603304185
 30
0.0
 10
4000.303464590039
 20
1839.547895418528
 30
0.0
 10
4000.301839200053
 20
1839.548060488303
 30
0.0
 10
4000.300768757833
 20
1839.548096068992
 30
0.0
 10
4000.298611350687
 20
1839.548095336088
 30
0.0
 10
4000.295121921847
 20
1839.547728680257
 30
0.0
 10
4000.291287781966
 20
1839.546425419335
 30
0.0
 10
4000.288110957139
 20
1839.544774960752
 30
0.0
 10
4000.286411257524
 20
1839.543636193064
 30
0.0
 10
4000.285036858522
 20
1839.542510867173
 30
0.0
 10
4000.284409912852
 20
1839.541958171374
 30
0.0
 10
4000.28383549427
 20
1839.541415278738
 30
0.0
 10
4000.283310933495
 20
1839.540886183464
 30
0.0
 10
4000.282834090842
 20
1839.540374147447
 30
0.0
 10
4000.282401148404
 20
1839.539883445924
 30
0.0
 10
4000.282133327513
 20
1839.539558364945
 30
0.0
 10
4000.282004241808
 20
1839.539401680725
 30
0.0
  0
SPLINE
  5
12D2
330
1F
100
AcDbEntity
  8
SANINDUSA
  6
Continuous
370
    15
100
AcDbSpline
210
0.0
220
0.0
230
1.0
 70
     8
 71
     3
 72
    34
 73
    30
 74
     0
 42
0.0000000001
 43
0.0000000001
 40
0.0
 40
0.0
 40
0.0
 40
0.0
 40
0.0112582998766003
 40
0.0231923544637461
 40
0.0358023107300489
 40
0.0490882923285157
 40
0.0630504040622486
 40
0.0776887353204676
 40
0.0930033627570456
 40
0.1089943524033703
 40
0.1256617613530106
 40
0.1879229188252374
 40
0.2296138569503285
 40
0.2507208143899384
 40
0.2966891729174912
 40
0.3409235088136149
 40
0.3834295692493178
 40
0.4242138484904575
 40
0.4632837159170814
 40
0.5006475719006899
 40
0.6175944019313131
 40
0.7497571594800617
 40
0.7884408284306045
 40
0.8750612482695217
 40
0.9043230787189159
 40
0.9314474714860461
 40
0.9564347558491416
 40
0.9792853879488877
 40
1.0
 40
1.0
 40
1.0
 40
1.0
 10
4000.282004241808
 20
1839.509790103608
 30
0.0
 10
4000.282103720028
 20
1839.509668932873
 30
0.0
 10
4000.28230864743
 20
1839.509419318397
 30
0.0
 10
4000.282634820248
 20
1839.509042420855
 30
0.0
 10
4000.282987399844
 20
1839.50865136438
 30
0.0
 10
4000.283368352036
 20
1839.508248227769
 30
0.0
 10
4000.283778695585
 20
1839.507834423598
 30
0.0
 10
4000.284219726407
 20
1839.507411729708
 30
0.0
 10
4000.284692638548
 20
1839.506982003453
 30
0.0
 10
4000.285198654592
 20
1839.50654724766
 30
0.0
 10
4000.286224059796
 20
1839.505716632787
 30
0.0
 10
4000.287600956351
 20
1839.504752713962
 30
0.0
 10
4000.289112321715
 20
1839.503890475279
 30
0.0
 10
4000.290465692851
 20
1839.50321529418
 30
0.0
 10
4000.291892117819
 20
1839.502606789536
 30
0.0
 10
4000.293646150791
 20
1839.502019614556
 30
0.0
 10
4000.295371295872
 20
1839.501586643673
 30
0.0
 10
4000.297053575706
 20
1839.501294783696
 30
0.0
 10
4000.298681681573
 20
1839.501130343058
 30
0.0
 10
4000.301379593061
 20
1839.501042217596
 30
0.0
 10
4000.305384813253
 20
1839.501463056082
 30
0.0
 10
4000.30921941008
 20
1839.502766355193
 30
0.0
 10
4000.312396227963
 20
1839.504416841393
 30
0.0
 10
4000.314190284287
 20
1839.505618777229
 30
0.0
 10
4000.315719658671
 20
1839.506889693256
 30
0.0
 10
4000.316553359254
 20
1839.507655732503
 30
0.0
 10
4000.317287404096
 20
1839.508396852249
 30
0.0
 10
4000.317931562388
 20
1839.509101062273
 30
0.0
 10
4000.318318805401
 20
1839.509568055445
 30
0.0
 10
4000.318502933573
 20
1839.509790103608
 30
0.0
  0
SPLINE
  5
12D3
330
1F
100
AcDbEntity
  8
SANINDUSA
  6
Continuous
370
    15
100
AcDbSpline
210
0.0
220
0.0
230
1.0
 70
     8
 71
     3
 72
    60
 73
    56
 74
     0
 42
0.0000000001
 43
0.0000000001
 40
0.0
 40
0.0
 40
0.0
 40
0.0
 40
0.0178134073457218
 40
0.0354205700121744
 40
0.0528214893853421
 40
0.0700161669133888
 40
0.0870046041095228
 40
0.1037868025550455
 40
0.1203627639025943
 40
0.1367324898795794
 40
0.1528959822918505
 40
0.1688532430275912
 40
0.184604274061473
 40
0.2001490774590846
 40
0.2154876553816605
 40
0.2306200100911257
 40
0.2455461439554917
 40
0.2602660594546393
 40
0.2747797591864902
 40
0.2890872458736515
 40
0.3031885223705177
 40
0.317083591670926
 40
0.3307724569163602
 40
0.3442551214048107
 40
0.3575315886002951
 40
0.3706018621431509
 40
0.3834659458611396
 40
0.3961238437814581
 40
0.408575560143746
 40
0.4208210994141862
 40
0.4328604663008086
 40
0.444693665770134
 40
0.4563207030652832
 40
0.4677415837257261
 40
0.4789563136088429
 40
0.4899648989134986
 40
0.5007673462058749
 40
0.521874718099343
 40
0.54376168143767
 40
0.5664282767123759
 40
0.5898745397546068
 40
0.6141005023138721
 40
0.6391061925466123
 40
0.6648916354309476
 40
0.691456853120581
 40
0.7188018652482812
 40
0.7469266891873076
 40
0.7758313402775821
 40
0.8055158320221739
 40
0.8359801762586402
 40
0.8672243833089883
 40
0.8992484621113963
 40
0.9320524203362623
 40
0.9656362644888039
 40
1.0
 40
1.0
 40
1.0
 40
1.0
 10
4000.31981590696
 20
1839.511574154003
 30
0.0
 10
4000.319905896485
 20
1839.511711128366
 30
0.0
 10
4000.320084833628
 20
1839.511983491197
 30
0.0
 10
4000.320340879702
 20
1839.512396592956
 30
0.0
 10
4000.320586084545
 20
1839.51280958508
 30
0.0
 10
4000.320819884636
 20
1839.51322262394
 30
0.0
 10
4000.321042684979
 20
1839.513635237788
 30
0.0
 10
4000.321254643854
 20
1839.514047135626
 30
0.0
 10
4000.321455991975
 20
1839.514457994208
 30
0.0
 10
4000.321646947808
 20
1839.514867513972
 30
0.0
 10
4000.321827739184
 20
1839.515275404174
 30
0.0
 10
4000.321998596972
 20
1839.515681386641
 30
0.0
 10
4000.322159756115
 20
1839.516085194598
 30
0.0
 10
4000.322311454751
 20
1839.516486572774
 30
0.0
 10
4000.322453933864
 20
1839.51688527716
 30
0.0
 10
4000.322587436818
 20
1839.517281074843
 30
0.0
 10
4000.322712208936
 20
1839.517673743801
 30
0.0
 10
4000.322828497094
 20
1839.518063072697
 30
0.0
 10
4000.32293654933
 20
1839.51844886067
 30
0.0
 10
4000.323036614468
 20
1839.518830917104
 30
0.0
 10
4000.32312894177
 20
1839.519209061403
 30
0.0
 10
4000.323213780581
 20
1839.51958312275
 30
0.0
 10
4000.323291380015
 20
1839.519952939868
 30
0.0
 10
4000.323361988641
 20
1839.520318360769
 30
0.0
 10
4000.323425854183
 20
1839.520679242505
 30
0.0
 10
4000.323483223252
 20
1839.521035450908
 30
0.0
 10
4000.323534341069
 20
1839.521386860339
 30
0.0
 10
4000.323579451221
 20
1839.521733353421
 30
0.0
 10
4000.323618795428
 20
1839.522074820777
 30
0.0
 10
4000.323652613309
 20
1839.522411160772
 30
0.0
 10
4000.323681142183
 20
1839.522742279241
 30
0.0
 10
4000.323704616866
 20
1839.523068089234
 30
0.0
 10
4000.323723269487
 20
1839.523388510729
 30
0.0
 10
4000.32373732932
 20
1839.523703470447
 30
0.0
 10
4000.323747022624
 20
1839.524012901311
 30
0.0
 10
4000.323752572466
 20
1839.524316743193
 30
0.0
 10
4000.32375472615
 20
1839.524711656334
 30
0.0
 10
4000.323748147876
 20
1839.525206674356
 30
0.0
 10
4000.323724865837
 20
1839.525810463089
 30
0.0
 10
4000.323684401654
 20
1839.526434918473
 30
0.0
 10
4000.323625068589
 20
1839.527079484098
 30
0.0
 10
4000.323545141034
 20
1839.527743508471
 30
0.0
 10
4000.32344285965
 20
1839.528426233863
 30
0.0
 10
4000.323316437271
 20
1839.529126790082
 30
0.0
 10
4000.32316406549
 20
1839.529844186876
 30
0.0
 10
4000.322983922109
 20
1839.530577306933
 30
0.0
 10
4000.322774178985
 20
1839.531324898649
 30
0.0
 10
4000.322533012323
 20
1839.532085570265
 30
0.0
 10
4000.322258607522
 20
1839.532857780116
 30
0.0
 10
4000.321949189395
 20
1839.533639843594
 30
0.0
 10
4000.321602958266
 20
1839.534429877335
 30
0.0
 10
4000.321218395305
 20
1839.535225989264
 30
0.0
 10
4000.320793142353
 20
1839.536025519475
 30
0.0
 10
4000.320328401984
 20
1839.536827957205
 30
0.0
 10
4000.319988040838
 20
1839.537352399467
 30
0.0
 10
4000.31981590696
 20
1839.53761763033
 30
0.0
  0
SPLINE
  5
12D4
330
1F
100
AcDbEntity
  8
SANINDUSA
  6
Continuous
370
    15
100
AcDbSpline
210
0.0
220
0.0
230
1.0
 70
     8
 71
     3
 72
    60
 73
    56
 74
     0
 42
0.0000000001
 43
0.0000000001
 40
0.0
 40
0.0
 40
0.0
 40
0.0
 40
0.0178134073798797
 40
0.0354205700784794
 40
0.0528214894817865
 40
0.0700161670379634
 40
0.087004604260218
 40
0.1037868027298528
 40
0.1203627640995045
 40
0.136732490096584
 40
0.1528959825269398
 40
0.1688532432787558
 40
0.1846042743267036
 40
0.200149077736373
 40
0.2154876556689968
 40
0.2306200103865002
 40
0.2455461442568961
 40
0.260266059760063
 40
0.2747797594939248
 40
0.2890872461810867
 40
0.3031885226759457
 40
0.317083591972335
 40
0.3307724572117427
 40
0.3442551216921554
 40
0.3575315888775936
 40
0.3706018624083938
 40
0.3834659461123166
 40
0.3961238440165595
 40
0.4085755603607625
 40
0.4208210996111075
 40
0.4328604664756256
 40
0.4446936659208369
 40
0.4563207031898619
 40
0.467741583822171
 40
0.478956313675144
 40
0.4899648989476467
 40
0.5007673462058589
 40
0.5218747180561439
 40
0.543761681356369
 40
0.5664282765980532
 40
0.5898745396123429
 40
0.614100502148748
 40
0.639106192363709
 40
0.6648916352353444
 40
0.6914568529173591
 40
0.7188018650425218
 40
0.7469266889840906
 40
0.7758313400819877
 40
0.8055158318392825
 40
0.8359801760935312
 40
0.8672243831667422
 40
0.8992484619970923
 40
0.9320524202549812
 40
0.9656362644456237
 40
1.0
 40
1.0
 40
1.0
 40
1.0
 10
4000.280691268421
 20
1839.53761763033
 30
0.0
 10
4000.280601278897
 20
1839.537480655965
 30
0.0
 10
4000.280422341752
 20
1839.537208293134
 30
0.0
 10
4000.280166295679
 20
1839.536795191374
 30
0.0
 10
4000.279921090835
 20
1839.53638219925
 30
0.0
 10
4000.279687290745
 20
1839.535969160389
 30
0.0
 10
4000.2794644904
 20
1839.535556546541
 30
0.0
 10
4000.279252531524
 20
1839.535144648703
 30
0.0
 10
4000.279051183404
 20
1839.534733790119
 30
0.0
 10
4000.278860227571
 20
1839.534324270356
 30
0.0
 10
4000.278679436195
 20
1839.533916380153
 30
0.0
 10
4000.278508578406
 20
1839.533510397685
 30
0.0
 10
4000.278347419263
 20
1839.533106589728
 30
0.0
 10
4000.278195720627
 20
1839.532705211552
 30
0.0
 10
4000.278053241514
 20
1839.532306507164
 30
0.0
 10
4000.27791973856
 20
1839.531910709482
 30
0.0
 10
4000.277794966442
 20
1839.531518040524
 30
0.0
 10
4000.277678678285
 20
1839.531128711627
 30
0.0
 10
4000.27757062605
 20
1839.530742923655
 30
0.0
 10
4000.277470560911
 20
1839.53036086722
 30
0.0
 10
4000.277378233611
 20
1839.529982722921
 30
0.0
 10
4000.277293394798
 20
1839.529608661574
 30
0.0
 10
4000.277215795364
 20
1839.529238844456
 30
0.0
 10
4000.277145186738
 20
1839.528873423555
 30
0.0
 10
4000.277081321196
 20
1839.52851254182
 30
0.0
 10
4000.277023952128
 20
1839.528156333417
 30
0.0
 10
4000.276972834313
 20
1839.527804923986
 30
0.0
 10
4000.27692772416
 20
1839.527458430905
 30
0.0
 10
4000.276888379953
 20
1839.527116963549
 30
0.0
 10
4000.276854562072
 20
1839.526780623555
 30
0.0
 10
4000.276826033198
 20
1839.526449505086
 30
0.0
 10
4000.276802558516
 20
1839.526123695094
 30
0.0
 10
4000.276783905894
 20
1839.5258032736
 30
0.0
 10
4000.276769846061
 20
1839.525488313882
 30
0.0
 10
4000.276760152758
 20
1839.52517888302
 30
0.0
 10
4000.276754602914
 20
1839.524875041139
 30
0.0
 10
4000.276752449231
 20
1839.524480127998
 30
0.0
 10
4000.276759027504
 20
1839.523985109978
 30
0.0
 10
4000.276782309544
 20
1839.523381321246
 30
0.0
 10
4000.276822773726
 20
1839.522756865863
 30
0.0
 10
4000.276882106791
 20
1839.522112300238
 30
0.0
 10
4000.276962034347
 20
1839.521448275866
 30
0.0
 10
4000.277064315731
 20
1839.520765550474
 30
0.0
 10
4000.277190738109
 20
1839.520064994256
 30
0.0
 10
4000.27734310989
 20
1839.519347597462
 30
0.0
 10
4000.27752325327
 20
1839.518614477405
 30
0.0
 10
4000.277732996395
 20
1839.517866885688
 30
0.0
 10
4000.277974163057
 20
1839.517106214072
 30
0.0
 10
4000.278248567858
 20
1839.516334004221
 30
0.0
 10
4000.278557985985
 20
1839.515551940743
 30
0.0
 10
4000.278904217114
 20
1839.514761907001
 30
0.0
 10
4000.279288780074
 20
1839.513965795071
 30
0.0
 10
4000.279714033028
 20
1839.513166264859
 30
0.0
 10
4000.280178773397
 20
1839.512363827128
 30
0.0
 10
4000.280519134543
 20
1839.511839384866
 30
0.0
 10
4000.280691268421
 20
1839.511574154003
 30
0.0
  0
SPLINE
  5
12D5
330
1F
100
AcDbEntity
  8
SANINDUSA
  6
Continuous
370
    15
100
AcDbSpline
210
0.0
220
0.0
230
1.0
 70
     8
 71
     3
 72
    13
 73
     9
 74
     0
 42
0.0000000001
 43
0.0000000001
 40
0.0
 40
0.0
 40
0.0
 40
0.0
 40
0.1686314104447849
 40
0.3364399086784833
 40
0.5034529620457108
 40
0.6696984321689394
 40
0.8352045683237619
 40
1.0
 40
1.0
 40
1.0
 40
1.0
 10
4000.282004241808
 20
1839.539401680725
 30
0.0
 10
4000.28192629573
 20
1839.539304701672
 30
0.0
 10
4000.281770783948
 20
1839.539111216817
 30
0.0
 10
4000.281543752741
 20
1839.538816807208
 30
0.0
 10
4000.281322008064
 20
1839.538520421189
 30
0.0
 10
4000.281106061349
 20
1839.538221744757
 30
0.0
 10
4000.280895360641
 20
1839.537921272687
 30
0.0
 10
4000.280759201504
 20
1839.537718699157
 30
0.0
 10
4000.280691268421
 20
1839.53761763033
 30
0.0
  0
SPLINE
  5
12D6
330
1F
100
AcDbEntity
  8
SANINDUSA
  6
Continuous
370
    15
100
AcDbSpline
210
0.0
220
0.0
230
1.0
 70
     8
 71
     3
 72
    13
 73
     9
 74
     0
 42
0.0000000001
 43
0.0000000001
 40
0.0
 40
0.0
 40
0.0
 40
0.0
 40
0.1686314104424986
 40
0.3364399086748301
 40
0.503452962041603
 40
0.6696984321652856
 40
0.8352045683214795
 40
1.0
 40
1.0
 40
1.0
 40
1.0
 10
4000.318502933573
 20
1839.509790103608
 30
0.0
 10
4000.318580879651
 20
1839.509887082661
 30
0.0
 10
4000.318736391433
 20
1839.510080567515
 30
0.0
 10
4000.31896342264
 20
1839.510374977124
 30
0.0
 10
4000.319185167317
 20
1839.510671363144
 30
0.0
 10
4000.319401114032
 20
1839.510970039575
 30
0.0
 10
4000.319611814741
 20
1839.511270511646
 30
0.0
 10
4000.319747973877
 20
1839.511473085175
 30
0.0
 10
4000.31981590696
 20
1839.511574154003
 30
0.0
  0
SPLINE
  5
12D7
330
1F
100
AcDbEntity
  8
SANINDUSA
  6
Continuous
370
    15
100
AcDbSpline
210
0.0
220
0.0
230
1.0
 70
     8
 71
     3
 72
    12
 73
     8
 74
     0
 42
0.0000000001
 43
0.0000000001
 40
0.0
 40
0.0
 40
0.0
 40
0.0
 40
0.1978388719213839
 40
0.3967094309455991
 40
0.5966609531071163
 40
0.7977419197436623
 40
1.0
 40
1.0
 40
1.0
 40
1.0
 10
4000.31981590696
 20
1839.53761763033
 30
0.0
 10
4000.319734239805
 20
1839.537738891513
 30
0.0
 10
4000.319570479619
 20
1839.53798204623
 30
0.0
 10
4000.319315568738
 20
1839.538341895599
 30
0.0
 10
4000.319052948014
 20
1839.538698956297
 30
0.0
 10
4000.318782545746
 20
1839.53905312807
 30
0.0
 10
4000.318596318794
 20
1839.539285270677
 30
0.0
 10
4000.318502933573
 20
1839.539401680725
 30
0.0
  0
SPLINE
  5
12D8
330
1F
100
AcDbEntity
  8
SANINDUSA
  6
Continuous
370
    15
100
AcDbSpline
210
0.0
220
0.0
230
1.0
 70
     8
 71
     3
 72
    12
 73
     8
 74
     0
 42
0.0000000001
 43
0.0000000001
 40
0.0
 40
0.0
 40
0.0
 40
0.0
 40
0.1978388719225098
 40
0.3967094309472914
 40
0.596660953108808
 40
0.7977419197447916
 40
1.0
 40
1.0
 40
1.0
 40
1.0
 10
4000.280691268421
 20
1839.511574154003
 30
0.0
 10
4000.280772935576
 20
1839.51145289282
 30
0.0
 10
4000.280936695762
 20
1839.511209738103
 30
0.0
 10
4000.281191606644
 20
1839.510849888733
 30
0.0
 10
4000.281454227368
 20
1839.510492828035
 30
0.0
 10
4000.281724629636
 20
1839.510138656262
 30
0.0
 10
4000.281910856588
 20
1839.509906513656
 30
0.0
 10
4000.282004241808
 20
1839.509790103608
 30
0.0
  0
SPLINE
  5
12D9
330
1F
100
AcDbEntity
  8
SANINDUSA
  6
Continuous
370
    15
100
AcDbSpline
210
0.0
220
0.0
230
1.0
 70
     8
 71
     3
 72
    15
 73
    11
 74
     0
 42
0.0000000001
 43
0.0000000001
 40
0.0
 40
0.0
 40
0.0
 40
0.0
 40
0.009061155075959
 40
0.0934899512622999
 40
0.1641602722472779
 40
0.2732025696056384
 40
0.4132509234471005
 40
0.5843450578406311
 40
0.7865832789669759
 40
1.0
 40
1.0
 40
1.0
 40
1.0
 10
4001.362911033424
 20
1839.460056466955
 30
0.0
 10
4001.363004557941
 20
1839.460075438156
 30
0.0
 10
4001.363969512455
 20
1839.460271176626
 30
0.0
 10
4001.365653391627
 20
1839.46066465344
 30
0.0
 10
4001.368356966136
 20
1839.46131965521
 30
0.0
 10
4001.371611876742
 20
1839.462185127164
 30
0.0
 10
4001.375857442691
 20
1839.463435983854
 30
0.0
 10
4001.380986637313
 20
1839.465148634736
 30
0.0
 10
4001.386774651041
 20
1839.467322839867
 30
0.0
 10
4001.39076944569
 20
1839.469115211419
 30
0.0
 10
4001.392820560424
 20
1839.470035498948
 30
0.0
  0
ARC
  5
12DA
330
1F
100
AcDbEntity
  8
SANINDUSA
  6
Continuous
370
    15
100
AcDbCircle
 10
4001.376123282997
 20
1839.506311133268
 30
0.0
 40
0.0399339544594077
100
AcDbArc
 50
294.7160979322546
 51
350.0232838528652
  0
SPLINE
  5
12DB
330
1F
100
AcDbEntity
  8
SANINDUSA
  6
Continuous
370
    15
100
AcDbSpline
210
0.0
220
0.0
230
1.0
 70
    24
 71
     1
 72
     4
 73
     2
 74
     0
 42
0.0000000001
 43
0.0000000001
 40
0.0
 40
0.0
 40
1.0
 40
1.0
 10
4001.281294037382
 20
1839.427279020534
 30
0.0
 10
4001.282202210542
 20
1839.416898553825
 30
0.0
  0
SPLINE
  5
12DC
330
1F
100
AcDbEntity
  8
SANINDUSA
  6
Continuous
370
    15
100
AcDbSpline
210
0.0
220
0.0
230
1.0
 70
    24
 71
     1
 72
     4
 73
     2
 74
     0
 42
0.0000000001
 43
0.0000000001
 40
0.0
 40
0.0
 40
1.0
 40
1.0
 10
4001.352202210541
 20
1839.416898553825
 30
0.0
 10
4001.355197918043
 20
1839.451139647266
 30
0.0
  0
SPLINE
  5
12DD
330
1F
100
AcDbEntity
  8
SANINDUSA
  6
Continuous
370
    15
100
AcDbSpline
210
0.0
220
0.0
230
1.0
 70
     8
 71
     3
 72
    19
 73
    15
 74
     0
 42
0.0000000001
 43
0.0000000001
 40
0.0
 40
0.0
 40
0.0
 40
0.0
 40
0.1140934545452962
 40
0.2386853002974014
 40
0.3567647509647603
 40
0.4683148191761354
 40
0.5730093561053185
 40
0.6702143883022675
 40
0.7589522311262882
 40
0.8378468720788351
 40
0.9050910840433175
 40
0.9585463835445674
 40
0.9961905659120908
 40
1.0
 40
1.0
 40
1.0
 40
1.0
 10
4001.355212251215
 20
1839.451131354353
 30
0.0
 10
4001.355263431785
 20
1839.451595497735
 30
0.0
 10
4001.355370502342
 20
1839.452566492985
 30
0.0
 10
4001.35581896269
 20
1839.453962841444
 30
0.0
 10
4001.35644290589
 20
1839.455272086326
 30
0.0
 10
4001.35720445678
 20
1839.456411356569
 30
0.0
 10
4001.358051778248
 20
1839.457375645338
 30
0.0
 10
4001.358941774849
 20
1839.458165527176
 30
0.0
 10
4001.359828995401
 20
1839.458788233265
 30
0.0
 10
4001.360667852014
 20
1839.45925640832
 30
0.0
 10
4001.361413567278
 20
1839.459589546506
 30
0.0
 10
4001.36202159447
 20
1839.459807202003
 30
0.0
 10
4001.362394899382
 20
1839.459921077652
 30
0.0
 10
4001.36255690155
 20
1839.459963016406
 30
0.0
 10
4001.36257178895
 20
1839.459966870423
 30
0.0
  0
ARC
  5
12DF
330
1F
100
AcDbEntity
  8
SANINDUSA
  6
Continuous
370
    15
100
AcDbCircle
 10
4001.27630991854
 20
1839.426879193359
 30
0.0
 40
0.005
100
AcDbArc
 50
4.666255910354889
 51
78.88840970526162
  0
LINE
  5
12E0
330
1F
100
AcDbEntity
  8
SANINDUSA
  6
Continuous
370
    15
100
AcDbLine
 10
4001.187202210541
 20
1839.566898553825
 30
0.0
 11
4001.187202210541
 21
1839.556898553825
 31
0.0
  0
LINE
  5
12E1
330
1F
100
AcDbEntity
  8
SANINDUSA
  6
Continuous
370
    15
100
AcDbLine
 10
4001.294702210541
 20
1839.556898553825
 30
0.0
 11
4001.294702210541
 21
1839.566898553825
 31
0.0
  0
LINE
  5
12E2
330
1F
100
AcDbEntity
  8
SANINDUSA
  6
Continuous
370
    15
100
AcDbLine
 10
4001.187202210541
 20
1839.556898553825
 30
0.0
 11
4001.294702210541
 21
1839.556898553825
 31
0.0
  0
LINE
  5
12E3
330
1F
100
AcDbEntity
  8
SANINDUSA
  6
Continuous
370
    15
100
AcDbLine
 10
4001.187202210541
 20
1839.566898553825
 30
0.0
 11
4001.294702210541
 21
1839.566898553825
 31
0.0
  0
LINE
  5
12E4
330
1F
100
AcDbEntity
  8
SANINDUSA
  6
Continuous
370
    15
100
AcDbLine
 10
4001.339702210541
 20
1839.566898553825
 30
0.0
 11
4001.339702210541
 21
1839.556898553825
 31
0.0
  0
LINE
  5
12E5
330
1F
100
AcDbEntity
  8
SANINDUSA
  6
Continuous
370
    15
100
AcDbLine
 10
4001.339702210541
 20
1839.556898553825
 30
0.0
 11
4001.294702210541
 21
1839.556898553825
 31
0.0
  0
LINE
  5
12E6
330
1F
100
AcDbEntity
  8
SANINDUSA
  6
Continuous
370
    15
100
AcDbLine
 10
4001.339702210541
 20
1839.566898553825
 30
0.0
 11
4001.294702210541
 21
1839.566898553825
 31
0.0
  0
LINE
  5
12E7
330
1F
100
AcDbEntity
  8
SANINDUSA
  6
Continuous
370
    15
100
AcDbLine
 10
4001.447202210541
 20
1839.566898553825
 30
0.0
 11
4001.447202210541
 21
1839.556898553825
 31
0.0
  0
LINE
  5
12E8
330
1F
100
AcDbEntity
  8
SANINDUSA
  6
Continuous
370
    15
100
AcDbLine
 10
4001.339702210541
 20
1839.556898553825
 30
0.0
 11
4001.447202210541
 21
1839.556898553825
 31
0.0
  0
LINE
  5
12E9
330
1F
100
AcDbEntity
  8
SANINDUSA
  6
Continuous
370
    15
100
AcDbLine
 10
4001.339702210541
 20
1839.566898553825
 30
0.0
 11
4001.447202210541
 21
1839.566898553825
 31
0.0
  0
ARC
  5
12EC
330
1F
100
AcDbEntity
  8
SANINDUSA
  6
Continuous
370
    15
100
AcDbCircle
 10
4001.206293915336
 20
1839.553898553825
 30
0.0
 40
0.0030000000000001
100
AcDbArc
 50
10.00000000122301
 51
90.0
  0
ARC
  5
12EF
330
1F
100
AcDbEntity
  8
SANINDUSA
  6
Continuous
370
    15
100
AcDbCircle
 10
4001.428110505747
 20
1839.553898553825
 30
0.0
 40
0.0030000000000001
100
AcDbArc
 50
90.0
 51
169.999999998777
  0
LINE
  5
12F1
330
1F
100
AcDbEntity
  8
SANINDUSA
  6
Continuous
370
    15
100
AcDbLine
 10
4001.216436382533
 20
1839.513654075454
 30
0.0
 11
4001.209248338595
 21
1839.554419498358
 31
0.0
  0
LINE
  5
12F5
330
1F
100
AcDbEntity
  8
SANINDUSA
  6
Continuous
370
    15
100
AcDbLine
 10
4001.425156082488
 20
1839.554419498358
 30
0.0
 11
4001.417968038549
 21
1839.513654075454
 31
0.0
  0
SPLINE
  5
1304
330
1F
100
AcDbEntity
  8
SANINDUSA
  6
Continuous
370
    15
100
AcDbSpline
210
0.0
220
0.0
230
1.0
 70
    24
 71
     3
 72
     8
 73
     4
 74
     0
 42
0.0000000001
 43
0.0000000001
 40
0.0
 40
0.0
 40
0.0
 40
0.0
 40
1.0
 40
1.0
 40
1.0
 40
1.0
 10
4001.217176961689
 20
1839.509454042348
 30
0.0
 10
4001.216932202151
 20
1839.510842142666
 30
0.0
 10
4001.216685010111
 20
1839.512244038392
 30
0.0
 10
4001.216436382533
 20
1839.513654075454
 30
0.0
  0
SPLINE
  5
1305
330
1F
100
AcDbEntity
  8
SANINDUSA
  6
Continuous
370
    15
100
AcDbSpline
210
0.0
220
0.0
230
1.0
 70
    24
 71
     3
 72
     8
 73
     4
 74
     0
 42
0.0000000001
 43
0.0000000001
 40
0.0
 40
0.0
 40
0.0
 40
0.0
 40
1.0
 40
1.0
 40
1.0
 40
1.0
 10
4001.417968038549
 20
1839.513654075454
 30
0.0
 10
4001.417719410972
 20
1839.512244038392
 30
0.0
 10
4001.417472218931
 20
1839.510842142666
 30
0.0
 10
4001.417227459393
 20
1839.509454042348
 30
0.0
  0
SPLINE
  5
130A
330
1F
100
AcDbEntity
  8
SANINDUSA
  6
Continuous
370
    15
100
AcDbSpline
210
0.0
220
0.0
230
1.0
 70
    24
 71
     3
 72
    13
 73
     9
 74
     0
 42
0.0000000001
 43
0.0000000001
 40
0.0
 40
0.0
 40
0.0
 40
0.0
 40
0.5
 40
0.5
 40
0.75
 40
0.875
 40
0.875
 40
1.0
 40
1.0
 40
1.0
 40
1.0
 10
4001.218347911232
 20
1839.502813257494
 30
0.0
 10
4001.218172616424
 20
1839.503807403751
 30
0.0
 10
4001.217987350239
 20
1839.504858100501
 30
0.0
 10
4001.217694508608
 20
1839.506518887919
 30
0.0
 10
4001.217544351898
 20
1839.507370468936
 30
0.0
 10
4001.217388591392
 20
1839.508253830661
 30
0.0
 10
4001.217283505587
 20
1839.508849801877
 30
0.0
 10
4001.217230170914
 20
1839.509152277836
 30
0.0
 10
4001.217176961689
 20
1839.509454042348
 30
0.0
  0
SPLINE
  5
130C
330
1F
100
AcDbEntity
  8
SANINDUSA
  6
Continuous
370
    15
100
AcDbSpline
210
0.0
220
0.0
230
1.0
 70
    24
 71
     3
 72
    13
 73
     9
 74
     0
 42
0.0000000001
 43
0.0000000001
 40
0.0
 40
0.0
 40
0.0
 40
0.0
 40
0.1250000000000014
 40
0.1250000000000014
 40
0.2500000000000027
 40
0.5000000000000027
 40
0.5000000000000027
 40
1.0
 40
1.0
 40
1.0
 40
1.0
 10
4001.417227459393
 20
1839.509454042348
 30
0.0
 10
4001.417174250167
 20
1839.509152277836
 30
0.0
 10
4001.417120915495
 20
1839.508849801877
 30
0.0
 10
4001.41701582969
 20
1839.508253830661
 30
0.0
 10
4001.416860069184
 20
1839.507370468936
 30
0.0
 10
4001.416709912475
 20
1839.506518887919
 30
0.0
 10
4001.416417070844
 20
1839.504858100501
 30
0.0
 10
4001.416231804658
 20
1839.503807403751
 30
0.0
 10
4001.41605650985
 20
1839.502813257494
 30
0.0
  0
SPLINE
  5
130D
330
1F
100
AcDbEntity
  8
SANINDUSA
  6
Continuous
370
    15
100
AcDbSpline
210
0.0
220
0.0
230
1.0
 70
     8
 71
     3
 72
    28
 73
    24
 74
     0
 42
0.0000000001
 43
0.0000000001
 40
0.0
 40
0.0
 40
0.0
 40
0.0
 40
0.1249999999999998
 40
0.1249999999999998
 40
0.2499999999999996
 40
0.2499999999999996
 40
0.3124999999999996
 40
0.3124999999999996
 40
0.3749999999999996
 40
0.3749999999999996
 40
0.4999999999999996
 40
0.4999999999999996
 40
0.6249999999999995
 40
0.6249999999999995
 40
0.6562499999999995
 40
0.6562499999999995
 40
0.6874999999999993
 40
0.6874999999999993
 40
0.7499999999999995
 40
0.7499999999999995
 40
0.8749999999999998
 40
0.8749999999999998
 40
1.0
 40
1.0
 40
1.0
 40
1.0
 10
4001.293456150264
 20
1839.457337432157
 30
0.0
 10
4001.295273797768
 20
1839.457374662979
 30
0.0
 10
4001.297138792092
 20
1839.457409389777
 30
0.0
 10
4001.300959549189
 20
1839.457471343195
 30
0.0
 10
4001.302915323838
 20
1839.457498573261
 30
0.0
 10
4001.305917676999
 20
1839.457532202917
 30
0.0
 10
4001.306929945227
 20
1839.457542212383
 30
0.0
 10
4001.308977998233
 20
1839.457559585702
 30
0.0
 10
4001.310008731854
 20
1839.457566897882
 30
0.0
 10
4001.313094631058
 20
1839.45758440886
 30
0.0
 10
4001.315154138309
 20
1839.457590266851
 30
0.0
 10
4001.319277552645
 20
1839.457590215073
 30
0.0
 10
4001.321341459482
 20
1839.457584305209
 30
0.0
 10
4001.323924181618
 20
1839.457569553501
 30
0.0
 10
4001.324441846093
 20
1839.457566228133
 30
0.0
 10
4001.325471170917
 20
1839.457558892344
 30
0.0
 10
4001.325983023045
 20
1839.457554882537
 30
0.0
 10
4001.32751027382
 20
1839.457541869585
 30
0.0
 10
4001.32851737587
 20
1839.457531882504
 30
0.0
 10
4001.331506146498
 20
1839.457498335993
 30
0.0
 10
4001.333455412721
 20
1839.457471182029
 30
0.0
 10
4001.337267632862
 20
1839.4574093475
 30
0.0
 10
4001.339130602953
 20
1839.457374663396
 30
0.0
 10
4001.340948270818
 20
1839.457337432157
 30
0.0
  0
ARC
  5
130E
330
1F
100
AcDbEntity
  8
SANINDUSA
  6
Continuous
370
    15
100
AcDbCircle
 10
4001.258307112119
 20
1839.50654293704
 30
0.0
 40
0.0399997828944032
100
AcDbArc
 50
190.0000386567148
 51
245.7169937814673
  0
SPLINE
  5
130F
330
1F
100
AcDbEntity
  8
SANINDUSA
  6
Continuous
370
    15
100
AcDbSpline
210
0.0
220
0.0
230
1.0
 70
    24
 71
     3
 72
    12
 73
     8
 74
     0
 42
0.0000000001
 43
0.0000000001
 40
0.0
 40
0.0
 40
0.0
 40
0.0
 40
0.2499999999999992
 40
0.2499999999999992
 40
0.4999999999999984
 40
0.4999999999999984
 40
1.0
 40
1.0
 40
1.0
 40
1.0
 10
4001.218915020492
 20
1839.499597021055
 30
0.0
 10
4001.218913789956
 20
1839.499603999773
 30
0.0
 10
4001.218898130572
 20
1839.499692808557
 30
0.0
 10
4001.218843542702
 20
1839.500002391751
 30
0.0
 10
4001.218804560403
 20
1839.500223471352
 30
0.0
 10
4001.218657433747
 20
1839.501057868084
 30
0.0
 10
4001.218519409271
 20
1839.501840643784
 30
0.0
 10
4001.218347911232
 20
1839.502813257494
 30
0.0
  0
SPLINE
  5
1310
330
1F
100
AcDbEntity
  8
SANINDUSA
  6
Continuous
370
    15
100
AcDbSpline
210
0.0
220
0.0
230
1.0
 70
     8
 71
     3
 72
     8
 73
     4
 74
     0
 42
0.0000000001
 43
0.0000000001
 40
0.0
 40
0.0
 40
0.0
 40
0.0
 40
1.0
 40
1.0
 40
1.0
 40
1.0
 10
4001.288510306769
 20
1839.457497697932
 30
0.0
 10
4001.290062895914
 20
1839.457356122692
 30
0.0
 10
4001.291710426681
 20
1839.457298914407
 30
0.0
 10
4001.293456150264
 20
1839.457337432157
 30
0.0
  0
SPLINE
  5
1312
330
1F
100
AcDbEntity
  8
SANINDUSA
  6
Continuous
370
    15
100
AcDbSpline
210
0.0
220
0.0
230
1.0
 70
     8
 71
     3
 72
     8
 73
     4
 74
     0
 42
0.0000000001
 43
0.0000000001
 40
0.0
 40
0.0
 40
0.0
 40
0.0
 40
1.0
 40
1.0
 40
1.0
 40
1.0
 10
4001.340948270818
 20
1839.457337432157
 30
0.0
 10
4001.342693994401
 20
1839.457298914407
 30
0.0
 10
4001.344341525168
 20
1839.457356122692
 30
0.0
 10
4001.345894114313
 20
1839.457497697932
 30
0.0
  0
SPLINE
  5
1314
330
1F
100
AcDbEntity
  8
SANINDUSA
  6
Continuous
370
    15
100
AcDbSpline
210
0.0
220
0.0
230
1.0
 70
    24
 71
     3
 72
    14
 73
    10
 74
     0
 42
0.0000000001
 43
0.0000000001
 40
0.0
 40
0.0
 40
0.0
 40
0.0
 40
0.2500000000000014
 40
0.2500000000000014
 40
0.5000000000000029
 40
0.5000000000000029
 40
0.7500000000000015
 40
0.7500000000000015
 40
1.0
 40
1.0
 40
1.0
 40
1.0
 10
4001.41605650985
 20
1839.502813257494
 30
0.0
 10
4001.415971044512
 20
1839.502328559473
 30
0.0
 10
4001.415893774448
 20
1839.501890339167
 30
0.0
 10
4001.415757105941
 20
1839.501115253544
 30
0.0
 10
4001.415697654672
 20
1839.500778088646
 30
0.0
 10
4001.415599401528
 20
1839.500220867374
 30
0.0
 10
4001.415560488534
 20
1839.500000180822
 30
0.0
 10
4001.415506123754
 20
1839.49969186283
 30
0.0
 10
4001.415490623981
 20
1839.499603959251
 30
0.0
 10
4001.415453365733
 20
1839.499392657228
 30
0.0
  0
SPLINE
  5
1317
330
1F
100
AcDbEntity
  8
SANINDUSA
  6
Continuous
370
    15
100
AcDbSpline
210
0.0
220
0.0
230
1.0
 70
     8
 71
     3
 72
    14
 73
    10
 74
     0
 42
0.0000000001
 43
0.0000000001
 40
0.0
 40
0.0
 40
0.0
 40
0.0
 40
0.5000000000000001
 40
0.5000000000000001
 40
0.625
 40
0.625
 40
0.7499999999999997
 40
0.7499999999999997
 40
1.0
 40
1.0
 40
1.0
 40
1.0
 10
4001.241615306807
 20
1839.470027200916
 30
0.0
 10
4001.24881646987
 20
1839.466713043082
 30
0.0
 10
4001.256231135274
 20
1839.464021237497
 30
0.0
 10
4001.265763325448
 20
1839.461425645768
 30
0.0
 10
4001.267684695838
 20
1839.460944858242
 30
0.0
 10
4001.271546413245
 20
1839.460063179699
 30
0.0
 10
4001.273484310313
 20
1839.459662768348
 30
0.0
 10
4001.279319000912
 20
1839.458582161244
 30
0.0
 10
4001.283239578105
 20
1839.458022178183
 30
0.0
 10
4001.287181497731
 20
1839.457623759453
 30
0.0
  0
SPLINE
  5
1318
330
1F
100
AcDbEntity
  8
SANINDUSA
  6
Continuous
370
    15
100
AcDbSpline
210
0.0
220
0.0
230
1.0
 70
     8
 71
     3
 72
    13
 73
     9
 74
     0
 42
0.0000000001
 43
0.0000000001
 40
0.0
 40
0.0
 40
0.0
 40
0.0
 40
0.1824396212417065
 40
0.3701013062995564
 40
0.5562077840898252
 40
0.7474220840858635
 40
0.9321039327406516
 40
1.0
 40
1.0
 40
1.0
 40
1.0
 10
4001.345894114313
 20
1839.457497697932
 30
0.0
 10
4001.347795509729
 20
1839.457694379127
 30
0.0
 10
4001.35165272519
 20
1839.458093371225
 30
0.0
 10
4001.356206370249
 20
1839.458787759293
 30
0.0
 10
4001.359790163971
 20
1839.459420881889
 30
0.0
 10
4001.362048226899
 20
1839.459871812475
 30
0.0
 10
4001.36310033106
 20
1839.460093745369
 30
0.0
 10
4001.36295153426
 20
1839.460062422214
 30
0.0
 10
4001.36291153584
 20
1839.460054002163
 30
0.0
  0
SPLINE
  5
131B
330
1F
100
AcDbEntity
  8
SANINDUSA
  6
Continuous
370
    15
100
AcDbSpline
210
0.0
220
0.0
230
1.0
 70
     8
 71
     3
 72
    26
 73
    22
 74
     0
 42
0.0000000001
 43
0.0000000001
 40
0.0
 40
0.0
 40
0.0
 40
0.0
 40
0.1250000000000004
 40
0.1250000000000004
 40
0.2500000000000008
 40
0.2500000000000008
 40
0.3750000000000012
 40
0.3750000000000012
 40
0.4375000000000006
 40
0.4375000000000006
 40
0.5
 40
0.5
 40
0.6249999999999996
 40
0.6249999999999996
 40
0.7499999999999992
 40
0.7499999999999992
 40
0.8124999999999985
 40
0.8124999999999985
 40
0.8749999999999982
 40
0.8749999999999982
 40
1.0
 40
1.0
 40
1.0
 40
1.0
 10
4001.287111237784
 20
1839.457622799066
 30
0.0
 10
4001.287663483864
 20
1839.45750493127
 30
0.0
 10
4001.288203430889
 20
1839.457349737092
 30
0.0
 10
4001.289259353985
 20
1839.456964611493
 30
0.0
 10
4001.289775537055
 20
1839.456734038077
 30
0.0
 10
4001.290763572678
 20
1839.456204981704
 30
0.0
 10
4001.291238127208
 20
1839.455905705426
 30
0.0
 10
4001.291919617657
 20
1839.455401258515
 30
0.0
 10
4001.292142418942
 20
1839.455223130905
 30
0.0
 10
4001.292571841914
 20
1839.454852017497
 30
0.0
 10
4001.292778902307
 20
1839.454658804246
 30
0.0
 10
4001.29337688413
 20
1839.45405576854
 30
0.0
 10
4001.293744823784
 20
1839.453622762163
 30
0.0
 10
4001.2944133931
 20
1839.452688080129
 30
0.0
 10
4001.294715038797
 20
1839.452182767968
 30
0.0
 10
4001.295093947937
 20
1839.451393210013
 30
0.0
 10
4001.295208679294
 20
1839.451123911103
 30
0.0
 10
4001.295413704697
 20
1839.450572414985
 30
0.0
 10
4001.295504304811
 20
1839.450288982712
 30
0.0
 10
4001.295733889834
 20
1839.449427823384
 30
0.0
 10
4001.295831049022
 20
1839.448841389994
 30
0.0
 10
4001.295867887585
 20
1839.448241780824
 30
0.0
  0
LINE
  5
131E
330
1F
100
AcDbEntity
  8
SANINDUSA
  6
Continuous
370
    15
100
AcDbLine
 10
4001.282202210542
 20
1839.416898553825
 30
0.0
 11
4001.352202210541
 21
1839.416898553825
 31
0.0
  0
SPLINE
  5
131F
330
1F
100
AcDbEntity
  8
SANINDUSA
  6
Continuous
370
    15
100
AcDbSpline
210
0.0
220
0.0
230
1.0
 70
     8
 71
     3
 72
    28
 73
    24
 74
     0
 42
0.0000000001
 43
0.0000000001
 40
0.0
 40
0.0
 40
0.0
 40
0.0
 40
0.0624999999999998
 40
0.0624999999999998
 40
0.1249999999999996
 40
0.1249999999999996
 40
0.1874999999999994
 40
0.1874999999999994
 40
0.2499999999999992
 40
0.2499999999999992
 40
0.3749999999999991
 40
0.3749999999999991
 40
0.4374999999999991
 40
0.4374999999999991
 40
0.4999999999999991
 40
0.4999999999999991
 40
0.6249999999999992
 40
0.6249999999999992
 40
0.7499999999999996
 40
0.7499999999999996
 40
0.8749999999999998
 40
0.8749999999999998
 40
1.0
 40
1.0
 40
1.0
 40
1.0
 10
4001.297399807582
 20
1839.433477883029
 30
0.0
 10
4001.29743676215
 20
1839.433126803324
 30
0.0
 10
4001.297448930988
 20
1839.432778627071
 30
0.0
 10
4001.297420035977
 20
1839.432088524284
 30
0.0
 10
4001.297378579105
 20
1839.431744757452
 30
0.0
 10
4001.297240209761
 20
1839.431072084865
 30
0.0
 10
4001.297145112373
 20
1839.430750196185
 30
0.0
 10
4001.296909131146
 20
1839.430132717868
 30
0.0
 10
4001.296766902508
 20
1839.429834914425
 30
0.0
 10
4001.296289279602
 20
1839.428995546055
 30
0.0
 10
4001.295908899074
 20
1839.428510601065
 30
0.0
 10
4001.295280277211
 20
1839.427864689165
 30
0.0
 10
4001.295062803399
 20
1839.427665483991
 30
0.0
 10
4001.294620764181
 20
1839.42729866477
 30
0.0
 10
4001.294395376749
 20
1839.42713025669
 30
0.0
 10
4001.293709582009
 20
1839.42666480639
 30
0.0
 10
4001.293238598917
 20
1839.426406505097
 30
0.0
 10
4001.292286276141
 20
1839.425987024596
 30
0.0
 10
4001.291815427712
 20
1839.425830347771
 30
0.0
 10
4001.290887471323
 20
1839.425613460791
 30
0.0
 10
4001.290430325646
 20
1839.425553404396
 30
0.0
 10
4001.289530890194
 20
1839.425533513748
 30
0.0
 10
4001.289087329758
 20
1839.42557461184
 30
0.0
 10
4001.288661550965
 20
1839.425669699692
 30
0.0
  0
SPLINE
  5
1320
330
1F
100
AcDbEntity
  8
SANINDUSA
  6
Continuous
370
    15
100
AcDbSpline
210
0.0
220
0.0
230
1.0
 70
    24
 71
     3
 72
    11
 73
     7
 74
     0
 42
0.0000000001
 43
0.0000000001
 40
0.0
 40
0.0
 40
0.0
 40
0.0
 40
0.0100000040864389
 40
0.0100000040864389
 40
0.0100000040864389
 40
0.0148526776622001
 40
0.0148526776622001
 40
0.0148526776622001
 40
0.0148526776622001
 10
4001.295867887585
 20
1839.448241780824
 30
0.0
 10
4001.296207136258
 20
1839.444927890358
 30
0.0
 10
4001.296549223236
 20
1839.441614295821
 30
0.0
 10
4001.296894605394
 20
1839.438301053093
 30
0.0
 10
4001.297062208067
 20
1839.436693244679
 30
0.0
 10
4001.297230588224
 20
1839.435085518759
 30
0.0
 10
4001.297399807582
 20
1839.433477883029
 30
0.0
  0
SPLINE
  5
132E
330
1F
100
AcDbEntity
  8
SANINDUSA
  6
Continuous
370
    15
100
AcDbSpline
210
0.0
220
0.0
230
1.0
 70
    24
 71
     3
 72
    10
 73
     6
 74
     0
 42
0.0000000001
 43
0.0000000001
 40
0.0
 40
0.0
 40
0.0
 40
0.0
 40
0.2302062708060557
 40
0.5231512654146072
 40
1.0
 40
1.0
 40
1.0
 40
1.0
 10
4001.187202210541
 20
1839.555702533356
 30
0.0
 10
4001.187202210541
 20
1839.555733901575
 30
0.0
 10
4001.187202210541
 20
1839.555805186876
 30
0.0
 10
4001.187202210541
 20
1839.556591583544
 30
0.0
 10
4001.187202210541
 20
1839.556781135724
 30
0.0
 10
4001.187202210541
 20
1839.556898553825
 30
0.0
  0
LINE
  5
1337
330
1F
100
AcDbEntity
  8
SANINDUSA
  6
Continuous
370
    15
100
AcDbLine
 10
4001.204078902692
 20
1839.477706769044
 30
0.0
 11
4001.187708288216
 21
1839.554523847105
 31
0.0
  0
LINE
  5
1339
330
1F
100
AcDbEntity
  8
SANINDUSA
  6
Continuous
370
    15
100
AcDbLine
 10
4001.277273520876
 20
1839.431785461853
 30
0.0
 11
4001.244127383439
 21
1839.438295438941
 31
0.0
  0
ARC
  5
133A
330
1F
100
AcDbEntity
  8
SANINDUSA
  6
Continuous
370
    15
100
AcDbCircle
 10
4001.253955473223
 20
1839.488336047432
 30
0.0
 40
0.0509966062295798
100
AcDbArc
 50
192.0304261259883
 51
258.8884097052616
  0
SPLINE
  5
133D
330
1F
100
AcDbEntity
  8
SANINDUSA
  6
Continuous
370
    15
100
AcDbSpline
210
0.0
220
0.0
230
1.0
 70
    24
 71
     3
 72
    12
 73
     8
 74
     0
 42
0.0000000001
 43
0.0000000001
 40
0.0
 40
0.0
 40
0.0
 40
0.0
 40
0.2155502139386063
 40
0.4356735229621967
 40
0.6512426427338191
 40
0.8715293220441084
 40
1.0
 40
1.0
 40
1.0
 40
1.0
 10
4001.288661550965
 20
1839.425669699692
 30
0.0
 10
4001.287700259918
 20
1839.425884355801
 30
0.0
 10
4001.285757283155
 20
1839.426318222144
 30
0.0
 10
4001.283608298932
 20
1839.426797864491
 30
0.0
 10
4001.28211817041
 20
1839.42713039439
 30
0.0
 10
4001.281328622616
 20
1839.427306553916
 30
0.0
 10
4001.281386284923
 20
1839.427293688631
 30
0.0
 10
4001.28140752581
 20
1839.427288949485
 30
0.0
  0
LINE
  5
1341
330
1F
100
AcDbEntity
  8
SANINDUSA
  6
Continuous
370
    15
100
AcDbLine
 10
4001.653487853535
 20
1839.416898566325
 30
0.0
 11
4001.606487853535
 21
1839.416898566325
 31
0.0
  0
LINE
  5
1342
330
1F
100
AcDbEntity
  8
SANINDUSA
  6
Continuous
370
    15
100
AcDbLine
 10
4001.606487853535
 20
1839.416898566325
 30
0.0
 11
4001.606487853535
 21
1839.438749886572
 31
0.0
  0
LINE
  5
1346
330
1F
100
AcDbEntity
  8
SANINDUSA
  6
Continuous
370
    15
100
AcDbLine
 10
4001.606487853535
 20
1839.448940930959
 30
0.0
 11
4001.606487853535
 21
1839.45765337835
 31
0.0
  0
SPLINE
  5
1347
330
1F
100
AcDbEntity
  8
SANINDUSA
  6
Continuous
370
    15
100
AcDbSpline
210
0.0
220
0.0
230
1.0
 70
     8
 71
     3
 72
    30
 73
    26
 74
     0
 42
0.0000000001
 43
0.0000000001
 40
0.0
 40
0.0
 40
0.0
 40
0.0
 40
0.0225021121431202
 40
0.0463548641203482
 40
0.0715585496797831
 40
0.0981134159683139
 40
0.1260196724572827
 40
0.1552774978101023
 40
0.1858870452358742
 40
0.2178484467124015
 40
0.2511618163533534
 40
0.3483692463847956
 40
0.4224420050877309
 40
0.4733723491190546
 40
0.5011550176211957
 40
0.5566217088378065
 40
0.6108408274590392
 40
0.6638146963999875
 40
0.7155458078120948
 40
0.766036839357496
 40
0.8152906724388579
 40
0.8633104126647635
 40
0.9100994128768913
 40
0.9556612991199301
 40
1.0
 40
1.0
 40
1.0
 40
1.0
 10
4001.615182064976
 20
1839.456354097038
 30
0.0
 10
4001.615060894242
 20
1839.456363817305
 30
0.0
 10
4001.614811279766
 20
1839.456383841277
 30
0.0
 10
4001.614434382225
 20
1839.456417202572
 30
0.0
 10
4001.614043325747
 20
1839.456454046863
 30
0.0
 10
4001.613640189146
 20
1839.456494584249
 30
0.0
 10
4001.613226384937
 20
1839.456538755644
 30
0.0
 10
4001.612803691198
 20
1839.456586574463
 30
0.0
 10
4001.612373964341
 20
1839.456638054905
 30
0.0
 10
4001.611939210943
 20
1839.456693123632
 30
0.0
 10
4001.611227819287
 20
1839.456788973421
 30
0.0
 10
4001.610396540022
 20
1839.456910835034
 30
0.0
 10
4001.60959240189
 20
1839.457041968275
 30
0.0
 10
4001.60909086698
 20
1839.457131655506
 30
0.0
 10
4001.608679499983
 20
1839.457208865456
 30
0.0
 10
4001.60828967921
 20
1839.457280481772
 30
0.0
 10
4001.607879272017
 20
1839.457359282599
 30
0.0
 10
4001.607527739366
 20
1839.457428498124
 30
0.0
 10
4001.607232470631
 20
1839.457488566372
 30
0.0
 10
4001.606990672029
 20
1839.457539379431
 30
0.0
 10
4001.606799558981
 20
1839.457580947223
 30
0.0
 10
4001.606655924017
 20
1839.45761333333
 30
0.0
 10
4001.606557771236
 20
1839.457636285474
 30
0.0
 10
4001.606498566444
 20
1839.457650716678
 30
0.0
 10
4001.606491391966
 20
1839.45765249921
 30
0.0
 10
4001.606487853535
 20
1839.457653378349
 30
0.0
  0
SPLINE
  5
1348
330
1F
100
AcDbEntity
  8
SANINDUSA
  6
Continuous
370
    15
100
AcDbSpline
210
0.0
220
0.0
230
1.0
 70
     8
 71
     3
 72
    12
 73
     8
 74
     0
 42
0.0000000001
 43
0.0000000001
 40
0.0
 40
0.0
 40
0.0
 40
0.0
 40
0.1978388719213839
 40
0.3967094309455991
 40
0.5966609531071163
 40
0.7977419197436623
 40
1.0
 40
1.0
 40
1.0
 40
1.0
 10
4001.616966115372
 20
1839.456304722973
 30
0.0
 10
4001.616844854189
 20
1839.456302890245
 30
0.0
 10
4001.616601699471
 20
1839.456299215233
 30
0.0
 10
4001.616241850102
 20
1839.456302527842
 30
0.0
 10
4001.615884789404
 20
1839.456312415389
 30
0.0
 10
4001.615530617632
 20
1839.456328917057
 30
0.0
 10
4001.615298475025
 20
1839.456345687397
 30
0.0
 10
4001.615182064976
 20
1839.456354097038
 30
0.0
  0
SPLINE
  5
1349
330
1F
100
AcDbEntity
  8
SANINDUSA
  6
Continuous
370
    15
100
AcDbSpline
210
0.0
220
0.0
230
1.0
 70
     8
 71
     3
 72
    60
 73
    56
 74
     0
 42
0.0000000001
 43
0.0000000001
 40
0.0
 40
0.0
 40
0.0
 40
0.0
 40
0.0178134073457218
 40
0.0354205700121744
 40
0.0528214893853421
 40
0.0700161669133888
 40
0.0870046041095228
 40
0.1037868025550455
 40
0.1203627639025943
 40
0.1367324898795794
 40
0.1528959822918505
 40
0.1688532430275912
 40
0.184604274061473
 40
0.2001490774590846
 40
0.2154876553816605
 40
0.2306200100911257
 40
0.2455461439554917
 40
0.2602660594546393
 40
0.2747797591864902
 40
0.2890872458736515
 40
0.3031885223705177
 40
0.317083591670926
 40
0.3307724569163602
 40
0.3442551214048107
 40
0.3575315886002951
 40
0.3706018621431509
 40
0.3834659458611396
 40
0.3961238437814581
 40
0.408575560143746
 40
0.4208210994141862
 40
0.4328604663008086
 40
0.444693665770134
 40
0.4563207030652832
 40
0.4677415837257261
 40
0.4789563136088429
 40
0.4899648989134986
 40
0.5007673462058749
 40
0.521874718099343
 40
0.54376168143767
 40
0.5664282767123759
 40
0.5898745397546068
 40
0.6141005023138721
 40
0.6391061925466123
 40
0.6648916354309476
 40
0.691456853120581
 40
0.7188018652482812
 40
0.7469266891873076
 40
0.7758313402775821
 40
0.8055158320221739
 40
0.8359801762586402
 40
0.8672243833089883
 40
0.8992484621113963
 40
0.9320524203362623
 40
0.9656362644888039
 40
1.0
 40
1.0
 40
1.0
 40
1.0
 10
4001.643009591698
 20
1839.456304722973
 30
0.0
 10
4001.642872617335
 20
1839.456307535604
 30
0.0
 10
4001.642600254504
 20
1839.456313128303
 30
0.0
 10
4001.642187152745
 20
1839.456321283572
 30
0.0
 10
4001.641774160622
 20
1839.456329204917
 30
0.0
 10
4001.641361121762
 20
1839.456336879514
 30
0.0
 10
4001.640948507914
 20
1839.456344310742
 30
0.0
 10
4001.640536610076
 20
1839.456351497712
 30
0.0
 10
4001.640125751494
 20
1839.456358440659
 30
0.0
 10
4001.63971623173
 20
1839.456365139522
 30
0.0
 10
4001.639308341527
 20
1839.456371594318
 30
0.0
 10
4001.63890235906
 20
1839.456377805044
 30
0.0
 10
4001.638498551104
 20
1839.456383771703
 30
0.0
 10
4001.638097172928
 20
1839.456389494294
 30
0.0
 10
4001.637698468541
 20
1839.45639497282
 30
0.0
 10
4001.637302670858
 20
1839.456400207282
 30
0.0
 10
4001.636910001901
 20
1839.45640519768
 30
0.0
 10
4001.636520673005
 20
1839.456409944017
 30
0.0
 10
4001.636134885031
 20
1839.456414446293
 30
0.0
 10
4001.635752828597
 20
1839.456418704511
 30
0.0
 10
4001.635374684298
 20
1839.456422718672
 30
0.0
 10
4001.635000622951
 20
1839.456426488776
 30
0.0
 10
4001.634630805833
 20
1839.456430014828
 30
0.0
 10
4001.634265384932
 20
1839.456433296828
 30
0.0
 10
4001.633904503196
 20
1839.456436334778
 30
0.0
 10
4001.633548294793
 20
1839.456439128682
 30
0.0
 10
4001.633196885363
 20
1839.45644167854
 30
0.0
 10
4001.63285039228
 20
1839.456443984356
 30
0.0
 10
4001.632508924924
 20
1839.456446046132
 30
0.0
 10
4001.632172584929
 20
1839.456447863871
 30
0.0
 10
4001.631841466461
 20
1839.456449437576
 30
0.0
 10
4001.631515656468
 20
1839.456450767251
 30
0.0
 10
4001.631195234972
 20
1839.456451852898
 30
0.0
 10
4001.630880275254
 20
1839.456452694523
 30
0.0
 10
4001.63057084439
 20
1839.456453292122
 30
0.0
 10
4001.630267002509
 20
1839.456453645732
 30
0.0
 10
4001.629872089367
 20
1839.456453790754
 30
0.0
 10
4001.629377071346
 20
1839.45645336291
 30
0.0
 10
4001.628773282613
 20
1839.456451944149
 30
0.0
 10
4001.628148827228
 20
1839.456449609848
 30
0.0
 10
4001.627504261604
 20
1839.456446359979
 30
0.0
 10
4001.626840237231
 20
1839.456442194433
 30
0.0
 10
4001.626157511839
 20
1839.456437113138
 30
0.0
 10
4001.62545695562
 20
1839.456431116025
 30
0.0
 10
4001.624739558826
 20
1839.456424203031
 30
0.0
 10
4001.624006438769
 20
1839.456416374104
 30
0.0
 10
4001.623258847052
 20
1839.456407629193
 30
0.0
 10
4001.622498175437
 20
1839.456397968267
 30
0.0
 10
4001.621725965586
 20
1839.456387391237
 30
0.0
 10
4001.620943902108
 20
1839.456375898272
 30
0.0
 10
4001.620153868366
 20
1839.456363488543
 30
0.0
 10
4001.619357756438
 20
1839.456350165116
 30
0.0
 10
4001.618558226226
 20
1839.456335915989
 30
0.0
 10
4001.617755788497
 20
1839.456320787457
 30
0.0
 10
4001.617231346235
 20
1839.456310118619
 30
0.0
 10
4001.616966115372
 20
1839.456304722973
 30
0.0
  0
SPLINE
  5
134A
330
1F
100
AcDbEntity
  8
SANINDUSA
  6
Continuous
370
    15
100
AcDbSpline
210
0.0
220
0.0
230
1.0
 70
     8
 71
     3
 72
    13
 73
     9
 74
     0
 42
0.0000000001
 43
0.0000000001
 40
0.0
 40
0.0
 40
0.0
 40
0.0
 40
0.1686314104424986
 40
0.3364399086748301
 40
0.503452962041603
 40
0.6696984321652856
 40
0.8352045683214795
 40
1.0
 40
1.0
 40
1.0
 40
1.0
 10
4001.644793642094
 20
1839.456354097038
 30
0.0
 10
4001.644696663041
 20
1839.456346993604
 30
0.0
 10
4001.644503178186
 20
1839.456332821401
 30
0.0
 10
4001.644208768577
 20
1839.456317603483
 30
0.0
 10
4001.643912382558
 20
1839.45630685685
 30
0.0
 10
4001.643613706127
 20
1839.456301125193
 30
0.0
 10
4001.643313234056
 20
1839.45629984827
 30
0.0
 10
4001.643110660526
 20
1839.456303100405
 30
0.0
 10
4001.643009591698
 20
1839.456304722973
 30
0.0
  0
SPLINE
  5
134B
330
1F
100
AcDbEntity
  8
SANINDUSA
  6
Continuous
370
    15
100
AcDbSpline
210
0.0
220
0.0
230
1.0
 70
     8
 71
     3
 72
    17
 73
    13
 74
     0
 42
0.0000000001
 43
0.0000000001
 40
0.0
 40
0.0
 40
0.0
 40
0.0
 40
0.0007644143602015
 40
0.2347823696531464
 40
0.4992483520088589
 40
0.5766568042829797
 40
0.7499897072099923
 40
0.8085444686182572
 40
0.862822082917545
 40
0.912823209014283
 40
0.9585487596746443
 40
1.0
 40
1.0
 40
1.0
 40
1.0
 10
4001.653487853535
 20
1839.457653378136
 30
0.0
 10
4001.653487852331
 20
1839.457653377292
 30
0.0
 10
4001.65348748236
 20
1839.457653118209
 30
0.0
 10
4001.653120535832
 20
1839.457559619984
 30
0.0
 10
4001.651817401218
 20
1839.457304152539
 30
0.0
 10
4001.650166900655
 20
1839.456999740992
 30
0.0
 10
4001.648964968871
 20
1839.456815896737
 30
0.0
 10
4001.647694052391
 20
1839.45664825249
 30
0.0
 10
4001.646928013211
 20
1839.456557646814
 30
0.0
 10
4001.64618689345
 20
1839.456478602352
 30
0.0
 10
4001.645482683429
 20
1839.456410590514
 30
0.0
 10
4001.645015690256
 20
1839.456372302437
 30
0.0
 10
4001.644793642094
 20
1839.456354097038
 30
0.0
  0
LINE
  5
134C
330
1F
100
AcDbEntity
  8
SANINDUSA
  6
Continuous
370
    15
100
AcDbLine
 10
4001.653487853535
 20
1839.457653378136
 30
0.0
 11
4001.653487853535
 21
1839.416898566325
 31
0.0
  0
SPLINE
  5
134D
330
1F
100
AcDbEntity
  8
SANINDUSA
  6
Continuous
370
    15
100
AcDbSpline
210
0.0
220
0.0
230
1.0
 70
     8
 71
     3
 72
    30
 73
    26
 74
     0
 42
0.0000000001
 43
0.0000000001
 40
0.0
 40
0.0
 40
0.0
 40
0.0
 40
0.018472905871564
 40
0.0376422507840086
 40
0.0575694252141886
 40
0.0783096858732894
 40
0.0999054895690968
 40
0.1223790209060586
 40
0.1785873664258043
 40
0.244855067060295
 40
0.2980950347757882
 40
0.3691012781477073
 40
0.4259665964260339
 40
0.4687552150148448
 40
0.4942862981001026
 40
0.5390621906212614
 40
0.583275831518396
 40
0.6264646176330518
 40
0.6682023086327532
 40
0.7081014524365288
 40
0.7458170923799342
 40
0.8307649914083247
 40
0.9157322292808991
 40
0.9992232221606453
 40
1.0
 40
1.0
 40
1.0
 40
1.0
 10
4001.652399214473
 20
1839.467066692436
 30
0.0
 10
4001.652546196806
 20
1839.46707424319
 30
0.0
 10
4001.652845702788
 20
1839.467089629365
 30
0.0
 10
4001.653295280236
 20
1839.467114587893
 30
0.0
 10
4001.653754797481
 20
1839.467141511438
 30
0.0
 10
4001.654223559369
 20
1839.467170599451
 30
0.0
 10
4001.654701496766
 20
1839.467201900935
 30
0.0
 10
4001.655426129926
 20
1839.46725191944
 30
0.0
 10
4001.656436015982
 20
1839.467327983113
 30
0.0
 10
4001.657577983189
 20
1839.467424434618
 30
0.0
 10
4001.658734816723
 20
1839.467531629263
 30
0.0
 10
4001.659742789144
 20
1839.467633248835
 30
0.0
 10
4001.660604775115
 20
1839.467726521067
 30
0.0
 10
4001.661189564653
 20
1839.467792891631
 30
0.0
 10
4001.66169136664
 20
1839.46785156358
 30
0.0
 10
4001.662156889368
 20
1839.467907575888
 30
0.0
 10
4001.662647559224
 20
1839.467968493066
 30
0.0
 10
4001.663081876432
 20
1839.468023915841
 30
0.0
 10
4001.663460530623
 20
1839.468073385485
 30
0.0
 10
4001.663783650033
 20
1839.468116448313
 30
0.0
 10
4001.664168059101
 20
1839.468168522063
 30
0.0
 10
4001.664541230446
 20
1839.468220269738
 30
0.0
 10
4001.664817989975
 20
1839.468259388005
 30
0.0
 10
4001.664883538103
 20
1839.468268747076
 30
0.0
 10
4001.66488421379
 20
1839.468268844487
 30
0.0
 10
4001.664884220018
 20
1839.468268845385
 30
0.0
  0
SPLINE
  5
134E
330
1F
100
AcDbEntity
  8
SANINDUSA
  6
Continuous
370
    15
100
AcDbSpline
210
0.0
220
0.0
230
1.0
 70
    24
 71
     3
 72
     8
 73
     4
 74
     0
 42
0.0000000001
 43
0.0000000001
 40
0.0
 40
0.0
 40
0.0
 40
0.0
 40
1.0
 40
1.0
 40
1.0
 40
1.0
 10
4001.653487862955
 20
1839.45765337835
 30
0.0
 10
4001.657286648618
 20
1839.461191867323
 30
0.0
 10
4001.661085434281
 20
1839.464730356296
 30
0.0
 10
4001.664884219944
 20
1839.46826884527
 30
0.0
  0
SPLINE
  5
134F
330
1F
100
AcDbEntity
  8
SANINDUSA
  6
Continuous
370
    15
100
AcDbSpline
210
0.0
220
0.0
230
1.0
 70
     8
 71
     3
 72
     8
 73
     4
 74
     0
 42
0.0000000001
 43
0.0000000001
 40
0.2222895824078737
 40
0.2222895824078737
 40
0.2222895824078737
 40
0.2222895824078737
 40
0.7419835177425515
 40
0.7419835177425515
 40
0.7419835177425515
 40
0.7419835177425515
 10
4001.701420844072
 20
1839.479100923185
 30
0.0
 10
4001.689823907187
 20
1839.473747251165
 30
0.0
 10
4001.67751630064
 20
1839.470099780551
 30
0.0
 10
4001.664884220018
 20
1839.468268845385
 30
0.0
  0
ARC
  5
1350
330
1F
100
AcDbEntity
  8
SANINDUSA
  6
Continuous
370
    15
100
AcDbCircle
 10
4001.688846698606
 20
1839.506338596835
 30
0.0
 40
0.03
100
AcDbArc
 50
294.7801892860077
 51
349.999999998777
  0
LINE
  5
1351
330
1F
100
AcDbEntity
  8
SANINDUSA
  6
Continuous
370
    15
100
AcDbLine
 10
4001.718390931197
 20
1839.501129151505
 30
0.0
 11
4001.729987853535
 21
1839.566898566325
 31
0.0
  0
LINE
  5
1352
330
1F
100
AcDbEntity
  8
SANINDUSA
  6
Continuous
370
    15
100
AcDbLine
 10
4001.729987853535
 20
1839.566898566325
 30
0.0
 11
4001.746987853535
 21
1839.566898566325
 31
0.0
  0
LINE
  5
1354
330
1F
100
AcDbEntity
  8
SANINDUSA
  6
Continuous
370
    15
100
AcDbLine
 10
4001.740896148741
 20
1839.556898566325
 30
0.0
 11
4001.746987853535
 21
1839.556898566325
 31
0.0
  0
ARC
  5
1355
330
1F
100
AcDbEntity
  8
SANINDUSA
  6
Continuous
370
    15
100
AcDbCircle
 10
4001.740896148741
 20
1839.553898566325
 30
0.0
 40
0.003
100
AcDbArc
 50
90.0
 51
169.999999998777
  0
LINE
  5
1356
330
1F
100
AcDbEntity
  8
SANINDUSA
  6
Continuous
370
    15
100
AcDbLine
 10
4001.728239008727
 20
1839.499392669728
 30
0.0
 11
4001.737941725482
 21
1839.554419510858
 31
0.0
  0
ARC
  5
1357
330
1F
100
AcDbEntity
  8
SANINDUSA
  6
Continuous
370
    15
100
AcDbCircle
 10
4001.688846698606
 20
1839.506338596835
 30
0.0
 40
0.04
100
AcDbArc
 50
294.7801892860077
 51
349.999999998777
  0
SPLINE
  5
1358
330
1F
100
AcDbEntity
  8
SANINDUSA
  6
Continuous
370
    15
100
AcDbSpline
210
0.0
220
0.0
230
1.0
 70
     8
 71
     3
 72
    12
 73
     8
 74
     0
 42
0.0000000001
 43
0.0000000001
 40
0.0
 40
0.0
 40
0.0
 40
0.0
 40
0.5000000000000002
 40
0.5000000000000002
 40
0.7500000000000001
 40
0.7500000000000001
 40
1.0
 40
1.0
 40
1.0
 40
1.0
 10
4001.705612225893
 20
1839.470021698636
 30
0.0
 10
4001.700846041178
 20
1839.467821411611
 30
0.0
 10
4001.695979930178
 20
1839.465893518467
 30
0.0
 10
4001.688532184966
 20
1839.463406696624
 30
0.0
 10
4001.686024783587
 20
1839.462645413069
 30
0.0
 10
4001.68095987264
 20
1839.461259438288
 30
0.0
 10
4001.678410851801
 20
1839.460637087099
 30
0.0
 10
4001.675846139064
 20
1839.460085404313
 30
0.0
  0
ARC
  5
1359
330
1F
100
AcDbEntity
  8
SANINDUSA
  6
Continuous
370
    15
100
AcDbCircle
 10
4001.677949088233
 20
1839.45030902437
 30
0.0
 40
0.0099999999999999
100
AcDbArc
 50
102.1396356883203
 51
175.0000000037089
  0
LINE
  5
135A
330
1F
100
AcDbEntity
  8
SANINDUSA
  6
Continuous
370
    15
100
AcDbLine
 10
4001.664987853535
 20
1839.416898566325
 30
0.0
 11
4001.667987141252
 21
1839.451180581798
 31
0.0
  0
LINE
  5
135B
330
1F
100
AcDbEntity
  8
SANINDUSA
  6
Continuous
370
    15
100
AcDbLine
 10
4001.653487853535
 20
1839.416898566325
 30
0.0
 11
4001.664987853535
 21
1839.416898566325
 31
0.0
  0
ARC
  5
135C
330
1F
100
AcDbEntity
  8
SANINDUSA
  6
Continuous
370
    15
100
AcDbCircle
 10
4001.571129008464
 20
1839.506338596835
 30
0.0
 40
0.0300000000000001
100
AcDbArc
 50
190.000000001223
 51
245.2198107139923
  0
SPLINE
  5
135D
330
1F
100
AcDbEntity
  8
SANINDUSA
  6
Continuous
370
    15
100
AcDbSpline
210
0.0
220
0.0
230
1.0
 70
     8
 71
     3
 72
     8
 73
     4
 74
     0
 42
0.0000000001
 43
0.0000000001
 40
0.2222895824078724
 40
0.2222895824078724
 40
0.2222895824078724
 40
0.2222895824078724
 40
0.7419835177425547
 40
0.7419835177425547
 40
0.7419835177425547
 40
0.7419835177425547
 10
4001.595091487052
 20
1839.468268845385
 30
0.0
 10
4001.582459406431
 20
1839.470099780551
 30
0.0
 10
4001.570151799883
 20
1839.473747251165
 30
0.0
 10
4001.558554862999
 20
1839.479100923185
 30
0.0
  0
SPLINE
  5
135E
330
1F
100
AcDbEntity
  8
SANINDUSA
  6
Continuous
370
    15
100
AcDbSpline
210
0.0
220
0.0
230
1.0
 70
    24
 71
     3
 72
     8
 73
     4
 74
     0
 42
0.0000000001
 43
0.0000000001
 40
0.0
 40
0.0
 40
0.0
 40
0.0
 40
1.0
 40
1.0
 40
1.0
 40
1.0
 10
4001.595091487128
 20
1839.46826884527
 30
0.0
 10
4001.598890272791
 20
1839.464730356296
 30
0.0
 10
4001.602689058453
 20
1839.461191867323
 30
0.0
 10
4001.606487844115
 20
1839.45765337835
 30
0.0
  0
LINE
  5
135F
330
1F
100
AcDbEntity
  8
SANINDUSA
  6
Continuous
370
    15
100
AcDbLine
 10
4001.591934438943
 20
1839.451799254821
 30
0.0
 11
4001.606487853535
 21
1839.448940930959
 31
0.0
  0
ARC
  5
1360
330
1F
100
AcDbEntity
  8
SANINDUSA
  6
Continuous
370
    15
100
AcDbCircle
 10
4001.58204675524
 20
1839.45030469435
 30
0.0
 40
0.0100000000000001
100
AcDbArc
 50
8.595405008992115
 51
77.86810119305293
  0
SPLINE
  5
1361
330
1F
100
AcDbEntity
  8
SANINDUSA
  6
Continuous
370
    15
100
AcDbSpline
210
0.0
220
0.0
230
1.0
 70
     8
 71
     3
 72
    12
 73
     8
 74
     0
 42
0.0000000001
 43
0.0000000001
 40
0.0
 40
0.0
 40
0.0
 40
0.0
 40
0.25
 40
0.25
 40
0.5
 40
0.5
 40
1.0
 40
1.0
 40
1.0
 40
1.0
 10
4001.584148384249
 20
1839.460081358173
 30
0.0
 10
4001.581585074687
 20
1839.46063237699
 30
0.0
 10
4001.579039216668
 20
1839.461253584786
 30
0.0
 10
4001.573982376112
 20
1839.462636267299
 30
0.0
 10
4001.571468562821
 20
1839.463398728831
 30
0.0
 10
4001.564003162066
 20
1839.465890270325
 30
0.0
 10
4001.559130867131
 20
1839.467820857065
 30
0.0
 10
4001.554363481178
 20
1839.470021698636
 30
0.0
  0
ARC
  5
1362
330
1F
100
AcDbEntity
  8
SANINDUSA
  6
Continuous
370
    15
100
AcDbCircle
 10
4001.571129008464
 20
1839.506338596835
 30
0.0
 40
0.04
100
AcDbArc
 50
190.000000001223
 51
245.2198107139923
  0
LINE
  5
1363
330
1F
100
AcDbEntity
  8
SANINDUSA
  6
Continuous
370
    15
100
AcDbLine
 10
4001.52647793449
 20
1839.529216601563
 30
0.0
 11
4001.531736698344
 21
1839.499392669728
 31
0.0
  0
LINE
  5
1364
330
1F
100
AcDbEntity
  8
SANINDUSA
  6
Continuous
370
    15
100
AcDbLine
 10
4001.53632601202
 20
1839.53095308334
 30
0.0
 11
4001.52647793449
 21
1839.529216601563
 31
0.0
  0
LINE
  5
1365
330
1F
100
AcDbEntity
  8
SANINDUSA
  6
Continuous
370
    15
100
AcDbLine
 10
4001.53632601202
 20
1839.53095308334
 30
0.0
 11
4001.541584775874
 21
1839.501129151505
 31
0.0
  0
SPLINE
  5
1366
330
1F
100
AcDbEntity
  8
SANINDUSA
  6
Continuous
370
    15
100
AcDbSpline
210
0.0
220
0.0
230
1.0
 70
     8
 71
     3
 72
    34
 73
    30
 74
     0
 42
0.0000000001
 43
0.0000000001
 40
0.0
 40
0.0
 40
0.0
 40
0.0
 40
0.0190057222115294
 40
0.0381564356661184
 40
0.0574357737079002
 40
0.0768268571330585
 40
0.0963123276778
 40
0.1158743816973395
 40
0.1354948045205217
 40
0.1551550058947942
 40
0.1748360569595106
 40
0.1945187292178594
 40
0.214183536020382
 40
0.2338107771274113
 40
0.253380586985853
 40
0.3111659043087291
 40
0.3732043049072709
 40
0.4382550770987873
 40
0.5048922508026054
 40
0.5513995189873351
 40
0.6301920574853456
 40
0.6798617006271335
 40
0.7205781607521226
 40
0.753744370014373
 40
0.8206246248650909
 40
0.8769457798593299
 40
0.9212339481241677
 40
0.9621312669680149
 40
1.0
 40
1.0
 40
1.0
 40
1.0
 10
4001.595091487052
 20
1839.468268845385
 30
0.0
 10
4001.595092336763
 20
1839.468268724568
 30
0.0
 10
4001.595094042666
 20
1839.468268482013
 30
0.0
 10
4001.595109104238
 20
1839.468266337804
 30
0.0
 10
4001.595133292105
 20
1839.468262897645
 30
0.0
 10
4001.595167525062
 20
1839.468258036029
 30
0.0
 10
4001.595211555509
 20
1839.468251795766
 30
0.0
 10
4001.595265450951
 20
1839.468244176881
 30
0.0
 10
4001.595329193333
 20
1839.468235193698
 30
0.0
 10
4001.595402787538
 20
1839.468224859387
 30
0.0
 10
4001.595486230832
 20
1839.468213190301
 30
0.0
 10
4001.595579525837
 20
1839.468200204161
 30
0.0
 10
4001.595682659243
 20
1839.468185922985
 30
0.0
 10
4001.595795673714
 20
1839.468170363191
 30
0.0
 10
4001.59599847858
 20
1839.468142616551
 30
0.0
 10
4001.596341013793
 20
1839.468096337298
 30
0.0
 10
4001.596886302233
 20
1839.468024634112
 30
0.0
 10
4001.59755366814
 20
1839.467939915081
 30
0.0
 10
4001.598261129326
 20
1839.467853913678
 30
0.0
 10
4001.599127348303
 20
1839.46775338037
 30
0.0
 10
4001.599992766126
 20
1839.467658462303
 30
0.0
 10
4001.600920383878
 20
1839.467563805869
 30
0.0
 10
4001.601641553738
 20
1839.467494346284
 30
0.0
 10
4001.602505290948
 20
1839.467415408272
 30
0.0
 10
4001.603519063979
 20
1839.467329627204
 30
0.0
 10
4001.604686022733
 20
1839.467241548257
 30
0.0
 10
4001.60571810289
 20
1839.467172036211
 30
0.0
 10
4001.606651749033
 20
1839.467115132218
 30
0.0
 10
4001.607276248829
 20
1839.467082419761
 30
0.0
 10
4001.607576492597
 20
1839.467066692436
 30
0.0
  0
LINE
  5
1367
330
1F
100
AcDbEntity
  8
SANINDUSA
  6
Continuous
370
    15
100
AcDbLine
 10
4001.594076535024
 20
1839.427314984573
 30
0.0
 11
4001.594987853535
 21
1839.416898566325
 31
0.0
  0
LINE
  5
1368
330
1F
100
AcDbEntity
  8
SANINDUSA
  6
Continuous
370
    15
100
AcDbLine
 10
4001.526644916229
 20
1839.479791092477
 30
0.0
 11
4001.510212415025
 21
1839.556898566325
 31
0.0
  0
ARC
  5
1369
330
1F
100
AcDbEntity
  8
SANINDUSA
  6
Continuous
370
    15
100
AcDbCircle
 10
4001.566741116217
 20
1839.488336059932
 30
0.0
 40
0.0409966062295798
100
AcDbArc
 50
192.0304261259883
 51
258.8884097052616
  0
LINE
  5
136A
330
1F
100
AcDbEntity
  8
SANINDUSA
  6
Continuous
370
    15
100
AcDbLine
 10
4001.606487853535
 20
1839.438749886572
 30
0.0
 11
4001.558840231107
 21
1839.448107988429
 31
0.0
  0
LINE
  5
136B
330
1F
100
AcDbEntity
  8
SANINDUSA
  6
Continuous
370
    15
100
AcDbLine
 10
4001.594987853535
 20
1839.416898566325
 30
0.0
 11
4001.606487853535
 21
1839.416898566325
 31
0.0
  0
ARC
  5
136C
330
1F
100
AcDbEntity
  8
SANINDUSA
  6
Continuous
370
    15
100
AcDbCircle
 10
4001.589095561533
 20
1839.426879205859
 30
0.0
 40
0.0050000000000001
100
AcDbArc
 50
4.999999996291115
 51
78.88840970526162
  0
LINE
  5
136D
330
1F
100
AcDbEntity
  8
SANINDUSA
  6
Continuous
370
    15
100
AcDbLine
 10
4001.59005916387
 20
1839.431785474353
 30
0.0
 11
4001.556913026433
 21
1839.438295451441
 31
0.0
  0
ARC
  5
136E
330
1F
100
AcDbEntity
  8
SANINDUSA
  6
Continuous
370
    15
100
AcDbCircle
 10
4001.566741116217
 20
1839.488336059932
 30
0.0
 40
0.0509966062295798
100
AcDbArc
 50
192.0304261259883
 51
258.8884097052616
  0
LINE
  5
136F
330
1F
100
AcDbEntity
  8
SANINDUSA
  6
Continuous
370
    15
100
AcDbLine
 10
4001.516864545687
 20
1839.477706781544
 30
0.0
 11
4001.499987853535
 21
1839.556898566325
 31
0.0
  0
LINE
  5
1370
330
1F
100
AcDbEntity
  8
SANINDUSA
  6
Continuous
370
    15
100
AcDbLine
 10
4001.499987853535
 20
1839.566898566325
 30
0.0
 11
4001.499987853535
 21
1839.556898566325
 31
0.0
  0
LINE
  5
1371
330
1F
100
AcDbEntity
  8
SANINDUSA
  6
Continuous
370
    15
100
AcDbLine
 10
4001.499987853535
 20
1839.566898566325
 30
0.0
 11
4001.529987853536
 21
1839.566898566325
 31
0.0
  0
LINE
  5
1372
330
1F
100
AcDbEntity
  8
SANINDUSA
  6
Continuous
370
    15
100
AcDbLine
 10
4001.529987853536
 20
1839.566898566325
 30
0.0
 11
4001.532332103933
 21
1839.553603661659
 31
0.0
  0
LINE
  5
1373
330
1F
100
AcDbEntity
  8
SANINDUSA
  6
Continuous
370
    15
100
AcDbLine
 10
4001.522484026404
 20
1839.551867179883
 30
0.0
 11
4001.532332103933
 21
1839.553603661659
 31
0.0
  0
LINE
  5
1374
330
1F
100
AcDbEntity
  8
SANINDUSA
  6
Continuous
370
    15
100
AcDbLine
 10
4001.521596857224
 20
1839.556898566325
 30
0.0
 11
4001.522484026404
 21
1839.551867179883
 31
0.0
  0
LINE
  5
1375
330
1F
100
AcDbEntity
  8
SANINDUSA
  6
Continuous
370
    15
100
AcDbLine
 10
4001.510212415025
 20
1839.556898566325
 30
0.0
 11
4001.521596857224
 21
1839.556898566325
 31
0.0
  0
LINE
  5
1376
330
1F
100
AcDbEntity
  8
SANINDUSA
  6
Continuous
370
    15
100
AcDbLine
 10
4001.53632601202
 20
1839.53095308334
 30
0.0
 11
4001.532332103933
 21
1839.553603661659
 31
0.0
  0
LINE
  5
1377
330
1F
100
AcDbEntity
  8
SANINDUSA
  6
Continuous
370
    15
100
AcDbLine
 10
4001.52647793449
 20
1839.529216601563
 30
0.0
 11
4001.522484026404
 21
1839.551867179883
 31
0.0
  0
LINE
  5
1378
330
1F
100
AcDbEntity
  8
SANINDUSA
  6
Continuous
370
    15
100
AcDbLine
 10
4001.759987853535
 20
1839.566898566325
 30
0.0
 11
4001.759987853535
 21
1839.556898566325
 31
0.0
  0
LINE
  5
1379
330
1F
100
AcDbEntity
  8
SANINDUSA
  6
Continuous
370
    15
100
AcDbLine
 10
4001.759987853535
 20
1839.556898566325
 30
0.0
 11
4001.746987853535
 21
1839.556898566325
 31
0.0
  0
LINE
  5
137A
330
1F
100
AcDbEntity
  8
SANINDUSA
  6
Continuous
370
    15
100
AcDbLine
 10
4001.759987853535
 20
1839.566898566325
 30
0.0
 11
4001.746987853535
 21
1839.566898566325
 31
0.0
  0
SPLINE
  5
137B
330
1F
100
AcDbEntity
  8
SANINDUSA
  6
Continuous
370
    15
100
AcDbSpline
210
0.0
220
0.0
230
1.0
 70
    24
 71
     3
 72
    14
 73
    10
 74
     0
 42
0.0000000001
 43
0.0000000001
 40
0.0
 40
0.0
 40
0.0
 40
0.0
 40
0.1526381543162555
 40
0.3027277479543939
 40
0.4498239817158807
 40
0.593499104781702
 40
0.7333436024632687
 40
0.8689672387608636
 40
1.0
 40
1.0
 40
1.0
 40
1.0
 10
4001.607576492597
 20
1839.467066692436
 30
0.0
 10
4001.607684962725
 20
1839.467061545232
 30
0.0
 10
4001.607900091883
 20
1839.467051336765
 30
0.0
 10
4001.608225899542
 20
1839.467040050939
 30
0.0
 10
4001.608549273435
 20
1839.467031801347
 30
0.0
 10
4001.608869288122
 20
1839.467026719345
 30
0.0
 10
4001.609184631009
 20
1839.467024642551
 30
0.0
 10
4001.609493781217
 20
1839.467025142885
 30
0.0
 10
4001.609699486799
 20
1839.46702766967
 30
0.0
 10
4001.60980056883
 20
1839.467028911311
 30
0.0
  0
SPLINE
  5
137C
330
1F
100
AcDbEntity
  8
SANINDUSA
  6
Continuous
370
    15
100
AcDbSpline
210
0.0
220
0.0
230
1.0
 70
    24
 71
     3
 72
    13
 73
     9
 74
     0
 42
0.0000000001
 43
0.0000000001
 40
0.0
 40
0.0
 40
0.0
 40
0.0
 40
0.1533276572079607
 40
0.3128211833318935
 40
0.4778848946516233
 40
0.6478862175574687
 40
0.8221578116342509
 40
1.0
 40
1.0
 40
1.0
 40
1.0
 10
4001.65017513824
 20
1839.467028911311
 30
0.0
 10
4001.6502933542
 20
1839.467027507097
 30
0.0
 10
4001.650534540016
 20
1839.467024642198
 30
0.0
 10
4001.650896884077
 20
1839.467024884509
 30
0.0
 10
4001.651267155208
 20
1839.467028699955
 30
0.0
 10
4001.651642757158
 20
1839.467036815667
 30
0.0
 10
4001.652022325742
 20
1839.467048989779
 30
0.0
 10
4001.652272738463
 20
1839.467060751793
 30
0.0
 10
4001.652399214473
 20
1839.467066692436
 30
0.0
  0
SPLINE
  5
137D
330
1F
100
AcDbEntity
  8
SANINDUSA
  6
Continuous
370
    15
100
AcDbSpline
210
0.0
220
0.0
230
1.0
 70
     8
 71
     3
 72
    34
 73
    30
 74
     0
 42
0.0000000001
 43
0.0000000001
 40
0.0
 40
0.0
 40
0.0
 40
0.0
 40
0.0145632891710876
 40
0.0289733236891977
 40
0.0432185174805491
 40
0.0572883993266145
 40
0.071173361517361
 40
0.0848644310801971
 40
0.0983520186712682
 40
0.1116196913988638
 40
0.1246489780237254
 40
0.1877872349410407
 40
0.2492849205643751
 40
0.375252222614317
 40
0.4991596870258407
 40
0.5605842413688312
 40
0.6230790074950395
 40
0.686194738344423
 40
0.7493339899685178
 40
0.7720894940479834
 40
0.7955446896827925
 40
0.8196341293553977
 40
0.8442928385937479
 40
0.8694480533268711
 40
0.8950182622574642
 40
0.9209129010502962
 40
0.9470619673386702
 40
0.9734359436290825
 40
1.0
 40
1.0
 40
1.0
 40
1.0
 10
4001.60980056883
 20
1839.467028911311
 30
0.0
 10
4001.609974626057
 20
1839.467031180798
 30
0.0
 10
4001.610320908844
 20
1839.467035695889
 30
0.0
 10
4001.610844411045
 20
1839.467042412982
 30
0.0
 10
4001.611366687339
 20
1839.467049023915
 30
0.0
 10
4001.611887548564
 20
1839.467055510899
 30
0.0
 10
4001.612406213344
 20
1839.467061857273
 30
0.0
 10
4001.612922095264
 20
1839.467068046937
 30
0.0
 10
4001.613434494859
 20
1839.467074062884
 30
0.0
 10
4001.613942520418
 20
1839.467079891715
 30
0.0
 10
4001.615093054614
 20
1839.467092778113
 30
0.0
 10
4001.616902553163
 20
1839.467111490202
 30
0.0
 10
4001.620284265235
 20
1839.46714129282
 30
0.0
 10
4001.624631432435
 20
1839.467167662364
 30
0.0
 10
4001.629065996104
 20
1839.467177313215
 30
0.0
 10
4001.632594287639
 20
1839.467173655258
 30
0.0
 10
4001.635243659349
 20
1839.467165523993
 30
0.0
 10
4001.637890222633
 20
1839.46715223592
 30
0.0
 10
4001.639947835588
 20
1839.467137996978
 30
0.0
 10
4001.641433853609
 20
1839.467125767682
 30
0.0
 10
4001.642380514508
 20
1839.467117345657
 30
0.0
 10
4001.643343296639
 20
1839.467108186822
 30
0.0
 10
4001.644318325197
 20
1839.46709834818
 30
0.0
 10
4001.645301411247
 20
1839.467087892803
 30
0.0
 10
4001.646287852056
 20
1839.467076889657
 30
0.0
 10
4001.647272855312
 20
1839.467065406113
 30
0.0
 10
4001.648251630337
 20
1839.467053514124
 30
0.0
 10
4001.649222962057
 20
1839.46704131708
 30
0.0
 10
4001.649856987333
 20
1839.467033056454
 30
0.0
 10
4001.65017513824
 20
1839.467028911311
 30
0.0
  0
LINE
  5
1393
330
1F
100
AcDbEntity
  8
SANINDUSA
  6
Continuous
370
    15
100
AcDbLine
 10
4001.529987853536
 20
1839.566898566325
 30
0.0
 11
4001.539835931065
 21
1839.566898566325
 31
0.0
  0
LINE
  5
1395
330
1F
100
AcDbEntity
  8
SANINDUSA
  6
Continuous
370
    15
100
AcDbLine
 10
4001.720139776005
 20
1839.566898566325
 30
0.0
 11
4001.729987853535
 21
1839.566898566325
 31
0.0
  0
LINE
  5
1396
330
1F
100
AcDbEntity
  8
SANINDUSA
  6
Continuous
370
    15
100
AcDbLine
 10
4001.720139776005
 20
1839.566898566325
 30
0.0
 11
4001.539835931065
 21
1839.566898566325
 31
0.0
  0
LINE
  5
139E
330
1F
100
AcDbEntity
  8
SANINDUSA
100
AcDbLine
 10
4000.152595489192
 20
1839.465100439696
 30
0.0
 11
4000.447911686189
 21
1839.465100439696
 31
0.0
  0
LINE
  5
139F
330
1F
100
AcDbEntity
  8
SANINDUSA
100
AcDbLine
 10
4000.447911686189
 20
1839.584091344637
 30
0.0
 11
4000.152595489192
 21
1839.584091344637
 31
0.0
  0
LINE
  5
13FE
330
1F
100
AcDbEntity
  8
SANINDUSA
100
AcDbLine
 10
4000.143994448143
 20
1839.584393418286
 30
0.0
 11
4000.120101665221
 21
1839.624595892166
 31
0.0
  0
LINE
  5
13FF
330
1F
100
AcDbEntity
  8
SANINDUSA
100
AcDbLine
 10
4000.143994448143
 20
1839.584393418286
 30
0.0
 11
4000.110253587691
 21
1839.614747814636
 31
0.0
  0
LINE
  5
1400
330
1F
100
AcDbEntity
  8
SANINDUSA
100
AcDbLine
 10
4000.490253587691
 20
1839.614747814636
 30
0.0000000000000001
 11
4000.456512727239
 21
1839.584393418287
 31
0.0
  0
LINE
  5
1401
330
1F
100
AcDbEntity
  8
SANINDUSA
100
AcDbLine
 10
4000.456512727239
 20
1839.584393418287
 30
0.0
 11
4000.480405510161
 21
1839.624595892166
 31
0.0
  0
LINE
  5
1402
330
1F
100
AcDbEntity
  8
SANINDUSA
100
AcDbLine
 10
4000.490253587691
 20
1839.434443969696
 30
-0.0000000000000001
 11
4000.456512727239
 21
1839.464798366046
 31
0.0
  0
LINE
  5
1403
330
1F
100
AcDbEntity
  8
SANINDUSA
100
AcDbLine
 10
4000.456512727239
 20
1839.464798366046
 30
0.0
 11
4000.480405510161
 21
1839.424595892166
 31
0.0
  0
LINE
  5
1404
330
1F
100
AcDbEntity
  8
SANINDUSA
100
AcDbLine
 10
4000.120101665221
 20
1839.424595892166
 30
0.0
 11
4000.143994448143
 21
1839.464798366046
 31
0.0
  0
LINE
  5
1405
330
1F
100
AcDbEntity
  8
SANINDUSA
100
AcDbLine
 10
4000.143994448143
 20
1839.464798366046
 30
0.0
 11
4000.110253587691
 21
1839.434443969696
 31
0.0
  0
ENDSEC
  0
SECTION
  2
OBJECTS
  0
DICTIONARY
  5
C
330
0
100
AcDbDictionary
281
     1
  3
ACAD_2007HEADERVARS_RT
350
148D
  3
ACAD_BACKGROUND
350
1444
  3
ACAD_COLOR
350
EE6
  3
ACAD_GROUP
350
D
  3
ACAD_LAYOUT
350
1A
  3
ACAD_MATERIAL
350
EE5
  3
ACAD_MLEADERSTYLE
350
10A8
  3
ACAD_MLINESTYLE
350
17
  3
ACAD_PLOTSETTINGS
350
19
  3
ACAD_PLOTSTYLENAME
350
E
  3
ACAD_SCALELIST
350
1096
  3
ACAD_TABLESTYLE
350
EE7
  3
ACAD_VISUALSTYLE
350
1082
  3
ACDB_RECOMPOSE_DATA
350
148B
  3
AcDbVariableDictionary
350
3D
  3
AEC_PROPERTY_SET_DEFS
350
1225
  3
ASE_INDEX_DICTIONARY
350
1066
  3
Autodesk_PNP
350
10B2
  3
DWGPROPS
350
148C
  0
DICTIONARY
  5
1051
330
2
100
AcDbDictionary
280
     1
281
     1
  3
ACAD_LAYERFILTERS
360
1065
  3
ACLYDICTIONARY
360
1064
  0
DICTIONARY
  5
13A0
330
10
100
AcDbDictionary
280
     1
281
     1
  3
ADSK_XREC_LAYER_RECONCILED
360
13A1
  0
DICTIONARY
  5
13A2
330
2F
100
AcDbDictionary
280
     1
281
     1
  3
ADSK_XREC_LAYER_RECONCILED
360
13A3
  0
DICTIONARY
  5
13A4
330
30
100
AcDbDictionary
280
     1
281
     1
  3
ADSK_XREC_LAYER_RECONCILED
360
13A5
  0
DICTIONARY
  5
13A6
330
31
100
AcDbDictionary
280
     1
281
     1
  3
ADSK_XREC_LAYER_RECONCILED
360
13A7
  0
DICTIONARY
  5
13A8
330
32
100
AcDbDictionary
280
     1
281
     1
  3
ADSK_XREC_LAYER_RECONCILED
360
13A9
  0
DICTIONARY
  5
13AA
330
33
100
AcDbDictionary
280
     1
281
     1
  3
ADSK_XREC_LAYER_RECONCILED
360
13AB
  0
DICTIONARY
  5
13AC
330
34
100
AcDbDictionary
280
     1
281
     1
  3
ADSK_XREC_LAYER_RECONCILED
360
13AD
  0
DICTIONARY
  5
13AE
330
35
100
AcDbDictionary
280
     1
281
     1
  3
ADSK_XREC_LAYER_RECONCILED
360
13AF
  0
DICTIONARY
  5
13B0
330
36
100
AcDbDictionary
280
     1
281
     1
  3
ADSK_XREC_LAYER_RECONCILED
360
13B1
  0
DICTIONARY
  5
13B2
330
37
100
AcDbDictionary
280
     1
281
     1
  3
ADSK_XREC_LAYER_RECONCILED
360
13B3
  0
DICTIONARY
  5
13B4
330
5D6
100
AcDbDictionary
280
     1
281
     1
  3
ADSK_XREC_LAYER_RECONCILED
360
13B5
  0
DICTIONARY
  5
13B6
330
8AF
100
AcDbDictionary
280
     1
281
     1
  3
ADSK_XREC_LAYER_RECONCILED
360
13B7
  0
DICTIONARY
  5
13B8
330
8F8
100
AcDbDictionary
280
     1
281
     1
  3
ADSK_XREC_LAYER_RECONCILED
360
13B9
  0
DICTIONARY
  5
13BA
330
91D
100
AcDbDictionary
280
     1
281
     1
  3
ADSK_XREC_LAYER_RECONCILED
360
13BB
  0
DICTIONARY
  5
13BC
330
C7B
100
AcDbDictionary
280
     1
281
     1
  3
ADSK_XREC_LAYER_RECONCILED
360
13BD
  0
DICTIONARY
  5
13BE
330
1060
100
AcDbDictionary
280
     1
281
     1
  3
ADSK_XREC_LAYER_RECONCILED
360
13BF
  0
DICTIONARY
  5
148D
102
{ACAD_REACTORS
330
C
102
}
330
C
100
AcDbDictionary
281
     1
  3
DIMJOGANG
350
148E
  0
DICTIONARY
  5
1444
102
{ACAD_REACTORS
330
C
102
}
330
C
100
AcDbDictionary
281
     1
  0
DICTIONARY
  5
EE6
102
{ACAD_REACTORS
330
C
102
}
330
C
100
AcDbDictionary
281
     1
  0
DICTIONARY
  5
D
102
{ACAD_REACTORS
330
C
102
}
330
C
100
AcDbDictionary
281
     1
  0
DICTIONARY
  5
1A
102
{ACAD_REACTORS
330
C
102
}
330
C
100
AcDbDictionary
281
     1
  3
Layout1
350
1E
  3
Layout2
350
26
  3
Model
350
22
  0
DICTIONARY
  5
EE5
102
{ACAD_REACTORS
330
C
102
}
330
C
100
AcDbDictionary
281
     1
  3
ByBlock
350
1072
  3
ByLayer
350
106A
  3
Global
350
107A
  0
DICTIONARY
  5
10A8
102
{ACAD_REACTORS
330
C
102
}
330
C
100
AcDbDictionary
281
     1
  3
Standard
350
10A9
  0
DICTIONARY
  5
17
102
{ACAD_REACTORS
330
C
102
}
330
C
100
AcDbDictionary
281
     1
  3
Standard
350
18
  0
DICTIONARY
  5
19
102
{ACAD_REACTORS
330
C
102
}
330
C
100
AcDbDictionary
281
     1
  0
ACDBDICTIONARYWDFLT
  5
E
102
{ACAD_REACTORS
330
C
102
}
330
C
100
AcDbDictionary
281
     1
  3
Normal
350
F
100
AcDbDictionaryWithDefault
340
F
  0
DICTIONARY
  5
1096
102
{ACAD_REACTORS
330
C
102
}
330
C
100
AcDbDictionary
281
     1
  3
A0
350
1097
  3
A1
350
1098
  3
A2
350
1099
  3
A3
350
109A
  3
A4
350
109B
  3
A5
350
109C
  3
A6
350
109D
  3
A7
350
109E
  3
A8
350
109F
  3
A9
350
10A0
  3
B0
350
10A1
  3
B1
350
10A2
  3
B2
350
10A3
  3
B3
350
10A4
  3
B4
350
10A5
  3
B5
350
10A6
  3
B6
350
10A7
  0
DICTIONARY
  5
EE7
102
{ACAD_REACTORS
330
C
102
}
330
C
100
AcDbDictionary
281
     1
  3
Standard
350
EE8
  0
DICTIONARY
  5
1082
102
{ACAD_REACTORS
330
C
102
}
330
C
100
AcDbDictionary
281
     1
  3
2dWireframe
350
1088
  3
3D Hidden
350
108A
  3
3dWireframe
350
1089
  3
Basic
350
1087
  3
Brighten
350
108E
  3
ColorChange
350
1092
  3
Conceptual
350
108B
  3
Dim
350
108D
  3
EdgeColorOff
350
1095
  3
Facepattern
350
1091
  3
Flat
350
1083
  3
FlatWithEdges
350
1084
  3
Gouraud
350
1085
  3
GouraudWithEdges
350
1086
  3
JitterOff
350
1093
  3
Linepattern
350
1090
  3
OverhangOff
350
1094
  3
Realistic
350
108C
  3
Thicken
350
108F
  0
XRECORD
  5
148B
102
{ACAD_REACTORS
330
C
102
}
330
C
100
AcDbXrecord
280
     1
 90
        1
330
EE8
  0
DICTIONARY
  5
3D
102
{ACAD_REACTORS
330
C
102
}
330
C
100
AcDbDictionary
281
     1
  3
CANNOSCALE
350
1485
  3
CMLEADERSTYLE
350
1484
  3
CTABLESTYLE
350
1049
  3
DIMASSOC
350
3F
  3
HIDETEXT
350
3E
  3
INDEXCTL
350
1487
  3
SORTENTS
350
1486
  3
XCLIPFRAME
350
1488
  0
DICTIONARY
  5
1225
102
{ACAD_REACTORS
330
C
102
}
330
C
100
AcDbDictionary
281
     1
  0
DICTIONARY
  5
1066
102
{ACAD_REACTORS
330
C
102
}
330
C
100
AcDbDictionary
281
     1
  3
ASEBlockHierarchyIndexRecord
350
1067
1001
DCO15
1040
1602247867.484
  0
DICTIONARY
  5
10B2
102
{ACAD_REACTORS
330
C
102
}
330
C
100
AcDbDictionary
281
     1
  0
XRECORD
  5
148C
102
{ACAD_REACTORS
330
C
102
}
330
C
100
AcDbXrecord
280
     1
  1
DWGPROPS COOKIE
  2

  3

  4

  6

  7

  8
Julio
  9

300
=
301
=
302
=
303
=
304
=
305
=
306
=
307
=
308
=
309
=
 40
0.0101112152777778
 41
2455030.590481227
 42
2455030.600592083
  1

 90
        0
  0
DICTIONARY
  5
1065
102
{ACAD_REACTORS
330
1051
102
}
330
1051
100
AcDbDictionary
281
     1
  0
DICTIONARY
  5
1064
102
{ACAD_REACTORS
330
1051
102
}
330
1051
100
AcDbDictionary
281
     1
1001
ACAD
1000
<All
  0
XRECORD
  5
13A1
102
{ACAD_REACTORS
330
13A0
102
}
330
13A0
100
AcDbXrecord
280
     1
290
     1
  0
XRECORD
  5
13A3
102
{ACAD_REACTORS
330
13A2
102
}
330
13A2
100
AcDbXrecord
280
     1
290
     1
  0
XRECORD
  5
13A5
102
{ACAD_REACTORS
330
13A4
102
}
330
13A4
100
AcDbXrecord
280
     1
290
     1
  0
XRECORD
  5
13A7
102
{ACAD_REACTORS
330
13A6
102
}
330
13A6
100
AcDbXrecord
280
     1
290
     1
  0
XRECORD
  5
13A9
102
{ACAD_REACTORS
330
13A8
102
}
330
13A8
100
AcDbXrecord
280
     1
290
     1
  0
XRECORD
  5
13AB
102
{ACAD_REACTORS
330
13AA
102
}
330
13AA
100
AcDbXrecord
280
     1
290
     1
  0
XRECORD
  5
13AD
102
{ACAD_REACTORS
330
13AC
102
}
330
13AC
100
AcDbXrecord
280
     1
290
     1
  0
XRECORD
  5
13AF
102
{ACAD_REACTORS
330
13AE
102
}
330
13AE
100
AcDbXrecord
280
     1
290
     1
  0
XRECORD
  5
13B1
102
{ACAD_REACTORS
330
13B0
102
}
330
13B0
100
AcDbXrecord
280
     1
290
     1
  0
XRECORD
  5
13B3
102
{ACAD_REACTORS
330
13B2
102
}
330
13B2
100
AcDbXrecord
280
     1
290
     1
  0
XRECORD
  5
13B5
102
{ACAD_REACTORS
330
13B4
102
}
330
13B4
100
AcDbXrecord
280
     1
290
     1
  0
XRECORD
  5
13B7
102
{ACAD_REACTORS
330
13B6
102
}
330
13B6
100
AcDbXrecord
280
     1
290
     1
  0
XRECORD
  5
13B9
102
{ACAD_REACTORS
330
13B8
102
}
330
13B8
100
AcDbXrecord
280
     1
290
     1
  0
XRECORD
  5
13BB
102
{ACAD_REACTORS
330
13BA
102
}
330
13BA
100
AcDbXrecord
280
     1
290
     1
  0
XRECORD
  5
13BD
102
{ACAD_REACTORS
330
13BC
102
}
330
13BC
100
AcDbXrecord
280
     1
290
     1
  0
XRECORD
  5
13BF
102
{ACAD_REACTORS
330
13BE
102
}
330
13BE
100
AcDbXrecord
280
     1
290
     1
  0
XRECORD
  5
148E
102
{ACAD_REACTORS
330
148D
102
}
330
148D
100
AcDbXrecord
280
     1
 40
1.570796326794896
  0
LAYOUT
  5
1E
102
{ACAD_XDICTIONARY
360
148F
102
}
102
{ACAD_REACTORS
330
1A
102
}
330
1A
100
AcDbPlotSettings
  1

  2
Ploter HP500
  4

  6

 40
0.0
 41
0.0
 42
0.0
 43
0.0
 44
0.0
 45
0.0
 46
0.0
 47
0.0
 48
0.0
 49
0.0
140
0.0
141
0.0
142
1.0
143
1.0
 70
   688
 72
     0
 73
     0
 74
     5
  7
sanindusa.ctb
 75
    16
147
1.0
148
0.0
149
0.0
100
AcDbLayout
  1
Layout1
 70
     1
 71
     1
 10
0.0
 20
0.0
 11
420.0
 21
297.0
 12
0.0
 22
0.0
 32
0.0
 14
1.000000000000000E+20
 24
1.000000000000000E+20
 34
1.000000000000000E+20
 15
-1.000000000000000E+20
 25
-1.000000000000000E+20
 35
-1.000000000000000E+20
146
0.0
 13
0.0
 23
0.0
 33
0.0
 16
1.0
 26
0.0
 36
0.0
 17
0.0
 27
1.0
 37
0.0
 76
     0
330
1B
  0
LAYOUT
  5
26
102
{ACAD_XDICTIONARY
360
1493
102
}
102
{ACAD_REACTORS
330
1A
102
}
330
1A
100
AcDbPlotSettings
  1

  2
Ploter HP500
  4

  6

 40
0.0
 41
0.0
 42
0.0
 43
0.0
 44
0.0
 45
0.0
 46
0.0
 47
0.0
 48
0.0
 49
0.0
140
0.0
141
0.0
142
1.0
143
1.0
 70
   688
 72
     0
 73
     0
 74
     5
  7
sanindusa.ctb
 75
    16
147
1.0
148
0.0
149
0.0
100
AcDbLayout
  1
Layout2
 70
     1
 71
     2
 10
0.0
 20
0.0
 11
12.0
 21
9.0
 12
0.0
 22
0.0
 32
0.0
 14
0.0
 24
0.0
 34
0.0
 15
0.0
 25
0.0
 35
0.0
146
0.0
 13
0.0
 23
0.0
 33
0.0
 16
1.0
 26
0.0
 36
0.0
 17
0.0
 27
1.0
 37
0.0
 76
     0
330
23
  0
LAYOUT
  5
22
102
{ACAD_XDICTIONARY
360
1491
102
}
102
{ACAD_REACTORS
330
1A
102
}
330
1A
100
AcDbPlotSettings
  1

  2
Ploter HP500
  4
User268
  6

 40
4.995333194732666
 41
16.97565841674804
 42
4.995330810546875
 43
16.97567749023437
 44
209.9733276367187
 45
296.9259948730469
 46
0.0
 47
0.0
 48
0.0
 49
0.0
140
0.0
141
0.0
142
1.0
143
1.0
 70
 11952
 72
     1
 73
     1
 74
     0
  7
sanindusa.ctb
 75
     0
147
1.0
148
-427.5957866592534
149
7.362384574453926
100
AcDbLayout
  1
Model
 70
     1
 71
     0
 10
0.0
 20
0.0
 11
12.0
 21
9.0
 12
0.0
 22
0.0
 32
0.0
 14
0.0
 24
0.0
 34
0.0
 15
0.0
 25
0.0
 35
0.0
146
0.0
 13
0.0
 23
0.0
 33
0.0
 16
1.0
 26
0.0
 36
0.0
 17
0.0
 27
1.0
 37
0.0
 76
     0
330
1F
331
1068
  0
MATERIAL
  5
1072
102
{ACAD_XDICTIONARY
360
1073
102
}
102
{ACAD_REACTORS
330
EE5
102
}
330
EE5
100
AcDbMaterial
  1
ByBlock
 72
     0
 43
0.0008202099737533
 43
0.0
 43
0.0
 43
0.0
 43
0.0
 43
0.0008202099737533
 43
0.0
 43
0.0
 43
0.0
 43
0.0
 43
1.0
 43
0.0
 43
0.0
 43
0.0
 43
0.0
 43
1.0
 77
     0
 47
0.0008202099737533
 47
0.0
 47
0.0
 47
0.0
 47
0.0
 47
0.0008202099737533
 47
0.0
 47
0.0
 47
0.0
 47
0.0
 47
1.0
 47
0.0
 47
0.0
 47
0.0
 47
0.0
 47
1.0
171
     0
 49
0.0008202099737533
 49
0.0
 49
0.0
 49
0.0
 49
0.0
 49
0.0008202099737533
 49
0.0
 49
0.0
 49
0.0
 49
0.0
 49
1.0
 49
0.0
 49
0.0
 49
0.0
 49
0.0
 49
1.0
175
     0
142
0.0008202099737533
142
0.0
142
0.0
142
0.0
142
0.0
142
0.0008202099737533
142
0.0
142
0.0
142
0.0
142
0.0
142
1.0
142
0.0
142
0.0
142
0.0
142
0.0
142
1.0
179
     0
144
0.0008202099737533
144
0.0
144
0.0
144
0.0
144
0.0
144
0.0008202099737533
144
0.0
144
0.0
144
0.0
144
0.0
144
1.0
144
0.0
144
0.0
144
0.0
144
0.0
144
1.0
147
0.0008202099737533
147
0.0
147
0.0
147
0.0
147
0.0
147
0.0008202099737533
147
0.0
147
0.0
147
0.0
147
0.0
147
1.0
147
0.0
147
0.0
147
0.0
147
0.0
147
1.0
  0
MATERIAL
  5
106A
102
{ACAD_XDICTIONARY
360
106B
102
}
102
{ACAD_REACTORS
330
EE5
102
}
330
EE5
100
AcDbMaterial
  1
ByLayer
 72
     0
 43
0.0008202099737533
 43
0.0
 43
0.0
 43
0.0
 43
0.0
 43
0.0008202099737533
 43
0.0
 43
0.0
 43
0.0
 43
0.0
 43
1.0
 43
0.0
 43
0.0
 43
0.0
 43
0.0
 43
1.0
 77
     0
 47
0.0008202099737533
 47
0.0
 47
0.0
 47
0.0
 47
0.0
 47
0.0008202099737533
 47
0.0
 47
0.0
 47
0.0
 47
0.0
 47
1.0
 47
0.0
 47
0.0
 47
0.0
 47
0.0
 47
1.0
171
     0
 49
0.0008202099737533
 49
0.0
 49
0.0
 49
0.0
 49
0.0
 49
0.0008202099737533
 49
0.0
 49
0.0
 49
0.0
 49
0.0
 49
1.0
 49
0.0
 49
0.0
 49
0.0
 49
0.0
 49
1.0
175
     0
142
0.0008202099737533
142
0.0
142
0.0
142
0.0
142
0.0
142
0.0008202099737533
142
0.0
142
0.0
142
0.0
142
0.0
142
1.0
142
0.0
142
0.0
142
0.0
142
0.0
142
1.0
179
     0
144
0.0008202099737533
144
0.0
144
0.0
144
0.0
144
0.0
144
0.0008202099737533
144
0.0
144
0.0
144
0.0
144
0.0
144
1.0
144
0.0
144
0.0
144
0.0
144
0.0
144
1.0
147
0.0008202099737533
147
0.0
147
0.0
147
0.0
147
0.0
147
0.0008202099737533
147
0.0
147
0.0
147
0.0
147
0.0
147
1.0
147
0.0
147
0.0
147
0.0
147
0.0
147
1.0
  0
MATERIAL
  5
107A
102
{ACAD_XDICTIONARY
360
107B
102
}
102
{ACAD_REACTORS
330
EE5
102
}
330
EE5
100
AcDbMaterial
  1
Global
 72
     0
 43
0.0008202099737533
 43
0.0
 43
0.0
 43
0.0
 43
0.0
 43
0.0008202099737533
 43
0.0
 43
0.0
 43
0.0
 43
0.0
 43
1.0
 43
0.0
 43
0.0
 43
0.0
 43
0.0
 43
1.0
 77
     0
 47
0.0008202099737533
 47
0.0
 47
0.0
 47
0.0
 47
0.0
 47
0.0008202099737533
 47
0.0
 47
0.0
 47
0.0
 47
0.0
 47
1.0
 47
0.0
 47
0.0
 47
0.0
 47
0.0
 47
1.0
171
     0
 49
0.0008202099737533
 49
0.0
 49
0.0
 49
0.0
 49
0.0
 49
0.0008202099737533
 49
0.0
 49
0.0
 49
0.0
 49
0.0
 49
1.0
 49
0.0
 49
0.0
 49
0.0
 49
0.0
 49
1.0
175
     0
142
0.0008202099737533
142
0.0
142
0.0
142
0.0
142
0.0
142
0.0008202099737533
142
0.0
142
0.0
142
0.0
142
0.0
142
1.0
142
0.0
142
0.0
142
0.0
142
0.0
142
1.0
179
     0
144
0.0008202099737533
144
0.0
144
0.0
144
0.0
144
0.0
144
0.0008202099737533
144
0.0
144
0.0
144
0.0
144
0.0
144
1.0
144
0.0
144
0.0
144
0.0
144
0.0
144
1.0
147
0.0008202099737533
147
0.0
147
0.0
147
0.0
147
0.0
147
0.0008202099737533
147
0.0
147
0.0
147
0.0
147
0.0
147
1.0
147
0.0
147
0.0
147
0.0
147
0.0
147
1.0
  0
MLEADERSTYLE
  5
10A9
102
{ACAD_REACTORS
330
10A8
102
}
330
10A8
100
AcDbMLeaderStyle
170
     2
171
     1
172
     0
 90
        2
 40
0.0
 41
0.0
173
     1
 91
-1056964608
340
14
 92
       -2
290
     1
 42
2.0
291
     1
 43
0.36
  3
Standard
 44
4.0
300

342
11
174
     1
178
     6
175
     1
176
     0
 93
-1056964608
 45
4.0
292
     0
297
     0
 46
4.0
 94
-1056964608
 47
1.0
 49
1.0
140
1.0
293
     1
141
0.0
294
     1
177
     0
142
1.0
295
     0
296
     0
143
0.125
1001
ACAD_MLEADERVER
1070
     2
  0
MLINESTYLE
  5
18
102
{ACAD_REACTORS
330
17
102
}
330
17
100
AcDbMlineStyle
  2
STANDARD
 70
     0
  3

 62
   256
 51
90.0
 52
90.0
 71
     2
 49
0.5
 62
   256
  6
BYLAYER
 49
-0.5
 62
   256
  6
BYLAYER
  0
ACDBPLACEHOLDER
  5
F
102
{ACAD_REACTORS
330
E
102
}
330
E
  0
SCALE
  5
1097
102
{ACAD_REACTORS
330
1096
102
}
330
1096
100
AcDbScale
 70
     0
300
1:1
140
1.0
141
1.0
290
     1
  0
SCALE
  5
1098
102
{ACAD_REACTORS
330
1096
102
}
330
1096
100
AcDbScale
 70
     0
300
1:2
140
1.0
141
2.0
290
     0
  0
SCALE
  5
1099
102
{ACAD_REACTORS
330
1096
102
}
330
1096
100
AcDbScale
 70
     0
300
1:4
140
1.0
141
4.0
290
     0
  0
SCALE
  5
109A
102
{ACAD_REACTORS
330
1096
102
}
330
1096
100
AcDbScale
 70
     0
300
1:5
140
1.0
141
5.0
290
     0
  0
SCALE
  5
109B
102
{ACAD_REACTORS
330
1096
102
}
330
1096
100
AcDbScale
 70
     0
300
1:8
140
1.0
141
8.0
290
     0
  0
SCALE
  5
109C
102
{ACAD_REACTORS
330
1096
102
}
330
1096
100
AcDbScale
 70
     0
300
1:10
140
1.0
141
10.0
290
     0
  0
SCALE
  5
109D
102
{ACAD_REACTORS
330
1096
102
}
330
1096
100
AcDbScale
 70
     0
300
1:16
140
1.0
141
16.0
290
     0
  0
SCALE
  5
109E
102
{ACAD_REACTORS
330
1096
102
}
330
1096
100
AcDbScale
 70
     0
300
1:20
140
1.0
141
20.0
290
     0
  0
SCALE
  5
109F
102
{ACAD_REACTORS
330
1096
102
}
330
1096
100
AcDbScale
 70
     0
300
1:30
140
1.0
141
30.0
290
     0
  0
SCALE
  5
10A0
102
{ACAD_REACTORS
330
1096
102
}
330
1096
100
AcDbScale
 70
     0
300
1:40
140
1.0
141
40.0
290
     0
  0
SCALE
  5
10A1
102
{ACAD_REACTORS
330
1096
102
}
330
1096
100
AcDbScale
 70
     0
300
1:50
140
1.0
141
50.0
290
     0
  0
SCALE
  5
10A2
102
{ACAD_REACTORS
330
1096
102
}
330
1096
100
AcDbScale
 70
     0
300
1:100
140
1.0
141
100.0
290
     0
  0
SCALE
  5
10A3
102
{ACAD_REACTORS
330
1096
102
}
330
1096
100
AcDbScale
 70
     0
300
2:1
140
2.0
141
1.0
290
     0
  0
SCALE
  5
10A4
102
{ACAD_REACTORS
330
1096
102
}
330
1096
100
AcDbScale
 70
     0
300
4:1
140
4.0
141
1.0
290
     0
  0
SCALE
  5
10A5
102
{ACAD_REACTORS
330
1096
102
}
330
1096
100
AcDbScale
 70
     0
300
8:1
140
8.0
141
1.0
290
     0
  0
SCALE
  5
10A6
102
{ACAD_REACTORS
330
1096
102
}
330
1096
100
AcDbScale
 70
     0
300
10:1
140
10.0
141
1.0
290
     0
  0
SCALE
  5
10A7
102
{ACAD_REACTORS
330
1096
102
}
330
1096
100
AcDbScale
 70
     0
300
100:1
140
100.0
141
1.0
290
     0
  0
TABLESTYLE
  5
EE8
102
{ACAD_XDICTIONARY
360
1489
102
}
102
{ACAD_REACTORS
330
EE7
102
}
330
EE7
100
AcDbTableStyle
  3
Standard
 70
     0
 71
     0
 40
1.5
 41
1.5
280
     0
281
     0
  7
Standard
140
4.5
170
     2
 62
     0
 63
     7
283
     0
274
    -2
284
     1
 64
     0
275
    -2
285
     1
 65
     0
276
    -2
286
     1
 66
     0
277
    -2
287
     1
 67
     0
278
    -2
288
     1
 68
     0
279
    -2
289
     1
 69
     0
  7
Standard
140
6.0
170
     5
 62
     0
 63
     7
283
     0
274
    -2
284
     1
 64
     0
275
    -2
285
     1
 65
     0
276
    -2
286
     1
 66
     0
277
    -2
287
     1
 67
     0
278
    -2
288
     1
 68
     0
279
    -2
289
     1
 69
     0
  7
Standard
140
4.5
170
     5
 62
     0
 63
     7
283
     0
274
    -2
284
     1
 64
     0
275
    -2
285
     1
 65
     0
276
    -2
286
     1
 66
     0
277
    -2
287
     1
 67
     0
278
    -2
288
     1
 68
     0
279
    -2
289
     1
 69
     0
  0
VISUALSTYLE
  5
1088
102
{ACAD_XDICTIONARY
360
14A3
102
}
102
{ACAD_REACTORS
330
1082
102
}
330
1082
100
AcDbVisualStyle
  2
2dWireframe
 70
     4
 71
     0
 72
     2
 73
     0
 90
        0
 40
-0.6
 41
-30.0
 62
     5
 63
     7
 74
     1
 91
        4
 64
     7
 65
   257
 75
     1
175
     1
 42
1.0
 92
        0
 66
   257
 43
1.0
 76
     1
 77
     6
 78
     2
 67
     7
 79
     5
170
     0
171
     0
290
     0
174
     0
 93
        1
 44
0.0
173
     0
291
     0
 45
0.0
1001
ACAD
1000
AcDbSavedByObjectVersion
1070
     0
  0
VISUALSTYLE
  5
108A
102
{ACAD_XDICTIONARY
360
14A7
102
}
102
{ACAD_REACTORS
330
1082
102
}
330
1082
100
AcDbVisualStyle
  2
3D Hidden
 70
     6
 71
     1
 72
     2
 73
     2
 90
        0
 40
-0.6
 41
-30.0
 62
     5
 63
     7
 74
     2
 91
        2
 64
     7
 65
   257
 75
     2
175
     1
 42
179.0
 92
        0
 66
   257
 43
1.0
 76
     1
 77
     6
 78
     2
 67
     7
 79
     3
170
     0
171
     0
290
     0
174
     0
 93
        1
 44
0.0
173
     0
291
     0
 45
0.0
1001
ACAD
1000
AcDbSavedByObjectVersion
1070
     0
  0
VISUALSTYLE
  5
1089
102
{ACAD_XDICTIONARY
360
14A5
102
}
102
{ACAD_REACTORS
330
1082
102
}
330
1082
100
AcDbVisualStyle
  2
3dWireframe
 70
     5
 71
     0
 72
     2
 73
     0
 90
        0
 40
-0.6
 41
-30.0
 62
     5
 63
     7
 74
     1
 91
        4
 64
     7
 65
   257
 75
     1
175
     1
 42
1.0
 92
        0
 66
   257
 43
1.0
 76
     1
 77
     6
 78
     2
 67
     7
 79
     5
170
     0
171
     0
290
     0
174
     0
 93
        1
 44
0.0
173
     0
291
     0
 45
0.0
1001
ACAD
1000
AcDbSavedByObjectVersion
1070
     0
  0
VISUALSTYLE
  5
1087
102
{ACAD_XDICTIONARY
360
14A1
102
}
102
{ACAD_REACTORS
330
1082
102
}
330
1082
100
AcDbVisualStyle
  2
Basic
 70
     7
 71
     1
 72
     0
 73
     1
 90
        0
 40
-0.6
 41
-30.0
 62
     5
 63
     7
 74
     0
 91
        4
 64
     7
 65
   257
 75
     1
175
     1
 42
1.0
 92
        8
 66
     7
 43
1.0
 76
     1
 77
     6
 78
     2
 67
     7
 79
     5
170
     0
171
     0
290
     0
174
     0
 93
        1
 44
0.0
173
     0
291
     1
 45
0.0
1001
ACAD
1000
AcDbSavedByObjectVersion
1070
     0
  0
VISUALSTYLE
  5
108E
102
{ACAD_XDICTIONARY
360
14AF
102
}
102
{ACAD_REACTORS
330
1082
102
}
330
1082
100
AcDbVisualStyle
  2
Brighten
 70
    12
 71
     2
 72
     2
 73
     0
 90
        0
 40
-0.6
 41
-30.0
 62
     5
 63
     7
 74
     1
 91
        4
 64
     7
 65
   257
 75
     1
175
     1
 42
1.0
 92
        8
 66
     7
 43
1.0
 76
     1
 77
     6
 78
     2
 67
     7
 79
     5
170
     0
171
     0
290
     0
174
     0
 93
        1
 44
50.0
173
     0
291
     1
 45
0.0
1001
ACAD
1000
AcDbSavedByObjectVersion
1070
     0
  0
VISUALSTYLE
  5
1092
102
{ACAD_XDICTIONARY
360
14B7
102
}
102
{ACAD_REACTORS
330
1082
102
}
330
1082
100
AcDbVisualStyle
  2
ColorChange
 70
    16
 71
     2
 72
     2
 73
     3
 90
        0
 40
-0.6
 41
-30.0
 62
     5
 63
     8
 74
     1
 91
        4
 64
     7
 65
   257
 75
     1
175
     1
 42
1.0
 92
        8
 66
     8
 43
1.0
 76
     1
 77
     6
 78
     2
 67
     7
 79
     5
170
     0
171
     0
290
     0
174
     0
 93
        1
 44
0.0
173
     0
291
     1
 45
0.0
1001
ACAD
1000
AcDbSavedByObjectVersion
1070
     0
  0
VISUALSTYLE
  5
108B
102
{ACAD_XDICTIONARY
360
14A9
102
}
102
{ACAD_REACTORS
330
1082
102
}
330
1082
100
AcDbVisualStyle
  2
Conceptual
 70
     9
 71
     3
 72
     2
 73
     0
 90
        0
 40
-0.6
 41
-30.0
 62
     5
 63
     7
 74
     2
 91
        2
 64
     7
 65
   257
 75
     1
175
     1
 42
179.0
 92
        8
 66
     7
 43
1.0
 76
     1
 77
     6
 78
     2
 67
     7
 79
     3
170
     0
171
     0
290
     0
174
     0
 93
        1
 44
0.0
173
     0
291
     0
 45
0.0
1001
ACAD
1000
AcDbSavedByObjectVersion
1070
     0
  0
VISUALSTYLE
  5
108D
102
{ACAD_XDICTIONARY
360
14AD
102
}
102
{ACAD_REACTORS
330
1082
102
}
330
1082
100
AcDbVisualStyle
  2
Dim
 70
    11
 71
     2
 72
     2
 73
     0
 90
        0
 40
-0.6
 41
-30.0
 62
     5
 63
     7
 74
     1
 91
        4
 64
     7
 65
   257
 75
     1
175
     1
 42
1.0
 92
        8
 66
     7
 43
1.0
 76
     1
 77
     6
 78
     2
 67
     7
 79
     5
170
     0
171
     0
290
     0
174
     0
 93
        1
 44
-50.0
173
     0
291
     1
 45
0.0
1001
ACAD
1000
AcDbSavedByObjectVersion
1070
     0
  0
VISUALSTYLE
  5
1095
102
{ACAD_XDICTIONARY
360
14BD
102
}
102
{ACAD_REACTORS
330
1082
102
}
330
1082
100
AcDbVisualStyle
  2
EdgeColorOff
 70
    22
 71
     2
 72
     2
 73
     0
 90
        0
 40
-0.6
 41
-30.0
 62
     5
 63
     7
 74
     1
 91
        4
 64
     7
 65
   257
 75
     1
175
     1
 42
1.0
 92
        8
 66
     7
 43
1.0
 76
     1
 77
     6
 78
     2
 67
     7
 79
     5
170
     0
171
     0
290
     0
174
     0
 93
        1
 44
0.0
173
     0
291
     1
 45
0.0
1001
ACAD
1000
AcDbSavedByObjectVersion
1070
     0
  0
VISUALSTYLE
  5
1091
102
{ACAD_XDICTIONARY
360
14B5
102
}
102
{ACAD_REACTORS
330
1082
102
}
330
1082
100
AcDbVisualStyle
  2
Facepattern
 70
    15
 71
     2
 72
     2
 73
     0
 90
        0
 40
-0.6
 41
-30.0
 62
     5
 63
     7
 74
     1
 91
        4
 64
     7
 65
   257
 75
     1
175
     1
 42
1.0
 92
        8
 66
     7
 43
1.0
 76
     1
 77
     6
 78
     2
 67
     7
 79
     5
170
     0
171
     0
290
     0
174
     0
 93
        1
 44
0.0
173
     0
291
     1
 45
0.0
1001
ACAD
1000
AcDbSavedByObjectVersion
1070
     0
  0
VISUALSTYLE
  5
1083
102
{ACAD_XDICTIONARY
360
1499
102
}
102
{ACAD_REACTORS
330
1082
102
}
330
1082
100
AcDbVisualStyle
  2
Flat
 70
     0
 71
     2
 72
     1
 73
     1
 90
        2
 40
-0.6
 41
30.0
 62
     5
 63
     7
 74
     0
 91
        4
 64
     7
 65
   257
 75
     1
175
     1
 42
1.0
 92
        8
 66
     7
 43
1.0
 76
     1
 77
     6
 78
     2
 67
     7
 79
     5
170
     0
171
     0
290
     0
174
     0
 93
       13
 44
0.0
173
     0
291
     1
 45
0.0
1001
ACAD
1000
AcDbSavedByObjectVersion
1070
     0
  0
VISUALSTYLE
  5
1084
102
{ACAD_XDICTIONARY
360
149B
102
}
102
{ACAD_REACTORS
330
1082
102
}
330
1082
100
AcDbVisualStyle
  2
FlatWithEdges
 70
     1
 71
     2
 72
     1
 73
     1
 90
        2
 40
-0.6
 41
30.0
 62
     5
 63
     7
 74
     1
 91
        4
 64
     7
 65
   257
 75
     1
175
     1
 42
1.0
 92
        0
 66
   257
 43
1.0
 76
     1
 77
     6
 78
     2
 67
     7
 79
     5
170
     0
171
     0
290
     0
174
     0
 93
       13
 44
0.0
173
     0
291
     1
 45
0.0
1001
ACAD
1000
AcDbSavedByObjectVersion
1070
     0
  0
VISUALSTYLE
  5
1085
102
{ACAD_XDICTIONARY
360
149D
102
}
102
{ACAD_REACTORS
330
1082
102
}
330
1082
100
AcDbVisualStyle
  2
Gouraud
 70
     2
 71
     2
 72
     2
 73
     1
 90
        2
 40
-0.6
 41
30.0
 62
     5
 63
     7
 74
     0
 91
        4
 64
     7
 65
   257
 75
     1
175
     1
 42
1.0
 92
        0
 66
     7
 43
1.0
 76
     1
 77
     6
 78
     2
 67
     7
 79
     5
170
     0
171
     0
290
     0
174
     0
 93
       13
 44
0.0
173
     0
291
     1
 45
0.0
1001
ACAD
1000
AcDbSavedByObjectVersion
1070
     0
  0
VISUALSTYLE
  5
1086
102
{ACAD_XDICTIONARY
360
149F
102
}
102
{ACAD_REACTORS
330
1082
102
}
330
1082
100
AcDbVisualStyle
  2
GouraudWithEdges
 70
     3
 71
     2
 72
     2
 73
     1
 90
        2
 40
-0.6
 41
30.0
 62
     5
 63
     7
 74
     1
 91
        4
 64
     7
 65
   257
 75
     1
175
     1
 42
1.0
 92
        0
 66
   257
 43
1.0
 76
     1
 77
     6
 78
     2
 67
     7
 79
     5
170
     0
171
     0
290
     0
174
     0
 93
       13
 44
0.0
173
     0
291
     1
 45
0.0
1001
ACAD
1000
AcDbSavedByObjectVersion
1070
     0
  0
VISUALSTYLE
  5
1093
102
{ACAD_XDICTIONARY
360
14B9
102
}
102
{ACAD_REACTORS
330
1082
102
}
330
1082
100
AcDbVisualStyle
  2
JitterOff
 70
    20
 71
     2
 72
     2
 73
     0
 90
        0
 40
-0.6
 41
-30.0
 62
     5
 63
     7
 74
     1
 91
        4
 64
     7
 65
   257
 75
     1
175
     1
 42
1.0
 92
       10
 66
     7
 43
1.0
 76
     1
 77
     6
 78
     2
 67
     7
 79
     5
170
     0
171
     0
290
     0
174
     0
 93
        1
 44
0.0
173
     0
291
     1
 45
0.0
1001
ACAD
1000
AcDbSavedByObjectVersion
1070
     0
  0
VISUALSTYLE
  5
1090
102
{ACAD_XDICTIONARY
360
14B3
102
}
102
{ACAD_REACTORS
330
1082
102
}
330
1082
100
AcDbVisualStyle
  2
Linepattern
 70
    14
 71
     2
 72
     2
 73
     0
 90
        0
 40
-0.6
 41
-30.0
 62
     5
 63
     7
 74
     1
 91
        4
 64
     7
 65
   257
 75
     7
175
     7
 42
1.0
 92
        8
 66
     7
 43
1.0
 76
     1
 77
     6
 78
     2
 67
     7
 79
     5
170
     0
171
     0
290
     0
174
     0
 93
        1
 44
0.0
173
     0
291
     1
 45
0.0
1001
ACAD
1000
AcDbSavedByObjectVersion
1070
     0
  0
VISUALSTYLE
  5
1094
102
{ACAD_XDICTIONARY
360
14BB
102
}
102
{ACAD_REACTORS
330
1082
102
}
330
1082
100
AcDbVisualStyle
  2
OverhangOff
 70
    21
 71
     2
 72
     2
 73
     0
 90
        0
 40
-0.6
 41
-30.0
 62
     5
 63
     7
 74
     1
 91
        4
 64
     7
 65
   257
 75
     1
175
     1
 42
1.0
 92
        9
 66
     7
 43
1.0
 76
     1
 77
     6
 78
     2
 67
     7
 79
     5
170
     0
171
     0
290
     0
174
     0
 93
        1
 44
0.0
173
     0
291
     1
 45
0.0
1001
ACAD
1000
AcDbSavedByObjectVersion
1070
     0
  0
VISUALSTYLE
  5
108C
102
{ACAD_XDICTIONARY
360
14AB
102
}
102
{ACAD_REACTORS
330
1082
102
}
330
1082
100
AcDbVisualStyle
  2
Realistic
 70
     8
 71
     2
 72
     2
 73
     0
 90
        0
 40
-0.6
 41
-30.0
 62
     5
 63
     7
 74
     1
 91
        0
 64
     7
 65
   257
 75
     1
175
     1
 42
1.0
 92
        8
 66
     8
 43
1.0
 76
     1
 77
     6
 78
     2
 67
     7
 79
     5
170
     0
171
     0
290
     0
174
     0
 93
       13
 44
0.0
173
     0
291
     0
 45
0.0
1001
ACAD
1000
AcDbSavedByObjectVersion
1070
     0
  0
VISUALSTYLE
  5
108F
102
{ACAD_XDICTIONARY
360
14B1
102
}
102
{ACAD_REACTORS
330
1082
102
}
330
1082
100
AcDbVisualStyle
  2
Thicken
 70
    13
 71
     2
 72
     2
 73
     0
 90
        0
 40
-0.6
 41
-30.0
 62
     5
 63
     7
 74
     1
 91
        4
 64
     7
 65
   257
 75
     1
175
     1
 42
1.0
 92
       12
 66
     7
 43
1.0
 76
     1
 77
     6
 78
     2
 67
     7
 79
     5
170
     0
171
     0
290
     0
174
     0
 93
        1
 44
0.0
173
     0
291
     1
 45
0.0
1001
ACAD
1000
AcDbSavedByObjectVersion
1070
     0
  0
DICTIONARYVAR
  5
1485
102
{ACAD_REACTORS
330
3D
102
}
330
3D
100
DictionaryVariables
280
     0
  1
1:1
  0
DICTIONARYVAR
  5
1484
102
{ACAD_REACTORS
330
3D
102
}
330
3D
100
DictionaryVariables
280
     0
  1
STANDARD
  0
DICTIONARYVAR
  5
1049
102
{ACAD_REACTORS
330
3D
102
}
330
3D
100
DictionaryVariables
280
     0
  1
STANDARD
  0
DICTIONARYVAR
  5
3F
102
{ACAD_REACTORS
330
3D
102
}
330
3D
100
DictionaryVariables
280
     0
  1
2
  0
DICTIONARYVAR
  5
3E
102
{ACAD_REACTORS
330
3D
102
}
330
3D
100
DictionaryVariables
280
     0
  1
1
  0
DICTIONARYVAR
  5
1487
102
{ACAD_REACTORS
330
3D
102
}
330
3D
100
DictionaryVariables
280
     0
  1
0
  0
DICTIONARYVAR
  5
1486
102
{ACAD_REACTORS
330
3D
102
}
330
3D
100
DictionaryVariables
280
     0
  1
127
  0
DICTIONARYVAR
  5
1488
102
{ACAD_REACTORS
330
3D
102
}
330
3D
100
DictionaryVariables
280
     0
  1
0
  0
XRECORD
  5
1067
102
{ACAD_REACTORS
330
1066
102
}
330
1066
100
AcDbXrecord
280
     1
  0
DICTIONARY
  5
148F
330
1E
100
AcDbDictionary
280
     1
281
     1
  3
ACAD_XREC_ROUNDTRIP
360
1490
  0
DICTIONARY
  5
1493
330
26
100
AcDbDictionary
280
     1
281
     1
  3
ACAD_XREC_ROUNDTRIP
360
1494
  0
DICTIONARY
  5
1491
330
22
100
AcDbDictionary
280
     1
281
     1
  3
ACAD_XREC_ROUNDTRIP
360
1492
  0
DICTIONARY
  5
1073
330
1072
100
AcDbDictionary
280
     1
281
     1
  3
ACAD_XREC_ROUNDTRIP
360
1497
  3
BUMPTILE
360
1075
  3
DIFFUSETILE
360
1074
  3
OPACITYTILE
360
1078
  3
REFLECTIONTILE
360
1077
  3
REFRACTIONTILE
360
1079
  3
SPECULARTILE
360
1076
  0
DICTIONARY
  5
106B
330
106A
100
AcDbDictionary
280
     1
281
     1
  3
ACAD_XREC_ROUNDTRIP
360
1496
  3
BUMPTILE
360
106D
  3
DIFFUSETILE
360
106C
  3
OPACITYTILE
360
1070
  3
REFLECTIONTILE
360
106F
  3
REFRACTIONTILE
360
1071
  3
SPECULARTILE
360
106E
  0
DICTIONARY
  5
107B
330
107A
100
AcDbDictionary
280
     1
281
     1
  3
ACAD_XREC_ROUNDTRIP
360
1498
  3
BUMPTILE
360
107D
  3
DIFFUSETILE
360
107C
  3
OPACITYTILE
360
1080
  3
REFLECTIONTILE
360
107F
  3
REFRACTIONTILE
360
1081
  3
SPECULARTILE
360
107E
  0
DICTIONARY
  5
1489
330
EE8
100
AcDbDictionary
280
     1
281
     1
  3
ACAD_ROUNDTRIP_2008_TABLESTYLE_CELLSTYLEMAP
360
148A
  3
ACAD_XREC_ROUNDTRIP
360
1495
  0
DICTIONARY
  5
14A3
330
1088
100
AcDbDictionary
280
     1
281
     1
  3
ACAD_XREC_ROUNDTRIP
360
14A4
  0
DICTIONARY
  5
14A7
330
108A
100
AcDbDictionary
280
     1
281
     1
  3
ACAD_XREC_ROUNDTRIP
360
14A8
  0
DICTIONARY
  5
14A5
330
1089
100
AcDbDictionary
280
     1
281
     1
  3
ACAD_XREC_ROUNDTRIP
360
14A6
  0
DICTIONARY
  5
14A1
330
1087
100
AcDbDictionary
280
     1
281
     1
  3
ACAD_XREC_ROUNDTRIP
360
14A2
  0
DICTIONARY
  5
14AF
330
108E
100
AcDbDictionary
280
     1
281
     1
  3
ACAD_XREC_ROUNDTRIP
360
14B0
  0
DICTIONARY
  5
14B7
330
1092
100
AcDbDictionary
280
     1
281
     1
  3
ACAD_XREC_ROUNDTRIP
360
14B8
  0
DICTIONARY
  5
14A9
330
108B
100
AcDbDictionary
280
     1
281
     1
  3
ACAD_XREC_ROUNDTRIP
360
14AA
  0
DICTIONARY
  5
14AD
330
108D
100
AcDbDictionary
280
     1
281
     1
  3
ACAD_XREC_ROUNDTRIP
360
14AE
  0
DICTIONARY
  5
14BD
330
1095
100
AcDbDictionary
280
     1
281
     1
  3
ACAD_XREC_ROUNDTRIP
360
14BE
  0
DICTIONARY
  5
14B5
330
1091
100
AcDbDictionary
280
     1
281
     1
  3
ACAD_XREC_ROUNDTRIP
360
14B6
  0
DICTIONARY
  5
1499
330
1083
100
AcDbDictionary
280
     1
281
     1
  3
ACAD_XREC_ROUNDTRIP
360
149A
  0
DICTIONARY
  5
149B
330
1084
100
AcDbDictionary
280
     1
281
     1
  3
ACAD_XREC_ROUNDTRIP
360
149C
  0
DICTIONARY
  5
149D
330
1085
100
AcDbDictionary
280
     1
281
     1
  3
ACAD_XREC_ROUNDTRIP
360
149E
  0
DICTIONARY
  5
149F
330
1086
100
AcDbDictionary
280
     1
281
     1
  3
ACAD_XREC_ROUNDTRIP
360
14A0
  0
DICTIONARY
  5
14B9
330
1093
100
AcDbDictionary
280
     1
281
     1
  3
ACAD_XREC_ROUNDTRIP
360
14BA
  0
DICTIONARY
  5
14B3
330
1090
100
AcDbDictionary
280
     1
281
     1
  3
ACAD_XREC_ROUNDTRIP
360
14B4
  0
DICTIONARY
  5
14BB
330
1094
100
AcDbDictionary
280
     1
281
     1
  3
ACAD_XREC_ROUNDTRIP
360
14BC
  0
DICTIONARY
  5
14AB
330
108C
100
AcDbDictionary
280
     1
281
     1
  3
ACAD_XREC_ROUNDTRIP
360
14AC
  0
DICTIONARY
  5
14B1
330
108F
100
AcDbDictionary
280
     1
281
     1
  3
ACAD_XREC_ROUNDTRIP
360
14B2
  0
XRECORD
  5
1490
102
{ACAD_REACTORS
330
148F
102
}
330
148F
100
AcDbXrecord
280
     1
102
SHADEPLOT
 70
     0
102
SHADEPLOTRESLEVEL
 70
     2
102
SHADEPLOTCUSTOMDPI
 70
   300
  0
XRECORD
  5
1494
102
{ACAD_REACTORS
330
1493
102
}
330
1493
100
AcDbXrecord
280
     1
102
SHADEPLOT
 70
     0
102
SHADEPLOTRESLEVEL
 70
     2
102
SHADEPLOTCUSTOMDPI
 70
   300
  0
XRECORD
  5
1492
102
{ACAD_REACTORS
330
1491
102
}
330
1491
100
AcDbXrecord
280
     1
102
SHADEPLOT
 70
     0
102
SHADEPLOTRESLEVEL
 70
     2
102
SHADEPLOTCUSTOMDPI
 70
   300
  0
XRECORD
  5
1497
102
{ACAD_REACTORS
330
1073
102
}
330
1073
100
AcDbXrecord
280
     1
102
MATERIAL
148
0.0
149
0.0
149
0.0
 93
        0
 94
      127
282
     0
 72
     0
 77
     0
171
     0
175
     0
179
     0
273
     0
  0
XRECORD
  5
1075
102
{ACAD_REACTORS
330
1073
102
}
330
1073
100
AcDbXrecord
280
     1
270
     1
271
     1
  0
XRECORD
  5
1074
102
{ACAD_REACTORS
330
1073
102
}
330
1073
100
AcDbXrecord
280
     1
270
     1
271
     1
  0
XRECORD
  5
1078
102
{ACAD_REACTORS
330
1073
102
}
330
1073
100
AcDbXrecord
280
     1
270
     1
271
     1
  0
XRECORD
  5
1077
102
{ACAD_REACTORS
330
1073
102
}
330
1073
100
AcDbXrecord
280
     1
270
     1
271
     1
  0
XRECORD
  5
1079
102
{ACAD_REACTORS
330
1073
102
}
330
1073
100
AcDbXrecord
280
     1
270
     1
271
     1
  0
XRECORD
  5
1076
102
{ACAD_REACTORS
330
1073
102
}
330
1073
100
AcDbXrecord
280
     1
270
     1
271
     1
  0
XRECORD
  5
1496
102
{ACAD_REACTORS
330
106B
102
}
330
106B
100
AcDbXrecord
280
     1
102
MATERIAL
148
0.0
149
0.0
149
0.0
 93
        0
 94
      127
282
     0
 72
     0
 77
     0
171
     0
175
     0
179
     0
273
     0
  0
XRECORD
  5
106D
102
{ACAD_REACTORS
330
106B
102
}
330
106B
100
AcDbXrecord
280
     1
270
     1
271
     1
  0
XRECORD
  5
106C
102
{ACAD_REACTORS
330
106B
102
}
330
106B
100
AcDbXrecord
280
     1
270
     1
271
     1
  0
XRECORD
  5
1070
102
{ACAD_REACTORS
330
106B
102
}
330
106B
100
AcDbXrecord
280
     1
270
     1
271
     1
  0
XRECORD
  5
106F
102
{ACAD_REACTORS
330
106B
102
}
330
106B
100
AcDbXrecord
280
     1
270
     1
271
     1
  0
XRECORD
  5
1071
102
{ACAD_REACTORS
330
106B
102
}
330
106B
100
AcDbXrecord
280
     1
270
     1
271
     1
  0
XRECORD
  5
106E
102
{ACAD_REACTORS
330
106B
102
}
330
106B
100
AcDbXrecord
280
     1
270
     1
271
     1
  0
XRECORD
  5
1498
102
{ACAD_REACTORS
330
107B
102
}
330
107B
100
AcDbXrecord
280
     1
102
MATERIAL
148
0.0
149
0.0
149
0.0
 93
        0
 94
      127
282
     0
 72
     0
 77
     0
171
     0
175
     0
179
     0
273
     0
  0
XRECORD
  5
107D
102
{ACAD_REACTORS
330
107B
102
}
330
107B
100
AcDbXrecord
280
     1
270
     1
271
     1
  0
XRECORD
  5
107C
102
{ACAD_REACTORS
330
107B
102
}
330
107B
100
AcDbXrecord
280
     1
270
     1
271
     1
  0
XRECORD
  5
1080
102
{ACAD_REACTORS
330
107B
102
}
330
107B
100
AcDbXrecord
280
     1
270
     1
271
     1
  0
XRECORD
  5
107F
102
{ACAD_REACTORS
330
107B
102
}
330
107B
100
AcDbXrecord
280
     1
270
     1
271
     1
  0
XRECORD
  5
1081
102
{ACAD_REACTORS
330
107B
102
}
330
107B
100
AcDbXrecord
280
     1
270
     1
271
     1
  0
XRECORD
  5
107E
102
{ACAD_REACTORS
330
107B
102
}
330
107B
100
AcDbXrecord
280
     1
270
     1
271
     1
  0
CELLSTYLEMAP
  5
148A
102
{ACAD_REACTORS
330
1489
102
}
330
1489
100
AcDbCellStyleMap
 90
        3
300
CELLSTYLE
  1
TABLEFORMAT_BEGIN
 90
        5
170
     1
 91
        0
 92
    32768
 62
   257
 93
        1
300
CONTENTFORMAT
  1
CONTENTFORMAT_BEGIN
 90
        0
 91
        0
 92
        4
 93
        0
300

 40
0.0
140
1.0
 94
        5
 62
     0
340
11
144
6.0
309
CONTENTFORMAT_END
171
     1
301
MARGIN
  1
CELLMARGIN_BEGIN
 40
1.5
 40
1.5
 40
1.5
 40
1.5
 40
0.18
 40
0.18
309
CELLMARGIN_END
 94
        6
 95
        1
302
GRIDFORMAT
  1
GRIDFORMAT_BEGIN
 90
        0
 91
        1
 62
     0
 92
       -2
340
0
 93
        0
 40
0.045
309
GRIDFORMAT_END
 95
        2
302
GRIDFORMAT
  1
GRIDFORMAT_BEGIN
 90
        0
 91
        1
 62
     0
 92
       -2
340
0
 93
        0
 40
0.045
309
GRIDFORMAT_END
 95
        4
302
GRIDFORMAT
  1
GRIDFORMAT_BEGIN
 90
        0
 91
        1
 62
     0
 92
       -2
340
0
 93
        0
 40
0.045
309
GRIDFORMAT_END
 95
        8
302
GRIDFORMAT
  1
GRIDFORMAT_BEGIN
 90
        0
 91
        1
 62
     0
 92
       -2
340
0
 93
        0
 40
0.045
309
GRIDFORMAT_END
 95
       16
302
GRIDFORMAT
  1
GRIDFORMAT_BEGIN
 90
        0
 91
        1
 62
     0
 92
       -2
340
0
 93
        0
 40
0.045
309
GRIDFORMAT_END
 95
       32
302
GRIDFORMAT
  1
GRIDFORMAT_BEGIN
 90
        0
 91
        1
 62
     0
 92
       -2
340
0
 93
        0
 40
0.045
309
GRIDFORMAT_END
309
TABLEFORMAT_END
  1
CELLSTYLE_BEGIN
 90
        1
 91
        1
300
_TITLE
309
CELLSTYLE_END
300
CELLSTYLE
  1
TABLEFORMAT_BEGIN
 90
        5
170
     1
 91
        0
 92
        0
 62
   257
 93
        1
300
CONTENTFORMAT
  1
CONTENTFORMAT_BEGIN
 90
        0
 91
        0
 92
        4
 93
        0
300

 40
0.0
140
1.0
 94
        5
 62
     0
340
11
144
4.5
309
CONTENTFORMAT_END
171
     1
301
MARGIN
  1
CELLMARGIN_BEGIN
 40
1.5
 40
1.5
 40
1.5
 40
1.5
 40
0.18
 40
0.18
309
CELLMARGIN_END
 94
        6
 95
        1
302
GRIDFORMAT
  1
GRIDFORMAT_BEGIN
 90
        0
 91
        1
 62
     0
 92
       -2
340
0
 93
        0
 40
0.045
309
GRIDFORMAT_END
 95
        2
302
GRIDFORMAT
  1
GRIDFORMAT_BEGIN
 90
        0
 91
        1
 62
     0
 92
       -2
340
0
 93
        0
 40
0.045
309
GRIDFORMAT_END
 95
        4
302
GRIDFORMAT
  1
GRIDFORMAT_BEGIN
 90
        0
 91
        1
 62
     0
 92
       -2
340
0
 93
        0
 40
0.045
309
GRIDFORMAT_END
 95
        8
302
GRIDFORMAT
  1
GRIDFORMAT_BEGIN
 90
        0
 91
        1
 62
     0
 92
       -2
340
0
 93
        0
 40
0.045
309
GRIDFORMAT_END
 95
       16
302
GRIDFORMAT
  1
GRIDFORMAT_BEGIN
 90
        0
 91
        1
 62
     0
 92
       -2
340
0
 93
        0
 40
0.045
309
GRIDFORMAT_END
 95
       32
302
GRIDFORMAT
  1
GRIDFORMAT_BEGIN
 90
        0
 91
        1
 62
     0
 92
       -2
340
0
 93
        0
 40
0.045
309
GRIDFORMAT_END
309
TABLEFORMAT_END
  1
CELLSTYLE_BEGIN
 90
        2
 91
        1
300
_HEADER
309
CELLSTYLE_END
300
CELLSTYLE
  1
TABLEFORMAT_BEGIN
 90
        5
170
     1
 91
        0
 92
        0
 62
   257
 93
        1
300
CONTENTFORMAT
  1
CONTENTFORMAT_BEGIN
 90
        0
 91
        0
 92
        4
 93
        0
300

 40
0.0
140
1.0
 94
        2
 62
     0
340
11
144
4.5
309
CONTENTFORMAT_END
171
     1
301
MARGIN
  1
CELLMARGIN_BEGIN
 40
1.5
 40
1.5
 40
1.5
 40
1.5
 40
0.18
 40
0.18
309
CELLMARGIN_END
 94
        6
 95
        1
302
GRIDFORMAT
  1
GRIDFORMAT_BEGIN
 90
        0
 91
        1
 62
     0
 92
       -2
340
0
 93
        0
 40
0.045
309
GRIDFORMAT_END
 95
        2
302
GRIDFORMAT
  1
GRIDFORMAT_BEGIN
 90
        0
 91
        1
 62
     0
 92
       -2
340
0
 93
        0
 40
0.045
309
GRIDFORMAT_END
 95
        4
302
GRIDFORMAT
  1
GRIDFORMAT_BEGIN
 90
        0
 91
        1
 62
     0
 92
       -2
340
0
 93
        0
 40
0.045
309
GRIDFORMAT_END
 95
        8
302
GRIDFORMAT
  1
GRIDFORMAT_BEGIN
 90
        0
 91
        1
 62
     0
 92
       -2
340
0
 93
        0
 40
0.045
309
GRIDFORMAT_END
 95
       16
302
GRIDFORMAT
  1
GRIDFORMAT_BEGIN
 90
        0
 91
        1
 62
     0
 92
       -2
340
0
 93
        0
 40
0.045
309
GRIDFORMAT_END
 95
       32
302
GRIDFORMAT
  1
GRIDFORMAT_BEGIN
 90
        0
 91
        1
 62
     0
 92
       -2
340
0
 93
        0
 40
0.045
309
GRIDFORMAT_END
309
TABLEFORMAT_END
  1
CELLSTYLE_BEGIN
 90
        3
 91
        2
300
_DATA
309
CELLSTYLE_END
  0
XRECORD
  5
1495
102
{ACAD_REACTORS
330
1489
102
}
330
1489
100
AcDbXrecord
280
     1
102
ACAD_ROUNDTRIP_PRE2007_TABLESTYLE
 90
        4
 91
        0
  1

 92
        4
 93
        0
  2

 94
        4
 95
        0
  3

  0
XRECORD
  5
14A4
102
{ACAD_REACTORS
330
14A3
102
}
330
14A3
100
AcDbXrecord
280
     1
102
RTVSPropertyOp0
 70
     1
102
RTVSPropertyOp1
 70
     1
102
RTVSPropertyOp2
 70
     1
102
RTVSPropertyOp3
 70
     1
102
RTVSPropertyOp4
 70
     1
102
RTVSPropertyOp5
 70
     1
102
RTVSPropertyOp6
 70
     1
102
RTVSPropertyOp7
 70
     1
102
RTVSPropertyOp8
 70
     1
102
RTVSPropertyOp9
 70
     1
102
RTVSPropertyOp10
 70
     1
102
RTVSPropertyOp11
 70
     1
102
RTVSPropertyOp12
 70
     1
102
RTVSPropertyOp13
 70
     1
102
RTVSPropertyOp14
 70
     1
102
RTVSPropertyOp15
 70
     1
102
RTVSPropertyOp16
 70
     1
102
RTVSPropertyOp17
 70
     1
102
RTVSPropertyOp18
 70
     1
102
RTVSPropertyOp19
 70
     1
102
RTVSPropertyOp20
 70
     1
102
RTVSPropertyOp21
 70
     1
102
RTVSPropertyOp22
 70
     1
102
RTVSPropertyOp23
 70
     1
102
RTVSPropertyOp24
 70
     1
102
RTVSPropertyOp25
 70
     1
102
RTVSPropertyOp26
 70
     1
102
RTVSPropertyOp27
 70
     1
  0
XRECORD
  5
14A8
102
{ACAD_REACTORS
330
14A7
102
}
330
14A7
100
AcDbXrecord
280
     1
102
RTVSPropertyOp0
 70
     1
102
RTVSPropertyOp1
 70
     1
102
RTVSPropertyOp2
 70
     1
102
RTVSPropertyOp3
 70
     1
102
RTVSPropertyOp4
 70
     1
102
RTVSPropertyOp5
 70
     1
102
RTVSPropertyOp6
 70
     1
102
RTVSPropertyOp7
 70
     1
102
RTVSPropertyOp8
 70
     1
102
RTVSPropertyOp9
 70
     1
102
RTVSPropertyOp10
 70
     1
102
RTVSPropertyOp11
 70
     1
102
RTVSPropertyOp12
 70
     1
102
RTVSPropertyOp13
 70
     1
102
RTVSPropertyOp14
 70
     1
102
RTVSPropertyOp15
 70
     1
102
RTVSPropertyOp16
 70
     1
102
RTVSPropertyOp17
 70
     1
102
RTVSPropertyOp18
 70
     1
102
RTVSPropertyOp19
 70
     1
102
RTVSPropertyOp20
 70
     1
102
RTVSPropertyOp21
 70
     1
102
RTVSPropertyOp22
 70
     1
102
RTVSPropertyOp23
 70
     1
102
RTVSPropertyOp24
 70
     1
102
RTVSPropertyOp25
 70
     1
102
RTVSPropertyOp26
 70
     1
102
RTVSPropertyOp27
 70
     1
  0
XRECORD
  5
14A6
102
{ACAD_REACTORS
330
14A5
102
}
330
14A5
100
AcDbXrecord
280
     1
102
RTVSPropertyOp0
 70
     1
102
RTVSPropertyOp1
 70
     1
102
RTVSPropertyOp2
 70
     1
102
RTVSPropertyOp3
 70
     1
102
RTVSPropertyOp4
 70
     1
102
RTVSPropertyOp5
 70
     1
102
RTVSPropertyOp6
 70
     1
102
RTVSPropertyOp7
 70
     1
102
RTVSPropertyOp8
 70
     1
102
RTVSPropertyOp9
 70
     1
102
RTVSPropertyOp10
 70
     1
102
RTVSPropertyOp11
 70
     1
102
RTVSPropertyOp12
 70
     1
102
RTVSPropertyOp13
 70
     1
102
RTVSPropertyOp14
 70
     1
102
RTVSPropertyOp15
 70
     1
102
RTVSPropertyOp16
 70
     1
102
RTVSPropertyOp17
 70
     1
102
RTVSPropertyOp18
 70
     1
102
RTVSPropertyOp19
 70
     1
102
RTVSPropertyOp20
 70
     1
102
RTVSPropertyOp21
 70
     1
102
RTVSPropertyOp22
 70
     1
102
RTVSPropertyOp23
 70
     1
102
RTVSPropertyOp24
 70
     1
102
RTVSPropertyOp25
 70
     1
102
RTVSPropertyOp26
 70
     1
102
RTVSPropertyOp27
 70
     1
  0
XRECORD
  5
14A2
102
{ACAD_REACTORS
330
14A1
102
}
330
14A1
100
AcDbXrecord
280
     1
102
RTVSPropertyOp0
 70
     1
102
RTVSPropertyOp1
 70
     1
102
RTVSPropertyOp2
 70
     1
102
RTVSPropertyOp3
 70
     1
102
RTVSPropertyOp4
 70
     1
102
RTVSPropertyOp5
 70
     1
102
RTVSPropertyOp6
 70
     1
102
RTVSPropertyOp7
 70
     1
102
RTVSPropertyOp8
 70
     1
102
RTVSPropertyOp9
 70
     1
102
RTVSPropertyOp10
 70
     1
102
RTVSPropertyOp11
 70
     1
102
RTVSPropertyOp12
 70
     1
102
RTVSPropertyOp13
 70
     1
102
RTVSPropertyOp14
 70
     1
102
RTVSPropertyOp15
 70
     1
102
RTVSPropertyOp16
 70
     1
102
RTVSPropertyOp17
 70
     1
102
RTVSPropertyOp18
 70
     1
102
RTVSPropertyOp19
 70
     1
102
RTVSPropertyOp20
 70
     1
102
RTVSPropertyOp21
 70
     1
102
RTVSPropertyOp22
 70
     1
102
RTVSPropertyOp23
 70
     1
102
RTVSPropertyOp24
 70
     1
102
RTVSPropertyOp25
 70
     1
102
RTVSPropertyOp26
 70
     1
102
RTVSPropertyOp27
 70
     1
  0
XRECORD
  5
14B0
102
{ACAD_REACTORS
330
14AF
102
}
330
14AF
100
AcDbXrecord
280
     1
102
RTVSPropertyOp0
 70
     1
102
RTVSPropertyOp1
 70
     1
102
RTVSPropertyOp2
 70
     1
102
RTVSPropertyOp3
 70
     1
102
RTVSPropertyOp4
 70
     1
102
RTVSPropertyOp5
 70
     1
102
RTVSPropertyOp6
 70
     1
102
RTVSPropertyOp7
 70
     1
102
RTVSPropertyOp8
 70
     1
102
RTVSPropertyOp9
 70
     1
102
RTVSPropertyOp10
 70
     1
102
RTVSPropertyOp11
 70
     1
102
RTVSPropertyOp12
 70
     1
102
RTVSPropertyOp13
 70
     1
102
RTVSPropertyOp14
 70
     1
102
RTVSPropertyOp15
 70
     1
102
RTVSPropertyOp16
 70
     1
102
RTVSPropertyOp17
 70
     1
102
RTVSPropertyOp18
 70
     1
102
RTVSPropertyOp19
 70
     1
102
RTVSPropertyOp20
 70
     1
102
RTVSPropertyOp21
 70
     1
102
RTVSPropertyOp22
 70
     1
102
RTVSPropertyOp23
 70
     1
102
RTVSPropertyOp24
 70
     1
102
RTVSPropertyOp25
 70
     1
102
RTVSPropertyOp26
 70
     1
102
RTVSPropertyOp27
 70
     1
  0
XRECORD
  5
14B8
102
{ACAD_REACTORS
330
14B7
102
}
330
14B7
100
AcDbXrecord
280
     1
102
RTVSPropertyOp0
 70
     1
102
RTVSPropertyOp1
 70
     1
102
RTVSPropertyOp2
 70
     1
102
RTVSPropertyOp3
 70
     1
102
RTVSPropertyOp4
 70
     1
102
RTVSPropertyOp5
 70
     1
102
RTVSPropertyOp6
 70
     1
102
RTVSPropertyOp7
 70
     1
102
RTVSPropertyOp8
 70
     1
102
RTVSPropertyOp9
 70
     1
102
RTVSPropertyOp10
 70
     1
102
RTVSPropertyOp11
 70
     1
102
RTVSPropertyOp12
 70
     1
102
RTVSPropertyOp13
 70
     1
102
RTVSPropertyOp14
 70
     1
102
RTVSPropertyOp15
 70
     1
102
RTVSPropertyOp16
 70
     1
102
RTVSPropertyOp17
 70
     1
102
RTVSPropertyOp18
 70
     1
102
RTVSPropertyOp19
 70
     1
102
RTVSPropertyOp20
 70
     1
102
RTVSPropertyOp21
 70
     1
102
RTVSPropertyOp22
 70
     1
102
RTVSPropertyOp23
 70
     1
102
RTVSPropertyOp24
 70
     1
102
RTVSPropertyOp25
 70
     1
102
RTVSPropertyOp26
 70
     1
102
RTVSPropertyOp27
 70
     1
  0
XRECORD
  5
14AA
102
{ACAD_REACTORS
330
14A9
102
}
330
14A9
100
AcDbXrecord
280
     1
102
RTVSPropertyOp0
 70
     1
102
RTVSPropertyOp1
 70
     1
102
RTVSPropertyOp2
 70
     1
102
RTVSPropertyOp3
 70
     1
102
RTVSPropertyOp4
 70
     1
102
RTVSPropertyOp5
 70
     1
102
RTVSPropertyOp6
 70
     1
102
RTVSPropertyOp7
 70
     1
102
RTVSPropertyOp8
 70
     1
102
RTVSPropertyOp9
 70
     1
102
RTVSPropertyOp10
 70
     1
102
RTVSPropertyOp11
 70
     1
102
RTVSPropertyOp12
 70
     1
102
RTVSPropertyOp13
 70
     1
102
RTVSPropertyOp14
 70
     1
102
RTVSPropertyOp15
 70
     1
102
RTVSPropertyOp16
 70
     1
102
RTVSPropertyOp17
 70
     1
102
RTVSPropertyOp18
 70
     1
102
RTVSPropertyOp19
 70
     1
102
RTVSPropertyOp20
 70
     1
102
RTVSPropertyOp21
 70
     1
102
RTVSPropertyOp22
 70
     1
102
RTVSPropertyOp23
 70
     1
102
RTVSPropertyOp24
 70
     1
102
RTVSPropertyOp25
 70
     1
102
RTVSPropertyOp26
 70
     1
102
RTVSPropertyOp27
 70
     1
  0
XRECORD
  5
14AE
102
{ACAD_REACTORS
330
14AD
102
}
330
14AD
100
AcDbXrecord
280
     1
102
RTVSPropertyOp0
 70
     1
102
RTVSPropertyOp1
 70
     1
102
RTVSPropertyOp2
 70
     1
102
RTVSPropertyOp3
 70
     1
102
RTVSPropertyOp4
 70
     1
102
RTVSPropertyOp5
 70
     1
102
RTVSPropertyOp6
 70
     1
102
RTVSPropertyOp7
 70
     1
102
RTVSPropertyOp8
 70
     1
102
RTVSPropertyOp9
 70
     1
102
RTVSPropertyOp10
 70
     1
102
RTVSPropertyOp11
 70
     1
102
RTVSPropertyOp12
 70
     1
102
RTVSPropertyOp13
 70
     1
102
RTVSPropertyOp14
 70
     1
102
RTVSPropertyOp15
 70
     1
102
RTVSPropertyOp16
 70
     1
102
RTVSPropertyOp17
 70
     1
102
RTVSPropertyOp18
 70
     1
102
RTVSPropertyOp19
 70
     1
102
RTVSPropertyOp20
 70
     1
102
RTVSPropertyOp21
 70
     1
102
RTVSPropertyOp22
 70
     1
102
RTVSPropertyOp23
 70
     1
102
RTVSPropertyOp24
 70
     1
102
RTVSPropertyOp25
 70
     1
102
RTVSPropertyOp26
 70
     1
102
RTVSPropertyOp27
 70
     1
  0
XRECORD
  5
14BE
102
{ACAD_REACTORS
330
14BD
102
}
330
14BD
100
AcDbXrecord
280
     1
102
RTVSPropertyOp0
 70
     0
102
RTVSPropertyOp1
 70
     0
102
RTVSPropertyOp2
 70
     0
102
RTVSPropertyOp3
 70
     0
102
RTVSPropertyOp4
 70
     0
102
RTVSPropertyOp5
 70
     0
102
RTVSPropertyOp6
 70
     0
102
RTVSPropertyOp7
 70
     0
102
RTVSPropertyOp8
 70
     0
102
RTVSPropertyOp9
 70
     0
102
RTVSPropertyOp10
 70
     0
102
RTVSPropertyOp11
 70
     0
102
RTVSPropertyOp12
 70
     0
102
RTVSPropertyOp13
 70
     0
102
RTVSPropertyOp14
 70
     2
102
RTVSPropertyOp15
 70
     0
102
RTVSPropertyOp16
 70
     0
102
RTVSPropertyOp17
 70
     0
102
RTVSPropertyOp18
 70
     0
102
RTVSPropertyOp19
 70
     0
102
RTVSPropertyOp20
 70
     0
102
RTVSPropertyOp21
 70
     0
102
RTVSPropertyOp22
 70
     0
102
RTVSPropertyOp23
 70
     0
102
RTVSPropertyOp24
 70
     0
102
RTVSPropertyOp25
 70
     0
102
RTVSPropertyOp26
 70
     0
102
RTVSPropertyOp27
 70
     0
  0
XRECORD
  5
14B6
102
{ACAD_REACTORS
330
14B5
102
}
330
14B5
100
AcDbXrecord
280
     1
102
RTVSPropertyOp0
 70
     1
102
RTVSPropertyOp1
 70
     1
102
RTVSPropertyOp2
 70
     1
102
RTVSPropertyOp3
 70
     1
102
RTVSPropertyOp4
 70
     1
102
RTVSPropertyOp5
 70
     1
102
RTVSPropertyOp6
 70
     1
102
RTVSPropertyOp7
 70
     1
102
RTVSPropertyOp8
 70
     1
102
RTVSPropertyOp9
 70
     1
102
RTVSPropertyOp10
 70
     1
102
RTVSPropertyOp11
 70
     1
102
RTVSPropertyOp12
 70
     1
102
RTVSPropertyOp13
 70
     1
102
RTVSPropertyOp14
 70
     1
102
RTVSPropertyOp15
 70
     1
102
RTVSPropertyOp16
 70
     1
102
RTVSPropertyOp17
 70
     1
102
RTVSPropertyOp18
 70
     1
102
RTVSPropertyOp19
 70
     1
102
RTVSPropertyOp20
 70
     1
102
RTVSPropertyOp21
 70
     1
102
RTVSPropertyOp22
 70
     1
102
RTVSPropertyOp23
 70
     1
102
RTVSPropertyOp24
 70
     1
102
RTVSPropertyOp25
 70
     1
102
RTVSPropertyOp26
 70
     1
102
RTVSPropertyOp27
 70
     1
  0
XRECORD
  5
149A
102
{ACAD_REACTORS
330
1499
102
}
330
1499
100
AcDbXrecord
280
     1
102
RTVSPropertyOp0
 70
     1
102
RTVSPropertyOp1
 70
     1
102
RTVSPropertyOp2
 70
     1
102
RTVSPropertyOp3
 70
     1
102
RTVSPropertyOp4
 70
     1
102
RTVSPropertyOp5
 70
     1
102
RTVSPropertyOp6
 70
     1
102
RTVSPropertyOp7
 70
     1
102
RTVSPropertyOp8
 70
     1
102
RTVSPropertyOp9
 70
     1
102
RTVSPropertyOp10
 70
     1
102
RTVSPropertyOp11
 70
     1
102
RTVSPropertyOp12
 70
     1
102
RTVSPropertyOp13
 70
     1
102
RTVSPropertyOp14
 70
     1
102
RTVSPropertyOp15
 70
     1
102
RTVSPropertyOp16
 70
     1
102
RTVSPropertyOp17
 70
     1
102
RTVSPropertyOp18
 70
     1
102
RTVSPropertyOp19
 70
     1
102
RTVSPropertyOp20
 70
     1
102
RTVSPropertyOp21
 70
     1
102
RTVSPropertyOp22
 70
     1
102
RTVSPropertyOp23
 70
     1
102
RTVSPropertyOp24
 70
     1
102
RTVSPropertyOp25
 70
     1
102
RTVSPropertyOp26
 70
     1
102
RTVSPropertyOp27
 70
     1
  0
XRECORD
  5
149C
102
{ACAD_REACTORS
330
149B
102
}
330
149B
100
AcDbXrecord
280
     1
102
RTVSPropertyOp0
 70
     1
102
RTVSPropertyOp1
 70
     1
102
RTVSPropertyOp2
 70
     1
102
RTVSPropertyOp3
 70
     1
102
RTVSPropertyOp4
 70
     1
102
RTVSPropertyOp5
 70
     1
102
RTVSPropertyOp6
 70
     1
102
RTVSPropertyOp7
 70
     1
102
RTVSPropertyOp8
 70
     1
102
RTVSPropertyOp9
 70
     1
102
RTVSPropertyOp10
 70
     1
102
RTVSPropertyOp11
 70
     1
102
RTVSPropertyOp12
 70
     1
102
RTVSPropertyOp13
 70
     1
102
RTVSPropertyOp14
 70
     1
102
RTVSPropertyOp15
 70
     1
102
RTVSPropertyOp16
 70
     1
102
RTVSPropertyOp17
 70
     1
102
RTVSPropertyOp18
 70
     1
102
RTVSPropertyOp19
 70
     1
102
RTVSPropertyOp20
 70
     1
102
RTVSPropertyOp21
 70
     1
102
RTVSPropertyOp22
 70
     1
102
RTVSPropertyOp23
 70
     1
102
RTVSPropertyOp24
 70
     1
102
RTVSPropertyOp25
 70
     1
102
RTVSPropertyOp26
 70
     1
102
RTVSPropertyOp27
 70
     1
  0
XRECORD
  5
149E
102
{ACAD_REACTORS
330
149D
102
}
330
149D
100
AcDbXrecord
280
     1
102
RTVSPropertyOp0
 70
     1
102
RTVSPropertyOp1
 70
     1
102
RTVSPropertyOp2
 70
     1
102
RTVSPropertyOp3
 70
     1
102
RTVSPropertyOp4
 70
     1
102
RTVSPropertyOp5
 70
     1
102
RTVSPropertyOp6
 70
     1
102
RTVSPropertyOp7
 70
     1
102
RTVSPropertyOp8
 70
     1
102
RTVSPropertyOp9
 70
     1
102
RTVSPropertyOp10
 70
     1
102
RTVSPropertyOp11
 70
     1
102
RTVSPropertyOp12
 70
     1
102
RTVSPropertyOp13
 70
     1
102
RTVSPropertyOp14
 70
     1
102
RTVSPropertyOp15
 70
     1
102
RTVSPropertyOp16
 70
     1
102
RTVSPropertyOp17
 70
     1
102
RTVSPropertyOp18
 70
     1
102
RTVSPropertyOp19
 70
     1
102
RTVSPropertyOp20
 70
     1
102
RTVSPropertyOp21
 70
     1
102
RTVSPropertyOp22
 70
     1
102
RTVSPropertyOp23
 70
     1
102
RTVSPropertyOp24
 70
     1
102
RTVSPropertyOp25
 70
     1
102
RTVSPropertyOp26
 70
     1
102
RTVSPropertyOp27
 70
     1
  0
XRECORD
  5
14A0
102
{ACAD_REACTORS
330
149F
102
}
330
149F
100
AcDbXrecord
280
     1
102
RTVSPropertyOp0
 70
     1
102
RTVSPropertyOp1
 70
     1
102
RTVSPropertyOp2
 70
     1
102
RTVSPropertyOp3
 70
     1
102
RTVSPropertyOp4
 70
     1
102
RTVSPropertyOp5
 70
     1
102
RTVSPropertyOp6
 70
     1
102
RTVSPropertyOp7
 70
     1
102
RTVSPropertyOp8
 70
     1
102
RTVSPropertyOp9
 70
     1
102
RTVSPropertyOp10
 70
     1
102
RTVSPropertyOp11
 70
     1
102
RTVSPropertyOp12
 70
     1
102
RTVSPropertyOp13
 70
     1
102
RTVSPropertyOp14
 70
     1
102
RTVSPropertyOp15
 70
     1
102
RTVSPropertyOp16
 70
     1
102
RTVSPropertyOp17
 70
     1
102
RTVSPropertyOp18
 70
     1
102
RTVSPropertyOp19
 70
     1
102
RTVSPropertyOp20
 70
     1
102
RTVSPropertyOp21
 70
     1
102
RTVSPropertyOp22
 70
     1
102
RTVSPropertyOp23
 70
     1
102
RTVSPropertyOp24
 70
     1
102
RTVSPropertyOp25
 70
     1
102
RTVSPropertyOp26
 70
     1
102
RTVSPropertyOp27
 70
     1
  0
XRECORD
  5
14BA
102
{ACAD_REACTORS
330
14B9
102
}
330
14B9
100
AcDbXrecord
280
     1
102
RTVSPropertyOp0
 70
     0
102
RTVSPropertyOp1
 70
     0
102
RTVSPropertyOp2
 70
     0
102
RTVSPropertyOp3
 70
     0
102
RTVSPropertyOp4
 70
     0
102
RTVSPropertyOp5
 70
     0
102
RTVSPropertyOp6
 70
     0
102
RTVSPropertyOp7
 70
     0
102
RTVSPropertyOp8
 70
     0
102
RTVSPropertyOp9
 70
     0
102
RTVSPropertyOp10
 70
     0
102
RTVSPropertyOp11
 70
     0
102
RTVSPropertyOp12
 70
     0
102
RTVSPropertyOp13
 70
     0
102
RTVSPropertyOp14
 70
     2
102
RTVSPropertyOp15
 70
     0
102
RTVSPropertyOp16
 70
     0
102
RTVSPropertyOp17
 70
     0
102
RTVSPropertyOp18
 70
     0
102
RTVSPropertyOp19
 70
     0
102
RTVSPropertyOp20
 70
     0
102
RTVSPropertyOp21
 70
     0
102
RTVSPropertyOp22
 70
     0
102
RTVSPropertyOp23
 70
     0
102
RTVSPropertyOp24
 70
     0
102
RTVSPropertyOp25
 70
     0
102
RTVSPropertyOp26
 70
     0
102
RTVSPropertyOp27
 70
     0
  0
XRECORD
  5
14B4
102
{ACAD_REACTORS
330
14B3
102
}
330
14B3
100
AcDbXrecord
280
     1
102
RTVSPropertyOp0
 70
     1
102
RTVSPropertyOp1
 70
     1
102
RTVSPropertyOp2
 70
     1
102
RTVSPropertyOp3
 70
     1
102
RTVSPropertyOp4
 70
     1
102
RTVSPropertyOp5
 70
     1
102
RTVSPropertyOp6
 70
     1
102
RTVSPropertyOp7
 70
     1
102
RTVSPropertyOp8
 70
     1
102
RTVSPropertyOp9
 70
     1
102
RTVSPropertyOp10
 70
     1
102
RTVSPropertyOp11
 70
     1
102
RTVSPropertyOp12
 70
     1
102
RTVSPropertyOp13
 70
     1
102
RTVSPropertyOp14
 70
     1
102
RTVSPropertyOp15
 70
     1
102
RTVSPropertyOp16
 70
     1
102
RTVSPropertyOp17
 70
     1
102
RTVSPropertyOp18
 70
     1
102
RTVSPropertyOp19
 70
     1
102
RTVSPropertyOp20
 70
     1
102
RTVSPropertyOp21
 70
     1
102
RTVSPropertyOp22
 70
     1
102
RTVSPropertyOp23
 70
     1
102
RTVSPropertyOp24
 70
     1
102
RTVSPropertyOp25
 70
     1
102
RTVSPropertyOp26
 70
     1
102
RTVSPropertyOp27
 70
     1
  0
XRECORD
  5
14BC
102
{ACAD_REACTORS
330
14BB
102
}
330
14BB
100
AcDbXrecord
280
     1
102
RTVSPropertyOp0
 70
     0
102
RTVSPropertyOp1
 70
     0
102
RTVSPropertyOp2
 70
     0
102
RTVSPropertyOp3
 70
     0
102
RTVSPropertyOp4
 70
     0
102
RTVSPropertyOp5
 70
     0
102
RTVSPropertyOp6
 70
     0
102
RTVSPropertyOp7
 70
     0
102
RTVSPropertyOp8
 70
     0
102
RTVSPropertyOp9
 70
     0
102
RTVSPropertyOp10
 70
     0
102
RTVSPropertyOp11
 70
     0
102
RTVSPropertyOp12
 70
     0
102
RTVSPropertyOp13
 70
     0
102
RTVSPropertyOp14
 70
     2
102
RTVSPropertyOp15
 70
     0
102
RTVSPropertyOp16
 70
     0
102
RTVSPropertyOp17
 70
     0
102
RTVSPropertyOp18
 70
     0
102
RTVSPropertyOp19
 70
     0
102
RTVSPropertyOp20
 70
     0
102
RTVSPropertyOp21
 70
     0
102
RTVSPropertyOp22
 70
     0
102
RTVSPropertyOp23
 70
     0
102
RTVSPropertyOp24
 70
     0
102
RTVSPropertyOp25
 70
     0
102
RTVSPropertyOp26
 70
     0
102
RTVSPropertyOp27
 70
     0
  0
XRECORD
  5
14AC
102
{ACAD_REACTORS
330
14AB
102
}
330
14AB
100
AcDbXrecord
280
     1
102
RTVSPropertyOp0
 70
     1
102
RTVSPropertyOp1
 70
     1
102
RTVSPropertyOp2
 70
     1
102
RTVSPropertyOp3
 70
     1
102
RTVSPropertyOp4
 70
     1
102
RTVSPropertyOp5
 70
     1
102
RTVSPropertyOp6
 70
     1
102
RTVSPropertyOp7
 70
     1
102
RTVSPropertyOp8
 70
     1
102
RTVSPropertyOp9
 70
     1
102
RTVSPropertyOp10
 70
     1
102
RTVSPropertyOp11
 70
     1
102
RTVSPropertyOp12
 70
     1
102
RTVSPropertyOp13
 70
     1
102
RTVSPropertyOp14
 70
     1
102
RTVSPropertyOp15
 70
     1
102
RTVSPropertyOp16
 70
     1
102
RTVSPropertyOp17
 70
     1
102
RTVSPropertyOp18
 70
     1
102
RTVSPropertyOp19
 70
     1
102
RTVSPropertyOp20
 70
     1
102
RTVSPropertyOp21
 70
     1
102
RTVSPropertyOp22
 70
     1
102
RTVSPropertyOp23
 70
     1
102
RTVSPropertyOp24
 70
     1
102
RTVSPropertyOp25
 70
     1
102
RTVSPropertyOp26
 70
     1
102
RTVSPropertyOp27
 70
     1
  0
XRECORD
  5
14B2
102
{ACAD_REACTORS
330
14B1
102
}
330
14B1
100
AcDbXrecord
280
     1
102
RTVSPropertyOp0
 70
     1
102
RTVSPropertyOp1
 70
     1
102
RTVSPropertyOp2
 70
     1
102
RTVSPropertyOp3
 70
     1
102
RTVSPropertyOp4
 70
     1
102
RTVSPropertyOp5
 70
     1
102
RTVSPropertyOp6
 70
     1
102
RTVSPropertyOp7
 70
     1
102
RTVSPropertyOp8
 70
     1
102
RTVSPropertyOp9
 70
     1
102
RTVSPropertyOp10
 70
     1
102
RTVSPropertyOp11
 70
     1
102
RTVSPropertyOp12
 70
     1
102
RTVSPropertyOp13
 70
     1
102
RTVSPropertyOp14
 70
     1
102
RTVSPropertyOp15
 70
     1
102
RTVSPropertyOp16
 70
     1
102
RTVSPropertyOp17
 70
     1
102
RTVSPropertyOp18
 70
     1
102
RTVSPropertyOp19
 70
     1
102
RTVSPropertyOp20
 70
     1
102
RTVSPropertyOp21
 70
     1
102
RTVSPropertyOp22
 70
     1
102
RTVSPropertyOp23
 70
     1
102
RTVSPropertyOp24
 70
     1
102
RTVSPropertyOp25
 70
     1
102
RTVSPropertyOp26
 70
     1
102
RTVSPropertyOp27
 70
     1
  0
ENDSEC
  0
EOF
