  0
SECTION
  2
HEADER
  9
$ACADVER
  1
AC1015
  9
$ACADMAINTVER
 70
    20
  9
$DWGCODEPAGE
  3
ANSI_1252
  9
$INSBASE
 10
0.0
 20
0.0
 30
0.0
  9
$EXTMIN
 10
718.1908167742292
 20
1454.367276849361
 30
0.0
  9
$EXTMAX
 10
721.0296895652446
 20
1454.867800501603
 30
0.0
  9
$LIMMIN
 10
0.0
 20
0.0
  9
$LIMMAX
 10
420.0
 20
297.0
  9
$ORTHOMODE
 70
     1
  9
$REGENMODE
 70
     1
  9
$FILLMODE
 70
     1
  9
$QTEXTMODE
 70
     0
  9
$MIRRTEXT
 70
     0
  9
$LTSCALE
 40
1.0
  9
$ATTMODE
 70
     1
  9
$TEXTSIZE
 40
2.5
  9
$TRACEWID
 40
1.0
  9
$TEXTSTYLE
  7
Standard
  9
$CLAYER
  8
0
  9
$CELTYPE
  6
ByLayer
  9
$CECOLOR
 62
   256
  9
$CELTSCALE
 40
1.0
  9
$DISPSILH
 70
     0
  9
$DIMSCALE
 40
1.0
  9
$DIMASZ
 40
2.5
  9
$DIMEXO
 40
0.625
  9
$DIMDLI
 40
3.75
  9
$DIMRND
 40
0.0
  9
$DIMDLE
 40
0.0
  9
$DIMEXE
 40
1.25
  9
$DIMTP
 40
0.0
  9
$DIMTM
 40
0.0
  9
$DIMTXT
 40
2.5
  9
$DIMCEN
 40
2.5
  9
$DIMTSZ
 40
0.0
  9
$DIMTOL
 70
     0
  9
$DIMLIM
 70
     0
  9
$DIMTIH
 70
     0
  9
$DIMTOH
 70
     0
  9
$DIMSE1
 70
     0
  9
$DIMSE2
 70
     0
  9
$DIMTAD
 70
     1
  9
$DIMZIN
 70
     8
  9
$DIMBLK
  1

  9
$DIMASO
 70
     1
  9
$DIMSHO
 70
     1
  9
$DIMPOST
  1

  9
$DIMAPOST
  1

  9
$DIMALT
 70
     0
  9
$DIMALTD
 70
     3
  9
$DIMALTF
 40
0.03937007874016
  9
$DIMLFAC
 40
1.0
  9
$DIMTOFL
 70
     1
  9
$DIMTVP
 40
0.0
  9
$DIMTIX
 70
     0
  9
$DIMSOXD
 70
     0
  9
$DIMSAH
 70
     0
  9
$DIMBLK1
  1

  9
$DIMBLK2
  1

  9
$DIMSTYLE
  2
ISO-25
  9
$DIMCLRD
 70
     0
  9
$DIMCLRE
 70
     0
  9
$DIMCLRT
 70
     0
  9
$DIMTFAC
 40
1.0
  9
$DIMGAP
 40
0.625
  9
$DIMJUST
 70
     0
  9
$DIMSD1
 70
     0
  9
$DIMSD2
 70
     0
  9
$DIMTOLJ
 70
     0
  9
$DIMTZIN
 70
     8
  9
$DIMALTZ
 70
     0
  9
$DIMALTTZ
 70
     0
  9
$DIMUPT
 70
     0
  9
$DIMDEC
 70
     2
  9
$DIMTDEC
 70
     2
  9
$DIMALTU
 70
     2
  9
$DIMALTTD
 70
     3
  9
$DIMTXSTY
  7
Standard
  9
$DIMAUNIT
 70
     0
  9
$DIMADEC
 70
     0
  9
$DIMALTRND
 40
0.0
  9
$DIMAZIN
 70
     0
  9
$DIMDSEP
 70
    44
  9
$DIMATFIT
 70
     3
  9
$DIMFRAC
 70
     0
  9
$DIMLDRBLK
  1

  9
$DIMLUNIT
 70
     2
  9
$DIMLWD
 70
    -2
  9
$DIMLWE
 70
    -2
  9
$DIMTMOVE
 70
     0
  9
$LUNITS
 70
     2
  9
$LUPREC
 70
     4
  9
$SKETCHINC
 40
1.0
  9
$FILLETRAD
 40
0.0
  9
$AUNITS
 70
     0
  9
$AUPREC
 70
     0
  9
$MENU
  1
.
  9
$ELEVATION
 40
0.0
  9
$PELEVATION
 40
0.0
  9
$THICKNESS
 40
0.0
  9
$LIMCHECK
 70
     0
  9
$CHAMFERA
 40
0.0
  9
$CHAMFERB
 40
0.0
  9
$CHAMFERC
 40
0.0
  9
$CHAMFERD
 40
0.0
  9
$SKPOLY
 70
     0
  9
$TDCREATE
 40
2453797.550376690
  9
$TDUCREATE
 40
2453797.508710023
  9
$TDUPDATE
 40
2456149.583431169
  9
$TDUUPDATE
 40
2456149.541764502
  9
$TDINDWG
 40
0.0024258565
  9
$TDUSRTIMER
 40
0.0024258565
  9
$USRTIMER
 70
     1
  9
$ANGBASE
 50
0.0
  9
$ANGDIR
 70
     0
  9
$PDMODE
 70
     0
  9
$PDSIZE
 40
0.0
  9
$PLINEWID
 40
0.0
  9
$SPLFRAME
 70
     0
  9
$SPLINETYPE
 70
     6
  9
$SPLINESEGS
 70
     8
  9
$HANDSEED
  5
585
  9
$SURFTAB1
 70
     6
  9
$SURFTAB2
 70
     6
  9
$SURFTYPE
 70
     6
  9
$SURFU
 70
     6
  9
$SURFV
 70
     6
  9
$UCSBASE
  2

  9
$UCSNAME
  2

  9
$UCSORG
 10
0.0
 20
0.0
 30
0.0
  9
$UCSXDIR
 10
1.0
 20
0.0
 30
0.0
  9
$UCSYDIR
 10
0.0
 20
1.0
 30
0.0
  9
$UCSORTHOREF
  2

  9
$UCSORTHOVIEW
 70
     0
  9
$UCSORGTOP
 10
0.0
 20
0.0
 30
0.0
  9
$UCSORGBOTTOM
 10
0.0
 20
0.0
 30
0.0
  9
$UCSORGLEFT
 10
0.0
 20
0.0
 30
0.0
  9
$UCSORGRIGHT
 10
0.0
 20
0.0
 30
0.0
  9
$UCSORGFRONT
 10
0.0
 20
0.0
 30
0.0
  9
$UCSORGBACK
 10
0.0
 20
0.0
 30
0.0
  9
$PUCSBASE
  2

  9
$PUCSNAME
  2

  9
$PUCSORG
 10
0.0
 20
0.0
 30
0.0
  9
$PUCSXDIR
 10
1.0
 20
0.0
 30
0.0
  9
$PUCSYDIR
 10
0.0
 20
1.0
 30
0.0
  9
$PUCSORTHOREF
  2

  9
$PUCSORTHOVIEW
 70
     0
  9
$PUCSORGTOP
 10
0.0
 20
0.0
 30
0.0
  9
$PUCSORGBOTTOM
 10
0.0
 20
0.0
 30
0.0
  9
$PUCSORGLEFT
 10
0.0
 20
0.0
 30
0.0
  9
$PUCSORGRIGHT
 10
0.0
 20
0.0
 30
0.0
  9
$PUCSORGFRONT
 10
0.0
 20
0.0
 30
0.0
  9
$PUCSORGBACK
 10
0.0
 20
0.0
 30
0.0
  9
$USERI1
 70
     0
  9
$USERI2
 70
     0
  9
$USERI3
 70
     0
  9
$USERI4
 70
     0
  9
$USERI5
 70
     0
  9
$USERR1
 40
0.0
  9
$USERR2
 40
0.0
  9
$USERR3
 40
0.0
  9
$USERR4
 40
0.0
  9
$USERR5
 40
0.0
  9
$WORLDVIEW
 70
     1
  9
$SHADEDGE
 70
     3
  9
$SHADEDIF
 70
    70
  9
$TILEMODE
 70
     1
  9
$MAXACTVP
 70
    64
  9
$PINSBASE
 10
0.0
 20
0.0
 30
0.0
  9
$PLIMCHECK
 70
     0
  9
$PEXTMIN
 10
1.000000000000000E+20
 20
1.000000000000000E+20
 30
1.000000000000000E+20
  9
$PEXTMAX
 10
-1.000000000000000E+20
 20
-1.000000000000000E+20
 30
-1.000000000000000E+20
  9
$PLIMMIN
 10
0.0
 20
0.0
  9
$PLIMMAX
 10
420.0
 20
297.0
  9
$UNITMODE
 70
     0
  9
$VISRETAIN
 70
     1
  9
$PLINEGEN
 70
     0
  9
$PSLTSCALE
 70
     1
  9
$TREEDEPTH
 70
  3020
  9
$CMLSTYLE
  2
Standard
  9
$CMLJUST
 70
     0
  9
$CMLSCALE
 40
20.0
  9
$PROXYGRAPHICS
 70
     1
  9
$MEASUREMENT
 70
     1
  9
$CELWEIGHT
370
    -1
  9
$ENDCAPS
280
     0
  9
$JOINSTYLE
280
     0
  9
$LWDISPLAY
290
     0
  9
$INSUNITS
 70
     4
  9
$HYPERLINKBASE
  1

  9
$STYLESHEET
  1

  9
$XEDIT
290
     1
  9
$CEPSNTYPE
380
     0
  9
$PSTYLEMODE
290
     1
  9
$FINGERPRINTGUID
  2
{68BFC0A6-521C-4E80-A912-72F07DD2C1D0}
  9
$VERSIONGUID
  2
{C3541B85-4779-4B14-B43F-07AA2FAF0E39}
  9
$EXTNAMES
290
     1
  9
$PSVPSCALE
 40
0.0
  9
$OLESTARTUP
290
     0
  0
ENDSEC
  0
SECTION
  2
CLASSES
  0
CLASS
  1
ACDBDICTIONARYWDFLT
  2
AcDbDictionaryWithDefault
  3
ObjectDBX Classes
 90
        0
280
     0
281
     0
  0
CLASS
  1
TABLESTYLE
  2
AcDbTableStyle
  3
ObjectDBX Classes
 90
     4095
280
     0
281
     0
  0
CLASS
  1
SORTENTSTABLE
  2
AcDbSortentsTable
  3
ObjectDBX Classes
 90
    32768
280
     0
281
     0
  0
CLASS
  1
DICTIONARYVAR
  2
AcDbDictionaryVar
  3
ObjectDBX Classes
 90
        0
280
     0
281
     0
  0
CLASS
  1
ACDBPLACEHOLDER
  2
AcDbPlaceHolder
  3
ObjectDBX Classes
 90
        0
280
     0
281
     0
  0
CLASS
  1
LAYOUT
  2
AcDbLayout
  3
ObjectDBX Classes
 90
        0
280
     0
281
     0
  0
CLASS
  1
MATERIAL
  2
AcDbMaterial
  3
ObjectDBX Classes
 90
     1153
280
     0
281
     0
  0
CLASS
  1
VISUALSTYLE
  2
AcDbVisualStyle
  3
ObjectDBX Classes
 90
     4095
280
     0
281
     0
  0
CLASS
  1
SCALE
  2
AcDbScale
  3
ObjectDBX Classes
 90
     1153
280
     0
281
     0
  0
CLASS
  1
MLEADERSTYLE
  2
AcDbMLeaderStyle
  3
ACDB_MLEADERSTYLE_CLASS
 90
     4095
280
     0
281
     0
  0
CLASS
  1
CELLSTYLEMAP
  2
AcDbCellStyleMap
  3
ObjectDBX Classes
 90
     1152
280
     0
281
     0
  0
ENDSEC
  0
SECTION
  2
TABLES
  0
TABLE
  2
VPORT
  5
8
330
0
100
AcDbSymbolTable
 70
     1
  0
VPORT
  5
4EC
330
8
100
AcDbSymbolTableRecord
100
AcDbViewportTableRecord
  2
*Active
 70
     0
 10
0.0
 20
0.0
 11
1.0
 21
1.0
 12
719.6803409321005
 22
1454.600821311371
 13
0.0
 23
0.0
 14
10.0
 24
10.0
 15
10.0
 25
10.0
 16
0.0
 26
0.0
 36
1.0
 17
0.0
 27
0.0
 37
0.0
 40
2.014368967087564
 41
1.645464025026068
 42
50.0
 43
0.0
 44
0.0
 50
0.0
 51
0.0
 71
     0
 72
  1000
 73
     1
 74
     3
 75
     0
 76
     0
 77
     0
 78
     0
281
     0
 65
     1
110
0.0
120
0.0
130
0.0
111
1.0
121
0.0
131
0.0
112
0.0
122
1.0
132
0.0
 79
     0
146
0.0
  0
ENDTAB
  0
TABLE
  2
LTYPE
  5
5
330
0
100
AcDbSymbolTable
 70
     3
  0
LTYPE
  5
14
330
5
100
AcDbSymbolTableRecord
100
AcDbLinetypeTableRecord
  2
ByBlock
 70
     0
  3

 72
    65
 73
     0
 40
0.0
  0
LTYPE
  5
15
330
5
100
AcDbSymbolTableRecord
100
AcDbLinetypeTableRecord
  2
ByLayer
 70
     0
  3

 72
    65
 73
     0
 40
0.0
  0
LTYPE
  5
16
330
5
100
AcDbSymbolTableRecord
100
AcDbLinetypeTableRecord
  2
Continuous
 70
     0
  3
Solid line
 72
    65
 73
     0
 40
0.0
  0
LTYPE
  5
2F
330
5
100
AcDbSymbolTableRecord
100
AcDbLinetypeTableRecord
  2
DASHDOT
 70
     0
  3
Dash dot __ . __ . __ . __ . __ . __ . __ . __
 72
    65
 73
     4
 40
25.4
 49
12.7
 74
     0
 49
-6.349999999999999
 74
     0
 49
0.0
 74
     0
 49
-6.349999999999999
 74
     0
  0
LTYPE
  5
30
330
5
100
AcDbSymbolTableRecord
100
AcDbLinetypeTableRecord
  2
HIDDEN
 70
     0
  3
Hidden __ __ __ __ __ __ __ __ __ __ __ __ __ _
 72
    65
 73
     2
 40
9.524999999999998
 49
6.349999999999999
 74
     0
 49
-3.174999999999999
 74
     0
  0
ENDTAB
  0
TABLE
  2
LAYER
  5
2
330
0
100
AcDbSymbolTable
 70
     8
  0
LAYER
  5
10
102
{ACAD_XDICTIONARY
360
53B
102
}
330
2
100
AcDbSymbolTableRecord
100
AcDbLayerTableRecord
  2
0
 70
     0
 62
     7
  6
Continuous
370
    -3
390
F
  0
LAYER
  5
31
102
{ACAD_XDICTIONARY
360
53D
102
}
330
2
100
AcDbSymbolTableRecord
100
AcDbLayerTableRecord
  2
cen
 70
     0
 62
     7
  6
DASHDOT
370
    -3
390
F
  0
LAYER
  5
32
102
{ACAD_XDICTIONARY
360
53F
102
}
330
2
100
AcDbSymbolTableRecord
100
AcDbLayerTableRecord
  2
hid
 70
     0
 62
     7
  6
HIDDEN
370
    -3
390
F
  0
LAYER
  5
33
102
{ACAD_XDICTIONARY
360
541
102
}
330
2
100
AcDbSymbolTableRecord
100
AcDbLayerTableRecord
  2
hatch
 70
     0
 62
     9
  6
Continuous
370
    -3
390
F
  0
LAYER
  5
34
102
{ACAD_XDICTIONARY
360
543
102
}
330
2
100
AcDbSymbolTableRecord
100
AcDbLayerTableRecord
  2
9
 70
     0
 62
     9
  6
Continuous
370
    -3
390
F
  0
LAYER
  5
35
102
{ACAD_XDICTIONARY
360
545
102
}
330
2
100
AcDbSymbolTableRecord
100
AcDbLayerTableRecord
  2
cotas
 70
     0
 62
     1
  6
Continuous
370
    -3
390
F
  0
LAYER
  5
36
102
{ACAD_XDICTIONARY
360
547
102
}
330
2
100
AcDbSymbolTableRecord
100
AcDbLayerTableRecord
  2
indusa
 70
     0
 62
     3
  6
Continuous
370
    -3
390
F
  0
LAYER
  5
37
102
{ACAD_XDICTIONARY
360
549
102
}
330
2
100
AcDbSymbolTableRecord
100
AcDbLayerTableRecord
  2
SANINDUSA
 70
     0
 62
     3
  6
Continuous
370
    -3
390
F
  0
ENDTAB
  0
TABLE
  2
STYLE
  5
3
330
0
100
AcDbSymbolTable
 70
     2
  0
STYLE
  5
11
330
3
100
AcDbSymbolTableRecord
100
AcDbTextStyleTableRecord
  2
Standard
 70
     0
 40
0.0
 41
1.0
 50
0.0
 71
     0
 42
2.5
  3
txt
  4

  0
STYLE
  5
38
330
3
100
AcDbSymbolTableRecord
100
AcDbTextStyleTableRecord
  2
SANINDUSA
 70
     0
 40
0.0
 41
1.0
 50
0.0
 71
     0
 42
2.5
  3
verdana.TTF
  4

1001
ACAD
1000
Verdana
1071
       34
  0
ENDTAB
  0
TABLE
  2
VIEW
  5
6
330
0
100
AcDbSymbolTable
 70
     0
  0
ENDTAB
  0
TABLE
  2
UCS
  5
7
330
0
100
AcDbSymbolTable
 70
     0
  0
ENDTAB
  0
TABLE
  2
APPID
  5
9
330
0
100
AcDbSymbolTable
 70
     3
  0
APPID
  5
12
330
9
100
AcDbSymbolTableRecord
100
AcDbRegAppTableRecord
  2
ACAD
 70
     0
  0
APPID
  5
3A
330
9
100
AcDbSymbolTableRecord
100
AcDbRegAppTableRecord
  2
DCO15
 70
     0
  0
APPID
  5
584
330
9
100
AcDbSymbolTableRecord
100
AcDbRegAppTableRecord
  2
ACAD_MLEADERVER
 70
     0
  0
ENDTAB
  0
TABLE
  2
DIMSTYLE
  5
A
330
0
100
AcDbSymbolTable
 70
     2
100
AcDbDimStyleTable
 71
     0
  0
DIMSTYLE
105
2B
330
A
100
AcDbSymbolTableRecord
100
AcDbDimStyleTableRecord
  2
ISO-25
 70
     0
 41
2.5
 42
0.625
 43
3.75
 44
1.25
 73
     0
 74
     0
 77
     1
 78
     8
140
2.5
141
2.5
143
0.03937007874016
147
0.625
171
     3
172
     1
271
     2
272
     2
274
     3
278
    44
283
     0
284
     8
340
11
  0
DIMSTYLE
105
39
330
A
100
AcDbSymbolTableRecord
100
AcDbDimStyleTableRecord
  2
SANINDUSA
 70
     0
 41
10.0
 42
4.0
 43
4.0
 44
4.0
 73
     0
 74
     0
 77
     1
 78
     8
140
10.0
141
0.0
143
0.03937007874016
147
5.0
171
     3
172
     1
176
   256
177
   256
178
   256
179
     1
271
     1
272
     1
274
     3
278
    44
283
     0
284
     8
340
38
371
    -1
372
    -1
  0
ENDTAB
  0
TABLE
  2
BLOCK_RECORD
  5
1
330
0
100
AcDbSymbolTable
 70
     1
  0
BLOCK_RECORD
  5
23
330
1
100
AcDbSymbolTableRecord
100
AcDbBlockTableRecord
  2
*Model_Space
340
26
  0
BLOCK_RECORD
  5
1F
330
1
100
AcDbSymbolTableRecord
100
AcDbBlockTableRecord
  2
*Paper_Space
340
22
  0
BLOCK_RECORD
  5
27
330
1
100
AcDbSymbolTableRecord
100
AcDbBlockTableRecord
  2
*Paper_Space0
340
2A
  0
ENDTAB
  0
ENDSEC
  0
SECTION
  2
BLOCKS
  0
BLOCK
  5
24
330
23
100
AcDbEntity
  8
0
100
AcDbBlockBegin
  2
*Model_Space
 70
     0
 10
0.0
 20
0.0
 30
0.0
  3
*Model_Space
  1

  0
ENDBLK
  5
25
330
23
100
AcDbEntity
  8
0
100
AcDbBlockEnd
  0
BLOCK
  5
20
330
1F
100
AcDbEntity
 67
     1
  8
0
100
AcDbBlockBegin
  2
*Paper_Space
 70
     0
 10
0.0
 20
0.0
 30
0.0
  3
*Paper_Space
  1

  0
ENDBLK
  5
21
330
1F
100
AcDbEntity
 67
     1
  8
0
100
AcDbBlockEnd
  0
BLOCK
  5
28
330
27
100
AcDbEntity
 67
     1
  8
0
100
AcDbBlockBegin
  2
*Paper_Space0
 70
     0
 10
0.0
 20
0.0
 30
0.0
  3
*Paper_Space0
  1

  0
ENDBLK
  5
29
330
27
100
AcDbEntity
 67
     1
  8
0
100
AcDbBlockEnd
  0
ENDSEC
  0
SECTION
  2
ENTITIES
  0
ARC
  5
260
330
23
100
AcDbEntity
  8
SANINDUSA
100
AcDbCircle
 10
718.781859508055
 20
1454.807795931239
 30
0.0
 40
0.0600045703633634
100
AcDbArc
 50
0.0043638781718815
 51
90.0
  0
ARC
  5
261
330
23
100
AcDbEntity
  8
SANINDUSA
100
AcDbCircle
 10
718.2508213445379
 20
1454.807795931239
 30
0.0
 40
0.0600045703633642
100
AcDbArc
 50
90.0
 51
179.9956361218281
  0
LWPOLYLINE
  5
266
330
23
100
AcDbEntity
  8
SANINDUSA
100
AcDbPolyline
 90
        9
 70
   128
 43
0.0
 10
718.6621858065408
 20
1454.704368859882
 10
718.6257142998877
 20
1454.704187831595
 10
718.5892282596785
 20
1454.704050516993
 10
718.5527135953736
 20
1454.703963429472
 10
718.5161943916861
 20
1454.703933118833
 10
718.4800198234918
 20
1454.703963353077
 10
718.4438452728313
 20
1454.704049301317
 10
718.4071661278188
 20
1454.704186941198
 10
718.3704965586136
 20
1454.704368851558
  0
LINE
  5
26A
330
23
100
AcDbEntity
  8
SANINDUSA
100
AcDbLine
 10
718.735203206068
 20
1454.714006335649
 30
0.0
 11
718.2974776465248
 21
1454.714006335649
 31
0.0
  0
LINE
  5
26D
330
23
100
AcDbEntity
  8
SANINDUSA
100
AcDbLine
 10
718.2508076360579
 20
1454.367276849481
 30
0.0
 11
718.7818732165348
 21
1454.367276849481
 31
0.0
  0
LINE
  5
26E
330
23
100
AcDbEntity
  8
SANINDUSA
100
AcDbLine
 10
718.3216482762446
 20
1454.834176084073
 30
0.0
 11
718.7110325763483
 21
1454.834176084073
 31
0.0
  0
LINE
  5
270
330
23
100
AcDbEntity
  8
SANINDUSA
100
AcDbLine
 10
718.7112864832006
 20
1454.834776523902
 30
0.0
 11
718.3213943693923
 21
1454.834776523903
 31
0.0
  0
LINE
  5
272
330
23
100
AcDbEntity
  8
SANINDUSA
100
AcDbLine
 10
718.321357266211
 20
1454.43879349562
 30
0.0
 11
718.7113235651224
 21
1454.43879349562
 31
0.0
  0
ARC
  5
276
330
23
100
AcDbEntity
  8
SANINDUSA
100
AcDbCircle
 10
718.7818770000592
 20
1454.427263927666
 30
0.0
 40
0.0599870783043562
100
AcDbArc
 50
270.0
 51
0.003613777782459
  0
LWPOLYLINE
  5
27B
330
23
100
AcDbEntity
  8
SANINDUSA
100
AcDbPolyline
 90
        7
 70
   128
 43
0.0
 10
718.6657014003048
 20
1454.587797237875
 10
718.6650509055963
 20
1454.607244271595
 10
718.6639874554217
 20
1454.626685133564
 10
718.6628396926084
 20
1454.646117924799
 10
718.6619365309597
 20
1454.665540614694
 10
718.6616074156798
 20
1454.68495391921
 10
718.662178765581
 20
1454.704369077655
  0
LINE
  5
27C
330
23
100
AcDbEntity
  8
SANINDUSA
100
AcDbLine
 10
718.8418640782444
 20
1454.42726771119
 30
0.0
 11
718.8418640782444
 21
1454.807800501429
 31
0.0
  0
LWPOLYLINE
  5
27D
330
23
100
AcDbEntity
  8
SANINDUSA
100
AcDbPolyline
 90
       25
 70
   128
 43
0.0
 10
718.7154537066562
 20
1454.705306927754
 10
718.715346713468
 20
1454.701955432472
 10
718.7152550159819
 20
1454.69914942234
 10
718.7151786929363
 20
1454.696888896285
 10
718.7151133956263
 20
1454.695052924244
 10
718.7150143562944
 20
1454.692412290537
 10
718.7149060508
 20
1454.689637067432
 10
718.7147884254693
 20
1454.686727255674
 10
718.7146113655251
 20
1454.682506507971
 10
718.7144675691443
 20
1454.679193985052
 10
718.7143287283873
 20
1454.676074949311
 10
718.714140989616
 20
1454.671909801607
 10
718.7138985119798
 20
1454.666581304292
 10
718.7136654084053
 20
1454.661473913859
 10
718.713467095439
 20
1454.657082913787
 10
718.7132971994627
 20
1454.653260971701
 10
718.7131450607605
 20
1454.649752587504
 10
718.7129529216965
 20
1454.645131577282
 10
718.7127778370005
 20
1454.640678375327
 10
718.7124685170012
 20
1454.631939829338
 10
718.7122350691972
 20
1454.623929591439
 10
718.7120595116018
 20
1454.615575458794
 10
718.7119628862551
 20
1454.606687019989
 10
718.7119694952804
 20
1454.598188293918
 10
718.7120793052986
 20
1454.590079281068
  0
LINE
  5
27F
330
23
100
AcDbEntity
  8
SANINDUSA
100
AcDbLine
 10
718.7412134535975
 20
1454.470382310772
 30
0.0
 11
718.7412134535975
 21
1454.804723668136
 31
0.0
  0
LWPOLYLINE
  5
284
330
23
100
AcDbEntity
  8
SANINDUSA
100
AcDbPolyline
 90
       16
 70
   128
 43
0.0
 10
718.7001211552127
 20
1454.455191072308
 10
718.6984827761567
 20
1454.458160293858
 10
718.6963712574078
 20
1454.461832526839
 10
718.6938944539953
 20
1454.466203960838
 10
718.6911739488224
 20
1454.471228930096
 10
718.6883014552192
 20
1454.476941031223
 10
718.6853621842375
 20
1454.483397295723
 10
718.6824440082824
 20
1454.490652684154
 10
718.6796407483425
 20
1454.4987112194
 10
718.6770465383524
 20
1454.507553526521
 10
718.6758546511629
 20
1454.512271502689
 10
718.6747435600258
 20
1454.517201380695
 10
718.673722660019
 20
1454.522348686961
 10
718.6728015108147
 20
1454.527718239663
 10
718.6719887682609
 20
1454.533324284921
 10
718.6711258053867
 20
1454.540798633692
  0
LWPOLYLINE
  5
285
330
23
100
AcDbEntity
  8
SANINDUSA
100
AcDbPolyline
 90
       14
 70
   128
 43
0.0
 10
718.7141532204244
 20
1454.557295546368
 10
718.7159346235596
 20
1454.547892597946
 10
718.7179639933419
 20
1454.538619782076
 10
718.720108968306
 20
1454.529861455963
 10
718.722245914186
 20
1454.521971512409
 10
718.7244144712645
 20
1454.514684106676
 10
718.7255610348294
 20
1454.511089855753
 10
718.7266845078551
 20
1454.507740220442
 10
718.7277829948819
 20
1454.504635203961
 10
718.7288545683144
 20
1454.501774808417
 10
718.729897268732
 20
1454.499159034756
 10
718.7317253159211
 20
1454.495003939996
 10
718.7334088987251
 20
1454.4917538834
 10
718.7349438748286
 20
1454.489408776705
  0
LWPOLYLINE
  5
287
330
23
100
AcDbEntity
  8
SANINDUSA
100
AcDbPolyline
 90
       13
 70
   128
 43
0.0
 10
718.7113333574233
 20
1454.43879349562
 10
718.7113334174222
 20
1454.438793495528
 10
718.7167890733228
 20
1454.439313926082
 10
718.7220497591434
 20
1454.440851082391
 10
718.7264321290117
 20
1454.443051093568
 10
718.7303914405356
 20
1454.445944525512
 10
718.7338835780624
 20
1454.449524272744
 10
718.7367522586892
 20
1454.453621188639
 10
718.7390011701163
 20
1454.458303835637
 10
718.7404780278328
 20
1454.463284639327
 10
718.7410324097288
 20
1454.466818349294
 10
718.7412134605835
 20
1454.470390539966
 10
718.7412134604941
 20
1454.470390599903
  0
LWPOLYLINE
  5
28A
330
23
100
AcDbEntity
  8
SANINDUSA
100
AcDbPolyline
 90
       21
 70
   128
 43
0.0
 10
718.7113235723883
 20
1454.438793446099
 10
718.7109896572695
 20
1454.440235912985
 10
718.710404086887
 20
1454.441726728839
 10
718.709673535604
 20
1454.443093153206
 10
718.7084388662161
 20
1454.444961243229
 10
718.7082493592791
 20
1454.445221886715
 10
718.7080534088801
 20
1454.445486238394
 10
718.7078510150189
 20
1454.445754298266
 10
718.7076421776956
 20
1454.44602606633
 10
718.7074268969102
 20
1454.446301542587
 10
718.7072051726627
 20
1454.446580727037
 10
718.7067311678154
 20
1454.447156885942
 10
718.7059642369595
 20
1454.448066927191
 10
718.7055754453346
 20
1454.448524430748
 10
718.7051397855486
 20
1454.449035355479
 10
718.7046572576011
 20
1454.449599701386
 10
718.7041278614923
 20
1454.450217468468
 10
718.703551597222
 20
1454.450888656725
 10
718.7021644331561
 20
1454.452537714267
 10
718.7010216346122
 20
1454.453971882714
 10
718.7001232015899
 20
1454.455191162067
  0
LWPOLYLINE
  5
28C
330
23
100
AcDbEntity
  8
SANINDUSA
100
AcDbPolyline
 90
       10
 70
   128
 43
0.0
 10
718.7349438747446
 20
1454.48940877479
 10
718.7356160965894
 20
1454.488461587245
 10
718.7363027467622
 20
1454.487339350173
 10
718.7369938911289
 20
1454.486042106274
 10
718.7376788090548
 20
1454.484569894615
 10
718.7383459912155
 20
1454.482922749086
 10
718.7389831385663
 20
1454.481100696743
 10
718.7395508910642
 20
1454.479200809953
 10
718.7405892678855
 20
1454.474686266861
 10
718.7412134154172
 20
1454.47038267876
  0
LWPOLYLINE
  5
28F
330
23
100
AcDbEntity
  8
SANINDUSA
100
AcDbPolyline
 90
        6
 70
   128
 43
0.0
 10
718.7120792059363
 20
1454.590079267439
 10
718.7122188520419
 20
1454.583351108627
 10
718.7123878962863
 20
1454.576651519015
 10
718.7127299035361
 20
1454.569754439021
 10
718.7133250360219
 20
1454.563096801386
 10
718.7141532839907
 20
1454.557295626811
  0
LWPOLYLINE
  5
290
330
23
100
AcDbEntity
  8
SANINDUSA
100
AcDbPolyline
 90
       12
 70
   128
 43
0.0
 10
718.6711087883915
 20
1454.540796346972
 10
718.6701747133384
 20
1454.54820130465
 10
718.6690489964675
 20
1454.555729685002
 10
718.6678881700461
 20
1454.563424169945
 10
718.667475051498
 20
1454.566356541249
 10
718.6670862720377
 20
1454.56931539423
 10
718.6667296712352
 20
1454.572299578808
 10
718.6664130886603
 20
1454.575307944906
 10
718.666144341561
 20
1454.578338211842
 10
718.6659311595888
 20
1454.581387640915
 10
718.6657812549348
 20
1454.584454124826
 10
718.6656989451099
 20
1454.587797195733
  0
LWPOLYLINE
  5
294
330
23
100
AcDbEntity
  8
SANINDUSA
100
AcDbPolyline
 90
        4
 70
   128
 43
0.0
 10
718.7409282534339
 20
1454.804172177976
 10
718.7409192434471
 20
1454.794173746009
 10
718.7408823761217
 20
1454.75418001889
 10
718.7408486859034
 20
1454.718828765719
  0
LWPOLYLINE
  5
295
330
23
100
AcDbEntity
  8
SANINDUSA
100
AcDbPolyline
 90
       13
 70
   128
 43
0.0
 10
718.7154564324043
 20
1454.705306706018
 10
718.7154564106032
 20
1454.705306704583
 10
718.712633729757
 20
1454.705148973643
 10
718.7091286737578
 20
1454.70500135875
 10
718.7050065259626
 20
1454.704866431888
 10
718.7002950208809
 20
1454.704745385514
 10
718.6950481146618
 20
1454.704639021191
 10
718.6893646236118
 20
1454.704549156545
 10
718.6833181940296
 20
1454.704476968787
 10
718.6769490409918
 20
1454.704422437215
 10
718.6703779056673
 20
1454.704386577416
 10
718.6621788121225
 20
1454.704368846821
 10
718.6621787521835
 20
1454.704368846797
  0
LWPOLYLINE
  5
298
330
23
100
AcDbEntity
  8
SANINDUSA
100
AcDbPolyline
 90
        8
 70
   128
 43
0.0
 10
718.7401870242791
 20
1454.709009381514
 10
718.7392524369518
 20
1454.708666456065
 10
718.7365978495567
 20
1454.707983503525
 10
718.7328914845828
 20
1454.70730443222
 10
718.7294156964611
 20
1454.706797971849
 10
718.7253582244164
 20
1454.706296668824
 10
718.720693549166
 20
1454.70579817227
 10
718.7154536931234
 20
1454.705306499821
  0
LWPOLYLINE
  5
29A
330
23
100
AcDbEntity
  8
SANINDUSA
100
AcDbPolyline
 90
        9
 70
   128
 43
0.0
 10
718.735203206068
 20
1454.714006335649
 10
718.7361737903435
 20
1454.713907931992
 10
718.7371072082993
 20
1454.713621949474
 10
718.7379677168155
 20
1454.713159339146
 10
718.7387223646736
 20
1454.712537815618
 10
718.7393422543484
 20
1454.711781178724
 10
718.7398036485732
 20
1454.710918402152
 10
718.7400888793043
 20
1454.709982523973
 10
718.7401870242791
 20
1454.709009381514
  0
LWPOLYLINE
  5
29D
330
23
100
AcDbEntity
  8
SANINDUSA
100
AcDbPolyline
 90
        6
 70
   128
 43
0.0
 10
718.7408486859034
 20
1454.718828765719
 10
718.7408138006713
 20
1454.715533188358
 10
718.7407143913175
 20
1454.712628850615
 10
718.7405490596221
 20
1454.710441256439
 10
718.7403217949125
 20
1454.709214871409
 10
718.7401870242791
 20
1454.709009381514
  0
LWPOLYLINE
  5
2A2
330
23
100
AcDbEntity
  8
SANINDUSA
100
AcDbPolyline
 90
       11
 70
   128
 43
0.0
 10
718.7110325763483
 20
1454.834176084073
 10
718.7142931035297
 20
1454.833995141478
 10
718.7175146219408
 20
1454.833460777962
 10
718.7223146912429
 20
1454.831954237222
 10
718.7267964809611
 20
1454.829668641618
 10
718.73084557257
 20
1454.826642268201
 10
718.7343313589594
 20
1454.822981099376
 10
718.7371560101453
 20
1454.818764967227
 10
718.7392351967763
 20
1454.814135428667
 10
718.7404994460891
 20
1454.809224844532
 10
718.7409282534339
 20
1454.804172177976
  0
LWPOLYLINE
  5
2A3
330
23
100
AcDbEntity
  8
SANINDUSA
100
AcDbPolyline
 90
       11
 70
   128
 43
0.0
 10
718.7412134535975
 20
1454.804723668136
 10
718.7407860125171
 20
1454.809784729258
 10
718.7395220855332
 20
1454.814703994497
 10
718.737444781602
 20
1454.819337402559
 10
718.7346221264873
 20
1454.823558284566
 10
718.7311345924451
 20
1454.827227908864
 10
718.7270819501796
 20
1454.830261849372
 10
718.7225894131464
 20
1454.832555344984
 10
718.7177766054603
 20
1454.83406524253
 10
718.7145509864549
 20
1454.834598315994
 10
718.7112864832006
 20
1454.834776523902
  0
ARC
  5
2A9
330
23
100
AcDbEntity
  8
SANINDUSA
100
AcDbCircle
 10
718.2508038525336
 20
1454.427263927666
 30
0.0
 40
0.059987078304356
100
AcDbArc
 50
179.9963862222175
 51
270.0
  0
LWPOLYLINE
  5
2AF
330
23
100
AcDbEntity
  8
SANINDUSA
100
AcDbPolyline
 90
       40
 70
   128
 43
0.0
 10
718.5163404262964
 20
1454.621307251135
 10
718.5151805915978
 20
1454.621326337966
 10
718.5092927304968
 20
1454.622022449194
 10
718.5036024993453
 20
1454.623687290981
 10
718.4982736777647
 20
1454.626284554909
 10
718.4934471300469
 20
1454.629726237808
 10
718.4892335732233
 20
1454.63395889671
 10
718.4857769152111
 20
1454.638829364033
 10
718.4831601223187
 20
1454.644265324471
 10
718.4814823614653
 20
1454.650060512814
 10
718.4808029760534
 20
1454.65609597914
 10
718.4811432035622
 20
1454.662160100073
 10
718.4825081876007
 20
1454.668072038701
 10
718.4848472437082
 20
1454.673670486689
 10
718.4880816149444
 20
1454.678751061337
 10
718.4921218801101
 20
1454.683217570971
 10
718.4968273704364
 20
1454.686907518675
 10
718.5020821196181
 20
1454.689761689121
 10
718.5065161557738
 20
1454.691360209604
 10
718.5111222011824
 20
1454.692360640982
 10
718.5161044333185
 20
1454.692743023543
 10
718.5210913032927
 20
1454.692426795408
 10
718.5269447595801
 20
1454.691123917826
 10
718.5324984159991
 20
1454.688862072228
 10
718.5375825396312
 20
1454.68569635583
 10
718.542066829558
 20
1454.681726460729
 10
718.5458048801219
 20
1454.677069499959
 10
718.548717286786
 20
1454.671856218372
 10
718.5507137839651
 20
1454.666220770188
 10
718.5517501518738
 20
1454.660332609955
 10
718.551783518189
 20
1454.654312694283
 10
718.5508182341485
 20
1454.648370674404
 10
718.5488502530333
 20
1454.642633219977
 10
718.5459518476441
 20
1454.637305108699
 10
718.5421844356182
 20
1454.632538602192
 10
718.5376692584354
 20
1454.628473393779
 10
718.532558599928
 20
1454.625258602702
 10
718.5269794915106
 20
1454.622950191288
 10
718.5217226470142
 20
1454.621723007075
 10
718.5163404262964
 20
1454.621307251135
  0
LWPOLYLINE
  5
2B0
330
23
100
AcDbEntity
  8
SANINDUSA
100
AcDbPolyline
 90
        7
 70
   128
 43
0.0
 10
718.3705020901754
 20
1454.704369023053
 10
718.3710734370495
 20
1454.684953873746
 10
718.3707443203473
 20
1454.665540578311
 10
718.3698411584353
 20
1454.646117897496
 10
718.3686933960533
 20
1454.626685115354
 10
718.3676299465404
 20
1454.607244262486
 10
718.3669794522618
 20
1454.587797237875
  0
LWPOLYLINE
  5
2B1
330
23
100
AcDbEntity
  8
SANINDUSA
100
AcDbPolyline
 90
       23
 70
   128
 43
0.0
 10
718.3206015473058
 20
1454.590079281066
 10
718.3207085882384
 20
1454.597810570611
 10
718.3207216159904
 20
1454.605897487045
 10
718.3206405706183
 20
1454.614340029494
 10
718.3204800221851
 20
1454.622550927361
 10
718.3202721530716
 20
1454.630053678529
 10
718.3199948969968
 20
1454.638221242779
 10
718.3196492267565
 20
1454.64705363405
 10
718.3193176620038
 20
1454.65475440737
 10
718.3191603583543
 20
1454.658271115393
 10
718.3189813218615
 20
1454.662224321249
 10
718.3187732040051
 20
1454.666781273437
 10
718.31855977705
 20
1454.671470338191
 10
718.318385742492
 20
1454.675325731801
 10
718.3182507434024
 20
1454.678347449253
 10
718.3181480396378
 20
1454.680684134344
 10
718.3179825566106
 20
1454.684557485662
 10
718.3178243821584
 20
1454.688398723825
 10
718.3176816229777
 20
1454.692018365519
 10
718.3175553543271
 20
1454.695383766346
 10
718.3174714099071
 20
1454.697788686108
 10
718.3173619551791
 20
1454.701096405862
 10
718.317227145572
 20
1454.705306927724
  0
LINE
  5
2B2
330
23
100
AcDbEntity
  8
SANINDUSA
100
AcDbLine
 10
718.2914673989954
 20
1454.804723668136
 30
0.0
 11
718.2914673989954
 21
1454.470392843935
 31
0.0
  0
LWPOLYLINE
  5
2B4
330
23
100
AcDbEntity
  8
SANINDUSA
100
AcDbPolyline
 90
       16
 70
   128
 43
0.0
 10
718.3615550471876
 20
1454.540798633692
 10
718.3606920843135
 20
1454.533324284924
 10
718.3598793417595
 20
1454.527718239665
 10
718.3589581925552
 20
1454.522348686963
 10
718.3579372925485
 20
1454.517201380697
 10
718.3568262014119
 20
1454.51227150269
 10
718.3556343142226
 20
1454.507553526521
 10
718.3530401042336
 20
1454.4987112194
 10
718.3502368442955
 20
1454.490652684155
 10
718.3473186683419
 20
1454.483397295722
 10
718.3443793973616
 20
1454.476941031221
 10
718.3415069037603
 20
1454.471228930095
 10
718.3387863985895
 20
1454.466203960838
 10
718.3363095951786
 20
1454.461832526839
 10
718.3341980764306
 20
1454.458160293858
 10
718.332559697375
 20
1454.455191072308
  0
LWPOLYLINE
  5
2B5
330
23
100
AcDbEntity
  8
SANINDUSA
100
AcDbPolyline
 90
       14
 70
   128
 43
0.0
 10
718.2977369777644
 20
1454.489408776699
 10
718.2988740017507
 20
1454.491082633887
 10
718.3000952634452
 20
1454.493265604102
 10
718.3013990348609
 20
1454.495957725541
 10
718.3027835838613
 20
1454.499159034748
 10
718.3040912899194
 20
1454.502466196339
 10
718.3054434969634
 20
1454.50615609762
 10
718.3068364275826
 20
1454.510228736134
 10
718.3082663813303
 20
1454.514684106664
 10
718.3104346058503
 20
1454.521970297261
 10
718.3125716508904
 20
1454.529860645721
 10
718.3147167788351
 20
1454.538619284767
 10
718.31674610347
 20
1454.547891851925
 10
718.3185276321753
 20
1454.557295546359
  0
LWPOLYLINE
  5
2B7
330
23
100
AcDbEntity
  8
SANINDUSA
100
AcDbPolyline
 90
       12
 70
   128
 43
0.0
 10
718.2914673920988
 20
1454.470390599903
 10
718.2914673920095
 20
1454.470390539966
 10
718.2919080637881
 20
1454.464877110182
 10
718.2932402483356
 20
1454.459509450409
 10
718.2954949022988
 20
1454.454393581372
 10
718.2986079944473
 20
1454.449750877327
 10
718.3022975820024
 20
1454.445942451008
 10
718.3065959731246
 20
1454.442838563136
 10
718.311159777297
 20
1454.440649566187
 10
718.3160328209021
 20
1454.439281941396
 10
718.3213474351707
 20
1454.438793495528
 10
718.3213474951696
 20
1454.43879349562
  0
LWPOLYLINE
  5
2BA
330
23
100
AcDbEntity
  8
SANINDUSA
100
AcDbPolyline
 90
       18
 70
   128
 43
0.0
 10
718.3325576509978
 20
1454.455191162067
 10
718.3319462265533
 20
1454.454349340273
 10
718.3312120404764
 20
1454.453399546244
 10
718.330355092767
 20
1454.452341779979
 10
718.3293753834252
 20
1454.451176041479
 10
718.3281198327967
 20
1454.449712085366
 10
718.3274784990201
 20
1454.448962046807
 10
718.3269195512003
 20
1454.448305917209
 10
718.326442989337
 20
1454.447743696573
 10
718.3260488134306
 20
1454.4472753849
 10
718.3257370234809
 20
1454.446900982189
 10
718.3255076194878
 20
1454.44662048844
 10
718.3250567529837
 20
1454.446049396267
 10
718.3239295601329
 20
1454.444519377558
 10
718.323019950737
 20
1454.443114299556
 10
718.3222841366369
 20
1454.44174248384
 10
718.3216935529054
 20
1454.440243641209
 10
718.3213572589652
 20
1454.438793446223
  0
LWPOLYLINE
  5
2BC
330
23
100
AcDbEntity
  8
SANINDUSA
100
AcDbPolyline
 90
        7
 70
   128
 43
0.0
 10
718.291467388051
 20
1454.470392737395
 10
718.291920731673
 20
1454.473710728304
 10
718.2926027486599
 20
1454.477102705586
 10
718.2935569363242
 20
1454.480679278133
 10
718.2948330171552
 20
1454.484225161174
 10
718.296248051365
 20
1454.487135036931
 10
718.2977369778483
 20
1454.489408774784
  0
LWPOLYLINE
  5
2BD
330
23
100
AcDbEntity
  8
SANINDUSA
100
AcDbPolyline
 90
       11
 70
   128
 43
0.0
 10
718.3669819074567
 20
1454.587797195733
 10
718.3668823494854
 20
1454.58401511666
 10
718.3666949032107
 20
1454.580514527266
 10
718.3664276881152
 20
1454.577037072508
 10
718.3660922168883
 20
1454.573585984623
 10
718.3657000928495
 20
1454.570165483834
 10
718.3652630139899
 20
1454.56677764003
 10
718.3647926825245
 20
1454.563424169946
 10
718.3636318561046
 20
1454.555729685003
 10
718.3625061392356
 20
1454.54820130465
 10
718.3615720641828
 20
1454.540796346972
  0
LWPOLYLINE
  5
2BF
330
23
100
AcDbEntity
  8
SANINDUSA
100
AcDbPolyline
 90
        7
 70
   128
 43
0.0
 10
718.3185275686089
 20
1454.557295626801
 10
718.3192336384493
 20
1454.562069996629
 10
718.3197789076228
 20
1454.567439608851
 10
718.3201586765811
 20
1454.573404397332
 10
718.320351272344
 20
1454.578605715435
 10
718.320490365914
 20
1454.584467148007
 10
718.3206016466682
 20
1454.590079267437
  0
CIRCLE
  5
2C7
330
23
100
AcDbEntity
  8
SANINDUSA
100
AcDbCircle
 10
718.5163404262964
 20
1454.657800501428
 30
0.0
 40
0.0229999999999998
  0
LWPOLYLINE
  5
2DE
330
23
100
AcDbEntity
  8
SANINDUSA
100
AcDbPolyline
 90
       45
 70
   128
 43
0.0
 10
718.5163404262964
 20
1454.759309800988
 10
718.5188309359663
 20
1454.759487898626
 10
718.5212707460411
 20
1454.760018565985
 10
718.5236101890239
 20
1454.760891000208
 10
718.5258016406018
 20
1454.762087441051
 10
718.5278004891405
 20
1454.763583532428
 10
718.5295660438477
 20
1454.765348818232
 10
718.531062363121
 20
1454.767347362337
 10
718.5322589862152
 20
1454.769538480146
 10
718.5331315533347
 20
1454.77187756682
 10
718.5336623015293
 20
1454.7743170053
 10
718.5338404262965
 20
1454.776807135653
 10
718.5336623015293
 20
1454.779297266006
 10
718.5331315533347
 20
1454.781736704486
 10
718.5322589862152
 20
1454.784075791161
 10
718.531062363121
 20
1454.78626690897
 10
718.5295660438477
 20
1454.788265453074
 10
718.5278004891405
 20
1454.790030738879
 10
718.5258016406018
 20
1454.791526830256
 10
718.5236101890239
 20
1454.792723271098
 10
718.5212707460411
 20
1454.793595705321
 10
718.5188309359663
 20
1454.794126372681
 10
718.5163404262964
 20
1454.794304470319
 10
718.5138499166266
 20
1454.794126372681
 10
718.5114101065518
 20
1454.793595705321
 10
718.509070663569
 20
1454.792723271098
 10
718.5068792119909
 20
1454.791526830256
 10
718.5048803634524
 20
1454.790030738879
 10
718.5031148087452
 20
1454.788265453074
 10
718.501618489472
 20
1454.78626690897
 10
718.5004218663777
 20
1454.784075791161
 10
718.4995492992582
 20
1454.781736704486
 10
718.4990185510636
 20
1454.779297266006
 10
718.4988404262965
 20
1454.776807135653
 10
718.4990185510636
 20
1454.7743170053
 10
718.4995492992582
 20
1454.77187756682
 10
718.5004218663777
 20
1454.769538480146
 10
718.501618489472
 20
1454.767347362337
 10
718.5031148087452
 20
1454.765348818232
 10
718.5048803634524
 20
1454.763583532428
 10
718.5068792119909
 20
1454.762087441051
 10
718.509070663569
 20
1454.760891000208
 10
718.5114101065518
 20
1454.760018565985
 10
718.5138499166266
 20
1454.759487898626
 10
718.5163404262964
 20
1454.759309800988
  0
LWPOLYLINE
  5
2E1
330
23
100
AcDbEntity
  8
SANINDUSA
100
AcDbPolyline
 90
        4
 70
   128
 43
0.0
 10
718.2918321666894
 20
1454.718828765719
 10
718.2918225331129
 20
1454.728827197105
 10
718.2917848264619
 20
1454.768820923442
 10
718.291752599159
 20
1454.804172177976
  0
LWPOLYLINE
  5
2E2
330
23
100
AcDbEntity
  8
SANINDUSA
100
AcDbPolyline
 90
       13
 70
   128
 43
0.0
 10
718.3705021004043
 20
1454.704368846797
 10
718.3705020404653
 20
1454.704368846821
 10
718.3638196482453
 20
1454.704381205175
 10
718.3572344183052
 20
1454.70441249648
 10
718.3508700033184
 20
1454.70446205596
 10
718.3447929642452
 20
1454.704529595308
 10
718.3390526680605
 20
1454.704614362188
 10
718.3337553787571
 20
1454.704714916697
 10
718.3289376215057
 20
1454.704831217387
 10
718.3246599887091
 20
1454.704961803638
 10
718.3210012688522
 20
1454.70510446864
 10
718.3172244419903
 20
1454.705306704583
 10
718.3172244201893
 20
1454.705306706018
  0
LWPOLYLINE
  5
2E7
330
23
100
AcDbEntity
  8
SANINDUSA
100
AcDbPolyline
 90
        8
 70
   128
 43
0.0
 10
718.3172271591026
 20
1454.705306499854
 10
718.3137169183948
 20
1454.705629019912
 10
718.3074396712194
 20
1454.706283272248
 10
718.3021577204822
 20
1454.706949861101
 10
718.2988583825029
 20
1454.70745771937
 10
718.2961476948831
 20
1454.707969692162
 10
718.2940187862283
 20
1454.708488278106
 10
718.2924938283137
 20
1454.709009381514
  0
LWPOLYLINE
  5
2E8
330
23
100
AcDbEntity
  8
SANINDUSA
100
AcDbPolyline
 90
        9
 70
   128
 43
0.0
 10
718.2924938283137
 20
1454.709009381514
 10
718.2925919732886
 20
1454.709982523973
 10
718.2928772040197
 20
1454.710918402152
 10
718.2933385982445
 20
1454.711781178724
 10
718.2939584879193
 20
1454.712537815618
 10
718.2947131357774
 20
1454.713159339146
 10
718.2955736442936
 20
1454.713621949474
 10
718.2965070622494
 20
1454.713907931992
 10
718.2974776465248
 20
1454.714006335649
  0
LWPOLYLINE
  5
2EB
330
23
100
AcDbEntity
  8
SANINDUSA
100
AcDbPolyline
 90
        6
 70
   128
 43
0.0
 10
718.2924938283137
 20
1454.709009381514
 10
718.292239580532
 20
1454.709689690689
 10
718.29204115389
 20
1454.71142505542
 10
718.2919083702702
 20
1454.71401553402
 10
718.2918415712909
 20
1454.71716472149
 10
718.2918321666894
 20
1454.718828765719
  0
LWPOLYLINE
  5
2ED
330
23
100
AcDbEntity
  8
SANINDUSA
100
AcDbPolyline
 90
       11
 70
   128
 43
0.0
 10
718.291752599159
 20
1454.804172177976
 10
718.2919438316853
 20
1454.807560732444
 10
718.2925134877857
 20
1454.810906504861
 10
718.2940462707184
 20
1454.815699758006
 10
718.2963523446479
 20
1454.820172510491
 10
718.2993711511191
 20
1454.824184391362
 10
718.3030140508354
 20
1454.827639346976
 10
718.3071916705734
 20
1454.830433172484
 10
718.311776143538
 20
1454.832492359734
 10
718.3166416729157
 20
1454.833747668061
 10
718.3216482762446
 20
1454.834176084073
  0
LWPOLYLINE
  5
2EE
330
23
100
AcDbEntity
  8
SANINDUSA
100
AcDbPolyline
 90
       11
 70
   128
 43
0.0
 10
718.3213943693923
 20
1454.834776523903
 10
718.3163774968688
 20
1454.834350976021
 10
718.3115020489848
 20
1454.833093977032
 10
718.3069097194825
 20
1454.83102946793
 10
718.3027262047049
 20
1454.828227668811
 10
718.2990746331751
 20
1454.824757362823
 10
718.2960513317392
 20
1454.82072784516
 10
718.2937440084603
 20
1454.816233577725
 10
718.2922151271684
 20
1454.811418485535
 10
718.2916546903404
 20
1454.808091910139
 10
718.2914673989954
 20
1454.804723668136
  0
LINE
  5
2F6
330
23
100
AcDbEntity
  8
SANINDUSA
100
AcDbLine
 10
718.1908167743486
 20
1454.807800501429
 30
0.0
 11
718.1908167743486
 21
1454.42726771119
 31
0.0
  0
LINE
  5
2FD
330
23
100
AcDbEntity
  8
SANINDUSA
100
AcDbLine
 10
718.2512622906545
 20
1454.867800501429
 30
0.0
 11
718.7814185619385
 21
1454.867800501429
 31
0.0
  0
ARC
  5
30E
330
23
100
AcDbEntity
  8
SANINDUSA
100
AcDbCircle
 10
719.7287657475986
 20
1454.713658849704
 30
0.0
 40
0.0050000000000002
100
AcDbArc
 50
90.0
 51
179.0000000031918
  0
ARC
  5
30F
330
23
100
AcDbEntity
  8
SANINDUSA
100
AcDbCircle
 10
720.5343404639461
 20
1454.713658849704
 30
0.0
 40
0.0050000000000002
100
AcDbArc
 50
90.0
 51
180.0
  0
ARC
  5
310
330
23
100
AcDbEntity
  8
SANINDUSA
100
AcDbCircle
 10
719.9025761457777
 20
1454.603013535747
 30
0.0
 40
0.0670169495213051
100
AcDbArc
 50
239.7303966408383
 51
269.2723391798555
  0
LINE
  5
311
330
23
100
AcDbEntity
  8
SANINDUSA
100
AcDbLine
 10
719.9017250482255
 20
1454.536001990801
 30
0.0
 11
719.9136490471894
 21
1454.535910844742
 31
0.0
  0
LINE
  5
312
330
23
100
AcDbEntity
  8
SANINDUSA
100
AcDbLine
 10
719.9136490471894
 20
1454.535910844742
 30
0.0
 11
719.9290741113691
 21
1454.53579347717
 31
0.0
  0
LINE
  5
313
330
23
100
AcDbEntity
  8
SANINDUSA
100
AcDbLine
 10
719.9290741113691
 20
1454.53579347717
 30
0.0
 11
719.9436994149846
 21
1454.53567398325
 31
0.0
  0
LINE
  5
314
330
23
100
AcDbEntity
  8
SANINDUSA
100
AcDbLine
 10
719.9436994149846
 20
1454.53567398325
 30
0.0
 11
719.9575528978658
 21
1454.535546461207
 31
0.0
  0
LINE
  5
315
330
23
100
AcDbEntity
  8
SANINDUSA
100
AcDbLine
 10
719.9575528978658
 20
1454.535546461207
 30
0.0
 11
719.9707495021229
 21
1454.535407449202
 31
0.0
  0
LINE
  5
316
330
23
100
AcDbEntity
  8
SANINDUSA
100
AcDbLine
 10
719.9707495021229
 20
1454.535407449202
 30
0.0
 11
719.9831836233544
 21
1454.535259580755
 31
0.0
  0
LINE
  5
317
330
23
100
AcDbEntity
  8
SANINDUSA
100
AcDbLine
 10
719.9831836233544
 20
1454.535259580755
 30
0.0
 11
719.9952093601341
 21
1454.535103915447
 31
0.0
  0
LINE
  5
318
330
23
100
AcDbEntity
  8
SANINDUSA
100
AcDbLine
 10
719.9952093601341
 20
1454.535103915447
 30
0.0
 11
720.000709571565
 21
1454.535030841313
 31
0.0
  0
ARC
  5
319
330
23
100
AcDbEntity
  8
SANINDUSA
100
AcDbCircle
 10
720.0005767263353
 20
1454.525031723744
 30
0.0
 40
0.01
100
AcDbArc
 50
4.999999995723404
 51
89.2388305102817
  0
LINE
  5
31A
330
23
100
AcDbEntity
  8
SANINDUSA
100
AcDbLine
 10
720.0105386733163
 20
1454.525903281172
 30
0.0
 11
720.0128522612831
 21
1454.499458849704
 31
0.0
  0
LINE
  5
31B
330
23
100
AcDbEntity
  8
SANINDUSA
100
AcDbLine
 10
720.084852261283
 20
1454.499458849704
 30
0.0
 11
720.0871658493351
 21
1454.525903282146
 31
0.0
  0
LINE
  5
31C
330
23
100
AcDbEntity
  8
SANINDUSA
100
AcDbLine
 10
720.096995535987
 20
1454.53503085004
 30
0.0
 11
720.0988960859208
 21
1454.535055988975
 31
0.0
  0
ARC
  5
31D
330
23
100
AcDbEntity
  8
SANINDUSA
100
AcDbCircle
 10
720.0971277963161
 20
1454.525031724718
 30
0.0
 40
0.01
100
AcDbArc
 50
90.75781796176386
 51
175.0000000042766
  0
LINE
  5
31E
330
23
100
AcDbEntity
  8
SANINDUSA
100
AcDbLine
 10
720.0988960859208
 20
1454.535055988975
 30
0.0
 11
720.1090114669654
 21
1454.535189445536
 31
0.0
  0
LINE
  5
31F
330
23
100
AcDbEntity
  8
SANINDUSA
100
AcDbLine
 10
720.1090114669654
 20
1454.535189445536
 30
0.0
 11
720.1193640103463
 21
1454.535319037518
 31
0.0
  0
LINE
  5
320
330
23
100
AcDbEntity
  8
SANINDUSA
100
AcDbLine
 10
720.1193640103463
 20
1454.535319037518
 30
0.0
 11
720.1300436759221
 21
1454.535441656006
 31
0.0
  0
LINE
  5
321
330
23
100
AcDbEntity
  8
SANINDUSA
100
AcDbLine
 10
720.1300436759221
 20
1454.535441656006
 30
0.0
 11
720.1411180005818
 21
1454.535555927899
 31
0.0
  0
LINE
  5
322
330
23
100
AcDbEntity
  8
SANINDUSA
100
AcDbLine
 10
720.1411180005818
 20
1454.535555927899
 30
0.0
 11
720.154768034561
 21
1454.535680543353
 31
0.0
  0
LINE
  5
323
330
23
100
AcDbEntity
  8
SANINDUSA
100
AcDbLine
 10
720.154768034561
 20
1454.535680543353
 30
0.0
 11
720.1691681379964
 21
1454.535797666642
 31
0.0
  0
LINE
  5
324
330
23
100
AcDbEntity
  8
SANINDUSA
100
AcDbLine
 10
720.1691681379964
 20
1454.535797666642
 30
0.0
 11
720.1843372960406
 21
1454.535912963999
 31
0.0
  0
LINE
  5
325
330
23
100
AcDbEntity
  8
SANINDUSA
100
AcDbLine
 10
720.1843372960406
 20
1454.535912963999
 30
0.0
 11
720.1959939253704
 21
1454.53600209215
 31
0.0
  0
ARC
  5
326
330
23
100
AcDbEntity
  8
SANINDUSA
100
AcDbCircle
 10
720.1952906117226
 20
1454.602781224384
 30
0.0
 40
0.0667828357594961
100
AcDbArc
 50
270.6034132622593
 51
303.3671139843585
  0
LINE
  5
327
330
23
100
AcDbEntity
  8
SANINDUSA
100
AcDbLine
 10
720.3742013625817
 20
1454.698658849704
 30
0.0
 11
720.3142105008724
 21
1454.698658849704
 31
0.0
  0
LINE
  5
32A
330
23
100
AcDbEntity
  8
SANINDUSA
100
AcDbLine
 10
720.3739380134432
 20
1454.713746111736
 30
0.0
 11
720.3742013625817
 21
1454.698658849704
 31
0.0
  0
LINE
  5
32B
330
23
100
AcDbEntity
  8
SANINDUSA
100
AcDbLine
 10
719.783494021694
 20
1454.698658849704
 30
0.0
 11
720.3142105008724
 21
1454.698658849704
 31
0.0
  0
LINE
  5
32E
330
23
100
AcDbEntity
  8
SANINDUSA
100
AcDbLine
 10
719.7235031599846
 20
1454.698658849704
 30
0.0
 11
719.7237665091229
 21
1454.713746111736
 31
0.0
  0
LINE
  5
330
330
23
100
AcDbEntity
  8
SANINDUSA
100
AcDbLine
 10
719.783494021694
 20
1454.698658849704
 30
0.0
 11
719.7235031599846
 21
1454.698658849704
 31
0.0
  0
LINE
  5
332
330
23
100
AcDbEntity
  8
SANINDUSA
100
AcDbLine
 10
719.7837573708323
 20
1454.718658849704
 30
0.0
 11
720.3139471517339
 21
1454.718658849704
 31
0.0
  0
LINE
  5
334
330
23
100
AcDbEntity
  8
SANINDUSA
100
AcDbLine
 10
719.7287657475986
 20
1454.718658849704
 30
0.0
 11
719.7837573708323
 21
1454.718658849704
 31
0.0
  0
LINE
  5
335
330
23
100
AcDbEntity
  8
SANINDUSA
100
AcDbLine
 10
720.3139471517339
 20
1454.718658849704
 30
0.0
 11
720.3689387749675
 21
1454.718658849704
 31
0.0
  0
ARC
  5
336
330
23
100
AcDbEntity
  8
SANINDUSA
100
AcDbCircle
 10
720.3689387749675
 20
1454.713658849704
 30
0.0
 40
0.0050000000000004
100
AcDbArc
 50
0.9999999968081942
 51
90.0
  0
ARC
  5
338
330
23
100
AcDbEntity
  8
SANINDUSA
100
AcDbCircle
 10
719.7375732346118
 20
1454.697658849704
 30
0.0
 40
0.0060000000000002
100
AcDbArc
 50
5.710593133610774
 51
9.594068228950291
  0
ARC
  5
33B
330
23
100
AcDbEntity
  8
SANINDUSA
100
AcDbCircle
 10
720.3601312879543
 20
1454.697658849704
 30
0.0
 40
0.0060000000000005
100
AcDbArc
 50
170.4059317710497
 51
174.2894068663892
  0
LINE
  5
33F
330
23
100
AcDbEntity
  8
SANINDUSA
100
AcDbLine
 10
719.7480529118441
 20
1454.653161331109
 30
0.0
 11
719.7435434577531
 21
1454.698255872018
 31
0.0
  0
LINE
  5
340
330
23
100
AcDbEntity
  8
SANINDUSA
100
AcDbLine
 10
720.3541610648131
 20
1454.698255872018
 30
0.0
 11
720.3496516107222
 21
1454.653161331109
 31
0.0
  0
LINE
  5
344
330
23
100
AcDbEntity
  8
SANINDUSA
100
AcDbLine
 10
720.3446764247711
 20
1454.648658849704
 30
0.0
 11
720.3142105008724
 21
1454.648658849704
 31
0.0
  0
ARC
  5
346
330
23
100
AcDbEntity
  8
SANINDUSA
100
AcDbCircle
 10
720.3446764247711
 20
1454.653658849704
 30
0.0
 40
0.005
100
AcDbArc
 50
270.0
 51
354.2894068663892
  0
LINE
  5
347
330
23
100
AcDbEntity
  8
SANINDUSA
100
AcDbLine
 10
719.783494021694
 20
1454.648658849704
 30
0.0
 11
719.753028097795
 21
1454.648658849704
 31
0.0
  0
ARC
  5
348
330
23
100
AcDbEntity
  8
SANINDUSA
100
AcDbCircle
 10
719.753028097795
 20
1454.653658849704
 30
0.0
 40
0.005
100
AcDbArc
 50
185.7105931336107
 51
270.0
  0
LINE
  5
34A
330
23
100
AcDbEntity
  8
SANINDUSA
100
AcDbLine
 10
720.3142105008724
 20
1454.648658849704
 30
0.0
 11
719.783494021694
 21
1454.648658849704
 31
0.0
  0
ARC
  5
351
330
23
100
AcDbEntity
  8
SANINDUSA
100
AcDbCircle
 10
720.2033718755655
 20
1454.72621072286
 30
0.0
 40
0.3915956542060198
100
AcDbArc
 50
192.0141544366447
 51
201.8466069126797
  0
ARC
  5
35A
330
23
100
AcDbEntity
  8
SANINDUSA
100
AcDbCircle
 10
719.8943323271006
 20
1454.726210820238
 30
0.0
 40
0.3915959873688208
100
AcDbArc
 50
338.153397412777
 51
347.9858389826215
  0
ARC
  5
35B
330
23
100
AcDbEntity
  8
SANINDUSA
100
AcDbCircle
 10
719.8154629930012
 20
1454.643658849704
 30
0.0
 40
0.0050000000000369
100
AcDbArc
 50
12.01391643494059
 51
90.0
  0
ARC
  5
35C
330
23
100
AcDbEntity
  8
SANINDUSA
100
AcDbCircle
 10
720.2822415295648
 20
1454.643658849704
 30
0.0
 40
0.0049999999998715
100
AcDbArc
 50
90.00001773049822
 51
167.9859911967529
  0
ARC
  5
35F
330
23
100
AcDbEntity
  8
SANINDUSA
100
AcDbCircle
 10
720.1981408436658
 20
1454.599766124006
 30
0.0
 40
0.0627012598345153
100
AcDbArc
 50
302.7072511836625
 51
342.0945534009954
  0
ARC
  5
361
330
23
100
AcDbEntity
  8
SANINDUSA
100
AcDbCircle
 10
719.8995638405404
 20
1454.599766359302
 30
0.0
 40
0.0627014953096893
100
AcDbArc
 50
197.9054354692106
 51
240.61206565224
  0
LWPOLYLINE
  5
366
330
23
100
AcDbEntity
  8
SANINDUSA
100
AcDbPolyline
 90
       20
 70
   128
 43
0.0
 10
720.0006726124773
 20
1454.53503133234
 10
720.0031480966178
 20
1454.535497258862
 10
720.0051929960942
 20
1454.535653127648
 10
720.0084063229006
 20
1454.535819126934
 10
720.0128784717924
 20
1454.535996509809
 10
720.0182400399678
 20
1454.53616457146
 10
720.0246356982805
 20
1454.536320078774
 10
720.0315369971707
 20
1454.536442580817
 10
720.0391322072521
 20
1454.5365285518
 10
720.0439384193937
 20
1454.536557769641
 10
720.0488522612832
 20
1454.536567795546
 10
720.0565395024101
 20
1454.536543260246
 10
720.0642267435372
 20
1454.53646927576
 10
720.0712636691182
 20
1454.536356412517
 10
720.0778612922075
 20
1454.536207714848
 10
720.0834589028267
 20
1454.536043218385
 10
720.0882244491341
 20
1454.535865867921
 10
720.0917513488284
 20
1454.535697277454
 10
720.0941433687906
 20
1454.535536745696
 10
720.0969079459618
 20
1454.53502969147
  0
LINE
  5
368
330
23
100
AcDbEntity
  8
SANINDUSA
100
AcDbLine
 10
720.0128522612831
 20
1454.499458849704
 30
0.0
 11
720.084852261283
 21
1454.499458849704
 31
0.0
  0
ARC
  5
3CC
330
23
100
AcDbEntity
  8
SANINDUSA
100
AcDbCircle
 10
720.956730836219
 20
1454.643658849704
 30
0.0
 40
0.0050000000000001
100
AcDbArc
 50
89.99999877541013
 51
162.8361949887707
  0
LINE
  5
3CD
330
23
100
AcDbEntity
  8
SANINDUSA
100
AcDbLine
 10
720.7873815392759
 20
1454.536640150996
 30
0.0
 11
720.8098326223814
 21
1454.537484451806
 31
0.0
  0
ARC
  5
3CE
330
23
100
AcDbEntity
  8
SANINDUSA
100
AcDbCircle
 10
720.7877573360341
 20
1454.526647214651
 30
0.0
 40
0.01
100
AcDbArc
 50
92.15366393336854
 51
175.0000000042766
  0
LINE
  5
3CF
330
23
100
AcDbEntity
  8
SANINDUSA
100
AcDbLine
 10
720.7753404639461
 20
1454.499458849704
 30
0.0
 11
720.7777953890532
 21
1454.527518772078
 31
0.0
  0
LINE
  5
3D1
330
23
100
AcDbEntity
  8
SANINDUSA
100
AcDbLine
 10
720.7051737878773
 20
1454.546792129301
 30
0.0
 11
720.7156913005631
 21
1454.537649395009
 31
0.0
  0
ARC
  5
3D2
330
23
100
AcDbEntity
  8
SANINDUSA
100
AcDbCircle
 10
720.6657341315875
 20
1458.134196636127
 30
0.0
 40
3.587621298588325
100
AcDbArc
 50
270.6298801304111
 51
271.748143810064
  0
LINE
  5
3D3
330
23
100
AcDbEntity
  8
SANINDUSA
100
AcDbLine
 10
720.7629896273291
 20
1454.537649395009
 30
0.0
 11
720.7751785795009
 21
1454.548245089479
 31
0.0
  0
ARC
  5
3D6
330
23
100
AcDbEntity
  8
SANINDUSA
100
AcDbCircle
 10
720.8031827818642
 20
1454.699354035188
 30
0.0
 40
0.1620061184137997
100
AcDbArc
 50
272.352472057651
 51
290.7549272095892
  0
ARC
  5
3D8
330
23
100
AcDbEntity
  8
SANINDUSA
100
AcDbCircle
 10
720.8067132861938
 20
1454.690002395366
 30
0.0
 40
0.152010246266177
100
AcDbArc
 50
290.7596624164366
 51
342.8324979907736
  0
LINE
  5
3D9
330
23
100
AcDbEntity
  8
SANINDUSA
100
AcDbLine
 10
720.9683497883617
 20
1454.705917668738
 30
0.0
 11
720.9560241260927
 21
1454.659917668737
 31
0.0
  0
ARC
  5
3DA
330
23
100
AcDbEntity
  8
SANINDUSA
100
AcDbCircle
 10
720.956990051922
 20
1454.659658849704
 30
0.0
 40
0.001
100
AcDbArc
 50
165.0000006777357
 51
270.0
  0
LINE
  5
3DB
330
23
100
AcDbEntity
  8
SANINDUSA
100
AcDbLine
 10
720.956990051922
 20
1454.658658849704
 30
0.0
 11
720.9947347020614
 21
1454.658658849704
 31
0.0
  0
ARC
  5
3DC
330
23
100
AcDbEntity
  8
SANINDUSA
100
AcDbCircle
 10
720.9947347020614
 20
1454.659658849704
 30
0.0
 40
0.001
100
AcDbArc
 50
270.0
 51
354.2894068663892
  0
LINE
  5
3DD
330
23
100
AcDbEntity
  8
SANINDUSA
100
AcDbLine
 10
720.9957297392516
 20
1454.659559345985
 30
0.0
 11
720.9996988955739
 21
1454.699250909208
 31
0.0
  0
LINE
  5
3DE
330
23
100
AcDbEntity
  8
SANINDUSA
100
AcDbLine
 10
720.963177098886
 20
1454.718658849704
 30
0.0
 11
721.0244269776305
 21
1454.718658849704
 31
0.0
  0
LINE
  5
3DF
330
23
100
AcDbEntity
  8
SANINDUSA
100
AcDbLine
 10
720.9693157141912
 20
1454.706658849704
 30
0.0
 11
721.0006194906173
 21
1454.706658849704
 31
0.0
  0
ARC
  5
3E0
330
23
100
AcDbEntity
  8
SANINDUSA
100
AcDbCircle
 10
720.9693157141912
 20
1454.705658849704
 30
0.0
 40
0.001
100
AcDbArc
 50
90.0
 51
165.0000006777357
  0
ARC
  5
3E1
330
23
100
AcDbEntity
  8
SANINDUSA
100
AcDbCircle
 10
721.0244269776305
 20
1454.713658849704
 30
0.0
 40
0.0050000000000001
100
AcDbArc
 50
0.9999999968081942
 51
90.0
  0
LINE
  5
3E2
330
23
100
AcDbEntity
  8
SANINDUSA
100
AcDbLine
 10
721.0296895652446
 20
1454.698658849704
 30
0.0
 11
721.0294262161063
 21
1454.713746111736
 31
0.0
  0
LINE
  5
3E3
330
23
100
AcDbEntity
  8
SANINDUSA
100
AcDbLine
 10
721.0296895652446
 20
1454.698658849704
 30
0.0
 11
721.0236895652447
 21
1454.698658849704
 31
0.0
  0
ARC
  5
3E4
330
23
100
AcDbEntity
  8
SANINDUSA
100
AcDbCircle
 10
721.0177734854616
 20
1454.697658849704
 30
0.0
 40
0.0060000000000002
100
AcDbArc
 50
9.594068228950291
 51
90.0
  0
LINE
  5
3E5
330
23
100
AcDbEntity
  8
SANINDUSA
100
AcDbLine
 10
721.0156194906174
 20
1454.703658849704
 30
0.0
 11
721.0177734854616
 21
1454.703658849704
 31
0.0
  0
ARC
  5
3E6
330
23
100
AcDbEntity
  8
SANINDUSA
100
AcDbCircle
 10
721.0156194906174
 20
1454.697658849704
 30
0.0
 40
0.0060000000000004
100
AcDbArc
 50
90.0
 51
174.2894068663892
  0
ARC
  5
3E7
330
23
100
AcDbEntity
  8
SANINDUSA
100
AcDbCircle
 10
721.0156194906174
 20
1454.697658849704
 30
0.0
 40
0.0160000000000005
100
AcDbArc
 50
151.927513068745
 51
174.2894068663892
  0
ARC
  5
3E8
330
23
100
AcDbEntity
  8
SANINDUSA
100
AcDbCircle
 10
721.0006194906173
 20
1454.705658849704
 30
0.0
 40
0.001
100
AcDbArc
 50
331.927513068745
 51
90.0
  0
LINE
  5
3E9
330
23
100
AcDbEntity
  8
SANINDUSA
100
AcDbLine
 10
721.0051398133852
 20
1454.653161331109
 30
0.0
 11
721.0096492674761
 21
1454.698255872018
 31
0.0
  0
ARC
  5
3EA
330
23
100
AcDbEntity
  8
SANINDUSA
100
AcDbCircle
 10
721.000164627434
 20
1454.653658849704
 30
0.0
 40
0.005
100
AcDbArc
 50
270.0
 51
354.2894068663892
  0
LINE
  5
3EB
330
23
100
AcDbEntity
  8
SANINDUSA
100
AcDbLine
 10
720.9567282627705
 20
1454.648658849704
 30
0.0
 11
721.000164627434
 21
1454.648658849704
 31
0.0
  0
LINE
  5
3EC
330
23
100
AcDbEntity
  8
SANINDUSA
100
AcDbLine
 10
720.7623404639461
 20
1454.499458849704
 30
0.0
 11
720.7753404639461
 21
1454.499458849704
 31
0.0
  0
LINE
  5
3ED
330
23
100
AcDbEntity
  8
SANINDUSA
100
AcDbLine
 10
720.7751785795009
 20
1454.548245089479
 30
0.0
 11
720.8093394558398
 21
1454.549474313638
 31
0.0
  0
ARC
  5
3EE
330
23
100
AcDbEntity
  8
SANINDUSA
100
AcDbCircle
 10
720.8031858115155
 20
1454.699339214891
 30
0.0
 40
0.1499911862945966
100
AcDbArc
 50
272.3513170456868
 51
290.7555615332536
  0
ARC
  5
3EF
330
23
100
AcDbEntity
  8
SANINDUSA
100
AcDbCircle
 10
720.8067148275468
 20
1454.690000189224
 30
0.0
 40
0.1400076370293425
100
AcDbArc
 50
290.759488132254
 51
344.9968115725529
  0
LINE
  5
3F0
330
23
100
AcDbEntity
  8
SANINDUSA
100
AcDbLine
 10
720.9583474697545
 20
1454.714952944929
 30
0.0
 11
720.9419498033074
 21
1454.653756020623
 31
0.0
  0
ARC
  5
3F1
330
23
100
AcDbEntity
  8
SANINDUSA
100
AcDbCircle
 10
720.963177098886
 20
1454.713658849704
 30
0.0
 40
0.005
100
AcDbArc
 50
90.0
 51
165.0000000047201
  0
LINE
  5
3F3
330
23
100
AcDbEntity
  8
SANINDUSA
100
AcDbLine
 10
720.6932085217117
 20
1454.546687505814
 30
0.0
 11
720.7051737878792
 21
1454.546792129301
 31
0.0
  0
ARC
  5
3F6
330
23
100
AcDbEntity
  8
SANINDUSA
100
AcDbCircle
 10
720.6931742835729
 20
1454.551687388588
 30
0.0
 40
0.0050000000000001
100
AcDbArc
 50
182.0000000037536
 51
270.3923432380733
  0
LINE
  5
3F7
330
23
100
AcDbEntity
  8
SANINDUSA
100
AcDbLine
 10
720.5610185999058
 20
1454.682376246317
 30
0.0
 11
720.5595002899391
 21
1454.697559345985
 31
0.0
  0
ARC
  5
3F8
330
23
100
AcDbEntity
  8
SANINDUSA
100
AcDbCircle
 10
720.5604953271294
 20
1454.697658849704
 30
0.0
 40
0.001
100
AcDbArc
 50
90.0
 51
185.7105931336107
  0
LINE
  5
3F9
330
23
100
AcDbEntity
  8
SANINDUSA
100
AcDbLine
 10
720.5629795629224
 20
1454.682216930991
 30
0.0
 11
720.5670478622169
 21
1454.697400030659
 31
0.0
  0
ARC
  5
3FA
330
23
100
AcDbEntity
  8
SANINDUSA
100
AcDbCircle
 10
720.5620136370961
 20
1454.682475750036
 30
0.0
 40
0.001
100
AcDbArc
 50
185.7105931336107
 51
345.0000000047201
  0
ARC
  5
3FB
330
23
100
AcDbEntity
  8
SANINDUSA
100
AcDbCircle
 10
720.5579127530236
 20
1454.713658849704
 30
0.0
 40
0.005
100
AcDbArc
 50
23.68880488210024
 51
90.0
  0
ARC
  5
3FC
330
23
100
AcDbEntity
  8
SANINDUSA
100
AcDbCircle
 10
720.5670701641545
 20
1454.717676538266
 30
0.0
 40
0.0049999999999999
100
AcDbArc
 50
203.6888048821003
 51
269.0000000030781
  0
LINE
  5
3FD
330
23
100
AcDbEntity
  8
SANINDUSA
100
AcDbLine
 10
720.5669829021222
 20
1454.71267729979
 30
0.0
 11
720.6029403180386
 21
1454.71204966076
 31
0.0
  0
LINE
  5
3FE
330
23
100
AcDbEntity
  8
SANINDUSA
100
AcDbLine
 10
720.5823982681201
 20
1454.701406547967
 30
0.0
 11
720.6027483415679
 21
1454.701051336114
 31
0.0
  0
ARC
  5
3FF
330
23
100
AcDbEntity
  8
SANINDUSA
100
AcDbCircle
 10
720.582311006088
 20
1454.696407309491
 30
0.0
 40
0.005
100
AcDbArc
 50
89.00000000307812
 51
165.0000000047201
  0
LINE
  5
400
330
23
100
AcDbEntity
  8
SANINDUSA
100
AcDbLine
 10
720.6027483415679
 20
1454.701051336114
 30
0.0
 11
720.6029403180386
 21
1454.71204966076
 31
0.0
  0
LINE
  5
401
330
23
100
AcDbEntity
  8
SANINDUSA
100
AcDbLine
 10
720.5653334581376
 20
1454.652364754478
 30
0.0
 11
720.5774813769566
 21
1454.697701404717
 31
0.0
  0
ARC
  5
402
330
23
100
AcDbEntity
  8
SANINDUSA
100
AcDbCircle
 10
720.5605038290062
 20
1454.653658849704
 30
0.0
 40
0.005
100
AcDbArc
 50
270.0
 51
345.0000000047201
  0
ARC
  5
403
330
23
100
AcDbEntity
  8
SANINDUSA
100
AcDbCircle
 10
720.5588654017566
 20
1454.653658849704
 30
0.0
 40
0.005
100
AcDbArc
 50
185.7105931336107
 51
270.0
  0
LINE
  5
404
330
23
100
AcDbEntity
  8
SANINDUSA
100
AcDbLine
 10
720.5538902158056
 20
1454.653161331109
 30
0.0
 11
720.5493807617147
 21
1454.698255872018
 31
0.0
  0
ARC
  5
405
330
23
100
AcDbEntity
  8
SANINDUSA
100
AcDbCircle
 10
720.5434105385734
 20
1454.697658849704
 30
0.0
 40
0.0060000000000001
100
AcDbArc
 50
5.710593133610774
 51
90.0
  0
LINE
  5
406
330
23
100
AcDbEntity
  8
SANINDUSA
100
AcDbLine
 10
720.5293404639461
 20
1454.713658849704
 30
0.0
 11
720.5293404639461
 21
1454.698658849704
 31
0.0
  0
ARC
  5
407
330
23
100
AcDbEntity
  8
SANINDUSA
100
AcDbCircle
 10
720.5343404639461
 20
1454.713658849704
 30
0.0
 40
0.005
100
AcDbArc
 50
90.0
 51
180.0
  0
LINE
  5
408
330
23
100
AcDbEntity
  8
SANINDUSA
100
AcDbLine
 10
720.5660819363906
 20
1454.698658849704
 30
0.0
 11
720.5604953271294
 21
1454.698658849704
 31
0.0
  0
ARC
  5
409
330
23
100
AcDbEntity
  8
SANINDUSA
100
AcDbCircle
 10
720.5660819363906
 20
1454.697658849704
 30
0.0
 40
0.001
100
AcDbArc
 50
345.0000000047201
 51
90.0
  0
LINE
  5
40A
330
23
100
AcDbEntity
  8
SANINDUSA
100
AcDbLine
 10
720.5412565437292
 20
1454.703658849704
 30
0.0
 11
720.5434105385734
 21
1454.703658849704
 31
0.0
  0
ARC
  5
40B
330
23
100
AcDbEntity
  8
SANINDUSA
100
AcDbCircle
 10
720.5412565437292
 20
1454.697658849704
 30
0.0
 40
0.0060000000000002
100
AcDbArc
 50
90.0
 51
170.4059317710497
  0
LINE
  5
40C
330
23
100
AcDbEntity
  8
SANINDUSA
100
AcDbLine
 10
720.5343404639461
 20
1454.718658849704
 30
0.0
 11
720.5579127530236
 21
1454.718658849704
 31
0.0
  0
LINE
  5
40D
330
23
100
AcDbEntity
  8
SANINDUSA
100
AcDbLine
 10
720.5353404639461
 20
1454.698658849704
 30
0.0
 11
720.5293404639461
 21
1454.698658849704
 31
0.0
  0
LINE
  5
40E
330
23
100
AcDbEntity
  8
SANINDUSA
100
AcDbLine
 10
720.5588654017566
 20
1454.648658849704
 30
0.0
 11
720.5605038290062
 21
1454.648658849704
 31
0.0
  0
LINE
  5
411
330
23
100
AcDbEntity
  8
SANINDUSA
100
AcDbLine
 10
720.6379355964958
 20
1454.711438815903
 30
0.0
 11
720.6377436200249
 21
1454.700440491256
 31
0.0
  0
LINE
  5
412
330
23
100
AcDbEntity
  8
SANINDUSA
100
AcDbLine
 10
720.6379355964958
 20
1454.711438815903
 30
0.0
 11
720.6029403180386
 21
1454.71204966076
 31
0.0
  0
LINE
  5
413
330
23
100
AcDbEntity
  8
SANINDUSA
100
AcDbLine
 10
720.6377436200249
 20
1454.700440491256
 30
0.0
 11
720.6027483415679
 21
1454.701051336114
 31
0.0
  0
LINE
  5
414
330
23
100
AcDbEntity
  8
SANINDUSA
100
AcDbLine
 10
720.70314505766
 20
1454.512653668334
 30
0.0
 11
720.6868696096899
 21
1454.512653668334
 31
0.0
  0
LINE
  5
415
330
23
100
AcDbEntity
  8
SANINDUSA
100
AcDbLine
 10
720.70314505766
 20
1454.512653668334
 30
0.0
 11
720.7161276025951
 21
1454.512653668334
 31
0.0
  0
LINE
  5
416
330
23
100
AcDbEntity
  8
SANINDUSA
100
AcDbLine
 10
720.7163404639461
 20
1454.499458849704
 30
0.0
 11
720.7161101475302
 21
1454.512653668334
 31
0.0
  0
LINE
  5
417
330
23
100
AcDbEntity
  8
SANINDUSA
100
AcDbLine
 10
720.7033404639461
 20
1454.499458849704
 30
0.0
 11
720.7163404639461
 21
1454.499458849704
 31
0.0
  0
ARC
  5
418
330
23
100
AcDbEntity
  8
SANINDUSA
100
AcDbCircle
 10
720.6994663130715
 20
1454.498718266643
 30
0.0
 40
0.0039443007325403
100
AcDbArc
 50
10.82210621788534
 51
93.84951421251235
  0
LINE
  5
419
330
23
100
AcDbEntity
  8
SANINDUSA
100
AcDbLine
 10
720.6868696096899
 20
1454.502653668334
 30
0.0
 11
720.69920150786
 21
1454.502653668334
 31
0.0
  0
ARC
  5
41A
330
23
100
AcDbEntity
  8
SANINDUSA
100
AcDbCircle
 10
720.6868696096899
 20
1454.531653668334
 30
0.0
 40
0.029
100
AcDbArc
 50
182.0000000037536
 51
270.0
  0
LINE
  5
41B
330
23
100
AcDbEntity
  8
SANINDUSA
100
AcDbLine
 10
720.6521320285343
 20
1454.695450298653
 30
0.0
 11
720.6578872757063
 21
1454.53064158293
 31
0.0
  0
ARC
  5
41C
330
23
100
AcDbEntity
  8
SANINDUSA
100
AcDbCircle
 10
720.6471350743992
 20
1454.69527580117
 30
0.0
 40
0.005
100
AcDbArc
 50
2.000000003753602
 51
89.00000000307812
  0
ARC
  5
41D
330
23
100
AcDbEntity
  8
SANINDUSA
100
AcDbCircle
 10
720.6777884678957
 20
1454.705742419805
 30
0.0
 40
0.0050000000000001
100
AcDbArc
 50
2.000000003753602
 51
89.00000000307812
  0
ARC
  5
41E
330
23
100
AcDbEntity
  8
SANINDUSA
100
AcDbCircle
 10
720.6815928239105
 20
1454.682761042431
 30
0.0
 40
0.002
100
AcDbArc
 50
270.304898043988
 51
2.000000003753602
  0
LINE
  5
41F
330
23
100
AcDbEntity
  8
SANINDUSA
100
AcDbLine
 10
720.6816034668098
 20
1454.680761070749
 30
0.0
 11
720.6736592643912
 21
1454.680718795478
 31
0.0
  0
LINE
  5
420
330
23
100
AcDbEntity
  8
SANINDUSA
100
AcDbLine
 10
720.6736592643912
 20
1454.680718795478
 30
0.0
 11
720.6730251714661
 21
1454.698876841085
 31
0.0
  0
ARC
  5
421
330
23
100
AcDbEntity
  8
SANINDUSA
100
AcDbCircle
 10
720.6720257806392
 20
1454.698841941589
 30
0.0
 40
0.001
100
AcDbArc
 50
2.000000003753602
 51
89.00000000307812
  0
LINE
  5
422
330
23
100
AcDbEntity
  8
SANINDUSA
100
AcDbLine
 10
720.6678811839765
 20
1454.530990577897
 30
0.0
 11
720.6620154113228
 21
1454.698964329306
 31
0.0
  0
ARC
  5
423
330
23
100
AcDbEntity
  8
SANINDUSA
100
AcDbCircle
 10
720.6868696096899
 20
1454.531653668334
 30
0.0
 40
0.0190000000000004
100
AcDbArc
 50
182.0000000037536
 51
270.0
  0
LINE
  5
424
330
23
100
AcDbEntity
  8
SANINDUSA
100
AcDbLine
 10
720.6379355964958
 20
1454.711438815903
 30
0.0
 11
720.677875729928
 21
1454.71074165828
 31
0.0
  0
LINE
  5
425
330
23
100
AcDbEntity
  8
SANINDUSA
100
AcDbLine
 10
720.6630322545564
 20
1454.699999076498
 30
0.0
 11
720.6720432330455
 21
1454.699841789284
 31
0.0
  0
ARC
  5
426
330
23
100
AcDbEntity
  8
SANINDUSA
100
AcDbCircle
 10
720.6630148021498
 20
1454.698999228803
 30
0.0
 40
0.001
100
AcDbArc
 50
89.00000000307812
 51
182.0000000037536
  0
LINE
  5
427
330
23
100
AcDbEntity
  8
SANINDUSA
100
AcDbLine
 10
720.6377436200249
 20
1454.700440491256
 30
0.0
 11
720.6472223364313
 21
1454.700275039646
 31
0.0
  0
LINE
  5
428
330
23
100
AcDbEntity
  8
SANINDUSA
100
AcDbLine
 10
720.6835916055646
 20
1454.682830841424
 30
0.0
 11
720.6827854220308
 21
1454.705916917288
 31
0.0
  0
LINE
  5
429
330
23
100
AcDbEntity
  8
SANINDUSA
100
AcDbLine
 10
720.7158954487567
 20
1454.525953752826
 30
0.0
 11
720.7156913005631
 21
1454.537649395009
 31
0.0
  0
LINE
  5
42A
330
23
100
AcDbEntity
  8
SANINDUSA
100
AcDbLine
 10
720.7158954487567
 20
1454.525953752826
 30
0.0
 11
720.7028352601239
 21
1454.525953752826
 31
0.0
  0
ARC
  5
42B
330
23
100
AcDbEntity
  8
SANINDUSA
100
AcDbCircle
 10
720.692916071369
 20
1454.524685015483
 30
0.0
 40
0.01
100
AcDbArc
 50
7.288974468708728
 51
90.38507315611317
  0
LINE
  5
42C
330
23
100
AcDbEntity
  8
SANINDUSA
100
AcDbLine
 10
720.6884650483592
 20
1454.534663515027
 30
0.0
 11
720.6928488639304
 21
1454.534684789639
 31
0.0
  0
ARC
  5
42D
330
23
100
AcDbEntity
  8
SANINDUSA
100
AcDbCircle
 10
720.6884165190331
 20
1454.544663397271
 30
0.0
 40
0.01
100
AcDbArc
 50
182.0000000037536
 51
270.2780536503697
  0
LINE
  5
42E
330
23
100
AcDbEntity
  8
SANINDUSA
100
AcDbLine
 10
720.6784226107629
 20
1454.544314402304
 30
0.0
 11
720.6740084121479
 21
1454.670720511884
 31
0.0
  0
LINE
  5
42F
330
23
100
AcDbEntity
  8
SANINDUSA
100
AcDbLine
 10
720.6740084121479
 20
1454.670720511884
 30
0.0
 11
720.6820709878705
 21
1454.670763417082
 31
0.0
  0
ARC
  5
430
330
23
100
AcDbEntity
  8
SANINDUSA
100
AcDbCircle
 10
720.6820816307698
 20
1454.6687634454
 30
0.0
 40
0.0020000000000001
100
AcDbArc
 50
2.000000003753602
 51
90.30489804398804
  0
LINE
  5
431
330
23
100
AcDbEntity
  8
SANINDUSA
100
AcDbLine
 10
720.6881773294378
 20
1454.551512891104
 30
0.0
 11
720.6840804124238
 21
1454.668833244393
 31
0.0
  0
LINE
  5
437
330
23
100
AcDbEntity
  8
SANINDUSA
100
AcDbLine
 10
720.7163404639461
 20
1454.499458849704
 30
0.0
 11
720.7623404639461
 21
1454.499458849704
 31
0.0
  0
LINE
  5
439
330
23
100
AcDbEntity
  8
SANINDUSA
100
AcDbLine
 10
720.6740084121479
 20
1454.670720511884
 30
0.0
 11
720.6736592643912
 21
1454.680718795478
 31
0.0
  0
LINE
  5
43A
330
23
100
AcDbEntity
  8
SANINDUSA
100
AcDbLine
 10
720.6835916055646
 20
1454.682830841424
 30
0.0
 11
720.6840804124238
 21
1454.668833244393
 31
0.0
  0
LINE
  5
440
330
23
100
AcDbEntity
  8
SANINDUSA
100
AcDbLine
 10
720.5687233582958
 20
1454.648658849704
 30
0.0
 11
720.5605038290062
 21
1454.648658849704
 31
0.0
  0
LINE
  5
446
330
23
100
AcDbEntity
  8
SANINDUSA
100
AcDbLine
 10
720.5705038290061
 20
1454.648658849704
 30
0.0
 11
720.5687233582958
 21
1454.648658849704
 31
0.0
  0
LINE
  5
44B
330
23
100
AcDbEntity
  8
SANINDUSA
100
AcDbLine
 10
720.5876592418937
 20
1454.648658849704
 30
0.0
 11
720.5705038290061
 21
1454.648658849704
 31
0.0
  0
LINE
  5
453
330
23
100
AcDbEntity
  8
SANINDUSA
100
AcDbLine
 10
720.6537660219372
 20
1454.648658849704
 30
0.0
 11
720.5876592418937
 21
1454.648658849704
 31
0.0
  0
LINE
  5
45F
330
23
100
AcDbEntity
  8
SANINDUSA
100
AcDbLine
 10
720.9267503756516
 20
1454.718658849704
 30
0.0
 11
720.963177098886
 21
1454.718658849704
 31
0.0
  0
LINE
  5
462
330
23
100
AcDbEntity
  8
SANINDUSA
100
AcDbLine
 10
720.5579127530236
 20
1454.718658849704
 30
0.0
 11
720.5920930448635
 21
1454.718658849704
 31
0.0
  0
LINE
  5
468
330
23
100
AcDbEntity
  8
SANINDUSA
100
AcDbLine
 10
720.6834506379252
 20
1454.718658849704
 30
0.0
 11
720.9267503756516
 21
1454.718658849704
 31
0.0
  0
LINE
  5
46A
330
23
100
AcDbEntity
  8
SANINDUSA
100
AcDbLine
 10
720.6779314190371
 20
1454.718658849704
 30
0.0
 11
720.6834506379252
 21
1454.718658849704
 31
0.0
  0
LINE
  5
46B
330
23
100
AcDbEntity
  8
SANINDUSA
100
AcDbLine
 10
720.5920930448635
 20
1454.718658849704
 30
0.0
 11
720.6779314190371
 21
1454.718658849704
 31
0.0
  0
LINE
  5
46E
330
23
100
AcDbEntity
  8
SANINDUSA
100
AcDbLine
 10
721.0097739246251
 20
1454.698658849704
 30
0.0
 11
721.0236895652447
 21
1454.698658849704
 31
0.0
  0
LINE
  5
47C
330
23
100
AcDbEntity
  8
SANINDUSA
100
AcDbLine
 10
720.7623404639461
 20
1454.499458849704
 30
0.0
 11
720.7629896273291
 21
1454.537649395009
 31
0.0
  0
ARC
  5
47E
330
23
100
AcDbEntity
  8
SANINDUSA
100
AcDbCircle
 10
719.4865280732417
 20
1454.713658849704
 30
0.0
 40
0.0050000000000002
100
AcDbArc
 50
0.9999999968081942
 51
90.0
  0
LINE
  5
47F
330
23
100
AcDbEntity
  8
SANINDUSA
100
AcDbLine
 10
719.2403758573777
 20
1454.527376828584
 30
0.0
 11
719.2374415595573
 21
1454.499458849704
 31
0.0
  0
ARC
  5
480
330
23
100
AcDbEntity
  8
SANINDUSA
100
AcDbCircle
 10
719.1613026034713
 20
1454.496653668334
 30
0.0
 40
0.005
100
AcDbArc
 50
34.12749332022144
 51
90.0
  0
LINE
  5
483
330
23
100
AcDbEntity
  8
SANINDUSA
100
AcDbLine
 10
718.9914415595573
 20
1454.713658849704
 30
0.0
 11
718.9914415595573
 21
1454.698658849704
 31
0.0
  0
LINE
  5
484
330
23
100
AcDbEntity
  8
SANINDUSA
100
AcDbLine
 10
718.9914415595573
 20
1454.698658849704
 30
0.0
 11
719.0514415595573
 21
1454.698658849704
 31
0.0
  0
LINE
  5
487
330
23
100
AcDbEntity
  8
SANINDUSA
100
AcDbLine
 10
719.4317997991466
 20
1454.698658849704
 30
0.0
 11
719.0514415595573
 21
1454.698658849704
 31
0.0
  0
LINE
  5
488
330
23
100
AcDbEntity
  8
SANINDUSA
100
AcDbLine
 10
719.4917906608559
 20
1454.698658849704
 30
0.0
 11
719.4915273117175
 21
1454.713746111736
 31
0.0
  0
LINE
  5
48A
330
23
100
AcDbEntity
  8
SANINDUSA
100
AcDbLine
 10
719.4317997991466
 20
1454.698658849704
 30
0.0
 11
719.4917906608559
 21
1454.698658849704
 31
0.0
  0
LINE
  5
48B
330
23
100
AcDbEntity
  8
SANINDUSA
100
AcDbLine
 10
719.0514415595573
 20
1454.718658849704
 30
0.0
 11
718.9964415595574
 21
1454.718658849704
 31
0.0
  0
ARC
  5
48C
330
23
100
AcDbEntity
  8
SANINDUSA
100
AcDbCircle
 10
718.9964415595574
 20
1454.713658849704
 30
0.0
 40
0.005
100
AcDbArc
 50
90.0
 51
180.0
  0
LINE
  5
48E
330
23
100
AcDbEntity
  8
SANINDUSA
100
AcDbLine
 10
719.4315364500083
 20
1454.718658849704
 30
0.0
 11
719.0514415595573
 21
1454.718658849704
 31
0.0
  0
LINE
  5
490
330
23
100
AcDbEntity
  8
SANINDUSA
100
AcDbLine
 10
719.4865280732417
 20
1454.718658849704
 30
0.0
 11
719.4315364500083
 21
1454.718658849704
 31
0.0
  0
LINE
  5
497
330
23
100
AcDbEntity
  8
SANINDUSA
100
AcDbLine
 10
719.0159913114168
 20
1454.653161331109
 30
0.0
 11
719.011481857326
 21
1454.698255872018
 31
0.0
  0
LINE
  5
49C
330
23
100
AcDbEntity
  8
SANINDUSA
100
AcDbLine
 10
719.4717503630873
 20
1454.698255872018
 30
0.0
 11
719.4672409089965
 21
1454.653161331109
 31
0.0
  0
LINE
  5
49E
330
23
100
AcDbEntity
  8
SANINDUSA
100
AcDbLine
 10
719.4317997991466
 20
1454.648658849704
 30
0.0
 11
719.4622657230453
 21
1454.648658849704
 31
0.0
  0
ARC
  5
49F
330
23
100
AcDbEntity
  8
SANINDUSA
100
AcDbCircle
 10
719.4622657230453
 20
1454.653658849704
 30
0.0
 40
0.005
100
AcDbArc
 50
270.0
 51
354.2894068663892
  0
ARC
  5
4A1
330
23
100
AcDbEntity
  8
SANINDUSA
100
AcDbCircle
 10
719.0209664973679
 20
1454.653658849704
 30
0.0
 40
0.0050000000000003
100
AcDbArc
 50
185.7105931336107
 51
270.0
  0
LINE
  5
4A2
330
23
100
AcDbEntity
  8
SANINDUSA
100
AcDbLine
 10
719.0209664973679
 20
1454.648658849704
 30
0.0
 11
719.0514415595573
 21
1454.648658849704
 31
0.0
  0
LINE
  5
4A4
330
23
100
AcDbEntity
  8
SANINDUSA
100
AcDbLine
 10
719.0514415595573
 20
1454.648658849704
 30
0.0
 11
719.4317997991466
 21
1454.648658849704
 31
0.0
  0
ARC
  5
4AA
330
23
100
AcDbEntity
  8
SANINDUSA
100
AcDbCircle
 10
719.1300502550161
 20
1454.643658849704
 30
0.0
 40
0.005
100
AcDbArc
 50
2.000000003753602
 51
90.0
  0
ARC
  5
4B0
330
23
100
AcDbEntity
  8
SANINDUSA
100
AcDbCircle
 10
719.268475666031
 20
1454.690016022362
 30
0.0
 40
0.1523398673474815
100
AcDbArc
 50
290.8560025185273
 51
342.8647058705867
  0
LINE
  5
4B4
330
23
100
AcDbEntity
  8
SANINDUSA
100
AcDbLine
 10
719.1350472091512
 20
1454.643833347187
 30
0.0
 11
719.1370484996546
 21
1454.58652388544
 31
0.0
  0
ARC
  5
4B7
330
23
100
AcDbEntity
  8
SANINDUSA
100
AcDbCircle
 10
719.2222470423996
 20
1455.688729617665
 30
0.0
 40
1.152737043855201
100
AcDbArc
 50
271.3835286293587
 51
272.4715544568766
  0
ARC
  5
4B8
330
23
100
AcDbEntity
  8
SANINDUSA
100
AcDbCircle
 10
719.2503210763314
 20
1454.526331543951
 30
0.0
 40
0.01
100
AcDbArc
 50
91.38352862935859
 51
174.0000000022097
  0
ARC
  5
4B9
330
23
100
AcDbEntity
  8
SANINDUSA
100
AcDbCircle
 10
719.2646192703969
 20
1454.699113941096
 30
0.0
 40
0.1622150813954447
100
AcDbArc
 50
272.5926224322704
 51
290.9854634804302
  0
LINE
  5
4BB
330
23
100
AcDbEntity
  8
SANINDUSA
100
AcDbLine
 10
719.137048499795
 20
1454.586523881421
 30
0.0
 11
719.1385505044511
 21
1454.543512095657
 31
0.0
  0
ARC
  5
4BC
330
23
100
AcDbEntity
  8
SANINDUSA
100
AcDbCircle
 10
719.4188315063997
 20
1454.643658849706
 30
0.0
 40
0.0049999999982514
100
AcDbArc
 50
90.00000000651375
 51
162.8618199184047
  0
ARC
  5
4BE
330
23
100
AcDbEntity
  8
SANINDUSA
100
AcDbCircle
 10
719.1518486660468
 20
1457.505811542627
 30
0.0
 40
2.970883148190988
100
AcDbArc
 50
269.8421632698138
 51
270.5171521252773
  0
ARC
  5
4BF
330
23
100
AcDbEntity
  8
SANINDUSA
100
AcDbCircle
 10
719.1073141376532
 20
1460.512596654521
 30
0.0
 40
5.977973049866875
100
AcDbArc
 50
270.6838631136113
 51
271.3674619593873
  0
ARC
  5
4C0
330
23
100
AcDbEntity
  8
SANINDUSA
100
AcDbCircle
 10
719.1436797918466
 20
1454.539941184563
 30
0.0
 40
0.0050015406218555
100
AcDbArc
 50
181.9666067852254
 51
269.8256800187418
  0
LINE
  5
4C1
330
23
100
AcDbEntity
  8
SANINDUSA
100
AcDbLine
 10
719.1385505082045
 20
1454.543511988171
 30
0.0
 11
719.1386811971449
 21
1454.539769546572
 31
0.0
  0
LWPOLYLINE
  5
4C2
330
23
100
AcDbEntity
  8
SANINDUSA
100
AcDbPolyline
 90
       13
 70
   128
 43
0.0
 10
719.1933360545446
 20
1454.525382397441
 10
719.1932607324775
 20
1454.526180914691
 10
719.193001333564
 20
1454.527117175039
 10
719.1922796883716
 20
1454.528508235052
 10
719.1916016307548
 20
1454.52940785652
 10
719.1908269214088
 20
1454.530236674272
 10
719.1890408786272
 20
1454.531718940211
 10
719.1877433347306
 20
1454.532557680727
 10
719.1863760807402
 20
1454.533282943638
 10
719.1849288444383
 20
1454.533900381399
 10
719.1834299380372
 20
1454.534393585163
 10
719.1810892834411
 20
1454.534886545893
 10
719.1786635149084
 20
1454.535049410768
  0
LWPOLYLINE
  5
4CC
330
23
100
AcDbEntity
  8
SANINDUSA
100
AcDbPolyline
 90
        4
 70
   128
 43
0.0
 10
719.1933752948408
 20
1454.506566406302
 10
719.1933642656769
 20
1454.512565637272
 10
719.1933532507355
 20
1454.517564868254
 10
719.1933360545446
 20
1454.525382397441
  0
LWPOLYLINE
  5
4CD
330
23
100
AcDbEntity
  8
SANINDUSA
100
AcDbPolyline
 90
        6
 70
   128
 43
0.0
 10
719.1858236366357
 20
1454.499458849704
 10
719.1897132130427
 20
1454.501847063882
 10
719.1913625487199
 20
1454.503171648615
 10
719.1928169574318
 20
1454.504832110153
 10
719.1932355097247
 20
1454.505704342822
 10
719.1933752948408
 20
1454.506566406302
  0
LINE
  5
4CE
330
23
100
AcDbEntity
  8
SANINDUSA
100
AcDbLine
 10
719.2374415595573
 20
1454.499458849704
 30
0.0
 11
719.1858236366357
 21
1454.499458849704
 31
0.0
  0
LINE
  5
4D1
330
23
100
AcDbEntity
  8
SANINDUSA
100
AcDbLine
 10
719.1158671175485
 20
1454.648658849704
 30
0.0
 11
719.1199883713176
 21
1454.52964158293
 31
0.0
  0
ARC
  5
4D8
330
23
100
AcDbEntity
  8
SANINDUSA
100
AcDbCircle
 10
719.1489707053011
 20
1454.530653668334
 30
0.0
 40
0.0290000000000035
100
AcDbArc
 50
182.0000000037536
 51
270.0
  0
LINE
  5
4DA
330
23
100
AcDbEntity
  8
SANINDUSA
100
AcDbLine
 10
719.1489707053011
 20
1454.501653668334
 30
0.0
 11
719.1613026034713
 21
1454.501653668334
 31
0.0
  0
LINE
  5
4DD
330
23
100
AcDbEntity
  8
SANINDUSA
100
AcDbLine
 10
719.1858236366357
 20
1454.499458849704
 30
0.0
 11
719.1776118060206
 21
1454.499458849704
 31
0.0
  0
LINE
  5
4DE
330
23
100
AcDbEntity
  8
SANINDUSA
100
AcDbLine
 10
719.1776118060206
 20
1454.499458849704
 30
0.0
 11
719.1654415595573
 21
1454.499458849704
 31
0.0
  0
ENDSEC
  0
SECTION
  2
OBJECTS
  0
DICTIONARY
  5
C
330
0
100
AcDbDictionary
281
     1
  3
ACAD_COLOR
350
1C
  3
ACAD_GROUP
350
D
  3
ACAD_LAYOUT
350
1A
  3
ACAD_MATERIAL
350
1B
  3
ACAD_MLEADERSTYLE
350
536
  3
ACAD_MLINESTYLE
350
17
  3
ACAD_PLOTSETTINGS
350
19
  3
ACAD_PLOTSTYLENAME
350
E
  3
ACAD_SCALELIST
350
524
  3
ACAD_TABLESTYLE
350
1D
  3
ACAD_VISUALSTYLE
350
510
  3
ACDB_RECOMPOSE_DATA
350
552
  3
AcDbVariableDictionary
350
4EA
  3
ASE_INDEX_DICTIONARY
350
4E7
  3
DWGPROPS
350
553
  0
DICTIONARY
  5
53B
330
10
100
AcDbDictionary
280
     1
281
     1
  3
ADSK_XREC_LAYER_RECONCILED
360
53C
  0
DICTIONARY
  5
53D
330
31
100
AcDbDictionary
280
     1
281
     1
  3
ADSK_XREC_LAYER_RECONCILED
360
53E
  0
DICTIONARY
  5
53F
330
32
100
AcDbDictionary
280
     1
281
     1
  3
ADSK_XREC_LAYER_RECONCILED
360
540
  0
DICTIONARY
  5
541
330
33
100
AcDbDictionary
280
     1
281
     1
  3
ADSK_XREC_LAYER_RECONCILED
360
542
  0
DICTIONARY
  5
543
330
34
100
AcDbDictionary
280
     1
281
     1
  3
ADSK_XREC_LAYER_RECONCILED
360
544
  0
DICTIONARY
  5
545
330
35
100
AcDbDictionary
280
     1
281
     1
  3
ADSK_XREC_LAYER_RECONCILED
360
546
  0
DICTIONARY
  5
547
330
36
100
AcDbDictionary
280
     1
281
     1
  3
ADSK_XREC_LAYER_RECONCILED
360
548
  0
DICTIONARY
  5
549
330
37
100
AcDbDictionary
280
     1
281
     1
  3
ADSK_XREC_LAYER_RECONCILED
360
54A
  0
DICTIONARY
  5
1C
102
{ACAD_REACTORS
330
C
102
}
330
C
100
AcDbDictionary
281
     1
  0
DICTIONARY
  5
D
102
{ACAD_REACTORS
330
C
102
}
330
C
100
AcDbDictionary
281
     1
  0
DICTIONARY
  5
1A
102
{ACAD_REACTORS
330
C
102
}
330
C
100
AcDbDictionary
281
     1
  3
Layout1
350
22
  3
Layout2
350
2A
  3
Model
350
26
  0
DICTIONARY
  5
1B
102
{ACAD_REACTORS
330
C
102
}
330
C
100
AcDbDictionary
281
     1
  3
ByBlock
350
500
  3
ByLayer
350
4F8
  3
Global
350
508
  0
DICTIONARY
  5
536
102
{ACAD_REACTORS
330
C
102
}
330
C
100
AcDbDictionary
281
     1
  3
Standard
350
537
  0
DICTIONARY
  5
17
102
{ACAD_REACTORS
330
C
102
}
330
C
100
AcDbDictionary
281
     1
  3
Standard
350
18
  0
DICTIONARY
  5
19
102
{ACAD_REACTORS
330
C
102
}
330
C
100
AcDbDictionary
281
     1
  0
ACDBDICTIONARYWDFLT
  5
E
102
{ACAD_REACTORS
330
C
102
}
330
C
100
AcDbDictionary
281
     1
  3
Normal
350
F
100
AcDbDictionaryWithDefault
340
F
  0
DICTIONARY
  5
524
102
{ACAD_REACTORS
330
C
102
}
330
C
100
AcDbDictionary
281
     1
  3
A0
350
525
  3
A1
350
526
  3
A2
350
527
  3
A3
350
528
  3
A4
350
529
  3
A5
350
52A
  3
A6
350
52B
  3
A7
350
52C
  3
A8
350
52D
  3
A9
350
52E
  3
B0
350
52F
  3
B1
350
530
  3
B2
350
531
  3
B3
350
532
  3
B4
350
533
  3
B5
350
534
  3
B6
350
535
  0
DICTIONARY
  5
1D
102
{ACAD_REACTORS
330
C
102
}
330
C
100
AcDbDictionary
281
     1
  3
Standard
350
1E
  0
DICTIONARY
  5
510
102
{ACAD_REACTORS
330
C
102
}
330
C
100
AcDbDictionary
281
     1
  3
2dWireframe
350
516
  3
3D Hidden
350
518
  3
3dWireframe
350
517
  3
Basic
350
515
  3
Brighten
350
51C
  3
ColorChange
350
520
  3
Conceptual
350
519
  3
Dim
350
51B
  3
EdgeColorOff
350
523
  3
Facepattern
350
51F
  3
Flat
350
511
  3
FlatWithEdges
350
512
  3
Gouraud
350
513
  3
GouraudWithEdges
350
514
  3
JitterOff
350
521
  3
Linepattern
350
51E
  3
OverhangOff
350
522
  3
Realistic
350
51A
  3
Thicken
350
51D
  0
XRECORD
  5
552
102
{ACAD_REACTORS
330
C
102
}
330
C
100
AcDbXrecord
280
     1
 90
        1
330
1E
  0
DICTIONARY
  5
4EA
102
{ACAD_REACTORS
330
C
102
}
330
C
100
AcDbDictionary
281
     1
  3
CANNOSCALE
350
54C
  3
CMLEADERSTYLE
350
54B
  3
CTABLESTYLE
350
4EB
  3
DIMASSOC
350
4F5
  3
HIDETEXT
350
4F4
  3
INDEXCTL
350
54E
  3
PROJECTNAME
350
4F6
  3
SORTENTS
350
54D
  3
XCLIPFRAME
350
54F
  0
DICTIONARY
  5
4E7
102
{ACAD_REACTORS
330
C
102
}
330
C
100
AcDbDictionary
281
     1
  3
ASEBlockHierarchyIndexRecord
350
4E8
1001
DCO15
1040
1554707445.765
  0
XRECORD
  5
553
102
{ACAD_REACTORS
330
C
102
}
330
C
100
AcDbXrecord
280
     1
  1
DWGPROPS COOKIE
  2

  3

  4

  6

  7

  8
Julio
  9

300
=
301
=
302
=
303
=
304
=
305
=
306
=
307
=
308
=
309
=
 40
0.0024256712962963
 41
2453797.55037669
 42
2456149.583431169
  1

 90
        0
  0
XRECORD
  5
53C
102
{ACAD_REACTORS
330
53B
102
}
330
53B
100
AcDbXrecord
280
     1
290
     1
  0
XRECORD
  5
53E
102
{ACAD_REACTORS
330
53D
102
}
330
53D
100
AcDbXrecord
280
     1
290
     1
  0
XRECORD
  5
540
102
{ACAD_REACTORS
330
53F
102
}
330
53F
100
AcDbXrecord
280
     1
290
     1
  0
XRECORD
  5
542
102
{ACAD_REACTORS
330
541
102
}
330
541
100
AcDbXrecord
280
     1
290
     1
  0
XRECORD
  5
544
102
{ACAD_REACTORS
330
543
102
}
330
543
100
AcDbXrecord
280
     1
290
     1
  0
XRECORD
  5
546
102
{ACAD_REACTORS
330
545
102
}
330
545
100
AcDbXrecord
280
     1
290
     1
  0
XRECORD
  5
548
102
{ACAD_REACTORS
330
547
102
}
330
547
100
AcDbXrecord
280
     1
290
     1
  0
XRECORD
  5
54A
102
{ACAD_REACTORS
330
549
102
}
330
549
100
AcDbXrecord
280
     1
290
     1
  0
LAYOUT
  5
22
102
{ACAD_XDICTIONARY
360
555
102
}
102
{ACAD_REACTORS
330
1A
102
}
330
1A
100
AcDbPlotSettings
  1

  2
HP DesignJet 500PS42+HPGL2 Card
  4

  6

 40
0.0
 41
0.0
 42
0.0
 43
0.0
 44
0.0
 45
0.0
 46
0.0
 47
0.0
 48
0.0
 49
0.0
140
0.0
141
0.0
142
1.0
143
1.0
 70
   688
 72
     0
 73
     0
 74
     5
  7
C:\Documents and Settings\Julio\Application Data\Autodesk\AutoCAD 2006\R16.2\enu\Plot Styles\sanindusa.ctb
 75
    16
147
1.0
148
0.0
149
0.0
100
AcDbLayout
  1
Layout1
 70
     1
 71
     1
 10
0.0
 20
0.0
 11
420.0
 21
297.0
 12
0.0
 22
0.0
 32
0.0
 14
1.000000000000000E+20
 24
1.000000000000000E+20
 34
1.000000000000000E+20
 15
-1.000000000000000E+20
 25
-1.000000000000000E+20
 35
-1.000000000000000E+20
146
0.0
 13
0.0
 23
0.0
 33
0.0
 16
1.0
 26
0.0
 36
0.0
 17
0.0
 27
1.0
 37
0.0
 76
     0
330
1F
  0
LAYOUT
  5
2A
102
{ACAD_XDICTIONARY
360
559
102
}
102
{ACAD_REACTORS
330
1A
102
}
330
1A
100
AcDbPlotSettings
  1

  2
HP DesignJet 500PS42+HPGL2 Card
  4

  6

 40
0.0
 41
0.0
 42
0.0
 43
0.0
 44
0.0
 45
0.0
 46
0.0
 47
0.0
 48
0.0
 49
0.0
140
0.0
141
0.0
142
1.0
143
1.0
 70
   688
 72
     0
 73
     0
 74
     5
  7
C:\Documents and Settings\Julio\Application Data\Autodesk\AutoCAD 2006\R16.2\enu\Plot Styles\sanindusa.ctb
 75
    16
147
1.0
148
0.0
149
0.0
100
AcDbLayout
  1
Layout2
 70
     1
 71
     2
 10
0.0
 20
0.0
 11
12.0
 21
9.0
 12
0.0
 22
0.0
 32
0.0
 14
0.0
 24
0.0
 34
0.0
 15
0.0
 25
0.0
 35
0.0
146
0.0
 13
0.0
 23
0.0
 33
0.0
 16
1.0
 26
0.0
 36
0.0
 17
0.0
 27
1.0
 37
0.0
 76
     0
330
27
  0
LAYOUT
  5
26
102
{ACAD_XDICTIONARY
360
557
102
}
102
{ACAD_REACTORS
330
1A
102
}
330
1A
100
AcDbPlotSettings
  1

  2
HP DesignJet 500PS42+HPGL2 Card
  4

  6

 40
0.0
 41
0.0
 42
0.0
 43
0.0
 44
0.0
 45
0.0
 46
0.0
 47
0.0
 48
0.0
 49
0.0
140
0.0
141
0.0
142
1.0
143
1.0
 70
  1712
 72
     0
 73
     0
 74
     0
  7
C:\Documents and Settings\Julio\Application Data\Autodesk\AutoCAD 2006\R16.2\enu\Plot Styles\sanindusa.ctb
 75
     0
147
1.0
148
0.0
149
0.0
100
AcDbLayout
  1
Model
 70
     1
 71
     0
 10
0.0
 20
0.0
 11
12.0
 21
9.0
 12
0.0
 22
0.0
 32
0.0
 14
0.0
 24
0.0
 34
0.0
 15
0.0
 25
0.0
 35
0.0
146
0.0
 13
0.0
 23
0.0
 33
0.0
 16
1.0
 26
0.0
 36
0.0
 17
0.0
 27
1.0
 37
0.0
 76
     0
330
23
331
4EC
  0
MATERIAL
  5
500
102
{ACAD_XDICTIONARY
360
501
102
}
102
{ACAD_REACTORS
330
1B
102
}
330
1B
100
AcDbMaterial
  1
ByBlock
 72
     0
 43
0.0008202099737533
 43
0.0
 43
0.0
 43
0.0
 43
0.0
 43
0.0008202099737533
 43
0.0
 43
0.0
 43
0.0
 43
0.0
 43
1.0
 43
0.0
 43
0.0
 43
0.0
 43
0.0
 43
1.0
 77
     0
 47
0.0008202099737533
 47
0.0
 47
0.0
 47
0.0
 47
0.0
 47
0.0008202099737533
 47
0.0
 47
0.0
 47
0.0
 47
0.0
 47
1.0
 47
0.0
 47
0.0
 47
0.0
 47
0.0
 47
1.0
171
     0
 49
0.0008202099737533
 49
0.0
 49
0.0
 49
0.0
 49
0.0
 49
0.0008202099737533
 49
0.0
 49
0.0
 49
0.0
 49
0.0
 49
1.0
 49
0.0
 49
0.0
 49
0.0
 49
0.0
 49
1.0
175
     0
142
0.0008202099737533
142
0.0
142
0.0
142
0.0
142
0.0
142
0.0008202099737533
142
0.0
142
0.0
142
0.0
142
0.0
142
1.0
142
0.0
142
0.0
142
0.0
142
0.0
142
1.0
179
     0
144
0.0008202099737533
144
0.0
144
0.0
144
0.0
144
0.0
144
0.0008202099737533
144
0.0
144
0.0
144
0.0
144
0.0
144
1.0
144
0.0
144
0.0
144
0.0
144
0.0
144
1.0
147
0.0008202099737533
147
0.0
147
0.0
147
0.0
147
0.0
147
0.0008202099737533
147
0.0
147
0.0
147
0.0
147
0.0
147
1.0
147
0.0
147
0.0
147
0.0
147
0.0
147
1.0
  0
MATERIAL
  5
4F8
102
{ACAD_XDICTIONARY
360
4F9
102
}
102
{ACAD_REACTORS
330
1B
102
}
330
1B
100
AcDbMaterial
  1
ByLayer
 72
     0
 43
0.0008202099737533
 43
0.0
 43
0.0
 43
0.0
 43
0.0
 43
0.0008202099737533
 43
0.0
 43
0.0
 43
0.0
 43
0.0
 43
1.0
 43
0.0
 43
0.0
 43
0.0
 43
0.0
 43
1.0
 77
     0
 47
0.0008202099737533
 47
0.0
 47
0.0
 47
0.0
 47
0.0
 47
0.0008202099737533
 47
0.0
 47
0.0
 47
0.0
 47
0.0
 47
1.0
 47
0.0
 47
0.0
 47
0.0
 47
0.0
 47
1.0
171
     0
 49
0.0008202099737533
 49
0.0
 49
0.0
 49
0.0
 49
0.0
 49
0.0008202099737533
 49
0.0
 49
0.0
 49
0.0
 49
0.0
 49
1.0
 49
0.0
 49
0.0
 49
0.0
 49
0.0
 49
1.0
175
     0
142
0.0008202099737533
142
0.0
142
0.0
142
0.0
142
0.0
142
0.0008202099737533
142
0.0
142
0.0
142
0.0
142
0.0
142
1.0
142
0.0
142
0.0
142
0.0
142
0.0
142
1.0
179
     0
144
0.0008202099737533
144
0.0
144
0.0
144
0.0
144
0.0
144
0.0008202099737533
144
0.0
144
0.0
144
0.0
144
0.0
144
1.0
144
0.0
144
0.0
144
0.0
144
0.0
144
1.0
147
0.0008202099737533
147
0.0
147
0.0
147
0.0
147
0.0
147
0.0008202099737533
147
0.0
147
0.0
147
0.0
147
0.0
147
1.0
147
0.0
147
0.0
147
0.0
147
0.0
147
1.0
  0
MATERIAL
  5
508
102
{ACAD_XDICTIONARY
360
509
102
}
102
{ACAD_REACTORS
330
1B
102
}
330
1B
100
AcDbMaterial
  1
Global
 72
     0
 43
0.0008202099737533
 43
0.0
 43
0.0
 43
0.0
 43
0.0
 43
0.0008202099737533
 43
0.0
 43
0.0
 43
0.0
 43
0.0
 43
1.0
 43
0.0
 43
0.0
 43
0.0
 43
0.0
 43
1.0
 77
     0
 47
0.0008202099737533
 47
0.0
 47
0.0
 47
0.0
 47
0.0
 47
0.0008202099737533
 47
0.0
 47
0.0
 47
0.0
 47
0.0
 47
1.0
 47
0.0
 47
0.0
 47
0.0
 47
0.0
 47
1.0
171
     0
 49
0.0008202099737533
 49
0.0
 49
0.0
 49
0.0
 49
0.0
 49
0.0008202099737533
 49
0.0
 49
0.0
 49
0.0
 49
0.0
 49
1.0
 49
0.0
 49
0.0
 49
0.0
 49
0.0
 49
1.0
175
     0
142
0.0008202099737533
142
0.0
142
0.0
142
0.0
142
0.0
142
0.0008202099737533
142
0.0
142
0.0
142
0.0
142
0.0
142
1.0
142
0.0
142
0.0
142
0.0
142
0.0
142
1.0
179
     0
144
0.0008202099737533
144
0.0
144
0.0
144
0.0
144
0.0
144
0.0008202099737533
144
0.0
144
0.0
144
0.0
144
0.0
144
1.0
144
0.0
144
0.0
144
0.0
144
0.0
144
1.0
147
0.0008202099737533
147
0.0
147
0.0
147
0.0
147
0.0
147
0.0008202099737533
147
0.0
147
0.0
147
0.0
147
0.0
147
1.0
147
0.0
147
0.0
147
0.0
147
0.0
147
1.0
  0
MLEADERSTYLE
  5
537
102
{ACAD_REACTORS
330
536
102
}
330
536
100
AcDbMLeaderStyle
170
     2
171
     1
172
     0
 90
        2
 40
0.0
 41
0.0
173
     1
 91
-1056964608
340
14
 92
       -2
290
     1
 42
2.0
291
     1
 43
0.36
  3
Standard
 44
4.0
300

342
11
174
     1
178
     6
175
     1
176
     0
 93
-1056964608
 45
4.0
292
     0
297
     0
 46
4.0
 94
-1056964608
 47
1.0
 49
1.0
140
1.0
293
     1
141
0.0
294
     1
177
     0
142
1.0
295
     0
296
     0
143
0.125
1001
ACAD_MLEADERVER
1070
     2
  0
MLINESTYLE
  5
18
102
{ACAD_REACTORS
330
17
102
}
330
17
100
AcDbMlineStyle
  2
STANDARD
 70
     0
  3

 62
   256
 51
90.0
 52
90.0
 71
     2
 49
0.5
 62
   256
  6
BYLAYER
 49
-0.5
 62
   256
  6
BYLAYER
  0
ACDBPLACEHOLDER
  5
F
102
{ACAD_REACTORS
330
E
102
}
330
E
  0
SCALE
  5
525
102
{ACAD_REACTORS
330
524
102
}
330
524
100
AcDbScale
 70
     0
300
1:1
140
1.0
141
1.0
290
     1
  0
SCALE
  5
526
102
{ACAD_REACTORS
330
524
102
}
330
524
100
AcDbScale
 70
     0
300
1:2
140
1.0
141
2.0
290
     0
  0
SCALE
  5
527
102
{ACAD_REACTORS
330
524
102
}
330
524
100
AcDbScale
 70
     0
300
1:4
140
1.0
141
4.0
290
     0
  0
SCALE
  5
528
102
{ACAD_REACTORS
330
524
102
}
330
524
100
AcDbScale
 70
     0
300
1:5
140
1.0
141
5.0
290
     0
  0
SCALE
  5
529
102
{ACAD_REACTORS
330
524
102
}
330
524
100
AcDbScale
 70
     0
300
1:8
140
1.0
141
8.0
290
     0
  0
SCALE
  5
52A
102
{ACAD_REACTORS
330
524
102
}
330
524
100
AcDbScale
 70
     0
300
1:10
140
1.0
141
10.0
290
     0
  0
SCALE
  5
52B
102
{ACAD_REACTORS
330
524
102
}
330
524
100
AcDbScale
 70
     0
300
1:16
140
1.0
141
16.0
290
     0
  0
SCALE
  5
52C
102
{ACAD_REACTORS
330
524
102
}
330
524
100
AcDbScale
 70
     0
300
1:20
140
1.0
141
20.0
290
     0
  0
SCALE
  5
52D
102
{ACAD_REACTORS
330
524
102
}
330
524
100
AcDbScale
 70
     0
300
1:30
140
1.0
141
30.0
290
     0
  0
SCALE
  5
52E
102
{ACAD_REACTORS
330
524
102
}
330
524
100
AcDbScale
 70
     0
300
1:40
140
1.0
141
40.0
290
     0
  0
SCALE
  5
52F
102
{ACAD_REACTORS
330
524
102
}
330
524
100
AcDbScale
 70
     0
300
1:50
140
1.0
141
50.0
290
     0
  0
SCALE
  5
530
102
{ACAD_REACTORS
330
524
102
}
330
524
100
AcDbScale
 70
     0
300
1:100
140
1.0
141
100.0
290
     0
  0
SCALE
  5
531
102
{ACAD_REACTORS
330
524
102
}
330
524
100
AcDbScale
 70
     0
300
2:1
140
2.0
141
1.0
290
     0
  0
SCALE
  5
532
102
{ACAD_REACTORS
330
524
102
}
330
524
100
AcDbScale
 70
     0
300
4:1
140
4.0
141
1.0
290
     0
  0
SCALE
  5
533
102
{ACAD_REACTORS
330
524
102
}
330
524
100
AcDbScale
 70
     0
300
8:1
140
8.0
141
1.0
290
     0
  0
SCALE
  5
534
102
{ACAD_REACTORS
330
524
102
}
330
524
100
AcDbScale
 70
     0
300
10:1
140
10.0
141
1.0
290
     0
  0
SCALE
  5
535
102
{ACAD_REACTORS
330
524
102
}
330
524
100
AcDbScale
 70
     0
300
100:1
140
100.0
141
1.0
290
     0
  0
TABLESTYLE
  5
1E
102
{ACAD_XDICTIONARY
360
550
102
}
102
{ACAD_REACTORS
330
1D
102
}
330
1D
100
AcDbTableStyle
  3
Standard
 70
     0
 71
     0
 40
1.5
 41
1.5
280
     0
281
     0
  7
Standard
140
4.5
170
     2
 62
     0
 63
     7
283
     0
274
    -2
284
     1
 64
     0
275
    -2
285
     1
 65
     0
276
    -2
286
     1
 66
     0
277
    -2
287
     1
 67
     0
278
    -2
288
     1
 68
     0
279
    -2
289
     1
 69
     0
  7
Standard
140
6.0
170
     5
 62
     0
 63
     7
283
     0
274
    -2
284
     1
 64
     0
275
    -2
285
     1
 65
     0
276
    -2
286
     1
 66
     0
277
    -2
287
     1
 67
     0
278
    -2
288
     1
 68
     0
279
    -2
289
     1
 69
     0
  7
Standard
140
4.5
170
     5
 62
     0
 63
     7
283
     0
274
    -2
284
     1
 64
     0
275
    -2
285
     1
 65
     0
276
    -2
286
     1
 66
     0
277
    -2
287
     1
 67
     0
278
    -2
288
     1
 68
     0
279
    -2
289
     1
 69
     0
  0
VISUALSTYLE
  5
516
102
{ACAD_XDICTIONARY
360
568
102
}
102
{ACAD_REACTORS
330
510
102
}
330
510
100
AcDbVisualStyle
  2
2dWireframe
 70
     4
 71
     0
 72
     2
 73
     0
 90
        0
 40
-0.6
 41
-30.0
 62
     5
 63
     7
 74
     1
 91
        4
 64
     7
 65
   257
 75
     1
175
     1
 42
1.0
 92
        0
 66
   257
 43
1.0
 76
     1
 77
     6
 78
     2
 67
     7
 79
     5
170
     0
171
     0
290
     0
174
     0
 93
        1
 44
0.0
173
     0
291
     0
 45
0.0
1001
ACAD
1000
AcDbSavedByObjectVersion
1070
     0
  0
VISUALSTYLE
  5
518
102
{ACAD_XDICTIONARY
360
56C
102
}
102
{ACAD_REACTORS
330
510
102
}
330
510
100
AcDbVisualStyle
  2
3D Hidden
 70
     6
 71
     1
 72
     2
 73
     2
 90
        0
 40
-0.6
 41
-30.0
 62
     5
 63
     7
 74
     2
 91
        2
 64
     7
 65
   257
 75
     2
175
     1
 42
179.0
 92
        0
 66
   257
 43
1.0
 76
     1
 77
     6
 78
     2
 67
     7
 79
     3
170
     0
171
     0
290
     0
174
     0
 93
        1
 44
0.0
173
     0
291
     0
 45
0.0
1001
ACAD
1000
AcDbSavedByObjectVersion
1070
     0
  0
VISUALSTYLE
  5
517
102
{ACAD_XDICTIONARY
360
56A
102
}
102
{ACAD_REACTORS
330
510
102
}
330
510
100
AcDbVisualStyle
  2
3dWireframe
 70
     5
 71
     0
 72
     2
 73
     0
 90
        0
 40
-0.6
 41
-30.0
 62
     5
 63
     7
 74
     1
 91
        4
 64
     7
 65
   257
 75
     1
175
     1
 42
1.0
 92
        0
 66
   257
 43
1.0
 76
     1
 77
     6
 78
     2
 67
     7
 79
     5
170
     0
171
     0
290
     0
174
     0
 93
        1
 44
0.0
173
     0
291
     0
 45
0.0
1001
ACAD
1000
AcDbSavedByObjectVersion
1070
     0
  0
VISUALSTYLE
  5
515
102
{ACAD_XDICTIONARY
360
566
102
}
102
{ACAD_REACTORS
330
510
102
}
330
510
100
AcDbVisualStyle
  2
Basic
 70
     7
 71
     1
 72
     0
 73
     1
 90
        0
 40
-0.6
 41
-30.0
 62
     5
 63
     7
 74
     0
 91
        4
 64
     7
 65
   257
 75
     1
175
     1
 42
1.0
 92
        8
 66
     7
 43
1.0
 76
     1
 77
     6
 78
     2
 67
     7
 79
     5
170
     0
171
     0
290
     0
174
     0
 93
        1
 44
0.0
173
     0
291
     1
 45
0.0
1001
ACAD
1000
AcDbSavedByObjectVersion
1070
     0
  0
VISUALSTYLE
  5
51C
102
{ACAD_XDICTIONARY
360
574
102
}
102
{ACAD_REACTORS
330
510
102
}
330
510
100
AcDbVisualStyle
  2
Brighten
 70
    12
 71
     2
 72
     2
 73
     0
 90
        0
 40
-0.6
 41
-30.0
 62
     5
 63
     7
 74
     1
 91
        4
 64
     7
 65
   257
 75
     1
175
     1
 42
1.0
 92
        8
 66
     7
 43
1.0
 76
     1
 77
     6
 78
     2
 67
     7
 79
     5
170
     0
171
     0
290
     0
174
     0
 93
        1
 44
50.0
173
     0
291
     1
 45
0.0
1001
ACAD
1000
AcDbSavedByObjectVersion
1070
     0
  0
VISUALSTYLE
  5
520
102
{ACAD_XDICTIONARY
360
57C
102
}
102
{ACAD_REACTORS
330
510
102
}
330
510
100
AcDbVisualStyle
  2
ColorChange
 70
    16
 71
     2
 72
     2
 73
     3
 90
        0
 40
-0.6
 41
-30.0
 62
     5
 63
     8
 74
     1
 91
        4
 64
     7
 65
   257
 75
     1
175
     1
 42
1.0
 92
        8
 66
     8
 43
1.0
 76
     1
 77
     6
 78
     2
 67
     7
 79
     5
170
     0
171
     0
290
     0
174
     0
 93
        1
 44
0.0
173
     0
291
     1
 45
0.0
1001
ACAD
1000
AcDbSavedByObjectVersion
1070
     0
  0
VISUALSTYLE
  5
519
102
{ACAD_XDICTIONARY
360
56E
102
}
102
{ACAD_REACTORS
330
510
102
}
330
510
100
AcDbVisualStyle
  2
Conceptual
 70
     9
 71
     3
 72
     2
 73
     0
 90
        0
 40
-0.6
 41
-30.0
 62
     5
 63
     7
 74
     2
 91
        2
 64
     7
 65
   257
 75
     1
175
     1
 42
179.0
 92
        8
 66
     7
 43
1.0
 76
     1
 77
     6
 78
     2
 67
     7
 79
     3
170
     0
171
     0
290
     0
174
     0
 93
        1
 44
0.0
173
     0
291
     0
 45
0.0
1001
ACAD
1000
AcDbSavedByObjectVersion
1070
     0
  0
VISUALSTYLE
  5
51B
102
{ACAD_XDICTIONARY
360
572
102
}
102
{ACAD_REACTORS
330
510
102
}
330
510
100
AcDbVisualStyle
  2
Dim
 70
    11
 71
     2
 72
     2
 73
     0
 90
        0
 40
-0.6
 41
-30.0
 62
     5
 63
     7
 74
     1
 91
        4
 64
     7
 65
   257
 75
     1
175
     1
 42
1.0
 92
        8
 66
     7
 43
1.0
 76
     1
 77
     6
 78
     2
 67
     7
 79
     5
170
     0
171
     0
290
     0
174
     0
 93
        1
 44
-50.0
173
     0
291
     1
 45
0.0
1001
ACAD
1000
AcDbSavedByObjectVersion
1070
     0
  0
VISUALSTYLE
  5
523
102
{ACAD_XDICTIONARY
360
582
102
}
102
{ACAD_REACTORS
330
510
102
}
330
510
100
AcDbVisualStyle
  2
EdgeColorOff
 70
    22
 71
     2
 72
     2
 73
     0
 90
        0
 40
-0.6
 41
-30.0
 62
     5
 63
     7
 74
     1
 91
        4
 64
     7
 65
   257
 75
     1
175
     1
 42
1.0
 92
        8
 66
     7
 43
1.0
 76
     1
 77
     6
 78
     2
 67
     7
 79
     5
170
     0
171
     0
290
     0
174
     0
 93
        1
 44
0.0
173
     0
291
     1
 45
0.0
1001
ACAD
1000
AcDbSavedByObjectVersion
1070
     0
  0
VISUALSTYLE
  5
51F
102
{ACAD_XDICTIONARY
360
57A
102
}
102
{ACAD_REACTORS
330
510
102
}
330
510
100
AcDbVisualStyle
  2
Facepattern
 70
    15
 71
     2
 72
     2
 73
     0
 90
        0
 40
-0.6
 41
-30.0
 62
     5
 63
     7
 74
     1
 91
        4
 64
     7
 65
   257
 75
     1
175
     1
 42
1.0
 92
        8
 66
     7
 43
1.0
 76
     1
 77
     6
 78
     2
 67
     7
 79
     5
170
     0
171
     0
290
     0
174
     0
 93
        1
 44
0.0
173
     0
291
     1
 45
0.0
1001
ACAD
1000
AcDbSavedByObjectVersion
1070
     0
  0
VISUALSTYLE
  5
511
102
{ACAD_XDICTIONARY
360
55E
102
}
102
{ACAD_REACTORS
330
510
102
}
330
510
100
AcDbVisualStyle
  2
Flat
 70
     0
 71
     2
 72
     1
 73
     1
 90
        2
 40
-0.6
 41
30.0
 62
     5
 63
     7
 74
     0
 91
        4
 64
     7
 65
   257
 75
     1
175
     1
 42
1.0
 92
        8
 66
     7
 43
1.0
 76
     1
 77
     6
 78
     2
 67
     7
 79
     5
170
     0
171
     0
290
     0
174
     0
 93
       13
 44
0.0
173
     0
291
     1
 45
0.0
1001
ACAD
1000
AcDbSavedByObjectVersion
1070
     0
  0
VISUALSTYLE
  5
512
102
{ACAD_XDICTIONARY
360
560
102
}
102
{ACAD_REACTORS
330
510
102
}
330
510
100
AcDbVisualStyle
  2
FlatWithEdges
 70
     1
 71
     2
 72
     1
 73
     1
 90
        2
 40
-0.6
 41
30.0
 62
     5
 63
     7
 74
     1
 91
        4
 64
     7
 65
   257
 75
     1
175
     1
 42
1.0
 92
        0
 66
   257
 43
1.0
 76
     1
 77
     6
 78
     2
 67
     7
 79
     5
170
     0
171
     0
290
     0
174
     0
 93
       13
 44
0.0
173
     0
291
     1
 45
0.0
1001
ACAD
1000
AcDbSavedByObjectVersion
1070
     0
  0
VISUALSTYLE
  5
513
102
{ACAD_XDICTIONARY
360
562
102
}
102
{ACAD_REACTORS
330
510
102
}
330
510
100
AcDbVisualStyle
  2
Gouraud
 70
     2
 71
     2
 72
     2
 73
     1
 90
        2
 40
-0.6
 41
30.0
 62
     5
 63
     7
 74
     0
 91
        4
 64
     7
 65
   257
 75
     1
175
     1
 42
1.0
 92
        0
 66
     7
 43
1.0
 76
     1
 77
     6
 78
     2
 67
     7
 79
     5
170
     0
171
     0
290
     0
174
     0
 93
       13
 44
0.0
173
     0
291
     1
 45
0.0
1001
ACAD
1000
AcDbSavedByObjectVersion
1070
     0
  0
VISUALSTYLE
  5
514
102
{ACAD_XDICTIONARY
360
564
102
}
102
{ACAD_REACTORS
330
510
102
}
330
510
100
AcDbVisualStyle
  2
GouraudWithEdges
 70
     3
 71
     2
 72
     2
 73
     1
 90
        2
 40
-0.6
 41
30.0
 62
     5
 63
     7
 74
     1
 91
        4
 64
     7
 65
   257
 75
     1
175
     1
 42
1.0
 92
        0
 66
   257
 43
1.0
 76
     1
 77
     6
 78
     2
 67
     7
 79
     5
170
     0
171
     0
290
     0
174
     0
 93
       13
 44
0.0
173
     0
291
     1
 45
0.0
1001
ACAD
1000
AcDbSavedByObjectVersion
1070
     0
  0
VISUALSTYLE
  5
521
102
{ACAD_XDICTIONARY
360
57E
102
}
102
{ACAD_REACTORS
330
510
102
}
330
510
100
AcDbVisualStyle
  2
JitterOff
 70
    20
 71
     2
 72
     2
 73
     0
 90
        0
 40
-0.6
 41
-30.0
 62
     5
 63
     7
 74
     1
 91
        4
 64
     7
 65
   257
 75
     1
175
     1
 42
1.0
 92
       10
 66
     7
 43
1.0
 76
     1
 77
     6
 78
     2
 67
     7
 79
     5
170
     0
171
     0
290
     0
174
     0
 93
        1
 44
0.0
173
     0
291
     1
 45
0.0
1001
ACAD
1000
AcDbSavedByObjectVersion
1070
     0
  0
VISUALSTYLE
  5
51E
102
{ACAD_XDICTIONARY
360
578
102
}
102
{ACAD_REACTORS
330
510
102
}
330
510
100
AcDbVisualStyle
  2
Linepattern
 70
    14
 71
     2
 72
     2
 73
     0
 90
        0
 40
-0.6
 41
-30.0
 62
     5
 63
     7
 74
     1
 91
        4
 64
     7
 65
   257
 75
     7
175
     7
 42
1.0
 92
        8
 66
     7
 43
1.0
 76
     1
 77
     6
 78
     2
 67
     7
 79
     5
170
     0
171
     0
290
     0
174
     0
 93
        1
 44
0.0
173
     0
291
     1
 45
0.0
1001
ACAD
1000
AcDbSavedByObjectVersion
1070
     0
  0
VISUALSTYLE
  5
522
102
{ACAD_XDICTIONARY
360
580
102
}
102
{ACAD_REACTORS
330
510
102
}
330
510
100
AcDbVisualStyle
  2
OverhangOff
 70
    21
 71
     2
 72
     2
 73
     0
 90
        0
 40
-0.6
 41
-30.0
 62
     5
 63
     7
 74
     1
 91
        4
 64
     7
 65
   257
 75
     1
175
     1
 42
1.0
 92
        9
 66
     7
 43
1.0
 76
     1
 77
     6
 78
     2
 67
     7
 79
     5
170
     0
171
     0
290
     0
174
     0
 93
        1
 44
0.0
173
     0
291
     1
 45
0.0
1001
ACAD
1000
AcDbSavedByObjectVersion
1070
     0
  0
VISUALSTYLE
  5
51A
102
{ACAD_XDICTIONARY
360
570
102
}
102
{ACAD_REACTORS
330
510
102
}
330
510
100
AcDbVisualStyle
  2
Realistic
 70
     8
 71
     2
 72
     2
 73
     0
 90
        0
 40
-0.6
 41
-30.0
 62
     5
 63
     7
 74
     1
 91
        0
 64
     7
 65
   257
 75
     1
175
     1
 42
1.0
 92
        8
 66
     8
 43
1.0
 76
     1
 77
     6
 78
     2
 67
     7
 79
     5
170
     0
171
     0
290
     0
174
     0
 93
       13
 44
0.0
173
     0
291
     0
 45
0.0
1001
ACAD
1000
AcDbSavedByObjectVersion
1070
     0
  0
VISUALSTYLE
  5
51D
102
{ACAD_XDICTIONARY
360
576
102
}
102
{ACAD_REACTORS
330
510
102
}
330
510
100
AcDbVisualStyle
  2
Thicken
 70
    13
 71
     2
 72
     2
 73
     0
 90
        0
 40
-0.6
 41
-30.0
 62
     5
 63
     7
 74
     1
 91
        4
 64
     7
 65
   257
 75
     1
175
     1
 42
1.0
 92
       12
 66
     7
 43
1.0
 76
     1
 77
     6
 78
     2
 67
     7
 79
     5
170
     0
171
     0
290
     0
174
     0
 93
        1
 44
0.0
173
     0
291
     1
 45
0.0
1001
ACAD
1000
AcDbSavedByObjectVersion
1070
     0
  0
DICTIONARYVAR
  5
54C
102
{ACAD_REACTORS
330
4EA
102
}
330
4EA
100
DictionaryVariables
280
     0
  1
1:1
  0
DICTIONARYVAR
  5
54B
102
{ACAD_REACTORS
330
4EA
102
}
330
4EA
100
DictionaryVariables
280
     0
  1
STANDARD
  0
DICTIONARYVAR
  5
4EB
102
{ACAD_REACTORS
330
4EA
102
}
330
4EA
100
DictionaryVariables
280
     0
  1
STANDARD
  0
DICTIONARYVAR
  5
4F5
102
{ACAD_REACTORS
330
4EA
102
}
330
4EA
100
DictionaryVariables
280
     0
  1
2
  0
DICTIONARYVAR
  5
4F4
102
{ACAD_REACTORS
330
4EA
102
}
330
4EA
100
DictionaryVariables
280
     0
  1
1
  0
DICTIONARYVAR
  5
54E
102
{ACAD_REACTORS
330
4EA
102
}
330
4EA
100
DictionaryVariables
280
     0
  1
0
  0
DICTIONARYVAR
  5
4F6
102
{ACAD_REACTORS
330
4EA
102
}
330
4EA
100
DictionaryVariables
280
     0
  1

  0
DICTIONARYVAR
  5
54D
102
{ACAD_REACTORS
330
4EA
102
}
330
4EA
100
DictionaryVariables
280
     0
  1
127
  0
DICTIONARYVAR
  5
54F
102
{ACAD_REACTORS
330
4EA
102
}
330
4EA
100
DictionaryVariables
280
     0
  1
2
  0
XRECORD
  5
4E8
102
{ACAD_REACTORS
330
4E7
102
}
330
4E7
100
AcDbXrecord
280
     1
  0
DICTIONARY
  5
555
330
22
100
AcDbDictionary
280
     1
281
     1
  3
ACAD_XREC_ROUNDTRIP
360
556
  0
DICTIONARY
  5
559
330
2A
100
AcDbDictionary
280
     1
281
     1
  3
ACAD_XREC_ROUNDTRIP
360
55A
  0
DICTIONARY
  5
557
330
26
100
AcDbDictionary
280
     1
281
     1
  3
ACAD_XREC_ROUNDTRIP
360
558
  0
DICTIONARY
  5
501
330
500
100
AcDbDictionary
280
     1
281
     1
  3
ACAD_XREC_ROUNDTRIP
360
55C
  3
BUMPTILE
360
503
  3
DIFFUSETILE
360
502
  3
OPACITYTILE
360
506
  3
REFLECTIONTILE
360
505
  3
REFRACTIONTILE
360
507
  3
SPECULARTILE
360
504
  0
DICTIONARY
  5
4F9
330
4F8
100
AcDbDictionary
280
     1
281
     1
  3
ACAD_XREC_ROUNDTRIP
360
55B
  3
BUMPTILE
360
4FB
  3
DIFFUSETILE
360
4FA
  3
OPACITYTILE
360
4FE
  3
REFLECTIONTILE
360
4FD
  3
REFRACTIONTILE
360
4FF
  3
SPECULARTILE
360
4FC
  0
DICTIONARY
  5
509
330
508
100
AcDbDictionary
280
     1
281
     1
  3
ACAD_XREC_ROUNDTRIP
360
55D
  3
BUMPTILE
360
50B
  3
DIFFUSETILE
360
50A
  3
OPACITYTILE
360
50E
  3
REFLECTIONTILE
360
50D
  3
REFRACTIONTILE
360
50F
  3
SPECULARTILE
360
50C
  0
DICTIONARY
  5
550
330
1E
100
AcDbDictionary
280
     1
281
     1
  3
ACAD_ROUNDTRIP_2008_TABLESTYLE_CELLSTYLEMAP
360
551
  3
ACAD_XREC_ROUNDTRIP
360
554
  0
DICTIONARY
  5
568
330
516
100
AcDbDictionary
280
     1
281
     1
  3
ACAD_XREC_ROUNDTRIP
360
569
  0
DICTIONARY
  5
56C
330
518
100
AcDbDictionary
280
     1
281
     1
  3
ACAD_XREC_ROUNDTRIP
360
56D
  0
DICTIONARY
  5
56A
330
517
100
AcDbDictionary
280
     1
281
     1
  3
ACAD_XREC_ROUNDTRIP
360
56B
  0
DICTIONARY
  5
566
330
515
100
AcDbDictionary
280
     1
281
     1
  3
ACAD_XREC_ROUNDTRIP
360
567
  0
DICTIONARY
  5
574
330
51C
100
AcDbDictionary
280
     1
281
     1
  3
ACAD_XREC_ROUNDTRIP
360
575
  0
DICTIONARY
  5
57C
330
520
100
AcDbDictionary
280
     1
281
     1
  3
ACAD_XREC_ROUNDTRIP
360
57D
  0
DICTIONARY
  5
56E
330
519
100
AcDbDictionary
280
     1
281
     1
  3
ACAD_XREC_ROUNDTRIP
360
56F
  0
DICTIONARY
  5
572
330
51B
100
AcDbDictionary
280
     1
281
     1
  3
ACAD_XREC_ROUNDTRIP
360
573
  0
DICTIONARY
  5
582
330
523
100
AcDbDictionary
280
     1
281
     1
  3
ACAD_XREC_ROUNDTRIP
360
583
  0
DICTIONARY
  5
57A
330
51F
100
AcDbDictionary
280
     1
281
     1
  3
ACAD_XREC_ROUNDTRIP
360
57B
  0
DICTIONARY
  5
55E
330
511
100
AcDbDictionary
280
     1
281
     1
  3
ACAD_XREC_ROUNDTRIP
360
55F
  0
DICTIONARY
  5
560
330
512
100
AcDbDictionary
280
     1
281
     1
  3
ACAD_XREC_ROUNDTRIP
360
561
  0
DICTIONARY
  5
562
330
513
100
AcDbDictionary
280
     1
281
     1
  3
ACAD_XREC_ROUNDTRIP
360
563
  0
DICTIONARY
  5
564
330
514
100
AcDbDictionary
280
     1
281
     1
  3
ACAD_XREC_ROUNDTRIP
360
565
  0
DICTIONARY
  5
57E
330
521
100
AcDbDictionary
280
     1
281
     1
  3
ACAD_XREC_ROUNDTRIP
360
57F
  0
DICTIONARY
  5
578
330
51E
100
AcDbDictionary
280
     1
281
     1
  3
ACAD_XREC_ROUNDTRIP
360
579
  0
DICTIONARY
  5
580
330
522
100
AcDbDictionary
280
     1
281
     1
  3
ACAD_XREC_ROUNDTRIP
360
581
  0
DICTIONARY
  5
570
330
51A
100
AcDbDictionary
280
     1
281
     1
  3
ACAD_XREC_ROUNDTRIP
360
571
  0
DICTIONARY
  5
576
330
51D
100
AcDbDictionary
280
     1
281
     1
  3
ACAD_XREC_ROUNDTRIP
360
577
  0
XRECORD
  5
556
102
{ACAD_REACTORS
330
555
102
}
330
555
100
AcDbXrecord
280
     1
102
SHADEPLOT
 70
     0
102
SHADEPLOTRESLEVEL
 70
     2
102
SHADEPLOTCUSTOMDPI
 70
   300
  0
XRECORD
  5
55A
102
{ACAD_REACTORS
330
559
102
}
330
559
100
AcDbXrecord
280
     1
102
SHADEPLOT
 70
     0
102
SHADEPLOTRESLEVEL
 70
     2
102
SHADEPLOTCUSTOMDPI
 70
   300
  0
XRECORD
  5
558
102
{ACAD_REACTORS
330
557
102
}
330
557
100
AcDbXrecord
280
     1
102
SHADEPLOT
 70
     0
102
SHADEPLOTRESLEVEL
 70
     2
102
SHADEPLOTCUSTOMDPI
 70
   300
  0
XRECORD
  5
55C
102
{ACAD_REACTORS
330
501
102
}
330
501
100
AcDbXrecord
280
     1
102
MATERIAL
148
0.0
149
0.0
149
0.0
 93
        0
 94
      127
282
     0
 72
     0
 77
     0
171
     0
175
     0
179
     0
273
     0
  0
XRECORD
  5
503
102
{ACAD_REACTORS
330
501
102
}
330
501
100
AcDbXrecord
280
     1
270
     1
271
     1
  0
XRECORD
  5
502
102
{ACAD_REACTORS
330
501
102
}
330
501
100
AcDbXrecord
280
     1
270
     1
271
     1
  0
XRECORD
  5
506
102
{ACAD_REACTORS
330
501
102
}
330
501
100
AcDbXrecord
280
     1
270
     1
271
     1
  0
XRECORD
  5
505
102
{ACAD_REACTORS
330
501
102
}
330
501
100
AcDbXrecord
280
     1
270
     1
271
     1
  0
XRECORD
  5
507
102
{ACAD_REACTORS
330
501
102
}
330
501
100
AcDbXrecord
280
     1
270
     1
271
     1
  0
XRECORD
  5
504
102
{ACAD_REACTORS
330
501
102
}
330
501
100
AcDbXrecord
280
     1
270
     1
271
     1
  0
XRECORD
  5
55B
102
{ACAD_REACTORS
330
4F9
102
}
330
4F9
100
AcDbXrecord
280
     1
102
MATERIAL
148
0.0
149
0.0
149
0.0
 93
        0
 94
      127
282
     0
 72
     0
 77
     0
171
     0
175
     0
179
     0
273
     0
  0
XRECORD
  5
4FB
102
{ACAD_REACTORS
330
4F9
102
}
330
4F9
100
AcDbXrecord
280
     1
270
     1
271
     1
  0
XRECORD
  5
4FA
102
{ACAD_REACTORS
330
4F9
102
}
330
4F9
100
AcDbXrecord
280
     1
270
     1
271
     1
  0
XRECORD
  5
4FE
102
{ACAD_REACTORS
330
4F9
102
}
330
4F9
100
AcDbXrecord
280
     1
270
     1
271
     1
  0
XRECORD
  5
4FD
102
{ACAD_REACTORS
330
4F9
102
}
330
4F9
100
AcDbXrecord
280
     1
270
     1
271
     1
  0
XRECORD
  5
4FF
102
{ACAD_REACTORS
330
4F9
102
}
330
4F9
100
AcDbXrecord
280
     1
270
     1
271
     1
  0
XRECORD
  5
4FC
102
{ACAD_REACTORS
330
4F9
102
}
330
4F9
100
AcDbXrecord
280
     1
270
     1
271
     1
  0
XRECORD
  5
55D
102
{ACAD_REACTORS
330
509
102
}
330
509
100
AcDbXrecord
280
     1
102
MATERIAL
148
0.0
149
0.0
149
0.0
 93
        0
 94
      127
282
     0
 72
     0
 77
     0
171
     0
175
     0
179
     0
273
     0
  0
XRECORD
  5
50B
102
{ACAD_REACTORS
330
509
102
}
330
509
100
AcDbXrecord
280
     1
270
     1
271
     1
  0
XRECORD
  5
50A
102
{ACAD_REACTORS
330
509
102
}
330
509
100
AcDbXrecord
280
     1
270
     1
271
     1
  0
XRECORD
  5
50E
102
{ACAD_REACTORS
330
509
102
}
330
509
100
AcDbXrecord
280
     1
270
     1
271
     1
  0
XRECORD
  5
50D
102
{ACAD_REACTORS
330
509
102
}
330
509
100
AcDbXrecord
280
     1
270
     1
271
     1
  0
XRECORD
  5
50F
102
{ACAD_REACTORS
330
509
102
}
330
509
100
AcDbXrecord
280
     1
270
     1
271
     1
  0
XRECORD
  5
50C
102
{ACAD_REACTORS
330
509
102
}
330
509
100
AcDbXrecord
280
     1
270
     1
271
     1
  0
CELLSTYLEMAP
  5
551
102
{ACAD_REACTORS
330
550
102
}
330
550
100
AcDbCellStyleMap
 90
        3
300
CELLSTYLE
  1
TABLEFORMAT_BEGIN
 90
        5
170
     1
 91
        0
 92
    32768
 62
   257
 93
        1
300
CONTENTFORMAT
  1
CONTENTFORMAT_BEGIN
 90
        0
 91
        0
 92
        4
 93
        0
300

 40
0.0
140
1.0
 94
        5
 62
     0
340
11
144
6.0
309
CONTENTFORMAT_END
171
     1
301
MARGIN
  1
CELLMARGIN_BEGIN
 40
1.5
 40
1.5
 40
1.5
 40
1.5
 40
0.18
 40
0.18
309
CELLMARGIN_END
 94
        6
 95
        1
302
GRIDFORMAT
  1
GRIDFORMAT_BEGIN
 90
        0
 91
        1
 62
     0
 92
       -2
340
0
 93
        0
 40
0.045
309
GRIDFORMAT_END
 95
        2
302
GRIDFORMAT
  1
GRIDFORMAT_BEGIN
 90
        0
 91
        1
 62
     0
 92
       -2
340
0
 93
        0
 40
0.045
309
GRIDFORMAT_END
 95
        4
302
GRIDFORMAT
  1
GRIDFORMAT_BEGIN
 90
        0
 91
        1
 62
     0
 92
       -2
340
0
 93
        0
 40
0.045
309
GRIDFORMAT_END
 95
        8
302
GRIDFORMAT
  1
GRIDFORMAT_BEGIN
 90
        0
 91
        1
 62
     0
 92
       -2
340
0
 93
        0
 40
0.045
309
GRIDFORMAT_END
 95
       16
302
GRIDFORMAT
  1
GRIDFORMAT_BEGIN
 90
        0
 91
        1
 62
     0
 92
       -2
340
0
 93
        0
 40
0.045
309
GRIDFORMAT_END
 95
       32
302
GRIDFORMAT
  1
GRIDFORMAT_BEGIN
 90
        0
 91
        1
 62
     0
 92
       -2
340
0
 93
        0
 40
0.045
309
GRIDFORMAT_END
309
TABLEFORMAT_END
  1
CELLSTYLE_BEGIN
 90
        1
 91
        1
300
_TITLE
309
CELLSTYLE_END
300
CELLSTYLE
  1
TABLEFORMAT_BEGIN
 90
        5
170
     1
 91
        0
 92
        0
 62
   257
 93
        1
300
CONTENTFORMAT
  1
CONTENTFORMAT_BEGIN
 90
        0
 91
        0
 92
        4
 93
        0
300

 40
0.0
140
1.0
 94
        5
 62
     0
340
11
144
4.5
309
CONTENTFORMAT_END
171
     1
301
MARGIN
  1
CELLMARGIN_BEGIN
 40
1.5
 40
1.5
 40
1.5
 40
1.5
 40
0.18
 40
0.18
309
CELLMARGIN_END
 94
        6
 95
        1
302
GRIDFORMAT
  1
GRIDFORMAT_BEGIN
 90
        0
 91
        1
 62
     0
 92
       -2
340
0
 93
        0
 40
0.045
309
GRIDFORMAT_END
 95
        2
302
GRIDFORMAT
  1
GRIDFORMAT_BEGIN
 90
        0
 91
        1
 62
     0
 92
       -2
340
0
 93
        0
 40
0.045
309
GRIDFORMAT_END
 95
        4
302
GRIDFORMAT
  1
GRIDFORMAT_BEGIN
 90
        0
 91
        1
 62
     0
 92
       -2
340
0
 93
        0
 40
0.045
309
GRIDFORMAT_END
 95
        8
302
GRIDFORMAT
  1
GRIDFORMAT_BEGIN
 90
        0
 91
        1
 62
     0
 92
       -2
340
0
 93
        0
 40
0.045
309
GRIDFORMAT_END
 95
       16
302
GRIDFORMAT
  1
GRIDFORMAT_BEGIN
 90
        0
 91
        1
 62
     0
 92
       -2
340
0
 93
        0
 40
0.045
309
GRIDFORMAT_END
 95
       32
302
GRIDFORMAT
  1
GRIDFORMAT_BEGIN
 90
        0
 91
        1
 62
     0
 92
       -2
340
0
 93
        0
 40
0.045
309
GRIDFORMAT_END
309
TABLEFORMAT_END
  1
CELLSTYLE_BEGIN
 90
        2
 91
        1
300
_HEADER
309
CELLSTYLE_END
300
CELLSTYLE
  1
TABLEFORMAT_BEGIN
 90
        5
170
     1
 91
        0
 92
        0
 62
   257
 93
        1
300
CONTENTFORMAT
  1
CONTENTFORMAT_BEGIN
 90
        0
 91
        0
 92
        4
 93
        0
300

 40
0.0
140
1.0
 94
        2
 62
     0
340
11
144
4.5
309
CONTENTFORMAT_END
171
     1
301
MARGIN
  1
CELLMARGIN_BEGIN
 40
1.5
 40
1.5
 40
1.5
 40
1.5
 40
0.18
 40
0.18
309
CELLMARGIN_END
 94
        6
 95
        1
302
GRIDFORMAT
  1
GRIDFORMAT_BEGIN
 90
        0
 91
        1
 62
     0
 92
       -2
340
0
 93
        0
 40
0.045
309
GRIDFORMAT_END
 95
        2
302
GRIDFORMAT
  1
GRIDFORMAT_BEGIN
 90
        0
 91
        1
 62
     0
 92
       -2
340
0
 93
        0
 40
0.045
309
GRIDFORMAT_END
 95
        4
302
GRIDFORMAT
  1
GRIDFORMAT_BEGIN
 90
        0
 91
        1
 62
     0
 92
       -2
340
0
 93
        0
 40
0.045
309
GRIDFORMAT_END
 95
        8
302
GRIDFORMAT
  1
GRIDFORMAT_BEGIN
 90
        0
 91
        1
 62
     0
 92
       -2
340
0
 93
        0
 40
0.045
309
GRIDFORMAT_END
 95
       16
302
GRIDFORMAT
  1
GRIDFORMAT_BEGIN
 90
        0
 91
        1
 62
     0
 92
       -2
340
0
 93
        0
 40
0.045
309
GRIDFORMAT_END
 95
       32
302
GRIDFORMAT
  1
GRIDFORMAT_BEGIN
 90
        0
 91
        1
 62
     0
 92
       -2
340
0
 93
        0
 40
0.045
309
GRIDFORMAT_END
309
TABLEFORMAT_END
  1
CELLSTYLE_BEGIN
 90
        3
 91
        2
300
_DATA
309
CELLSTYLE_END
  0
XRECORD
  5
554
102
{ACAD_REACTORS
330
550
102
}
330
550
100
AcDbXrecord
280
     1
102
ACAD_ROUNDTRIP_PRE2007_TABLESTYLE
 90
        4
 91
        0
  1

 92
        4
 93
        0
  2

 94
        4
 95
        0
  3

  0
XRECORD
  5
569
102
{ACAD_REACTORS
330
568
102
}
330
568
100
AcDbXrecord
280
     1
102
RTVSPropertyOp0
 70
     1
102
RTVSPropertyOp1
 70
     1
102
RTVSPropertyOp2
 70
     1
102
RTVSPropertyOp3
 70
     1
102
RTVSPropertyOp4
 70
     1
102
RTVSPropertyOp5
 70
     1
102
RTVSPropertyOp6
 70
     1
102
RTVSPropertyOp7
 70
     1
102
RTVSPropertyOp8
 70
     1
102
RTVSPropertyOp9
 70
     1
102
RTVSPropertyOp10
 70
     1
102
RTVSPropertyOp11
 70
     1
102
RTVSPropertyOp12
 70
     1
102
RTVSPropertyOp13
 70
     1
102
RTVSPropertyOp14
 70
     1
102
RTVSPropertyOp15
 70
     1
102
RTVSPropertyOp16
 70
     1
102
RTVSPropertyOp17
 70
     1
102
RTVSPropertyOp18
 70
     1
102
RTVSPropertyOp19
 70
     1
102
RTVSPropertyOp20
 70
     1
102
RTVSPropertyOp21
 70
     1
102
RTVSPropertyOp22
 70
     1
102
RTVSPropertyOp23
 70
     1
102
RTVSPropertyOp24
 70
     1
102
RTVSPropertyOp25
 70
     1
102
RTVSPropertyOp26
 70
     1
102
RTVSPropertyOp27
 70
     1
  0
XRECORD
  5
56D
102
{ACAD_REACTORS
330
56C
102
}
330
56C
100
AcDbXrecord
280
     1
102
RTVSPropertyOp0
 70
     1
102
RTVSPropertyOp1
 70
     1
102
RTVSPropertyOp2
 70
     1
102
RTVSPropertyOp3
 70
     1
102
RTVSPropertyOp4
 70
     1
102
RTVSPropertyOp5
 70
     1
102
RTVSPropertyOp6
 70
     1
102
RTVSPropertyOp7
 70
     1
102
RTVSPropertyOp8
 70
     1
102
RTVSPropertyOp9
 70
     1
102
RTVSPropertyOp10
 70
     1
102
RTVSPropertyOp11
 70
     1
102
RTVSPropertyOp12
 70
     1
102
RTVSPropertyOp13
 70
     1
102
RTVSPropertyOp14
 70
     1
102
RTVSPropertyOp15
 70
     1
102
RTVSPropertyOp16
 70
     1
102
RTVSPropertyOp17
 70
     1
102
RTVSPropertyOp18
 70
     1
102
RTVSPropertyOp19
 70
     1
102
RTVSPropertyOp20
 70
     1
102
RTVSPropertyOp21
 70
     1
102
RTVSPropertyOp22
 70
     1
102
RTVSPropertyOp23
 70
     1
102
RTVSPropertyOp24
 70
     1
102
RTVSPropertyOp25
 70
     1
102
RTVSPropertyOp26
 70
     1
102
RTVSPropertyOp27
 70
     1
  0
XRECORD
  5
56B
102
{ACAD_REACTORS
330
56A
102
}
330
56A
100
AcDbXrecord
280
     1
102
RTVSPropertyOp0
 70
     1
102
RTVSPropertyOp1
 70
     1
102
RTVSPropertyOp2
 70
     1
102
RTVSPropertyOp3
 70
     1
102
RTVSPropertyOp4
 70
     1
102
RTVSPropertyOp5
 70
     1
102
RTVSPropertyOp6
 70
     1
102
RTVSPropertyOp7
 70
     1
102
RTVSPropertyOp8
 70
     1
102
RTVSPropertyOp9
 70
     1
102
RTVSPropertyOp10
 70
     1
102
RTVSPropertyOp11
 70
     1
102
RTVSPropertyOp12
 70
     1
102
RTVSPropertyOp13
 70
     1
102
RTVSPropertyOp14
 70
     1
102
RTVSPropertyOp15
 70
     1
102
RTVSPropertyOp16
 70
     1
102
RTVSPropertyOp17
 70
     1
102
RTVSPropertyOp18
 70
     1
102
RTVSPropertyOp19
 70
     1
102
RTVSPropertyOp20
 70
     1
102
RTVSPropertyOp21
 70
     1
102
RTVSPropertyOp22
 70
     1
102
RTVSPropertyOp23
 70
     1
102
RTVSPropertyOp24
 70
     1
102
RTVSPropertyOp25
 70
     1
102
RTVSPropertyOp26
 70
     1
102
RTVSPropertyOp27
 70
     1
  0
XRECORD
  5
567
102
{ACAD_REACTORS
330
566
102
}
330
566
100
AcDbXrecord
280
     1
102
RTVSPropertyOp0
 70
     1
102
RTVSPropertyOp1
 70
     1
102
RTVSPropertyOp2
 70
     1
102
RTVSPropertyOp3
 70
     1
102
RTVSPropertyOp4
 70
     1
102
RTVSPropertyOp5
 70
     1
102
RTVSPropertyOp6
 70
     1
102
RTVSPropertyOp7
 70
     1
102
RTVSPropertyOp8
 70
     1
102
RTVSPropertyOp9
 70
     1
102
RTVSPropertyOp10
 70
     1
102
RTVSPropertyOp11
 70
     1
102
RTVSPropertyOp12
 70
     1
102
RTVSPropertyOp13
 70
     1
102
RTVSPropertyOp14
 70
     1
102
RTVSPropertyOp15
 70
     1
102
RTVSPropertyOp16
 70
     1
102
RTVSPropertyOp17
 70
     1
102
RTVSPropertyOp18
 70
     1
102
RTVSPropertyOp19
 70
     1
102
RTVSPropertyOp20
 70
     1
102
RTVSPropertyOp21
 70
     1
102
RTVSPropertyOp22
 70
     1
102
RTVSPropertyOp23
 70
     1
102
RTVSPropertyOp24
 70
     1
102
RTVSPropertyOp25
 70
     1
102
RTVSPropertyOp26
 70
     1
102
RTVSPropertyOp27
 70
     1
  0
XRECORD
  5
575
102
{ACAD_REACTORS
330
574
102
}
330
574
100
AcDbXrecord
280
     1
102
RTVSPropertyOp0
 70
     1
102
RTVSPropertyOp1
 70
     1
102
RTVSPropertyOp2
 70
     1
102
RTVSPropertyOp3
 70
     1
102
RTVSPropertyOp4
 70
     1
102
RTVSPropertyOp5
 70
     1
102
RTVSPropertyOp6
 70
     1
102
RTVSPropertyOp7
 70
     1
102
RTVSPropertyOp8
 70
     1
102
RTVSPropertyOp9
 70
     1
102
RTVSPropertyOp10
 70
     1
102
RTVSPropertyOp11
 70
     1
102
RTVSPropertyOp12
 70
     1
102
RTVSPropertyOp13
 70
     1
102
RTVSPropertyOp14
 70
     1
102
RTVSPropertyOp15
 70
     1
102
RTVSPropertyOp16
 70
     1
102
RTVSPropertyOp17
 70
     1
102
RTVSPropertyOp18
 70
     1
102
RTVSPropertyOp19
 70
     1
102
RTVSPropertyOp20
 70
     1
102
RTVSPropertyOp21
 70
     1
102
RTVSPropertyOp22
 70
     1
102
RTVSPropertyOp23
 70
     1
102
RTVSPropertyOp24
 70
     1
102
RTVSPropertyOp25
 70
     1
102
RTVSPropertyOp26
 70
     1
102
RTVSPropertyOp27
 70
     1
  0
XRECORD
  5
57D
102
{ACAD_REACTORS
330
57C
102
}
330
57C
100
AcDbXrecord
280
     1
102
RTVSPropertyOp0
 70
     1
102
RTVSPropertyOp1
 70
     1
102
RTVSPropertyOp2
 70
     1
102
RTVSPropertyOp3
 70
     1
102
RTVSPropertyOp4
 70
     1
102
RTVSPropertyOp5
 70
     1
102
RTVSPropertyOp6
 70
     1
102
RTVSPropertyOp7
 70
     1
102
RTVSPropertyOp8
 70
     1
102
RTVSPropertyOp9
 70
     1
102
RTVSPropertyOp10
 70
     1
102
RTVSPropertyOp11
 70
     1
102
RTVSPropertyOp12
 70
     1
102
RTVSPropertyOp13
 70
     1
102
RTVSPropertyOp14
 70
     1
102
RTVSPropertyOp15
 70
     1
102
RTVSPropertyOp16
 70
     1
102
RTVSPropertyOp17
 70
     1
102
RTVSPropertyOp18
 70
     1
102
RTVSPropertyOp19
 70
     1
102
RTVSPropertyOp20
 70
     1
102
RTVSPropertyOp21
 70
     1
102
RTVSPropertyOp22
 70
     1
102
RTVSPropertyOp23
 70
     1
102
RTVSPropertyOp24
 70
     1
102
RTVSPropertyOp25
 70
     1
102
RTVSPropertyOp26
 70
     1
102
RTVSPropertyOp27
 70
     1
  0
XRECORD
  5
56F
102
{ACAD_REACTORS
330
56E
102
}
330
56E
100
AcDbXrecord
280
     1
102
RTVSPropertyOp0
 70
     1
102
RTVSPropertyOp1
 70
     1
102
RTVSPropertyOp2
 70
     1
102
RTVSPropertyOp3
 70
     1
102
RTVSPropertyOp4
 70
     1
102
RTVSPropertyOp5
 70
     1
102
RTVSPropertyOp6
 70
     1
102
RTVSPropertyOp7
 70
     1
102
RTVSPropertyOp8
 70
     1
102
RTVSPropertyOp9
 70
     1
102
RTVSPropertyOp10
 70
     1
102
RTVSPropertyOp11
 70
     1
102
RTVSPropertyOp12
 70
     1
102
RTVSPropertyOp13
 70
     1
102
RTVSPropertyOp14
 70
     1
102
RTVSPropertyOp15
 70
     1
102
RTVSPropertyOp16
 70
     1
102
RTVSPropertyOp17
 70
     1
102
RTVSPropertyOp18
 70
     1
102
RTVSPropertyOp19
 70
     1
102
RTVSPropertyOp20
 70
     1
102
RTVSPropertyOp21
 70
     1
102
RTVSPropertyOp22
 70
     1
102
RTVSPropertyOp23
 70
     1
102
RTVSPropertyOp24
 70
     1
102
RTVSPropertyOp25
 70
     1
102
RTVSPropertyOp26
 70
     1
102
RTVSPropertyOp27
 70
     1
  0
XRECORD
  5
573
102
{ACAD_REACTORS
330
572
102
}
330
572
100
AcDbXrecord
280
     1
102
RTVSPropertyOp0
 70
     1
102
RTVSPropertyOp1
 70
     1
102
RTVSPropertyOp2
 70
     1
102
RTVSPropertyOp3
 70
     1
102
RTVSPropertyOp4
 70
     1
102
RTVSPropertyOp5
 70
     1
102
RTVSPropertyOp6
 70
     1
102
RTVSPropertyOp7
 70
     1
102
RTVSPropertyOp8
 70
     1
102
RTVSPropertyOp9
 70
     1
102
RTVSPropertyOp10
 70
     1
102
RTVSPropertyOp11
 70
     1
102
RTVSPropertyOp12
 70
     1
102
RTVSPropertyOp13
 70
     1
102
RTVSPropertyOp14
 70
     1
102
RTVSPropertyOp15
 70
     1
102
RTVSPropertyOp16
 70
     1
102
RTVSPropertyOp17
 70
     1
102
RTVSPropertyOp18
 70
     1
102
RTVSPropertyOp19
 70
     1
102
RTVSPropertyOp20
 70
     1
102
RTVSPropertyOp21
 70
     1
102
RTVSPropertyOp22
 70
     1
102
RTVSPropertyOp23
 70
     1
102
RTVSPropertyOp24
 70
     1
102
RTVSPropertyOp25
 70
     1
102
RTVSPropertyOp26
 70
     1
102
RTVSPropertyOp27
 70
     1
  0
XRECORD
  5
583
102
{ACAD_REACTORS
330
582
102
}
330
582
100
AcDbXrecord
280
     1
102
RTVSPropertyOp0
 70
     0
102
RTVSPropertyOp1
 70
     0
102
RTVSPropertyOp2
 70
     0
102
RTVSPropertyOp3
 70
     0
102
RTVSPropertyOp4
 70
     0
102
RTVSPropertyOp5
 70
     0
102
RTVSPropertyOp6
 70
     0
102
RTVSPropertyOp7
 70
     0
102
RTVSPropertyOp8
 70
     0
102
RTVSPropertyOp9
 70
     0
102
RTVSPropertyOp10
 70
     0
102
RTVSPropertyOp11
 70
     0
102
RTVSPropertyOp12
 70
     0
102
RTVSPropertyOp13
 70
     0
102
RTVSPropertyOp14
 70
     2
102
RTVSPropertyOp15
 70
     0
102
RTVSPropertyOp16
 70
     0
102
RTVSPropertyOp17
 70
     0
102
RTVSPropertyOp18
 70
     0
102
RTVSPropertyOp19
 70
     0
102
RTVSPropertyOp20
 70
     0
102
RTVSPropertyOp21
 70
     0
102
RTVSPropertyOp22
 70
     0
102
RTVSPropertyOp23
 70
     0
102
RTVSPropertyOp24
 70
     0
102
RTVSPropertyOp25
 70
     0
102
RTVSPropertyOp26
 70
     0
102
RTVSPropertyOp27
 70
     0
  0
XRECORD
  5
57B
102
{ACAD_REACTORS
330
57A
102
}
330
57A
100
AcDbXrecord
280
     1
102
RTVSPropertyOp0
 70
     1
102
RTVSPropertyOp1
 70
     1
102
RTVSPropertyOp2
 70
     1
102
RTVSPropertyOp3
 70
     1
102
RTVSPropertyOp4
 70
     1
102
RTVSPropertyOp5
 70
     1
102
RTVSPropertyOp6
 70
     1
102
RTVSPropertyOp7
 70
     1
102
RTVSPropertyOp8
 70
     1
102
RTVSPropertyOp9
 70
     1
102
RTVSPropertyOp10
 70
     1
102
RTVSPropertyOp11
 70
     1
102
RTVSPropertyOp12
 70
     1
102
RTVSPropertyOp13
 70
     1
102
RTVSPropertyOp14
 70
     1
102
RTVSPropertyOp15
 70
     1
102
RTVSPropertyOp16
 70
     1
102
RTVSPropertyOp17
 70
     1
102
RTVSPropertyOp18
 70
     1
102
RTVSPropertyOp19
 70
     1
102
RTVSPropertyOp20
 70
     1
102
RTVSPropertyOp21
 70
     1
102
RTVSPropertyOp22
 70
     1
102
RTVSPropertyOp23
 70
     1
102
RTVSPropertyOp24
 70
     1
102
RTVSPropertyOp25
 70
     1
102
RTVSPropertyOp26
 70
     1
102
RTVSPropertyOp27
 70
     1
  0
XRECORD
  5
55F
102
{ACAD_REACTORS
330
55E
102
}
330
55E
100
AcDbXrecord
280
     1
102
RTVSPropertyOp0
 70
     1
102
RTVSPropertyOp1
 70
     1
102
RTVSPropertyOp2
 70
     1
102
RTVSPropertyOp3
 70
     1
102
RTVSPropertyOp4
 70
     1
102
RTVSPropertyOp5
 70
     1
102
RTVSPropertyOp6
 70
     1
102
RTVSPropertyOp7
 70
     1
102
RTVSPropertyOp8
 70
     1
102
RTVSPropertyOp9
 70
     1
102
RTVSPropertyOp10
 70
     1
102
RTVSPropertyOp11
 70
     1
102
RTVSPropertyOp12
 70
     1
102
RTVSPropertyOp13
 70
     1
102
RTVSPropertyOp14
 70
     1
102
RTVSPropertyOp15
 70
     1
102
RTVSPropertyOp16
 70
     1
102
RTVSPropertyOp17
 70
     1
102
RTVSPropertyOp18
 70
     1
102
RTVSPropertyOp19
 70
     1
102
RTVSPropertyOp20
 70
     1
102
RTVSPropertyOp21
 70
     1
102
RTVSPropertyOp22
 70
     1
102
RTVSPropertyOp23
 70
     1
102
RTVSPropertyOp24
 70
     1
102
RTVSPropertyOp25
 70
     1
102
RTVSPropertyOp26
 70
     1
102
RTVSPropertyOp27
 70
     1
  0
XRECORD
  5
561
102
{ACAD_REACTORS
330
560
102
}
330
560
100
AcDbXrecord
280
     1
102
RTVSPropertyOp0
 70
     1
102
RTVSPropertyOp1
 70
     1
102
RTVSPropertyOp2
 70
     1
102
RTVSPropertyOp3
 70
     1
102
RTVSPropertyOp4
 70
     1
102
RTVSPropertyOp5
 70
     1
102
RTVSPropertyOp6
 70
     1
102
RTVSPropertyOp7
 70
     1
102
RTVSPropertyOp8
 70
     1
102
RTVSPropertyOp9
 70
     1
102
RTVSPropertyOp10
 70
     1
102
RTVSPropertyOp11
 70
     1
102
RTVSPropertyOp12
 70
     1
102
RTVSPropertyOp13
 70
     1
102
RTVSPropertyOp14
 70
     1
102
RTVSPropertyOp15
 70
     1
102
RTVSPropertyOp16
 70
     1
102
RTVSPropertyOp17
 70
     1
102
RTVSPropertyOp18
 70
     1
102
RTVSPropertyOp19
 70
     1
102
RTVSPropertyOp20
 70
     1
102
RTVSPropertyOp21
 70
     1
102
RTVSPropertyOp22
 70
     1
102
RTVSPropertyOp23
 70
     1
102
RTVSPropertyOp24
 70
     1
102
RTVSPropertyOp25
 70
     1
102
RTVSPropertyOp26
 70
     1
102
RTVSPropertyOp27
 70
     1
  0
XRECORD
  5
563
102
{ACAD_REACTORS
330
562
102
}
330
562
100
AcDbXrecord
280
     1
102
RTVSPropertyOp0
 70
     1
102
RTVSPropertyOp1
 70
     1
102
RTVSPropertyOp2
 70
     1
102
RTVSPropertyOp3
 70
     1
102
RTVSPropertyOp4
 70
     1
102
RTVSPropertyOp5
 70
     1
102
RTVSPropertyOp6
 70
     1
102
RTVSPropertyOp7
 70
     1
102
RTVSPropertyOp8
 70
     1
102
RTVSPropertyOp9
 70
     1
102
RTVSPropertyOp10
 70
     1
102
RTVSPropertyOp11
 70
     1
102
RTVSPropertyOp12
 70
     1
102
RTVSPropertyOp13
 70
     1
102
RTVSPropertyOp14
 70
     1
102
RTVSPropertyOp15
 70
     1
102
RTVSPropertyOp16
 70
     1
102
RTVSPropertyOp17
 70
     1
102
RTVSPropertyOp18
 70
     1
102
RTVSPropertyOp19
 70
     1
102
RTVSPropertyOp20
 70
     1
102
RTVSPropertyOp21
 70
     1
102
RTVSPropertyOp22
 70
     1
102
RTVSPropertyOp23
 70
     1
102
RTVSPropertyOp24
 70
     1
102
RTVSPropertyOp25
 70
     1
102
RTVSPropertyOp26
 70
     1
102
RTVSPropertyOp27
 70
     1
  0
XRECORD
  5
565
102
{ACAD_REACTORS
330
564
102
}
330
564
100
AcDbXrecord
280
     1
102
RTVSPropertyOp0
 70
     1
102
RTVSPropertyOp1
 70
     1
102
RTVSPropertyOp2
 70
     1
102
RTVSPropertyOp3
 70
     1
102
RTVSPropertyOp4
 70
     1
102
RTVSPropertyOp5
 70
     1
102
RTVSPropertyOp6
 70
     1
102
RTVSPropertyOp7
 70
     1
102
RTVSPropertyOp8
 70
     1
102
RTVSPropertyOp9
 70
     1
102
RTVSPropertyOp10
 70
     1
102
RTVSPropertyOp11
 70
     1
102
RTVSPropertyOp12
 70
     1
102
RTVSPropertyOp13
 70
     1
102
RTVSPropertyOp14
 70
     1
102
RTVSPropertyOp15
 70
     1
102
RTVSPropertyOp16
 70
     1
102
RTVSPropertyOp17
 70
     1
102
RTVSPropertyOp18
 70
     1
102
RTVSPropertyOp19
 70
     1
102
RTVSPropertyOp20
 70
     1
102
RTVSPropertyOp21
 70
     1
102
RTVSPropertyOp22
 70
     1
102
RTVSPropertyOp23
 70
     1
102
RTVSPropertyOp24
 70
     1
102
RTVSPropertyOp25
 70
     1
102
RTVSPropertyOp26
 70
     1
102
RTVSPropertyOp27
 70
     1
  0
XRECORD
  5
57F
102
{ACAD_REACTORS
330
57E
102
}
330
57E
100
AcDbXrecord
280
     1
102
RTVSPropertyOp0
 70
     0
102
RTVSPropertyOp1
 70
     0
102
RTVSPropertyOp2
 70
     0
102
RTVSPropertyOp3
 70
     0
102
RTVSPropertyOp4
 70
     0
102
RTVSPropertyOp5
 70
     0
102
RTVSPropertyOp6
 70
     0
102
RTVSPropertyOp7
 70
     0
102
RTVSPropertyOp8
 70
     0
102
RTVSPropertyOp9
 70
     0
102
RTVSPropertyOp10
 70
     0
102
RTVSPropertyOp11
 70
     0
102
RTVSPropertyOp12
 70
     0
102
RTVSPropertyOp13
 70
     0
102
RTVSPropertyOp14
 70
     2
102
RTVSPropertyOp15
 70
     0
102
RTVSPropertyOp16
 70
     0
102
RTVSPropertyOp17
 70
     0
102
RTVSPropertyOp18
 70
     0
102
RTVSPropertyOp19
 70
     0
102
RTVSPropertyOp20
 70
     0
102
RTVSPropertyOp21
 70
     0
102
RTVSPropertyOp22
 70
     0
102
RTVSPropertyOp23
 70
     0
102
RTVSPropertyOp24
 70
     0
102
RTVSPropertyOp25
 70
     0
102
RTVSPropertyOp26
 70
     0
102
RTVSPropertyOp27
 70
     0
  0
XRECORD
  5
579
102
{ACAD_REACTORS
330
578
102
}
330
578
100
AcDbXrecord
280
     1
102
RTVSPropertyOp0
 70
     1
102
RTVSPropertyOp1
 70
     1
102
RTVSPropertyOp2
 70
     1
102
RTVSPropertyOp3
 70
     1
102
RTVSPropertyOp4
 70
     1
102
RTVSPropertyOp5
 70
     1
102
RTVSPropertyOp6
 70
     1
102
RTVSPropertyOp7
 70
     1
102
RTVSPropertyOp8
 70
     1
102
RTVSPropertyOp9
 70
     1
102
RTVSPropertyOp10
 70
     1
102
RTVSPropertyOp11
 70
     1
102
RTVSPropertyOp12
 70
     1
102
RTVSPropertyOp13
 70
     1
102
RTVSPropertyOp14
 70
     1
102
RTVSPropertyOp15
 70
     1
102
RTVSPropertyOp16
 70
     1
102
RTVSPropertyOp17
 70
     1
102
RTVSPropertyOp18
 70
     1
102
RTVSPropertyOp19
 70
     1
102
RTVSPropertyOp20
 70
     1
102
RTVSPropertyOp21
 70
     1
102
RTVSPropertyOp22
 70
     1
102
RTVSPropertyOp23
 70
     1
102
RTVSPropertyOp24
 70
     1
102
RTVSPropertyOp25
 70
     1
102
RTVSPropertyOp26
 70
     1
102
RTVSPropertyOp27
 70
     1
  0
XRECORD
  5
581
102
{ACAD_REACTORS
330
580
102
}
330
580
100
AcDbXrecord
280
     1
102
RTVSPropertyOp0
 70
     0
102
RTVSPropertyOp1
 70
     0
102
RTVSPropertyOp2
 70
     0
102
RTVSPropertyOp3
 70
     0
102
RTVSPropertyOp4
 70
     0
102
RTVSPropertyOp5
 70
     0
102
RTVSPropertyOp6
 70
     0
102
RTVSPropertyOp7
 70
     0
102
RTVSPropertyOp8
 70
     0
102
RTVSPropertyOp9
 70
     0
102
RTVSPropertyOp10
 70
     0
102
RTVSPropertyOp11
 70
     0
102
RTVSPropertyOp12
 70
     0
102
RTVSPropertyOp13
 70
     0
102
RTVSPropertyOp14
 70
     2
102
RTVSPropertyOp15
 70
     0
102
RTVSPropertyOp16
 70
     0
102
RTVSPropertyOp17
 70
     0
102
RTVSPropertyOp18
 70
     0
102
RTVSPropertyOp19
 70
     0
102
RTVSPropertyOp20
 70
     0
102
RTVSPropertyOp21
 70
     0
102
RTVSPropertyOp22
 70
     0
102
RTVSPropertyOp23
 70
     0
102
RTVSPropertyOp24
 70
     0
102
RTVSPropertyOp25
 70
     0
102
RTVSPropertyOp26
 70
     0
102
RTVSPropertyOp27
 70
     0
  0
XRECORD
  5
571
102
{ACAD_REACTORS
330
570
102
}
330
570
100
AcDbXrecord
280
     1
102
RTVSPropertyOp0
 70
     1
102
RTVSPropertyOp1
 70
     1
102
RTVSPropertyOp2
 70
     1
102
RTVSPropertyOp3
 70
     1
102
RTVSPropertyOp4
 70
     1
102
RTVSPropertyOp5
 70
     1
102
RTVSPropertyOp6
 70
     1
102
RTVSPropertyOp7
 70
     1
102
RTVSPropertyOp8
 70
     1
102
RTVSPropertyOp9
 70
     1
102
RTVSPropertyOp10
 70
     1
102
RTVSPropertyOp11
 70
     1
102
RTVSPropertyOp12
 70
     1
102
RTVSPropertyOp13
 70
     1
102
RTVSPropertyOp14
 70
     1
102
RTVSPropertyOp15
 70
     1
102
RTVSPropertyOp16
 70
     1
102
RTVSPropertyOp17
 70
     1
102
RTVSPropertyOp18
 70
     1
102
RTVSPropertyOp19
 70
     1
102
RTVSPropertyOp20
 70
     1
102
RTVSPropertyOp21
 70
     1
102
RTVSPropertyOp22
 70
     1
102
RTVSPropertyOp23
 70
     1
102
RTVSPropertyOp24
 70
     1
102
RTVSPropertyOp25
 70
     1
102
RTVSPropertyOp26
 70
     1
102
RTVSPropertyOp27
 70
     1
  0
XRECORD
  5
577
102
{ACAD_REACTORS
330
576
102
}
330
576
100
AcDbXrecord
280
     1
102
RTVSPropertyOp0
 70
     1
102
RTVSPropertyOp1
 70
     1
102
RTVSPropertyOp2
 70
     1
102
RTVSPropertyOp3
 70
     1
102
RTVSPropertyOp4
 70
     1
102
RTVSPropertyOp5
 70
     1
102
RTVSPropertyOp6
 70
     1
102
RTVSPropertyOp7
 70
     1
102
RTVSPropertyOp8
 70
     1
102
RTVSPropertyOp9
 70
     1
102
RTVSPropertyOp10
 70
     1
102
RTVSPropertyOp11
 70
     1
102
RTVSPropertyOp12
 70
     1
102
RTVSPropertyOp13
 70
     1
102
RTVSPropertyOp14
 70
     1
102
RTVSPropertyOp15
 70
     1
102
RTVSPropertyOp16
 70
     1
102
RTVSPropertyOp17
 70
     1
102
RTVSPropertyOp18
 70
     1
102
RTVSPropertyOp19
 70
     1
102
RTVSPropertyOp20
 70
     1
102
RTVSPropertyOp21
 70
     1
102
RTVSPropertyOp22
 70
     1
102
RTVSPropertyOp23
 70
     1
102
RTVSPropertyOp24
 70
     1
102
RTVSPropertyOp25
 70
     1
102
RTVSPropertyOp26
 70
     1
102
RTVSPropertyOp27
 70
     1
  0
ENDSEC
  0
EOF
