  0
SECTION
  2
HEADER
  9
$ACADVER
  1
AC1015
  9
$ACADMAINTVER
 70
    20
  9
$DWGCODEPAGE
  3
ANSI_1252
  9
$INSBASE
 10
0.0
 20
0.0
 30
0.0
  9
$EXTMIN
 10
224.4550503942171
 20
149.1429532458823
 30
0.0
  9
$EXTMAX
 10
227.8947342326664
 20
149.997975443601
 30
0.0
  9
$LIMMIN
 10
0.0
 20
0.0
  9
$LIMMAX
 10
420.0
 20
297.0
  9
$ORTHOMODE
 70
     0
  9
$REGENMODE
 70
     1
  9
$FILLMODE
 70
     1
  9
$QTEXTMODE
 70
     0
  9
$MIRRTEXT
 70
     1
  9
$LTSCALE
 40
1.0
  9
$ATTMODE
 70
     1
  9
$TEXTSIZE
 40
2.5
  9
$TRACEWID
 40
1.0
  9
$TEXTSTYLE
  7
SANINDUSA
  9
$CLAYER
  8
cotas
  9
$CELTYPE
  6
ByLayer
  9
$CECOLOR
 62
   256
  9
$CELTSCALE
 40
1.0
  9
$DISPSILH
 70
     0
  9
$DIMSCALE
 40
1.0
  9
$DIMASZ
 40
2.0
  9
$DIMEXO
 40
1.0
  9
$DIMDLI
 40
1.0
  9
$DIMRND
 40
0.0
  9
$DIMDLE
 40
0.0
  9
$DIMEXE
 40
1.0
  9
$DIMTP
 40
0.0
  9
$DIMTM
 40
0.0
  9
$DIMTXT
 40
2.0
  9
$DIMCEN
 40
0.0
  9
$DIMTSZ
 40
0.0
  9
$DIMTOL
 70
     0
  9
$DIMLIM
 70
     0
  9
$DIMTIH
 70
     0
  9
$DIMTOH
 70
     0
  9
$DIMSE1
 70
     0
  9
$DIMSE2
 70
     0
  9
$DIMTAD
 70
     1
  9
$DIMZIN
 70
     8
  9
$DIMBLK
  1

  9
$DIMASO
 70
     1
  9
$DIMSHO
 70
     1
  9
$DIMPOST
  1

  9
$DIMAPOST
  1

  9
$DIMALT
 70
     0
  9
$DIMALTD
 70
     3
  9
$DIMALTF
 40
0.03937007874016
  9
$DIMLFAC
 40
1.0
  9
$DIMTOFL
 70
     1
  9
$DIMTVP
 40
0.0
  9
$DIMTIX
 70
     0
  9
$DIMSOXD
 70
     0
  9
$DIMSAH
 70
     0
  9
$DIMBLK1
  1

  9
$DIMBLK2
  1

  9
$DIMSTYLE
  2
SANINDUSA
  9
$DIMCLRD
 70
   256
  9
$DIMCLRE
 70
   256
  9
$DIMCLRT
 70
   256
  9
$DIMTFAC
 40
1.0
  9
$DIMGAP
 40
1.0
  9
$DIMJUST
 70
     0
  9
$DIMSD1
 70
     0
  9
$DIMSD2
 70
     0
  9
$DIMTOLJ
 70
     0
  9
$DIMTZIN
 70
     8
  9
$DIMALTZ
 70
     0
  9
$DIMALTTZ
 70
     0
  9
$DIMUPT
 70
     0
  9
$DIMDEC
 70
     1
  9
$DIMTDEC
 70
     1
  9
$DIMALTU
 70
     2
  9
$DIMALTTD
 70
     3
  9
$DIMTXSTY
  7
SANINDUSA
  9
$DIMAUNIT
 70
     0
  9
$DIMADEC
 70
     1
  9
$DIMALTRND
 40
0.0
  9
$DIMAZIN
 70
     0
  9
$DIMDSEP
 70
    44
  9
$DIMATFIT
 70
     3
  9
$DIMFRAC
 70
     0
  9
$DIMLDRBLK
  1

  9
$DIMLUNIT
 70
     2
  9
$DIMLWD
 70
    -1
  9
$DIMLWE
 70
    -1
  9
$DIMTMOVE
 70
     0
  9
$LUNITS
 70
     2
  9
$LUPREC
 70
     4
  9
$SKETCHINC
 40
1.0
  9
$FILLETRAD
 40
0.0
  9
$AUNITS
 70
     0
  9
$AUPREC
 70
     0
  9
$MENU
  1
.
  9
$ELEVATION
 40
0.0
  9
$PELEVATION
 40
0.0
  9
$THICKNESS
 40
0.0
  9
$LIMCHECK
 70
     0
  9
$CHAMFERA
 40
10.0
  9
$CHAMFERB
 40
10.0
  9
$CHAMFERC
 40
20.0
  9
$CHAMFERD
 40
0.0
  9
$SKPOLY
 70
     0
  9
$TDCREATE
 40
2453909.488870440
  9
$TDUCREATE
 40
2453909.447203773
  9
$TDUPDATE
 40
2456147.737418796
  9
$TDUUPDATE
 40
2456147.695752130
  9
$TDINDWG
 40
0.0032799769
  9
$TDUSRTIMER
 40
0.0032799769
  9
$USRTIMER
 70
     1
  9
$ANGBASE
 50
0.0
  9
$ANGDIR
 70
     0
  9
$PDMODE
 70
     0
  9
$PDSIZE
 40
0.0
  9
$PLINEWID
 40
0.0
  9
$SPLFRAME
 70
     0
  9
$SPLINETYPE
 70
     6
  9
$SPLINESEGS
 70
     8
  9
$HANDSEED
  5
1151
  9
$SURFTAB1
 70
     6
  9
$SURFTAB2
 70
     6
  9
$SURFTYPE
 70
     6
  9
$SURFU
 70
     6
  9
$SURFV
 70
     6
  9
$UCSBASE
  2

  9
$UCSNAME
  2

  9
$UCSORG
 10
0.0
 20
0.0
 30
0.0
  9
$UCSXDIR
 10
1.0
 20
0.0
 30
0.0
  9
$UCSYDIR
 10
0.0
 20
1.0
 30
0.0
  9
$UCSORTHOREF
  2

  9
$UCSORTHOVIEW
 70
     0
  9
$UCSORGTOP
 10
0.0
 20
0.0
 30
0.0
  9
$UCSORGBOTTOM
 10
0.0
 20
0.0
 30
0.0
  9
$UCSORGLEFT
 10
0.0
 20
0.0
 30
0.0
  9
$UCSORGRIGHT
 10
0.0
 20
0.0
 30
0.0
  9
$UCSORGFRONT
 10
0.0
 20
0.0
 30
0.0
  9
$UCSORGBACK
 10
0.0
 20
0.0
 30
0.0
  9
$PUCSBASE
  2

  9
$PUCSNAME
  2

  9
$PUCSORG
 10
0.0
 20
0.0
 30
0.0
  9
$PUCSXDIR
 10
1.0
 20
0.0
 30
0.0
  9
$PUCSYDIR
 10
0.0
 20
1.0
 30
0.0
  9
$PUCSORTHOREF
  2

  9
$PUCSORTHOVIEW
 70
     0
  9
$PUCSORGTOP
 10
0.0
 20
0.0
 30
0.0
  9
$PUCSORGBOTTOM
 10
0.0
 20
0.0
 30
0.0
  9
$PUCSORGLEFT
 10
0.0
 20
0.0
 30
0.0
  9
$PUCSORGRIGHT
 10
0.0
 20
0.0
 30
0.0
  9
$PUCSORGFRONT
 10
0.0
 20
0.0
 30
0.0
  9
$PUCSORGBACK
 10
0.0
 20
0.0
 30
0.0
  9
$USERI1
 70
     0
  9
$USERI2
 70
     0
  9
$USERI3
 70
     0
  9
$USERI4
 70
     0
  9
$USERI5
 70
     0
  9
$USERR1
 40
0.0
  9
$USERR2
 40
0.0
  9
$USERR3
 40
0.0
  9
$USERR4
 40
0.0
  9
$USERR5
 40
0.0
  9
$WORLDVIEW
 70
     1
  9
$SHADEDGE
 70
     3
  9
$SHADEDIF
 70
    70
  9
$TILEMODE
 70
     1
  9
$MAXACTVP
 70
    64
  9
$PINSBASE
 10
0.0
 20
0.0
 30
0.0
  9
$PLIMCHECK
 70
     0
  9
$PEXTMIN
 10
1.000000000000000E+20
 20
1.000000000000000E+20
 30
1.000000000000000E+20
  9
$PEXTMAX
 10
-1.000000000000000E+20
 20
-1.000000000000000E+20
 30
-1.000000000000000E+20
  9
$PLIMMIN
 10
0.0
 20
0.0
  9
$PLIMMAX
 10
420.0
 20
297.0
  9
$UNITMODE
 70
     0
  9
$VISRETAIN
 70
     1
  9
$PLINEGEN
 70
     0
  9
$PSLTSCALE
 70
     1
  9
$TREEDEPTH
 70
  3020
  9
$CMLSTYLE
  2
Standard
  9
$CMLJUST
 70
     0
  9
$CMLSCALE
 40
20.0
  9
$PROXYGRAPHICS
 70
     1
  9
$MEASUREMENT
 70
     1
  9
$CELWEIGHT
370
    -1
  9
$ENDCAPS
280
     0
  9
$JOINSTYLE
280
     0
  9
$LWDISPLAY
290
     0
  9
$INSUNITS
 70
     4
  9
$HYPERLINKBASE
  1

  9
$STYLESHEET
  1
monochrome.ctb
  9
$XEDIT
290
     1
  9
$CEPSNTYPE
380
     0
  9
$PSTYLEMODE
290
     1
  9
$FINGERPRINTGUID
  2
{A3BF8520-E162-48CB-A751-0B2A392D169E}
  9
$VERSIONGUID
  2
{17E350EC-0870-4A89-8208-F94B48AD9749}
  9
$EXTNAMES
290
     1
  9
$PSVPSCALE
 40
0.0
  9
$OLESTARTUP
290
     0
  0
ENDSEC
  0
SECTION
  2
CLASSES
  0
CLASS
  1
ACDBDICTIONARYWDFLT
  2
AcDbDictionaryWithDefault
  3
ObjectDBX Classes
 90
        0
280
     0
281
     0
  0
CLASS
  1
ACDBPLACEHOLDER
  2
AcDbPlaceHolder
  3
ObjectDBX Classes
 90
        0
280
     0
281
     0
  0
CLASS
  1
LAYOUT
  2
AcDbLayout
  3
ObjectDBX Classes
 90
        0
280
     0
281
     0
  0
CLASS
  1
DICTIONARYVAR
  2
AcDbDictionaryVar
  3
ObjectDBX Classes
 90
        0
280
     0
281
     0
  0
CLASS
  1
DIMASSOC
  2
AcDbDimAssoc
  3
"AcDbDimAssoc|Product Desc:     AcDim ARX App For Dimension|Company:          Autodesk, Inc.|WEB Address:      www.autodesk.com"
 90
    32768
280
     0
281
     0
  0
CLASS
  1
TABLESTYLE
  2
AcDbTableStyle
  3
ObjectDBX Classes
 90
     4095
280
     0
281
     0
  0
CLASS
  1
SORTENTSTABLE
  2
AcDbSortentsTable
  3
ObjectDBX Classes
 90
        0
280
     0
281
     0
  0
CLASS
  1
MATERIAL
  2
AcDbMaterial
  3
ObjectDBX Classes
 90
     1153
280
     0
281
     0
  0
CLASS
  1
VISUALSTYLE
  2
AcDbVisualStyle
  3
ObjectDBX Classes
 90
     4095
280
     0
281
     0
  0
CLASS
  1
SCALE
  2
AcDbScale
  3
ObjectDBX Classes
 90
     1153
280
     0
281
     0
  0
CLASS
  1
MLEADERSTYLE
  2
AcDbMLeaderStyle
  3
ACDB_MLEADERSTYLE_CLASS
 90
     4095
280
     0
281
     0
  0
CLASS
  1
CELLSTYLEMAP
  2
AcDbCellStyleMap
  3
ObjectDBX Classes
 90
     1152
280
     0
281
     0
  0
ENDSEC
  0
SECTION
  2
TABLES
  0
TABLE
  2
VPORT
  5
8
330
0
100
AcDbSymbolTable
 70
     1
  0
VPORT
  5
109F
330
8
100
AcDbSymbolTableRecord
100
AcDbViewportTableRecord
  2
*Active
 70
     0
 10
0.0
 20
0.0
 11
1.0
 21
1.0
 12
226.2380932948276
 22
149.5763175262561
 13
0.0
 23
0.0
 14
10.0
 24
10.0
 15
10.0
 25
10.0
 16
0.0
 26
0.0
 36
1.0
 17
0.0
 27
0.0
 37
0.0
 40
2.179404146529952
 41
1.645464025026068
 42
50.0
 43
0.0
 44
0.0
 50
0.0
 51
0.0
 71
     0
 72
   100
 73
     1
 74
     2
 75
     0
 76
     0
 77
     0
 78
     0
281
     0
 65
     1
110
0.0
120
0.0
130
0.0
111
1.0
121
0.0
131
0.0
112
0.0
122
1.0
132
0.0
 79
     0
146
0.0
  0
ENDTAB
  0
TABLE
  2
LTYPE
  5
5
330
0
100
AcDbSymbolTable
 70
     3
  0
LTYPE
  5
14
330
5
100
AcDbSymbolTableRecord
100
AcDbLinetypeTableRecord
  2
ByBlock
 70
     0
  3

 72
    65
 73
     0
 40
0.0
  0
LTYPE
  5
15
330
5
100
AcDbSymbolTableRecord
100
AcDbLinetypeTableRecord
  2
ByLayer
 70
     0
  3

 72
    65
 73
     0
 40
0.0
  0
LTYPE
  5
16
330
5
100
AcDbSymbolTableRecord
100
AcDbLinetypeTableRecord
  2
Continuous
 70
     0
  3
Solid line
 72
    65
 73
     0
 40
0.0
  0
LTYPE
  5
2D
330
5
100
AcDbSymbolTableRecord
100
AcDbLinetypeTableRecord
  2
DASHDOT
 70
     0
  3
Dash dot __ . __ . __ . __ . __ . __ . __ . __
 72
    65
 73
     4
 40
25.4
 49
12.7
 74
     0
 49
-6.349999999999999
 74
     0
 49
0.0
 74
     0
 49
-6.349999999999999
 74
     0
  0
LTYPE
  5
2E
330
5
100
AcDbSymbolTableRecord
100
AcDbLinetypeTableRecord
  2
HIDDEN
 70
     0
  3
Hidden __ __ __ __ __ __ __ __ __ __ __ __ __ _
 72
    65
 73
     2
 40
9.524999999999998
 49
6.349999999999999
 74
     0
 49
-3.174999999999999
 74
     0
  0
ENDTAB
  0
TABLE
  2
LAYER
  5
2
330
0
100
AcDbSymbolTable
 70
    17
  0
LAYER
  5
10
102
{ACAD_XDICTIONARY
360
10EF
102
}
330
2
100
AcDbSymbolTableRecord
100
AcDbLayerTableRecord
  2
0
 70
     0
 62
     7
  6
Continuous
370
    -3
390
F
  0
LAYER
  5
2F
102
{ACAD_XDICTIONARY
360
10F1
102
}
330
2
100
AcDbSymbolTableRecord
100
AcDbLayerTableRecord
  2
1
 70
     0
 62
     1
  6
Continuous
370
    -3
390
F
  0
LAYER
  5
30
102
{ACAD_XDICTIONARY
360
10F3
102
}
330
2
100
AcDbSymbolTableRecord
100
AcDbLayerTableRecord
  2
2
 70
     0
 62
     2
  6
Continuous
370
    -3
390
F
  0
LAYER
  5
31
102
{ACAD_XDICTIONARY
360
10F5
102
}
330
2
100
AcDbSymbolTableRecord
100
AcDbLayerTableRecord
  2
3
 70
     0
 62
     3
  6
Continuous
370
    -3
390
F
  0
LAYER
  5
32
102
{ACAD_XDICTIONARY
360
10F7
102
}
330
2
100
AcDbSymbolTableRecord
100
AcDbLayerTableRecord
  2
4
 70
     0
 62
     4
  6
Continuous
370
    -3
390
F
  0
LAYER
  5
33
102
{ACAD_XDICTIONARY
360
10F9
102
}
330
2
100
AcDbSymbolTableRecord
100
AcDbLayerTableRecord
  2
5
 70
     0
 62
     5
  6
Continuous
370
    -3
390
F
  0
LAYER
  5
34
102
{ACAD_XDICTIONARY
360
10FB
102
}
330
2
100
AcDbSymbolTableRecord
100
AcDbLayerTableRecord
  2
6
 70
     0
 62
     6
  6
Continuous
370
    -3
390
F
  0
LAYER
  5
35
102
{ACAD_XDICTIONARY
360
10FD
102
}
330
2
100
AcDbSymbolTableRecord
100
AcDbLayerTableRecord
  2
7
 70
     0
 62
     7
  6
Continuous
370
    -3
390
F
  0
LAYER
  5
36
102
{ACAD_XDICTIONARY
360
10FF
102
}
330
2
100
AcDbSymbolTableRecord
100
AcDbLayerTableRecord
  2
cen
 70
     0
 62
     7
  6
DASHDOT
370
    -3
390
F
  0
LAYER
  5
37
102
{ACAD_XDICTIONARY
360
1101
102
}
330
2
100
AcDbSymbolTableRecord
100
AcDbLayerTableRecord
  2
hid
 70
     0
 62
     7
  6
HIDDEN
370
    -3
390
F
  0
LAYER
  5
5D6
102
{ACAD_XDICTIONARY
360
1103
102
}
330
2
100
AcDbSymbolTableRecord
100
AcDbLayerTableRecord
  2
hatch
 70
     0
 62
     9
  6
Continuous
370
    -3
390
F
  0
LAYER
  5
8AF
102
{ACAD_XDICTIONARY
360
1105
102
}
330
2
100
AcDbSymbolTableRecord
100
AcDbLayerTableRecord
  2
9
 70
     0
 62
     9
  6
Continuous
370
    -3
390
F
  0
LAYER
  5
8F8
102
{ACAD_XDICTIONARY
360
1107
102
}
330
2
100
AcDbSymbolTableRecord
100
AcDbLayerTableRecord
  2
leg fin
 70
     0
 62
     9
  6
Continuous
370
    -3
390
F
  0
LAYER
  5
91D
102
{ACAD_XDICTIONARY
360
1109
102
}
330
2
100
AcDbSymbolTableRecord
100
AcDbLayerTableRecord
  2
cotas
 70
     0
 62
     1
  6
Continuous
370
    -3
390
F
  0
LAYER
  5
92F
330
2
100
AcDbSymbolTableRecord
100
AcDbLayerTableRecord
  2
Defpoints
 70
     0
 62
     7
  6
Continuous
290
     0
370
    -3
390
F
  0
LAYER
  5
BA5
102
{ACAD_XDICTIONARY
360
110B
102
}
330
2
100
AcDbSymbolTableRecord
100
AcDbLayerTableRecord
  2
SANINDUSA
 70
     0
 62
     3
  6
Continuous
370
    -3
390
F
  0
LAYER
  5
F89
102
{ACAD_XDICTIONARY
360
110D
102
}
330
2
100
AcDbSymbolTableRecord
100
AcDbLayerTableRecord
  2
BLOCKS
 70
     0
 62
     3
  6
Continuous
370
    -3
390
F
  0
ENDTAB
  0
TABLE
  2
STYLE
  5
3
330
0
100
AcDbSymbolTable
 70
     4
  0
STYLE
  5
11
330
3
100
AcDbSymbolTableRecord
100
AcDbTextStyleTableRecord
  2
Standard
 70
     0
 40
0.0
 41
1.0
 50
0.0
 71
     0
 42
2.5
  3
Avgardn.ttf
  4

1001
ACAD
1000
AvantGarde Bk BT
1071
       34
  0
STYLE
  5
2C
330
3
100
AcDbSymbolTableRecord
100
AcDbTextStyleTableRecord
  2

 70
     1
 40
0.0
 41
1.0
 50
0.0
 71
     0
 42
2.5
  3
ltypeshp.shx
  4

  0
STYLE
  5
91F
330
3
100
AcDbSymbolTableRecord
100
AcDbTextStyleTableRecord
  2
SANINDUSA
 70
     0
 40
0.0
 41
1.0
 50
0.0
 71
     0
 42
2.5
  3
verdana.TTF
  4

1001
ACAD
1000
Verdana
1071
       34
  0
STYLE
  5
F8A
330
3
100
AcDbSymbolTableRecord
100
AcDbTextStyleTableRecord
  2
LEG-ATT
 70
     0
 40
2.0
 41
0.8
 50
0.0
 71
     0
 42
2.0
  3
ARIAL.TTF
  4

1001
ACAD
1000
Arial
1071
       34
  0
ENDTAB
  0
TABLE
  2
VIEW
  5
6
330
0
100
AcDbSymbolTable
 70
     0
  0
ENDTAB
  0
TABLE
  2
UCS
  5
7
330
0
100
AcDbSymbolTable
 70
     0
  0
ENDTAB
  0
TABLE
  2
APPID
  5
9
330
0
100
AcDbSymbolTable
 70
     3
  0
APPID
  5
12
330
9
100
AcDbSymbolTableRecord
100
AcDbRegAppTableRecord
  2
ACAD
 70
     0
  0
APPID
  5
3A
330
9
100
AcDbSymbolTableRecord
100
AcDbRegAppTableRecord
  2
DCO15
 70
     0
  0
APPID
  5
1150
330
9
100
AcDbSymbolTableRecord
100
AcDbRegAppTableRecord
  2
ACAD_MLEADERVER
 70
     0
  0
ENDTAB
  0
TABLE
  2
DIMSTYLE
  5
A
330
0
100
AcDbSymbolTable
 70
     3
100
AcDbDimStyleTable
 71
     1
340
921
  0
DIMSTYLE
105
45
330
A
100
AcDbSymbolTableRecord
100
AcDbDimStyleTableRecord
  2
STANDARD
 70
     0
289
     0
340
11
  0
DIMSTYLE
105
921
330
A
100
AcDbSymbolTableRecord
100
AcDbDimStyleTableRecord
  2
SANINDUSA
 70
     0
 41
2.0
 42
1.0
 43
1.0
 44
1.0
 73
     0
 74
     0
 77
     1
 78
     8
140
2.0
141
0.0
143
0.03937007874016
147
1.0
171
     3
172
     1
176
   256
177
   256
178
   256
179
     1
271
     1
272
     1
274
     3
278
    44
283
     0
284
     8
340
91F
371
    -1
372
    -1
  0
DIMSTYLE
105
F8B
330
A
100
AcDbSymbolTableRecord
100
AcDbDimStyleTableRecord
  2
ISO-25
 70
     0
 41
2.5
 42
0.625
 43
3.75
 44
1.25
 73
     0
 74
     0
 77
     1
 78
     8
140
2.5
141
2.5
143
0.03937007874016
147
0.625
171
     3
172
     1
271
     2
272
     2
274
     3
278
    44
283
     0
284
     8
340
11
  0
ENDTAB
  0
TABLE
  2
BLOCK_RECORD
  5
1
330
0
100
AcDbSymbolTable
 70
    32
  0
BLOCK_RECORD
  5
1F
102
{ACAD_XDICTIONARY
360
1094
102
}
330
1
100
AcDbSymbolTableRecord
100
AcDbBlockTableRecord
  2
*Model_Space
340
22
  0
BLOCK_RECORD
  5
1B
330
1
100
AcDbSymbolTableRecord
100
AcDbBlockTableRecord
  2
*Paper_Space
340
1E
  0
BLOCK_RECORD
  5
23
330
1
100
AcDbSymbolTableRecord
100
AcDbBlockTableRecord
  2
*Paper_Space0
340
26
  0
BLOCK_RECORD
  5
919
330
1
100
AcDbSymbolTableRecord
100
AcDbBlockTableRecord
  2
_DotSmall
340
0
  0
BLOCK_RECORD
  5
922
330
1
100
AcDbSymbolTableRecord
100
AcDbBlockTableRecord
  2
base para cotas
340
0
310
2800000020000000200000000100080000000000000400000000000000000000000000000000000000000000000080000080000000808000800000008000800080800000C0C0C000C0DCC000F0CAA6000020400000206000002080000020A0000020C0000020E00000400000004020000040400000406000004080000040A0
310
000040C0000040E00000600000006020000060400000606000006080000060A0000060C0000060E00000800000008020000080400000806000008080000080A0000080C0000080E00000A0000000A0200000A0400000A0600000A0800000A0A00000A0C00000A0E00000C0000000C0200000C0400000C0600000C0800000C0
310
A00000C0C00000C0E00000E0000000E0200000E0400000E0600000E0800000E0A00000E0C00000E0E00040000000400020004000400040006000400080004000A0004000C0004000E00040200000402020004020400040206000402080004020A0004020C0004020E000404000004040200040404000404060004040800040
310
40A0004040C0004040E00040600000406020004060400040606000406080004060A0004060C0004060E00040800000408020004080400040806000408080004080A0004080C0004080E00040A0000040A0200040A0400040A0600040A0800040A0A00040A0C00040A0E00040C0000040C0200040C0400040C0600040C08000
310
40C0A00040C0C00040C0E00040E0000040E0200040E0400040E0600040E0800040E0A00040E0C00040E0E00080000000800020008000400080006000800080008000A0008000C0008000E00080200000802020008020400080206000802080008020A0008020C0008020E00080400000804020008040400080406000804080
310
008040A0008040C0008040E00080600000806020008060400080606000806080008060A0008060C0008060E00080800000808020008080400080806000808080008080A0008080C0008080E00080A0000080A0200080A0400080A0600080A0800080A0A00080A0C00080A0E00080C0000080C0200080C0400080C0600080C0
310
800080C0A00080C0C00080C0E00080E0000080E0200080E0400080E0600080E0800080E0A00080E0C00080E0E000C0000000C0002000C0004000C0006000C0008000C000A000C000C000C000E000C0200000C0202000C0204000C0206000C0208000C020A000C020C000C020E000C0400000C0402000C0404000C0406000C0
310
408000C040A000C040C000C040E000C0600000C0602000C0604000C0606000C0608000C060A000C060C000C060E000C0800000C0802000C0804000C0806000C0808000C080A000C080C000C080E000C0A00000C0A02000C0A04000C0A06000C0A08000C0A0A000C0A0C000C0A0E000C0C00000C0C02000C0C04000C0C06000
310
C0C08000C0C0A000F0FBFF00A4A0A000808080000000FF0000FF000000FFFF00FF000000FF00FF00FFFF0000FFFFFF00A4A4A4A4A4A4A4A4A4A4A4A4A4A4A4A4A4A4A4A4A4A4A4A4A4A4A4A4A4A4A4A4A4A4A4A4A4A4A4A4A4A4A4A4A4A4A4A4A4A4A4A4A4A4A4A4A4A4A4A4A4A4A4A4A4A4A4A4A4A4A4A4A4A4A4A4A4A4A4
310
A4A4A4A4A4A4A4A4A4A4A4A4A4A4A4A4A4A4A4A4A4A4A4A4A4A4A4A4A4A4A4A4A4A4A4A4A4A4A4A4A4A4A4A4A4A4A4A4A4A4A4A4A4A4A4A4A4A4A4A4A4A4A4A4A4A4A4A4A4A4A4A4A4A4A4A4A4A4A4A4A4A4A4A4A4A4A4A4A4A4A4A4A4A4A4A4A4A4A4A4A4A4A4A4A4A4A4A4A4A4A4A4A4A4A4A4A4A4A4A4A4A4A4A4A4A4A4
310
A4A4A4A4A4A4A4A4A4A4A4A4A4A4A4A4A4A4A4A4A4A4A4A4A4A4A4A4A4A4A4A4A4A4A4A4A4A4A4A4A4A4A4A4A4A4A4A4A4A4A4A4A4A4A4A4A4A4A4A4A4A4A4A4A4A4A4A4A4A4A4A4A4A4A4A4A4A4A4A4A4A4A4A4A4A4A4A4A4A4A4A4A4A4A4A4A4A4A4A4A4A4A4A4A4A4A4A4A4A4A4A4A4A4A4A4A4A4A4A4A4A4A4A4A4A4A4
310
A4A4A4A4A4A4A4A4A4A4A4A4A4A4A4A4A4A4A4A4A4A4A4A4A4A4A4A4A4A4A4A4A4A4A4A4A4A4A4A4A4A4A4A4A4A4A4A4A4A4A4A4A4A4A4A4A4A4A4A4A4A4A4A4A4A4A4A4A4A4A4A4A4A4A4A4A4A4A4A4A4A4A4A4A4A4A4A4A4A4A4A4A4A4A4A4A4A4A4A4A4A4A4A4A4A4A4A4A4A4A4A4A4A4A4A4F9F9F9F9F9F9F9F9F9F9F9
310
F9F9F9F9F9F9F9F9F9F9F9F9F9F9F9F9F9F9F9A4A4F9F9F9F9F9F9F9F9F9F9F9F9F9F9F9F9F9F9F9F9F9F9F9F9F9F9F9F9F9F9A4A4F9F9F9F9F9F9F9F9F9F9F9F9F9F9F9F9F9F9F9F9F9F9F9F9F9F9F9F9F9F9A4A4F9A4A4A4A4A4A4A4A4A4A4A4A4A4A4A4A4A4A4A4A4A4A4A4A4A4A4A4A4F9A4A4A4A4A4A4A4A4A4A4A4A4
310
A4A4A4A4A4A4A4A4A4A4A4A4A4A4A4A4A4A4A4A4A4A4A4A4A4A4A4A4A4A4A4A4A4A4A4A4A4A4A4A4A4A4A4A4A4A4A4A4A4A4A4A4A4A4A4A4A4A4A4A4A4A4A4A4A4A4A4A4A4A4A4A4A4A4A4A4A4A4A4A4A4A4A4A4A4A4A4A4A4A4A4A4A4A4A4A4A4A4A4A4A4A4A4A4A4A4A4A4A4A4A4A4A4A4A4A4A4A4A4A4A4A4A4A4A4A4A4
310
A4A4A4A4A4A4A4A4A4A4A4A4A4A4A4A4A4A4A4A4A4A4A4A4A4A4A4A4A4A4A4A4A4A4A4A4A4A4A4A4A4A4A4A4A4A4A4A4A4A4A4A4A4A4A4A4A4A4A4A4A4A4A4A4A4A4A4A4A4A4A4A4A4A4A4A4A4A4A4A4A4A4A4A4A4A4A4A4A4A4A4A4A4A4A4A4A4A4A4A4A4A4A4A4A4A4A4A4A4A4A4A4A4A4A4A4A4A4A4A4A4A4A4A4A4A4A4
310
A4A4A4A4A4A4A4A4A4A4A4A4A4A4A4A4A4A4A4A4A4A4A4A4A4A4A4A4A4A4A4A4A4A4A4A4A4A4A4A4A4A4A4A4A4A4A4A4A4A4A4A4A4A4A4A4A4A4A4A4A4A4A4A4A4A4A4A4A4A4A4A4A4A4A4A4A4A4A4A4A4A4A4A4A4A4A4A4A4A4A4A4A4A4A4A4A4A4A4A4A4A4A4A4A4A4A4A4A4A4A4A4A4A4A4A4A4A4A4A4A4A4A4A4A4A4A4
310
A4A4A4A4A4A4A4A4A4A4A4A4A4A4A4A4A4A4A4A4A4A4A4A4A4A4A4A4A4A4A4A4A4A4A4A4A4A4A4A4A4A4A4A4A4A4A4A4A4A4A4A4A4A4A4A4
1001
ACAD
1000
DesignCenter Data
1002
{
1070
     1
1070
     4
1002
}
  0
BLOCK_RECORD
  5
AA8
330
1
100
AcDbSymbolTableRecord
100
AcDbBlockTableRecord
  2
_CLOSED
340
0
  0
BLOCK_RECORD
  5
F8C
330
1
100
AcDbSymbolTableRecord
100
AcDbBlockTableRecord
  2
114320PL
340
0
102
{BLKREFS
331
FB6
102
}
1001
ACAD
1000
DesignCenter Data
1002
{
1070
     1
1070
     4
1002
}
  0
BLOCK_RECORD
  5
FB8
330
1
100
AcDbSymbolTableRecord
100
AcDbBlockTableRecord
  2
114320CT
340
0
102
{BLKREFS
331
1037
102
}
1001
ACAD
1000
DesignCenter Data
1002
{
1070
     1
1070
     4
1002
}
  0
BLOCK_RECORD
  5
1038
330
1
100
AcDbSymbolTableRecord
100
AcDbBlockTableRecord
  2
114320AL
340
0
1001
ACAD
1000
DesignCenter Data
1002
{
1070
     1
1070
     4
1002
}
  0
BLOCK_RECORD
  5
1058
330
1
100
AcDbSymbolTableRecord
100
AcDbBlockTableRecord
  2
114320AF
340
0
102
{BLKREFS
331
1077
102
}
1001
ACAD
1000
DesignCenter Data
1002
{
1070
     1
1070
     4
1002
}
  0
ENDTAB
  0
ENDSEC
  0
SECTION
  2
BLOCKS
  0
BLOCK
  5
20
330
1F
100
AcDbEntity
  8
0
100
AcDbBlockBegin
  2
*Model_Space
 70
     0
 10
0.0
 20
0.0
 30
0.0
  3
*Model_Space
  1

  0
ENDBLK
  5
21
330
1F
100
AcDbEntity
  8
0
100
AcDbBlockEnd
  0
BLOCK
  5
1C
330
1B
100
AcDbEntity
 67
     1
  8
0
100
AcDbBlockBegin
  2
*Paper_Space
 70
     0
 10
0.0
 20
0.0
 30
0.0
  3
*Paper_Space
  1

  0
ENDBLK
  5
1D
330
1B
100
AcDbEntity
 67
     1
  8
0
100
AcDbBlockEnd
  0
BLOCK
  5
24
330
23
100
AcDbEntity
 67
     1
  8
0
100
AcDbBlockBegin
  2
*Paper_Space0
 70
     0
 10
0.0
 20
0.0
 30
0.0
  3
*Paper_Space0
  1

  0
ENDBLK
  5
25
330
23
100
AcDbEntity
 67
     1
  8
0
100
AcDbBlockEnd
  0
BLOCK
  5
91B
330
919
100
AcDbEntity
  8
0
100
AcDbBlockBegin
  2
_DotSmall
 70
     0
 10
0.0
 20
0.0
 30
0.0
  3
_DotSmall
  1

  0
LWPOLYLINE
  5
91A
330
919
100
AcDbEntity
  8
0
  6
ByBlock
 62
     0
100
AcDbPolyline
 90
        2
 70
     1
 43
0.5
 10
-0.0625
 20
0.0
 42
1.0
 10
0.0625
 20
0.0
 42
1.0
  0
ENDBLK
  5
91C
330
919
100
AcDbEntity
  8
0
100
AcDbBlockEnd
  0
BLOCK
  5
92A
330
922
100
AcDbEntity
  8
0
100
AcDbBlockBegin
  2
base para cotas
 70
     0
 10
0.0
 20
0.0
 30
0.0
  3
base para cotas
  1

  0
LINE
  5
B36
330
922
100
AcDbEntity
  8
cotas
100
AcDbLine
 10
0.0
 20
-30.0
 30
0.0
 11
327.1260136525398
 21
-30.0
 31
0.0
  0
LINE
  5
B37
330
922
100
AcDbEntity
  8
cotas
100
AcDbLine
 10
0.0
 20
-25.0
 30
0.0
 11
327.1260136525398
 21
-25.0
 31
0.0
  0
LINE
  5
B38
330
922
100
AcDbEntity
  8
cotas
100
AcDbLine
 10
0.0
 20
-20.0
 30
0.0
 11
327.1260136525398
 21
-20.0
 31
0.0
  0
LINE
  5
B39
330
922
100
AcDbEntity
  8
cotas
100
AcDbLine
 10
0.0
 20
-15.0
 30
0.0
 11
327.1260136525398
 21
-15.0
 31
0.0
  0
LINE
  5
B3A
330
922
100
AcDbEntity
  8
cotas
100
AcDbLine
 10
0.0
 20
-10.0
 30
0.0
 11
327.1260136525398
 21
-10.0
 31
0.0
  0
LINE
  5
B3B
330
922
100
AcDbEntity
  8
cotas
100
AcDbLine
 10
0.0
 20
0.0
 30
0.0
 11
0.0
 21
-30.0
 31
0.0
  0
LINE
  5
B3C
330
922
100
AcDbEntity
  8
cotas
100
AcDbLine
 10
327.1260136525398
 20
-30.0
 30
0.0
 11
327.1260136525398
 21
0.0
 31
0.0
  0
ENDBLK
  5
92B
330
922
100
AcDbEntity
  8
0
100
AcDbBlockEnd
  0
BLOCK
  5
AAD
330
AA8
100
AcDbEntity
  8
0
100
AcDbBlockBegin
  2
_CLOSED
 70
     0
 10
0.0
 20
0.0
 30
0.0
  3
_CLOSED
  1

  0
LINE
  5
AA9
330
AA8
100
AcDbEntity
  8
0
100
AcDbLine
 10
-1.0
 20
0.166667
 30
0.0
 11
0.0
 21
0.0
 31
0.0
  0
LINE
  5
AAA
330
AA8
100
AcDbEntity
  8
0
100
AcDbLine
 10
0.0
 20
0.0
 30
0.0
 11
-1.0
 21
-0.166667
 31
0.0
  0
LINE
  5
AAB
330
AA8
100
AcDbEntity
  8
0
100
AcDbLine
 10
-1.0
 20
0.166667
 30
0.0
 11
-1.0
 21
-0.166667
 31
0.0
  0
LINE
  5
AAC
330
AA8
100
AcDbEntity
  8
0
100
AcDbLine
 10
0.0
 20
0.0
 30
0.0
 11
-1.0
 21
0.0
 31
0.0
  0
ENDBLK
  5
AAE
330
AA8
100
AcDbEntity
  8
0
100
AcDbBlockEnd
  0
BLOCK
  5
FB3
330
F8C
100
AcDbEntity
  8
0
100
AcDbBlockBegin
  2
114320PL
 70
     0
 10
0.0
 20
0.0
 30
0.0
  3
114320PL
  1

  0
ARC
  5
F8D
330
F8C
100
AcDbEntity
  8
BLOCKS
100
AcDbCircle
 10
0.2427836631736162
 20
-0.0120000000000005
 30
0.0
 40
0.012
100
AcDbArc
 50
23.95919677929448
 51
90.0
  0
ARC
  5
F8E
330
F8C
100
AcDbEntity
  8
BLOCKS
100
AcDbCircle
 10
0.2819097243142894
 20
0.0053866683231308
 30
0.0
 40
0.0308152413955858
100
AcDbArc
 50
203.9591967792945
 51
237.9743018988534
  0
ARC
  5
F8F
330
F8C
100
AcDbEntity
  8
BLOCKS
100
AcDbCircle
 10
0.1566387980646922
 20
-0.158520158134944
 30
0.0
 40
0.1764440919655268
100
AcDbArc
 50
12.96296146523024
 51
46.91980718883736
  0
ARC
  5
F90
330
F8C
100
AcDbEntity
  8
BLOCKS
100
AcDbCircle
 10
0.181865502207014
 20
-0.1417454632949171
 30
0.0
 40
0.0907721013780343
100
AcDbArc
 50
13.41267544674266
 51
55.6082691265841
  0
ARC
  5
F91
330
F8C
100
AcDbEntity
  8
BLOCKS
100
AcDbCircle
 10
0.0667851835076499
 20
-0.4800471982171423
 30
0.0
 40
0.3219021957133211
100
AcDbArc
 50
50.98014253167205
 51
50.98772805637428
  0
ARC
  5
F92
330
F8C
100
AcDbEntity
  8
BLOCKS
100
AcDbCircle
 10
0.2256604430646576
 20
-0.2614654836217085
 30
0.0
 40
0.0516813340930787
100
AcDbArc
 50
7.430366645067593
 51
53.98861875876924
  0
ARC
  5
F93
330
F8C
100
AcDbEntity
  8
BLOCKS
100
AcDbCircle
 10
0.1460265501063975
 20
-0.2924766671038145
 30
0.0
 40
0.1383582144817593
100
AcDbArc
 50
27.94603777403589
 51
75.37747485979074
  0
ARC
  5
F94
330
F8C
100
AcDbEntity
  8
BLOCKS
100
AcDbCircle
 10
0.1366027824606417
 20
-0.2531038611551395
 30
0.0
 40
0.1420777183602326
100
AcDbArc
 50
330.9190641486725
 51
351.9335490723096
  0
ARC
  5
F95
330
F8C
100
AcDbEntity
  8
BLOCKS
100
AcDbCircle
 10
0.1975795757435142
 20
-0.2651276864069439
 30
0.0
 40
0.08
100
AcDbArc
 50
352.553126109233
 51
27.94603777403589
  0
ARC
  5
F96
330
F8C
100
AcDbEntity
  8
BLOCKS
100
AcDbCircle
 10
-0.1279081658590086
 20
-0.2156163846991382
 30
0.0
 40
0.4092318923347376
100
AcDbArc
 50
351.9335490723096
 51
13.41267544674266
  0
ARC
  5
F97
330
F8C
100
AcDbEntity
  8
BLOCKS
100
AcDbCircle
 10
0.2253399320506924
 20
-0.0850536351312076
 30
0.0
 40
0.0758599191885889
100
AcDbArc
 50
46.91980718883736
 51
57.97430189885345
  0
ARC
  5
F98
330
F8C
100
AcDbEntity
  8
BLOCKS
100
AcDbCircle
 10
-0.2427836631736173
 20
-0.0120000000000005
 30
0.0
 40
0.012
100
AcDbArc
 50
90.0
 51
156.0408032207055
  0
ARC
  5
F99
330
F8C
100
AcDbEntity
  8
BLOCKS
100
AcDbCircle
 10
-0.2819097243142906
 20
0.0053866683231308
 30
0.0
 40
0.0308152413955858
100
AcDbArc
 50
302.0256981011465
 51
336.0408032207055
  0
ARC
  5
F9A
330
F8C
100
AcDbEntity
  8
BLOCKS
100
AcDbCircle
 10
0.0178577206902401
 20
-1.296980746617659
 30
0.0
 40
1.158539144135418
100
AcDbArc
 50
90.88319203793608
 51
96.38684736367217
  0
CIRCLE
  5
F9B
330
F8C
100
AcDbEntity
  8
BLOCKS
100
AcDbCircle
 10
0.0
 20
-0.0664466666967508
 30
0.0
 40
0.0150018086742356
  0
ARC
  5
F9C
330
F8C
100
AcDbEntity
  8
BLOCKS
100
AcDbCircle
 10
0.0
 20
-0.9848053934868403
 30
0.0
 40
0.8310594370720913
100
AcDbArc
 50
82.46290295280266
 51
97.53709704719733
  0
CIRCLE
  5
F9D
330
F8C
100
AcDbEntity
  8
BLOCKS
100
AcDbCircle
 10
0.0
 20
-0.2047467838092376
 30
0.0
 40
0.0220307947289962
  0
ARC
  5
F9E
330
F8C
100
AcDbEntity
  8
BLOCKS
100
AcDbCircle
 10
-0.0178577206902412
 20
-1.296980746617659
 30
0.0
 40
1.158539144135418
100
AcDbArc
 50
83.61315263632786
 51
89.11680796206391
  0
ARC
  5
F9F
330
F8C
100
AcDbEntity
  8
BLOCKS
100
AcDbCircle
 10
-0.1818655022070153
 20
-0.1417454632949171
 30
0.0
 40
0.0907721013780343
100
AcDbArc
 50
124.3917308734159
 51
166.5873245532573
  0
ARC
  5
FA0
330
F8C
100
AcDbEntity
  8
BLOCKS
100
AcDbCircle
 10
-0.2256604430646585
 20
-0.2614654836217085
 30
0.0
 40
0.0516813340930787
100
AcDbArc
 50
126.0113812412307
 51
172.5696333549324
  0
ARC
  5
FA1
330
F8C
100
AcDbEntity
  8
BLOCKS
100
AcDbCircle
 10
-0.1460265501063988
 20
-0.2924766671038145
 30
0.0
 40
0.1383582144817593
100
AcDbArc
 50
104.6225251402092
 51
152.0539622259641
  0
ARC
  5
FA2
330
F8C
100
AcDbEntity
  8
BLOCKS
100
AcDbCircle
 10
-0.1566387980646934
 20
-0.158520158134944
 30
0.0
 40
0.1764440919655268
100
AcDbArc
 50
133.0801928111626
 51
167.0370385347698
  0
ARC
  5
FA3
330
F8C
100
AcDbEntity
  8
BLOCKS
100
AcDbCircle
 10
-0.1366027824606428
 20
-0.2531038611551395
 30
0.0
 40
0.1420777183602326
100
AcDbArc
 50
188.0664509276903
 51
209.0809358513275
  0
ARC
  5
FA4
330
F8C
100
AcDbEntity
  8
BLOCKS
100
AcDbCircle
 10
-0.1975795757435154
 20
-0.2651276864069439
 30
0.0
 40
0.08
100
AcDbArc
 50
152.0539622259641
 51
187.4468738907669
  0
ARC
  5
FA5
330
F8C
100
AcDbEntity
  8
BLOCKS
100
AcDbCircle
 10
0.1279081658590076
 20
-0.2156163846991382
 30
0.0
 40
0.4092318923347376
100
AcDbArc
 50
166.5873245532573
 51
188.0664509276903
  0
ARC
  5
FA6
330
F8C
100
AcDbEntity
  8
BLOCKS
100
AcDbCircle
 10
-0.0559253630170935
 20
-0.6378238042129261
 30
0.0
 40
0.4952655820498182
100
AcDbArc
 50
96.38684736367217
 51
104.6225251402092
  0
ARC
  5
FA7
330
F8C
100
AcDbEntity
  8
BLOCKS
100
AcDbCircle
 10
-0.066785183507651
 20
-0.4800471982171423
 30
0.0
 40
0.3219021957133211
100
AcDbArc
 50
97.53709704719733
 51
126.0113812412307
  0
ARC
  5
FA8
330
F8C
100
AcDbEntity
  8
BLOCKS
100
AcDbCircle
 10
-0.1205766839727559
 20
-0.2312832429005005
 30
0.0
 40
0.1992770930477736
100
AcDbArc
 50
97.89457602712264
 51
124.3917308734159
  0
ARC
  5
FA9
330
F8C
100
AcDbEntity
  8
BLOCKS
100
AcDbCircle
 10
-0.0175310111996387
 20
-0.9744101189590997
 30
0.0
 40
0.9495143652476269
100
AcDbArc
 50
88.9420802197433
 51
97.89457602712264
  0
ARC
  5
FAA
330
F8C
100
AcDbEntity
  8
BLOCKS
100
AcDbCircle
 10
-0.2253399320506934
 20
-0.0850536351312076
 30
0.0
 40
0.0758599191885889
100
AcDbArc
 50
122.0256981011465
 51
133.0801928111626
  0
ARC
  5
FAB
330
F8C
100
AcDbEntity
  8
BLOCKS
100
AcDbCircle
 10
0.0175310111996376
 20
-0.9744101189590997
 30
0.0
 40
0.9495143652476269
100
AcDbArc
 50
82.10542397287735
 51
91.05791978025669
  0
ARC
  5
FAC
330
F8C
100
AcDbEntity
  8
BLOCKS
100
AcDbCircle
 10
-0.0023899681227397
 20
-0.1784604476121581
 30
0.0
 40
0.295650888926738
100
AcDbArc
 50
209.0809358513275
 51
270.4631698505216
  0
ARC
  5
FAD
330
F8C
100
AcDbEntity
  8
BLOCKS
100
AcDbCircle
 10
0.0023899681227385
 20
-0.1784604476121581
 30
0.0
 40
0.295650888926738
100
AcDbArc
 50
269.5368301494784
 51
330.9190641486725
  0
ARC
  5
FAE
330
F8C
100
AcDbEntity
  8
BLOCKS
100
AcDbCircle
 10
0.0
 20
-0.1945764346554608
 30
0.0
 40
0.3371791787875258
100
AcDbArc
 50
167.0370385347698
 51
12.96296146523024
  0
ARC
  5
FAF
330
F8C
100
AcDbEntity
  8
BLOCKS
100
AcDbCircle
 10
0.0559253630170923
 20
-0.6378238042129261
 30
0.0
 40
0.4952655820498182
100
AcDbArc
 50
75.37747485979074
 51
83.61315263632786
  0
ARC
  5
FB0
330
F8C
100
AcDbEntity
  8
BLOCKS
100
AcDbCircle
 10
0.0667851835076499
 20
-0.4800471982171423
 30
0.0
 40
0.3219021957133211
100
AcDbArc
 50
53.98861875876924
 51
82.46290295278653
  0
LINE
  5
FB1
330
F8C
100
AcDbEntity
  8
BLOCKS
100
AcDbLine
 10
-0.2427836631736173
 20
0.0
 30
0.0
 11
0.2427836631736153
 21
0.0
 31
0.0
  0
ARC
  5
FB2
330
F8C
100
AcDbEntity
  8
BLOCKS
100
AcDbCircle
 10
0.1205766839727548
 20
-0.2312832429005005
 30
0.0
 40
0.1992770930477736
100
AcDbArc
 50
55.6082691265841
 51
82.10542397287735
  0
ENDBLK
  5
FB4
330
F8C
100
AcDbEntity
  8
0
100
AcDbBlockEnd
  0
BLOCK
  5
1035
330
FB8
100
AcDbEntity
  8
0
100
AcDbBlockBegin
  2
114320CT
 70
     0
 10
0.0
 20
0.0
 30
0.0
  3
114320CT
  1

  0
ARC
  5
FB9
330
FB8
100
AcDbEntity
  8
BLOCKS
100
AcDbCircle
 10
0.5006456352619643
 20
0.8212068591437224
 30
0.0
 40
0.0137992167519187
100
AcDbArc
 50
315.0843079372739
 51
16.80038137311079
  0
ARC
  5
FBA
330
FB8
100
AcDbEntity
  8
BLOCKS
100
AcDbCircle
 10
0.5009119625580042
 20
0.8083853474963451
 30
0.0
 40
0.025
100
AcDbArc
 50
104.3186405604271
 51
142.5093253325362
  0
ARC
  5
FBB
330
FB8
100
AcDbEntity
  8
BLOCKS
100
AcDbCircle
 10
0.5142012142032991
 20
0.8293223708059263
 30
0.0
 40
0.008
100
AcDbArc
 50
30.90829295050538
 51
104.3186405604271
  0
LINE
  5
FBC
330
FB8
100
AcDbEntity
  8
BLOCKS
100
AcDbLine
 10
0.4972022486819504
 20
0.8229193773214769
 30
0.0
 11
0.5114466042971015
 21
0.8265551537934367
 31
0.0
  0
ARC
  5
FBD
330
FB8
100
AcDbEntity
  8
BLOCKS
100
AcDbCircle
 10
0.5119412328139084
 20
0.824617283150086
 30
0.0
 40
0.002
100
AcDbArc
 50
16.80038137311079
 51
104.3186405604271
  0
LINE
  5
FBE
330
FB8
100
AcDbEntity
  8
BLOCKS
100
AcDbLine
 10
0.4947291060979138
 20
0.832608730538231
 30
0.0
 11
0.5122227001360694
 21
0.8370738533793304
 31
0.0
  0
ARC
  5
FBF
330
FB8
100
AcDbEntity
  8
BLOCKS
100
AcDbCircle
 10
0.5009119625580042
 20
0.8083853474963451
 30
0.0
 40
0.015
100
AcDbArc
 50
104.3186405604271
 51
142.5093253325362
  0
ARC
  5
FC0
330
FB8
100
AcDbEntity
  8
BLOCKS
100
AcDbCircle
 10
0.5006456352619643
 20
0.8212068591437224
 30
0.0
 40
0.0237992167519187
100
AcDbArc
 50
315.0843079372739
 51
30.90829295050538
  0
ARC
  5
FC1
330
FB8
100
AcDbEntity
  8
BLOCKS
100
AcDbCircle
 10
0.247342058846051
 20
1.073766082653699
 30
0.0
 40
0.3714986201691667
100
AcDbArc
 50
302.1123874224463
 51
315.0843079372739
  0
ARC
  5
FC2
330
FB8
100
AcDbEntity
  8
BLOCKS
100
AcDbCircle
 10
0.247342058846051
 20
1.073766082653699
 30
0.0
 40
0.3814986201691667
100
AcDbArc
 50
302.1123874224463
 51
315.0843079372739
  0
ARC
  5
FC3
330
FB8
100
AcDbEntity
  8
BLOCKS
100
AcDbCircle
 10
0.4034465688619446
 20
0.7374739140789468
 30
0.0
 40
0.001
100
AcDbArc
 50
122.7071361886927
 51
295.535170667516
  0
ARC
  5
FC4
330
FB8
100
AcDbEntity
  8
BLOCKS
100
AcDbCircle
 10
0.3136012646073846
 20
0.6649084743156016
 30
0.0
 40
0.030082917844197
100
AcDbArc
 50
100.9929253212399
 51
142.6048817321192
  0
ARC
  5
FC5
330
FB8
100
AcDbEntity
  8
BLOCKS
100
AcDbCircle
 10
0.2874771860590522
 20
0.6780042263947803
 30
0.0
 40
0.004
100
AcDbArc
 50
90.0
 51
92.60705135301922
  0
LINE
  5
FC6
330
FB8
100
AcDbEntity
  8
BLOCKS
100
AcDbLine
 10
0.2874771860590522
 20
0.6820042263947802
 30
0.0
 11
0.2871588120257673
 21
0.6820042263947802
 31
0.0
  0
ARC
  5
FC7
330
FB8
100
AcDbEntity
  8
BLOCKS
100
AcDbCircle
 10
0.2873179990424091
 20
0.6850000000000001
 30
0.0
 40
0.003
100
AcDbArc
 50
223.4784714133215
 51
322.6048817321192
  0
ARC
  5
FC8
330
FB8
100
AcDbEntity
  8
BLOCKS
100
AcDbCircle
 10
0.2874771860590522
 20
0.6780042263947803
 30
0.0
 40
0.004
100
AcDbArc
 50
0.0
 51
90.0
  0
ARC
  5
FC9
330
FB8
100
AcDbEntity
  8
BLOCKS
100
AcDbCircle
 10
0.2190875265454542
 20
1.024563975800038
 30
0.0
 40
0.3401875730780268
100
AcDbArc
 50
302.7071361886927
 51
322.5093253325363
  0
ARC
  5
FCA
330
FB8
100
AcDbEntity
  8
BLOCKS
100
AcDbCircle
 10
0.2282796785518531
 20
1.104139530986404
 30
0.0
 40
0.417358356728435
100
AcDbArc
 50
280.9929253212399
 51
302.1123874224463
  0
ARC
  5
FCB
330
FB8
100
AcDbEntity
  8
BLOCKS
100
AcDbCircle
 10
0.2282796785518531
 20
1.104139530986404
 30
0.0
 40
0.407358356728435
100
AcDbArc
 50
295.535170667516
 51
302.1123874224463
  0
ARC
  5
FCC
330
FB8
100
AcDbEntity
  8
BLOCKS
100
AcDbCircle
 10
5.817478457225765
 20
0.7466812615824593
 30
0.0
 40
5.688870364704438
100
AcDbArc
 50
179.1820088647469
 51
179.3351902605356
  0
LINE
  5
FCD
330
FB8
100
AcDbEntity
  8
BLOCKS
100
AcDbLine
 10
0.1389685582303662
 20
0.8106652137078498
 30
0.0
 11
0.1309909066357267
 21
0.8106652137078498
 31
0.0
  0
ARC
  5
FCE
330
FB8
100
AcDbEntity
  8
BLOCKS
100
AcDbCircle
 10
0.1309909066357267
 20
0.8126652137078497
 30
0.0
 40
0.002
100
AcDbArc
 50
179.3351902604705
 51
270.0
  0
ARC
  5
FCF
330
FB8
100
AcDbEntity
  8
BLOCKS
100
AcDbCircle
 10
0.131247011896196
 20
0.8319250009349445
 30
0.0
 40
0.008
100
AcDbArc
 50
359.1411287581059
 51
90.0
  0
ARC
  5
FD0
330
FB8
100
AcDbEntity
  8
BLOCKS
100
AcDbCircle
 10
0.1271880461230728
 20
0.8279250009349448
 30
0.0
 40
0.002
100
AcDbArc
 50
359.1820088647469
 51
90.0
  0
LINE
  5
FD1
330
FB8
100
AcDbEntity
  8
BLOCKS
100
AcDbLine
 10
0.2158639752128653
 20
0.68152294122789
 30
0.0
 11
0.2255091730851416
 21
0.6894189847816279
 31
0.0
  0
ARC
  5
FD2
330
FB8
100
AcDbEntity
  8
BLOCKS
100
AcDbCircle
 10
0.0842025988969687
 20
1.692503123762825
 30
0.0
 40
1.024423578765627
100
AcDbArc
 50
278.4938644702622
 51
280.7565515320008
  0
ARC
  5
FD3
330
FB8
100
AcDbEntity
  8
BLOCKS
100
AcDbCircle
 10
0.2413455450768242
 20
0.6700744940377217
 30
0.0
 40
0.025
100
AcDbArc
 50
93.59282466050373
 51
129.3054797579113
  0
ARC
  5
FD4
330
FB8
100
AcDbEntity
  8
BLOCKS
100
AcDbCircle
 10
5.817478457225765
 20
0.7466812615824593
 30
0.0
 40
5.688870364704438
100
AcDbArc
 50
179.5770037012465
 51
180.3581341587151
  0
LINE
  5
FD5
330
FB8
100
AcDbEntity
  8
BLOCKS
100
AcDbLine
 10
0.158124923213752
 20
0.6890979713147669
 30
0.0
 11
0.167342822743916
 21
0.6799292900736499
 31
0.0
  0
ARC
  5
FD6
330
FB8
100
AcDbEntity
  8
BLOCKS
100
AcDbCircle
 10
0.1594689663866393
 20
0.7113147323822484
 30
0.0
 40
0.0307503421339296
100
AcDbArc
 50
180.3581341587151
 51
248.6755842865472
  0
ARC
  5
FD7
330
FB8
100
AcDbEntity
  8
BLOCKS
100
AcDbCircle
 10
0.1998405397509265
 20
1.992101862662756
 30
0.0
 40
1.313019115030896
100
AcDbArc
 50
266.3598526460816
 51
266.3830023969013
  0
ARC
  5
FD8
330
FB8
100
AcDbEntity
  8
BLOCKS
100
AcDbCircle
 10
0.1417409910825222
 20
0.6659020166542519
 30
0.0
 40
0.018
100
AcDbArc
 50
45.15337237179497
 51
68.67558428654723
  0
ARC
  5
FD9
330
FB8
100
AcDbEntity
  8
BLOCKS
100
AcDbCircle
 10
0.1524832317799019
 20
0.6834259947840304
 30
0.0
 40
0.008
100
AcDbArc
 50
45.15337237179497
 51
75.93755895680963
  0
ARC
  5
FDA
330
FB8
100
AcDbEntity
  8
BLOCKS
100
AcDbCircle
 10
0.1594689663866393
 20
0.7113147323822484
 30
0.0
 40
0.0207503421339296
100
AcDbArc
 50
180.3581341587151
 51
255.9375589568097
  0
LINE
  5
FDB
330
FB8
100
AcDbEntity
  8
BLOCKS
100
AcDbLine
 10
0.1387784271947947
 20
0.7906652137078493
 30
0.0
 11
0.1307630702279664
 21
0.7906652137078493
 31
0.0
  0
ARC
  5
FDC
330
FB8
100
AcDbEntity
  8
BLOCKS
100
AcDbCircle
 10
0.1307630702279664
 20
0.7886652137078494
 30
0.0
 40
0.002
100
AcDbArc
 50
90.0
 51
179.5770037012465
  0
LINE
  5
FDD
330
FB8
100
AcDbEntity
  8
BLOCKS
100
AcDbLine
 10
0.2287212151003621
 20
0.6916528696171156
 30
0.0
 11
0.1528366326133562
 21
0.6916528696171156
 31
0.0
  0
ARC
  5
FDE
330
FB8
100
AcDbEntity
  8
BLOCKS
100
AcDbCircle
 10
5.817478457225765
 20
0.7466812615824593
 30
0.0
 40
5.678870364704438
100
AcDbArc
 50
179.1411287581059
 51
180.3581341587151
  0
ARC
  5
FDF
330
FB8
100
AcDbEntity
  8
BLOCKS
100
AcDbCircle
 10
0.108349464062261
 20
0.8279250009349448
 30
0.0
 40
0.002
100
AcDbArc
 50
90.0
 51
186.4513746448958
  0
ARC
  5
FE0
330
FB8
100
AcDbEntity
  8
BLOCKS
100
AcDbCircle
 10
0.0864533922805163
 20
0.8379250009349448
 30
0.0
 40
0.002
100
AcDbArc
 50
90.0
 51
180.0
  0
ARC
  5
FE1
330
FB8
100
AcDbEntity
  8
BLOCKS
100
AcDbCircle
 10
0.0864533922805163
 20
0.8319250009349445
 30
0.0
 40
0.002
100
AcDbArc
 50
180.0
 51
270.0
  0
LINE
  5
FE2
330
FB8
100
AcDbEntity
  8
BLOCKS
100
AcDbLine
 10
0.0844533922805164
 20
0.8379250009349448
 30
0.0
 11
0.0844533922805164
 21
0.8319250009349445
 31
0.0
  0
ARC
  5
FE3
330
FB8
100
AcDbEntity
  8
BLOCKS
100
AcDbCircle
 10
0.0906866129511036
 20
0.8239250009349444
 30
0.0
 40
0.006
100
AcDbArc
 50
6.425913665782234
 51
90.0
  0
LINE
  5
FE4
330
FB8
100
AcDbEntity
  8
BLOCKS
100
AcDbLine
 10
0.0484533922805167
 20
0.8379250009349448
 30
0.0
 11
0.0484533922805167
 21
0.8319250009349445
 31
0.0
  0
ARC
  5
FE5
330
FB8
100
AcDbEntity
  8
BLOCKS
100
AcDbCircle
 10
0.0464533922805157
 20
0.8379250009349448
 30
0.0
 40
0.002
100
AcDbArc
 50
0.0
 51
90.0
  0
ARC
  5
FE6
330
FB8
100
AcDbEntity
  8
BLOCKS
100
AcDbCircle
 10
0.0464533922805163
 20
0.8319250009349445
 30
0.0
 40
0.002
100
AcDbArc
 50
270.0
 51
0.0
  0
LINE
  5
FE7
330
FB8
100
AcDbEntity
  8
BLOCKS
100
AcDbLine
 10
0.0906866129511036
 20
0.8299250009349446
 30
0.0
 11
0.0345754261575075
 21
0.8299250009349446
 31
0.0
  0
ARC
  5
FE8
330
FB8
100
AcDbEntity
  8
BLOCKS
100
AcDbCircle
 10
0.0089187150019416
 20
0.8470221977186424
 30
0.0
 40
0.008
100
AcDbArc
 50
20.526420493529
 51
90.0
  0
LINE
  5
FE9
330
FB8
100
AcDbEntity
  8
BLOCKS
100
AcDbLine
 10
0.0089187150019416
 20
0.8550221977186424
 30
0.0
 11
0.005
 21
0.8550221977186424
 31
0.0
  0
ARC
  5
FEA
330
FB8
100
AcDbEntity
  8
BLOCKS
100
AcDbCircle
 10
0.005
 20
0.8500221977186425
 30
0.0
 40
0.005
100
AcDbArc
 50
90.0
 51
180.0
  0
LINE
  5
FEB
330
FB8
100
AcDbEntity
  8
BLOCKS
100
AcDbLine
 10
0.0164107998053783
 20
0.8498273118514555
 30
0.0
 11
0.0164714168102688
 21
0.8496654119359202
 31
0.0
  0
ARC
  5
FEC
330
FB8
100
AcDbEntity
  8
BLOCKS
100
AcDbCircle
 10
0.0305190758167135
 20
0.8549250009349446
 30
0.0
 40
0.015
100
AcDbArc
 50
200.526420493529
 51
270.0
  0
ARC
  5
FED
330
FB8
100
AcDbEntity
  8
BLOCKS
100
AcDbCircle
 10
0.0345754261575075
 20
0.8239250009349444
 30
0.0
 40
0.006
100
AcDbArc
 50
90.0
 51
171.2548722652081
  0
LINE
  5
FEE
330
FB8
100
AcDbEntity
  8
BLOCKS
100
AcDbLine
 10
0.002898897491408
 20
0.725413554058755
 30
0.0
 11
0.0216442070728516
 21
0.7247814624012108
 31
0.0
  0
LINE
  5
FEF
330
FB8
100
AcDbEntity
  8
BLOCKS
100
AcDbLine
 10
0.0039999999999998
 20
0.6937699792729269
 30
0.0
 11
0.0212322257869016
 21
0.6937699792729269
 31
0.0
  0
ARC
  5
FF0
330
FB8
100
AcDbEntity
  8
BLOCKS
100
AcDbCircle
 10
0.0029999999999995
 20
0.7284118499552194
 30
0.0
 40
0.003
100
AcDbArc
 50
180.0
 51
268.0687186278428
  0
ARC
  5
FF1
330
FB8
100
AcDbEntity
  8
BLOCKS
100
AcDbCircle
 10
0.0039999999999998
 20
0.6977699792729267
 30
0.0
 40
0.004
100
AcDbArc
 50
180.0
 51
270.0
  0
LINE
  5
FF2
330
FB8
100
AcDbEntity
  8
BLOCKS
100
AcDbLine
 10
0.0243771535634369
 20
0.75048827822646
 30
0.0
 11
0.025231699088547
 21
0.697834889283114
 31
0.0
  0
ARC
  5
FF3
330
FB8
100
AcDbEntity
  8
BLOCKS
100
AcDbCircle
 10
0.0217453095814432
 20
0.7277797582976758
 30
0.0
 40
0.003
100
AcDbArc
 50
268.0687186278428
 51
0.9298082190339183
  0
ARC
  5
FF4
330
FB8
100
AcDbEntity
  8
BLOCKS
100
AcDbCircle
 10
0.0212322257869016
 20
0.6977699792729267
 30
0.0
 40
0.004
100
AcDbArc
 50
270.0
 51
0.9298082190339183
  0
ARC
  5
FF5
330
FB8
100
AcDbEntity
  8
BLOCKS
100
AcDbCircle
 10
0.1998405397509265
 20
1.992101862662756
 30
0.0
 40
1.313019115030896
100
AcDbArc
 50
261.4221639693857
 51
266.1131286770398
  0
ARC
  5
FF6
330
FB8
100
AcDbEntity
  8
BLOCKS
100
AcDbCircle
 10
0.4140413692726379
 20
0.7655526388248393
 30
0.0
 40
0.3899293354805917
100
AcDbArc
 50
171.2548722652081
 51
182.0786213382269
  0
LINE
  5
FF7
330
FB8
100
AcDbEntity
  8
BLOCKS
100
AcDbLine
 10
0.0
 20
0.8500221977186425
 30
0.0
 11
0.0
 21
0.6977699792729267
 31
0.0
  0
ARC
  5
FF8
330
FB8
100
AcDbEntity
  8
BLOCKS
100
AcDbCircle
 10
-4.359512809670976
 20
0.3227169985397194
 30
0.0
 40
4.484334998944462
100
AcDbArc
 50
4.664598472997945
 51
6.425913665782234
  0
ARC
  5
FF9
330
FB8
100
AcDbEntity
  8
BLOCKS
100
AcDbCircle
 10
-4.359512809670976
 20
0.3227169985397194
 30
0.0
 40
4.494334998944462
100
AcDbArc
 50
4.664598472997945
 51
6.451374644895894
  0
LINE
  5
FFA
330
FB8
100
AcDbEntity
  8
BLOCKS
100
AcDbLine
 10
0.131247011896196
 20
0.8399250009349447
 30
0.0
 11
0.0305190758167135
 21
0.8399250009349447
 31
0.0
  0
LINE
  5
FFB
330
FB8
100
AcDbEntity
  8
BLOCKS
100
AcDbLine
 10
0.1271880461230728
 20
0.8299250009349446
 30
0.0
 11
0.108349464062261
 21
0.8299250009349446
 31
0.0
  0
ARC
  5
FFC
330
FB8
100
AcDbEntity
  8
BLOCKS
100
AcDbCircle
 10
0.277390733445867
 20
0.675586463392416
 30
0.0
 40
0.0106808360010132
100
AcDbArc
 50
43.4784714133215
 51
100.7565515320008
  0
LINE
  5
FFD
330
FB8
100
AcDbEntity
  8
BLOCKS
100
AcDbLine
 10
0.5142012142032991
 20
0.8373223708059265
 30
0.0
 11
0.1313013840331075
 21
0.8399248161622313
 31
0.0
  0
LINE
  5
FFE
330
FB8
100
AcDbEntity
  8
BLOCKS
100
AcDbLine
 10
0.2814771860590514
 20
0.6670181303029227
 30
0.0
 11
0.2814771860590542
 21
0.6769597707077754
 31
0.0
  0
ARC
  5
FFF
330
FB8
100
AcDbEntity
  8
BLOCKS
100
AcDbCircle
 10
0.2754771860590517
 20
0.6670181303029227
 30
0.0
 40
0.006
100
AcDbArc
 50
332.582220007
 51
0.0
  0
LINE
  5
1000
330
FB8
100
AcDbEntity
  8
BLOCKS
100
AcDbLine
 10
0.2577095256855205
 20
0.6182732130207864
 30
0.0
 11
0.2577095256855199
 21
0.5984725188928389
 31
0.0
  0
LINE
  5
1001
330
FB8
100
AcDbEntity
  8
BLOCKS
100
AcDbLine
 10
0.2602974116955301
 20
0.5935371893071557
 30
0.0
 11
0.2768893000490425
 21
0.5820661389166015
 31
0.0
  0
ARC
  5
1002
330
FB8
100
AcDbEntity
  8
BLOCKS
100
AcDbCircle
 10
0.2637095256855196
 20
0.5984725188928389
 30
0.0
 40
0.006
100
AcDbArc
 50
180.0
 51
235.3413760583903
  0
ARC
  5
1003
330
FB8
100
AcDbEntity
  8
BLOCKS
100
AcDbCircle
 10
0.2166647044908694
 20
0.6489571689018949
 30
0.0
 40
0.003
100
AcDbArc
 50
180.0
 51
270.0
  0
ARC
  5
1004
330
FB8
100
AcDbEntity
  8
BLOCKS
100
AcDbCircle
 10
0.2238509614678242
 20
0.6489571689018949
 30
0.0
 40
0.003
100
AcDbArc
 50
270.0
 51
351.9393282125687
  0
ARC
  5
1005
330
FB8
100
AcDbEntity
  8
BLOCKS
100
AcDbCircle
 10
0.2637095256855207
 20
0.6182732130207864
 30
0.0
 40
0.006
100
AcDbArc
 50
152.5822200069999
 51
180.0
  0
LINE
  5
1006
330
FB8
100
AcDbEntity
  8
BLOCKS
100
AcDbLine
 10
0.2238509614678242
 20
0.6459571689018948
 30
0.0
 11
0.2166647044908694
 21
0.6459571689018948
 31
0.0
  0
LINE
  5
1007
330
FB8
100
AcDbEntity
  8
BLOCKS
100
AcDbLine
 10
0.2136647044908693
 20
0.6768802634493528
 30
0.0
 11
0.2136647044908693
 21
0.6489571689018949
 31
0.0
  0
LINE
  5
1008
330
FB8
100
AcDbEntity
  8
BLOCKS
100
AcDbLine
 10
0.2304590484886171
 20
0.6742228843134825
 30
0.0
 11
0.2268213218879606
 21
0.648536503982408
 31
0.0
  0
ARC
  5
1009
330
FB8
100
AcDbEntity
  8
BLOCKS
100
AcDbCircle
 10
0.1667011313100664
 20
0.6489571689018949
 30
0.0
 40
0.003
100
AcDbArc
 50
270.0
 51
0.0
  0
ARC
  5
100A
330
FB8
100
AcDbEntity
  8
BLOCKS
100
AcDbCircle
 10
0.1596671005324583
 20
0.6489571689018949
 30
0.0
 40
0.003
100
AcDbArc
 50
184.2986442579866
 51
270.0
  0
ARC
  5
100B
330
FB8
100
AcDbEntity
  8
BLOCKS
100
AcDbCircle
 10
0.1677011313100655
 20
0.6693665417816516
 30
0.0
 40
0.002
100
AcDbArc
 50
242.6026328801201
 51
0.0
  0
LINE
  5
100C
330
FB8
100
AcDbEntity
  8
BLOCKS
100
AcDbLine
 10
0.166699533585604
 20
0.6676329954010919
 30
0.0
 11
0.1667808133360137
 21
0.6675908687186598
 31
0.0
  0
LINE
  5
100D
330
FB8
100
AcDbEntity
  8
BLOCKS
100
AcDbLine
 10
0.1393694666695569
 20
0.6671717274193146
 30
0.0
 11
0.1513275308651225
 21
0.6652344483555891
 31
0.0
  0
ARC
  5
100E
330
FB8
100
AcDbEntity
  8
BLOCKS
100
AcDbCircle
 10
0.1484489523640514
 20
0.6474661117476462
 30
0.0
 40
0.018
100
AcDbArc
 50
72.521769004641
 51
80.79768757390622
  0
ARC
  5
100F
330
FB8
100
AcDbEntity
  8
BLOCKS
100
AcDbCircle
 10
0.1749823953520991
 20
0.6836140529680098
 30
0.0
 40
0.018
100
AcDbArc
 50
225.1533723717949
 51
242.6026328800472
  0
LINE
  5
1010
330
FB8
100
AcDbEntity
  8
BLOCKS
100
AcDbLine
 10
0.1538551339568465
 20
0.6646350721292686
 30
0.0
 11
0.1676021615755326
 21
0.6603063925810676
 31
0.0
  0
LINE
  5
1011
330
FB8
100
AcDbEntity
  8
BLOCKS
100
AcDbLine
 10
0.1566755398102447
 20
0.6487323035081478
 30
0.0
 11
0.1564338862563034
 21
0.6519472102944213
 31
0.0
  0
LINE
  5
1012
330
FB8
100
AcDbEntity
  8
BLOCKS
100
AcDbLine
 10
0.1377702563911839
 20
0.6573004293037906
 30
0.0
 11
0.1539220886176008
 21
0.654683734335332
 31
0.0
  0
ARC
  5
1013
330
FB8
100
AcDbEntity
  8
BLOCKS
100
AcDbCircle
 10
0.1534423255340886
 20
0.6517223449006747
 30
0.0
 40
0.003
100
AcDbArc
 50
4.298644257986634
 51
80.79768757390622
  0
LINE
  5
1014
330
FB8
100
AcDbEntity
  8
BLOCKS
100
AcDbLine
 10
0.1596671005324583
 20
0.6459571689018948
 30
0.0
 11
0.1667011313100664
 21
0.6459571689018948
 31
0.0
  0
ARC
  5
1015
330
FB8
100
AcDbEntity
  8
BLOCKS
100
AcDbCircle
 10
0.1667011313100664
 20
0.6574448991841308
 30
0.0
 40
0.003
100
AcDbArc
 50
0.0
 51
72.521769004641
  0
LINE
  5
1016
330
FB8
100
AcDbEntity
  8
BLOCKS
100
AcDbLine
 10
0.1697011313100666
 20
0.6742573135429138
 30
0.0
 11
0.1697011313100666
 21
0.6489571689018949
 31
0.0
  0
LINE
  5
1017
330
FB8
100
AcDbEntity
  8
BLOCKS
100
AcDbLine
 10
0.1693260078931666
 20
0.6766783168664319
 30
0.0
 11
0.2136681039891136
 21
0.6766783168664319
 31
0.0
  0
LINE
  5
1018
330
FB8
100
AcDbEntity
  8
BLOCKS
100
AcDbLine
 10
0.1667011313100664
 20
0.6459571689018948
 30
0.0
 11
0.2166647044908694
 21
0.6459571689018948
 31
0.0
  0
ARC
  5
1019
330
FB8
100
AcDbEntity
  8
BLOCKS
100
AcDbCircle
 10
0.2734771860590524
 20
0.5771308093309188
 30
0.0
 40
0.006
100
AcDbArc
 50
0.0
 51
55.34137605839029
  0
LINE
  5
101A
330
FB8
100
AcDbEntity
  8
BLOCKS
100
AcDbLine
 10
0.2808032212598198
 20
0.664255278689069
 30
0.0
 11
0.2583834904847527
 21
0.6210360646346402
 31
0.0
  0
ARC
  5
101B
330
FB8
100
AcDbEntity
  8
BLOCKS
100
AcDbCircle
 10
0.2874771860590522
 20
0.00400422639478
 30
0.0
 40
0.004
100
AcDbArc
 50
270.0
 51
0.0
  0
LINE
  5
101C
330
FB8
100
AcDbEntity
  8
BLOCKS
100
AcDbLine
 10
0.2146413788713312
 20
0.02400422639478
 30
0.0
 11
0.2674771860590522
 21
0.02400422639478
 31
0.0
  0
LINE
  5
101D
330
FB8
100
AcDbEntity
  8
BLOCKS
100
AcDbLine
 10
0.2083697084495424
 20
0.016970898880291
 30
0.0
 11
0.2087310291145241
 21
0.0190375539092685
 31
0.0
  0
ARC
  5
101E
330
FB8
100
AcDbEntity
  8
BLOCKS
100
AcDbCircle
 10
0.2146413788713312
 20
0.0180042263947797
 30
0.0
 40
0.006
100
AcDbArc
 50
90.0
 51
170.0830074517147
  0
ARC
  5
101F
330
FB8
100
AcDbEntity
  8
BLOCKS
100
AcDbCircle
 10
0.2024593586927347
 20
0.0180042263947797
 30
0.0
 40
0.006
100
AcDbArc
 50
270.0
 51
350.0830074517147
  0
ARC
  5
1020
330
FB8
100
AcDbEntity
  8
BLOCKS
100
AcDbCircle
 10
0.1955888184756356
 20
0.0060042263947798
 30
0.0
 40
0.006
100
AcDbArc
 50
90.0
 51
164.5980293387128
  0
LINE
  5
1021
330
FB8
100
AcDbEntity
  8
BLOCKS
100
AcDbLine
 10
0.1889263172201925
 20
0.0044106907331627
 30
0.0
 11
0.189804300855717
 21
0.007597762056397
 31
0.0
  0
LINE
  5
1022
330
FB8
100
AcDbEntity
  8
BLOCKS
100
AcDbLine
 10
0.1204771860590523
 20
0.0000042263947802
 30
0.0
 11
0.1831417996002733
 21
0.0000042263947802
 31
0.0
  0
ARC
  5
1023
330
FB8
100
AcDbEntity
  8
BLOCKS
100
AcDbCircle
 10
0.1831417996002733
 20
0.0060042263947798
 30
0.0
 40
0.006
100
AcDbArc
 50
270.0
 51
344.5980293387128
  0
ARC
  5
1024
330
FB8
100
AcDbEntity
  8
BLOCKS
100
AcDbCircle
 10
0.1204771860590523
 20
0.00400422639478
 30
0.0
 40
0.004
100
AcDbArc
 50
180.0
 51
270.0
  0
ARC
  5
1025
330
FB8
100
AcDbEntity
  8
BLOCKS
100
AcDbCircle
 10
0.1404771860590523
 20
0.0060042263947798
 30
0.0
 40
0.006
100
AcDbArc
 50
270.0
 51
0.0
  0
LINE
  5
1026
330
FB8
100
AcDbEntity
  8
BLOCKS
100
AcDbLine
 10
0.1955888184756356
 20
0.0120042263947801
 30
0.0
 11
0.2024593586927347
 21
0.0120042263947801
 31
0.0
  0
LINE
  5
1027
330
FB8
100
AcDbEntity
  8
BLOCKS
100
AcDbLine
 10
0.1831417996002733
 20
0.0000042263947802
 30
0.0
 11
0.2874771860590522
 21
0.0000042263947802
 31
0.0
  0
ARC
  5
1028
330
FB8
100
AcDbEntity
  8
BLOCKS
100
AcDbCircle
 10
0.2674771860590522
 20
0.0360042263947798
 30
0.0
 40
0.012
100
AcDbArc
 50
270.0
 51
0.0
  0
LINE
  5
1029
330
FB8
100
AcDbEntity
  8
BLOCKS
100
AcDbLine
 10
0.2794771860590526
 20
0.0360042263947798
 30
0.0
 11
0.2794771860590526
 21
0.5771308093309188
 31
0.0
  0
LINE
  5
102A
330
FB8
100
AcDbEntity
  8
BLOCKS
100
AcDbLine
 10
0.1164771860590525
 20
0.6701984662598233
 30
0.0
 11
0.1164771860590525
 21
0.00400422639478
 31
0.0
  0
LINE
  5
102B
330
FB8
100
AcDbEntity
  8
BLOCKS
100
AcDbLine
 10
0.1464771860590525
 20
0.6558898537893072
 30
0.0
 11
0.1464771860590525
 21
0.0060042263947798
 31
0.0
  0
LINE
  5
102C
330
FB8
100
AcDbEntity
  8
BLOCKS
100
AcDbLine
 10
0.2914771860590525
 20
0.00400422639478
 30
0.0
 11
0.2914771860590525
 21
0.6780042263947803
 31
0.0
  0
ARC
  5
102D
330
FB8
100
AcDbEntity
  8
BLOCKS
100
AcDbCircle
 10
0.1430835171541054
 20
0.6900971050540596
 30
0.0
 40
0.0232242784752816
100
AcDbArc
 50
184.6645984729979
 51
260.7976875739062
  0
ARC
  5
102E
330
FB8
100
AcDbEntity
  8
BLOCKS
100
AcDbCircle
 10
0.1430835171541054
 20
0.6900971050540596
 30
0.0
 40
0.0332242784752816
100
AcDbArc
 50
184.6645984729979
 51
260.7976875739062
  0
ARC
  5
102F
330
FB8
100
AcDbEntity
  8
BLOCKS
100
AcDbCircle
 10
0.1617011313100664
 20
0.6742573135429138
 30
0.0
 40
0.008
100
AcDbArc
 50
0.0
 51
45.15337237179497
  0
LINE
  5
1030
330
FB8
100
AcDbEntity
  8
BLOCKS
100
AcDbLine
 10
0.1544347968086856
 20
0.6786639638484087
 30
0.0
 11
0.1622885896259368
 21
0.6708521057738528
 31
0.0
  0
ARC
  5
1031
330
FB8
100
AcDbEntity
  8
BLOCKS
100
AcDbCircle
 10
0.2865536639546434
 20
0.6769597707077749
 30
0.0
 40
0.0050764778955894
100
AcDbArc
 50
82.66661999833111
 51
180.0
  0
ARC
  5
1032
330
FB8
100
AcDbEntity
  8
BLOCKS
100
AcDbCircle
 10
0.2196647044908695
 20
0.6768802634493528
 30
0.0
 40
0.006
100
AcDbArc
 50
129.3054797579113
 51
180.0
  0
ARC
  5
1033
330
FB8
100
AcDbEntity
  8
BLOCKS
100
AcDbCircle
 10
0.2363997693288911
 20
0.6733815544745097
 30
0.0
 40
0.006
100
AcDbArc
 50
98.49386447026216
 51
171.9393282125686
  0
ARC
  5
1034
330
FB8
100
AcDbEntity
  8
BLOCKS
100
AcDbCircle
 10
0.2190875265454542
 20
1.024563975800038
 30
0.0
 40
0.3301875730780269
100
AcDbArc
 50
273.5928246605038
 51
322.5093253325363
  0
ENDBLK
  5
1036
330
FB8
100
AcDbEntity
  8
0
100
AcDbBlockEnd
  0
BLOCK
  5
1055
330
1038
100
AcDbEntity
  8
0
100
AcDbBlockBegin
  2
114320AL
 70
     0
 10
0.0
 20
0.0
 30
0.0
  3
114320AL
  1

  0
ARC
  5
1039
330
1038
100
AcDbEntity
  8
BLOCKS
100
AcDbCircle
 10
0.5142012142032991
 20
0.8293223708059263
 30
0.0
 40
0.008
100
AcDbArc
 50
30.90829295050538
 51
90.0
  0
ARC
  5
103A
330
1038
100
AcDbEntity
  8
BLOCKS
100
AcDbCircle
 10
0.5006456352619643
 20
0.8212068591437224
 30
0.0
 40
0.0237992167519187
100
AcDbArc
 50
315.0843079372739
 51
30.90829295050538
  0
ARC
  5
103B
330
1038
100
AcDbEntity
  8
BLOCKS
100
AcDbCircle
 10
0.247342058846051
 20
1.073766082653699
 30
0.0
 40
0.3814986201691667
100
AcDbArc
 50
302.1123874224463
 51
315.0843079372739
  0
ARC
  5
103C
330
1038
100
AcDbEntity
  8
BLOCKS
100
AcDbCircle
 10
0.3136012646073846
 20
0.6649084743156023
 30
0.0
 40
0.030082917844197
100
AcDbArc
 50
100.9929253212399
 51
142.6048817321192
  0
ARC
  5
103D
330
1038
100
AcDbEntity
  8
BLOCKS
100
AcDbCircle
 10
0.2873179990424091
 20
0.6849999999999996
 30
0.0
 40
0.003
100
AcDbArc
 50
270.0
 51
322.6048817321192
  0
ARC
  5
103E
330
1038
100
AcDbEntity
  8
BLOCKS
100
AcDbCircle
 10
0.2873179990424091
 20
0.6790000000000004
 30
0.0
 40
0.0030000000000001
100
AcDbArc
 50
0.0
 51
90.0
  0
ARC
  5
103F
330
1038
100
AcDbEntity
  8
BLOCKS
100
AcDbCircle
 10
0.2282796785518531
 20
1.104139530986404
 30
0.0
 40
0.417358356728435
100
AcDbArc
 50
280.9929253212399
 51
302.1123874224463
  0
ARC
  5
1040
330
1038
100
AcDbEntity
  8
BLOCKS
100
AcDbCircle
 10
0.1183179990424094
 20
0.6790000000000004
 30
0.0
 40
0.0029999999999995
100
AcDbArc
 50
90.0
 51
180.0
  0
LINE
  5
1041
330
1038
100
AcDbEntity
  8
BLOCKS
100
AcDbLine
 10
0.0089187150019416
 20
0.8550221977186419
 30
0.0
 11
0.005
 21
0.8550221977186419
 31
0.0
  0
ARC
  5
1042
330
1038
100
AcDbEntity
  8
BLOCKS
100
AcDbCircle
 10
0.005
 20
0.850022197718642
 30
0.0
 40
0.005
100
AcDbArc
 50
90.0
 51
180.0
  0
LINE
  5
1043
330
1038
100
AcDbEntity
  8
BLOCKS
100
AcDbLine
 10
0.0164107998053783
 20
0.8498273118514561
 30
0.0
 11
0.0164714168102688
 21
0.8496654119359202
 31
0.0
  0
ARC
  5
1044
330
1038
100
AcDbEntity
  8
BLOCKS
100
AcDbCircle
 10
0.0305190758167135
 20
0.8549250009349446
 30
0.0
 40
0.015
100
AcDbArc
 50
200.526420493529
 51
270.0
  0
ARC
  5
1045
330
1038
100
AcDbEntity
  8
BLOCKS
100
AcDbCircle
 10
0.0089187150019416
 20
0.8470221977186424
 30
0.0
 40
0.008
100
AcDbArc
 50
20.526420493529
 51
90.0
  0
ARC
  5
1046
330
1038
100
AcDbEntity
  8
BLOCKS
100
AcDbCircle
 10
0.0039999999999998
 20
0.6977699792729272
 30
0.0
 40
0.004
100
AcDbArc
 50
180.0
 51
270.0
  0
LINE
  5
1047
330
1038
100
AcDbEntity
  8
BLOCKS
100
AcDbLine
 10
0.0
 20
0.850022197718642
 30
0.0
 11
0.0
 21
0.6977699792729272
 31
0.0
  0
ARC
  5
1048
330
1038
100
AcDbEntity
  8
BLOCKS
100
AcDbCircle
 10
1.373277390283594
 20
0.8031932315179318
 30
0.0
 40
1.358361755396129
100
AcDbArc
 50
178.557076300685
 51
184.3324409521767
  0
LINE
  5
1049
330
1038
100
AcDbEntity
  8
BLOCKS
100
AcDbLine
 10
0.131247011896196
 20
0.8399250009349447
 30
0.0
 11
0.0305190758167135
 21
0.8399250009349447
 31
0.0
  0
ARC
  5
104A
330
1038
100
AcDbEntity
  8
BLOCKS
100
AcDbCircle
 10
0.1998405397509265
 20
1.992101862662756
 30
0.0
 40
1.313019115030896
100
AcDbArc
 50
261.4221639693857
 51
266.3830023969013
  0
ARC
  5
104B
330
1038
100
AcDbEntity
  8
BLOCKS
100
AcDbCircle
 10
0.1430835171541054
 20
0.6900971050540596
 30
0.0
 40
0.0332242784752816
100
AcDbArc
 50
193.9227351449942
 51
213.3112383471175
  0
ARC
  5
104C
330
1038
100
AcDbEntity
  8
BLOCKS
100
AcDbCircle
 10
0.2039485816864431
 20
1.990869988970898
 30
0.0
 40
1.302524875444055
100
AcDbArc
 50
270.2989464985683
 51
273.8200544078953
  0
LINE
  5
104D
330
1038
100
AcDbEntity
  8
BLOCKS
100
AcDbLine
 10
0.5142012142032979
 20
0.8373223708059271
 30
0.0
 11
0.1313013840331075
 21
0.8399248161622308
 31
0.0
  0
LINE
  5
104E
330
1038
100
AcDbEntity
  8
BLOCKS
100
AcDbLine
 10
0.2873179990424091
 20
0.682
 30
0.0
 11
0.1183179990424094
 21
0.682
 31
0.0
  0
ARC
  5
104F
330
1038
100
AcDbEntity
  8
BLOCKS
100
AcDbCircle
 10
0.2873179990424091
 20
0.0030000000000001
 30
0.0
 40
0.0030000000000001
100
AcDbArc
 50
270.0
 51
0.0
  0
ARC
  5
1050
330
1038
100
AcDbEntity
  8
BLOCKS
100
AcDbCircle
 10
0.11831799904241
 20
0.0030000000000001
 30
0.0
 40
0.0030000000000007
100
AcDbArc
 50
180.0
 51
269.9999999999891
  0
LINE
  5
1051
330
1038
100
AcDbEntity
  8
BLOCKS
100
AcDbLine
 10
0.1183179990424094
 20
0.0
 30
0.0
 11
0.2873179990424091
 21
0.0
 31
0.0
  0
LINE
  5
1052
330
1038
100
AcDbEntity
  8
BLOCKS
100
AcDbLine
 10
0.1453179990424093
 20
0.6802152482820754
 30
0.0
 11
0.1453179990424104
 21
0.0
 31
0.0
  0
LINE
  5
1053
330
1038
100
AcDbEntity
  8
BLOCKS
100
AcDbLine
 10
0.1153179990424093
 20
0.6790000000000004
 30
0.0
 11
0.1153179990424093
 21
0.0030000000000001
 31
0.0
  0
LINE
  5
1054
330
1038
100
AcDbEntity
  8
BLOCKS
100
AcDbLine
 10
0.2903179990424093
 20
0.0030000000000001
 30
0.0
 11
0.2903179990424093
 21
0.6790000000000004
 31
0.0
  0
ENDBLK
  5
1056
330
1038
100
AcDbEntity
  8
0
100
AcDbBlockEnd
  0
BLOCK
  5
1075
330
1058
100
AcDbEntity
  8
0
100
AcDbBlockBegin
  2
114320AF
 70
     0
 10
0.0
 20
0.0
 30
0.0
  3
114320AF
  1

  0
ARC
  5
1059
330
1058
100
AcDbEntity
  8
BLOCKS
100
AcDbCircle
 10
0.3234186334517435
 20
0.8490221977186427
 30
0.0
 40
0.006
100
AcDbArc
 50
4.441668388727758
 51
90.0
  0
ARC
  5
105A
330
1058
100
AcDbEntity
  8
BLOCKS
100
AcDbCircle
 10
0.2137840913092475
 20
0.760401593329089
 30
0.0
 40
0.06
100
AcDbArc
 50
270.5760638351622
 51
289.8568204194422
  0
ARC
  5
105B
330
1058
100
AcDbEntity
  8
BLOCKS
100
AcDbCircle
 10
0.2124542647303278
 20
0.8926627741143994
 30
0.0
 40
0.1922678660198858
100
AcDbArc
 50
260.3688385901493
 51
270.5760638351622
  0
ARC
  5
105C
330
1058
100
AcDbEntity
  8
BLOCKS
100
AcDbCircle
 10
0.18742587036667
 20
0.8333871855135026
 30
0.0
 40
0.1375993071990154
100
AcDbArc
 50
289.8568204194422
 51
342.4069954479725
  0
ARC
  5
105D
330
1058
100
AcDbEntity
  8
BLOCKS
100
AcDbCircle
 10
0.2167644703195799
 20
0.8407375792081699
 30
0.0
 40
0.1129754430572091
100
AcDbArc
 50
299.1956123240212
 51
4.441668388727758
  0
ARC
  5
105E
330
1058
100
AcDbEntity
  8
BLOCKS
100
AcDbCircle
 10
0.1089430342290041
 20
0.6812898226958692
 30
0.0
 40
0.006
100
AcDbArc
 50
97.86161103874359
 51
139.4343243646795
  0
ARC
  5
105F
330
1058
100
AcDbEntity
  8
BLOCKS
100
AcDbCircle
 10
0.0965225169072198
 20
0.6919225931790783
 30
0.0
 40
0.0103500782471937
100
AcDbArc
 50
273.0753185052405
 51
319.4343243646795
  0
ARC
  5
1060
330
1058
100
AcDbEntity
  8
BLOCKS
100
AcDbCircle
 10
0.0846838221994821
 20
0.6790042263947801
 30
0.0
 40
0.0029999999999998
100
AcDbArc
 50
0.0
 51
90.0
  0
ARC
  5
1061
330
1058
100
AcDbEntity
  8
BLOCKS
100
AcDbCircle
 10
0.0001838221994819
 20
2.485069818686993
 30
0.0
 40
1.80608338707808
100
AcDbArc
 50
272.7508024903209
 51
273.0753185052405
  0
ARC
  5
1062
330
1058
100
AcDbEntity
  8
BLOCKS
100
AcDbCircle
 10
0.0001838221994819
 20
2.485069818686993
 30
0.0
 40
1.80608338707808
100
AcDbArc
 50
266.9246814947594
 51
267.2491975096791
  0
ARC
  5
1063
330
1058
100
AcDbEntity
  8
BLOCKS
100
AcDbCircle
 10
-0.108575389830041
 20
0.6812898226958692
 30
0.0
 40
0.006
100
AcDbArc
 50
40.56567563532047
 51
82.13838896125642
  0
ARC
  5
1064
330
1058
100
AcDbEntity
  8
BLOCKS
100
AcDbCircle
 10
-0.096154872508256
 20
0.6919225931790783
 30
0.0
 40
0.0103500782471937
100
AcDbArc
 50
220.5656756353204
 51
266.9246814947594
  0
ARC
  5
1065
330
1058
100
AcDbEntity
  8
BLOCKS
100
AcDbCircle
 10
-0.084316177800518
 20
0.6790042263947801
 30
0.0
 40
0.0030000000000001
100
AcDbArc
 50
90.0
 51
180.0
  0
ARC
  5
1066
330
1058
100
AcDbEntity
  8
BLOCKS
100
AcDbCircle
 10
-0.0025762143918874
 20
1.627249277410462
 30
0.0
 40
0.9436049564803374
100
AcDbArc
 50
264.1652190345835
 51
276.2244191504058
  0
ARC
  5
1067
330
1058
100
AcDbEntity
  8
BLOCKS
100
AcDbCircle
 10
-0.2134164469102835
 20
0.760401593329089
 30
0.0
 40
0.06
100
AcDbArc
 50
250.1431795805578
 51
269.4239361648378
  0
ARC
  5
1068
330
1058
100
AcDbEntity
  8
BLOCKS
100
AcDbCircle
 10
-0.2120866203313645
 20
0.8926627741143994
 30
0.0
 40
0.1922678660198858
100
AcDbArc
 50
269.4239361648378
 51
279.6311614098507
  0
ARC
  5
1069
330
1058
100
AcDbEntity
  8
BLOCKS
100
AcDbCircle
 10
-0.3230509890527802
 20
0.8490221977186427
 30
0.0
 40
0.006
100
AcDbArc
 50
90.0
 51
175.5583316112722
  0
ARC
  5
106A
330
1058
100
AcDbEntity
  8
BLOCKS
100
AcDbCircle
 10
-0.1870582259677067
 20
0.8333871855135026
 30
0.0
 40
0.1375993071990154
100
AcDbArc
 50
197.5930045520275
 51
250.1431795805578
  0
ARC
  5
106B
330
1058
100
AcDbEntity
  8
BLOCKS
100
AcDbCircle
 10
-0.2163968259206169
 20
0.8407375792081699
 30
0.0
 40
0.1129754430572091
100
AcDbArc
 50
175.5583316112722
 51
240.8043876759788
  0
ARC
  5
106C
330
1058
100
AcDbEntity
  8
BLOCKS
100
AcDbCircle
 10
-0.043945008870308
 20
1.149359267928228
 30
0.0
 40
0.4665104143858938
100
AcDbArc
 50
240.8043876759788
 51
262.1383889612564
  0
LINE
  5
106D
330
1058
100
AcDbEntity
  8
BLOCKS
100
AcDbLine
 10
0.0001838221994819
 20
0.8550221977186424
 30
0.0
 11
-0.3230509890527802
 21
0.8550221977186424
 31
0.0
  0
ARC
  5
106E
330
1058
100
AcDbEntity
  8
BLOCKS
100
AcDbCircle
 10
0.0846838221994821
 20
0.0030042263947803
 30
0.0
 40
0.0030000000000001
100
AcDbArc
 50
270.0
 51
0.0
  0
ARC
  5
106F
330
1058
100
AcDbEntity
  8
BLOCKS
100
AcDbCircle
 10
-0.084316177800518
 20
0.0030042263947803
 30
0.0
 40
0.0030000000000001
100
AcDbArc
 50
180.0
 51
270.0
  0
LINE
  5
1070
330
1058
100
AcDbEntity
  8
BLOCKS
100
AcDbLine
 10
-0.084316177800518
 20
0.0000042263947802
 30
0.0
 11
0.0846838221994821
 21
0.0000042263947802
 31
0.0
  0
LINE
  5
1071
330
1058
100
AcDbEntity
  8
BLOCKS
100
AcDbLine
 10
-0.0873161778005181
 20
0.6790042263947801
 30
0.0
 11
-0.0873161778005181
 21
0.0030042263947803
 31
0.0
  0
LINE
  5
1072
330
1058
100
AcDbEntity
  8
BLOCKS
100
AcDbLine
 10
0.087683822199482
 20
0.0030042263947803
 30
0.0
 11
0.087683822199482
 21
0.6790042263947801
 31
0.0
  0
ARC
  5
1073
330
1058
100
AcDbEntity
  8
BLOCKS
100
AcDbCircle
 10
0.0443126532692713
 20
1.149359267928228
 30
0.0
 40
0.4665104143858938
100
AcDbArc
 50
277.8616110387436
 51
299.1956123240212
  0
LINE
  5
1074
330
1058
100
AcDbEntity
  8
BLOCKS
100
AcDbLine
 10
0.0001838221994819
 20
0.8550221977186424
 30
0.0
 11
0.3234186334517435
 21
0.8550221977186424
 31
0.0
  0
ENDBLK
  5
1076
330
1058
100
AcDbEntity
  8
0
100
AcDbBlockEnd
  0
ENDSEC
  0
SECTION
  2
ENTITIES
  0
INSERT
  5
FB6
330
1F
100
AcDbEntity
  8
cotas
100
AcDbBlockReference
  2
114320PL
 10
224.7922295730047
 20
149.8676491717
 30
0.0
  0
INSERT
  5
1037
330
1F
100
AcDbEntity
  8
cotas
100
AcDbBlockReference
  2
114320CT
 10
225.5337401199291
 20
149.1429490194875
 30
0.0
  0
INSERT
  5
1077
330
1F
100
AcDbEntity
  8
cotas
100
AcDbBlockReference
  2
114320AF
 10
227.5649943192897
 20
149.1429532458823
 30
0.0
  0
ARC
  5
1078
330
1F
100
AcDbEntity
  8
BLOCKS
100
AcDbCircle
 10
226.9231330901348
 20
149.9722756166883
 30
0.0
 40
0.008
100
AcDbArc
 50
30.90829295050565
 51
90.0
  0
ARC
  5
1079
330
1F
100
AcDbEntity
  8
BLOCKS
100
AcDbCircle
 10
226.9095775111934
 20
149.9641601050261
 30
0.0
 40
0.0237992167519187
100
AcDbArc
 50
315.0843079372739
 51
30.90829295050565
  0
ARC
  5
107A
330
1F
100
AcDbEntity
  8
BLOCKS
100
AcDbCircle
 10
226.6562739347775
 20
150.216719328536
 30
0.0
 40
0.3814986201691667
100
AcDbArc
 50
302.1123874224459
 51
315.0843079372739
  0
ARC
  5
107B
330
1F
100
AcDbEntity
  8
BLOCKS
100
AcDbCircle
 10
226.7225331405388
 20
149.8078617201979
 30
0.0
 40
0.030082917844197
100
AcDbArc
 50
100.9929253212405
 51
142.6048817321191
  0
ARC
  5
107C
330
1F
100
AcDbEntity
  8
BLOCKS
100
AcDbCircle
 10
226.6962498749739
 20
149.8279532458823
 30
0.0
 40
0.003
100
AcDbArc
 50
270.0
 51
322.6048817321191
  0
ARC
  5
107D
330
1F
100
AcDbEntity
  8
BLOCKS
100
AcDbCircle
 10
226.6962498749739
 20
149.8219532458823
 30
0.0
 40
0.0030000000000001
100
AcDbArc
 50
0.0
 51
90.0
  0
ARC
  5
107E
330
1F
100
AcDbEntity
  8
BLOCKS
100
AcDbCircle
 10
226.6372115544833
 20
150.2470927768687
 30
0.0
 40
0.417358356728435
100
AcDbArc
 50
280.9929253212406
 51
302.1123874224459
  0
ARC
  5
107F
330
1F
100
AcDbEntity
  8
BLOCKS
100
AcDbCircle
 10
226.5272498749738
 20
149.8219532458823
 30
0.0
 40
0.0029999999999995
100
AcDbArc
 50
90.0
 51
180.0
  0
LINE
  5
1080
330
1F
100
AcDbEntity
  8
BLOCKS
100
AcDbLine
 10
226.4178505909334
 20
149.997975443601
 30
0.0
 11
226.4139318759315
 21
149.997975443601
 31
0.0
  0
ARC
  5
1081
330
1F
100
AcDbEntity
  8
BLOCKS
100
AcDbCircle
 10
226.4139318759315
 20
149.992975443601
 30
0.0
 40
0.005
100
AcDbArc
 50
90.0
 51
180.0
  0
LINE
  5
1082
330
1F
100
AcDbEntity
  8
BLOCKS
100
AcDbLine
 10
226.4253426757368
 20
149.9927805577338
 30
0.0
 11
226.4254032927417
 21
149.9926186578182
 31
0.0
  0
ARC
  5
1083
330
1F
100
AcDbEntity
  8
BLOCKS
100
AcDbCircle
 10
226.4394509517482
 20
149.9978782468173
 30
0.0
 40
0.015
100
AcDbArc
 50
200.5264204935288
 51
270.0
  0
ARC
  5
1084
330
1F
100
AcDbEntity
  8
BLOCKS
100
AcDbCircle
 10
226.4178505909334
 20
149.989975443601
 30
0.0
 40
0.008
100
AcDbArc
 50
20.52642049352881
 51
90.0
  0
ARC
  5
1085
330
1F
100
AcDbEntity
  8
BLOCKS
100
AcDbCircle
 10
226.4129318759315
 20
149.8407232251552
 30
0.0
 40
0.004
100
AcDbArc
 50
180.0
 51
270.0
  0
LINE
  5
1086
330
1F
100
AcDbEntity
  8
BLOCKS
100
AcDbLine
 10
226.4089318759314
 20
149.992975443601
 30
0.0
 11
226.4089318759314
 21
149.8407232251552
 31
0.0
  0
ARC
  5
1087
330
1F
100
AcDbEntity
  8
BLOCKS
100
AcDbCircle
 10
227.782209266215
 20
149.9461464774002
 30
0.0
 40
1.358361755396129
100
AcDbArc
 50
178.557076300685
 51
184.3324409521764
  0
LINE
  5
1088
330
1F
100
AcDbEntity
  8
BLOCKS
100
AcDbLine
 10
226.5401788878276
 20
149.9828782468173
 30
0.0
 11
226.4394509517482
 21
149.9828782468173
 31
0.0
  0
ARC
  5
1089
330
1F
100
AcDbEntity
  8
BLOCKS
100
AcDbCircle
 10
226.6087724156824
 20
151.1350551085451
 30
0.0
 40
1.313019115030896
100
AcDbArc
 50
261.4221639693863
 51
266.383002396901
  0
ARC
  5
108A
330
1F
100
AcDbEntity
  8
BLOCKS
100
AcDbCircle
 10
226.5520153930856
 20
149.8330503509364
 30
0.0
 40
0.0332242784752816
100
AcDbArc
 50
193.9227351449934
 51
213.3112383471174
  0
LINE
  5
108C
330
1F
100
AcDbEntity
  8
BLOCKS
100
AcDbLine
 10
226.9231330901348
 20
149.9802756166883
 30
0.0
 11
226.5402332599645
 21
149.9828780620446
 31
0.0
  0
LINE
  5
108D
330
1F
100
AcDbEntity
  8
BLOCKS
100
AcDbLine
 10
226.6962498749739
 20
149.8249532458823
 30
0.0
 11
226.5272498749738
 21
149.8249532458823
 31
0.0
  0
ARC
  5
108E
330
1F
100
AcDbEntity
  8
BLOCKS
100
AcDbCircle
 10
226.6962498749739
 20
149.1459532458824
 30
0.0
 40
0.0030000000000001
100
AcDbArc
 50
270.0
 51
0.0
  0
ARC
  5
108F
330
1F
100
AcDbEntity
  8
BLOCKS
100
AcDbCircle
 10
226.5272498749738
 20
149.1459532458824
 30
0.0
 40
0.0030000000000007
100
AcDbArc
 50
180.0
 51
269.9999999999886
  0
LINE
  5
1090
330
1F
100
AcDbEntity
  8
BLOCKS
100
AcDbLine
 10
226.5272498749738
 20
149.1429532458823
 30
0.0
 11
226.6962498749739
 21
149.1429532458823
 31
0.0
  0
LINE
  5
1091
330
1F
100
AcDbEntity
  8
BLOCKS
100
AcDbLine
 10
226.5542498749739
 20
149.8231684941644
 30
0.0
 11
226.5542498749739
 21
149.1429532458823
 31
0.0
  0
LINE
  5
1092
330
1F
100
AcDbEntity
  8
BLOCKS
100
AcDbLine
 10
226.5242498749739
 20
149.8219532458823
 30
0.0
 11
226.5242498749739
 21
149.1459532458824
 31
0.0
  0
LINE
  5
1093
330
1F
100
AcDbEntity
  8
BLOCKS
100
AcDbLine
 10
226.6992498749738
 20
149.1459532458824
 30
0.0
 11
226.6992498749738
 21
149.8219532458823
 31
0.0
  0
ENDSEC
  0
SECTION
  2
OBJECTS
  0
DICTIONARY
  5
C
330
0
100
AcDbDictionary
281
     1
  3
ACAD_COLOR
350
BA9
  3
ACAD_GROUP
350
D
  3
ACAD_LAYOUT
350
1A
  3
ACAD_MATERIAL
350
BA8
  3
ACAD_MLEADERSTYLE
350
10E7
  3
ACAD_MLINESTYLE
350
17
  3
ACAD_PLOTSETTINGS
350
19
  3
ACAD_PLOTSTYLENAME
350
E
  3
ACAD_SCALELIST
350
10D5
  3
ACAD_TABLESTYLE
350
BAA
  3
ACAD_VISUALSTYLE
350
10C1
  3
ACDB_RECOMPOSE_DATA
350
1116
  3
AcDbVariableDictionary
350
3D
  3
ASE_INDEX_DICTIONARY
350
B91
  3
DWGPROPS
350
1117
  0
DICTIONARY
  5
10EF
330
10
100
AcDbDictionary
280
     1
281
     1
  3
ADSK_XREC_LAYER_RECONCILED
360
10F0
  0
DICTIONARY
  5
10F1
330
2F
100
AcDbDictionary
280
     1
281
     1
  3
ADSK_XREC_LAYER_RECONCILED
360
10F2
  0
DICTIONARY
  5
10F3
330
30
100
AcDbDictionary
280
     1
281
     1
  3
ADSK_XREC_LAYER_RECONCILED
360
10F4
  0
DICTIONARY
  5
10F5
330
31
100
AcDbDictionary
280
     1
281
     1
  3
ADSK_XREC_LAYER_RECONCILED
360
10F6
  0
DICTIONARY
  5
10F7
330
32
100
AcDbDictionary
280
     1
281
     1
  3
ADSK_XREC_LAYER_RECONCILED
360
10F8
  0
DICTIONARY
  5
10F9
330
33
100
AcDbDictionary
280
     1
281
     1
  3
ADSK_XREC_LAYER_RECONCILED
360
10FA
  0
DICTIONARY
  5
10FB
330
34
100
AcDbDictionary
280
     1
281
     1
  3
ADSK_XREC_LAYER_RECONCILED
360
10FC
  0
DICTIONARY
  5
10FD
330
35
100
AcDbDictionary
280
     1
281
     1
  3
ADSK_XREC_LAYER_RECONCILED
360
10FE
  0
DICTIONARY
  5
10FF
330
36
100
AcDbDictionary
280
     1
281
     1
  3
ADSK_XREC_LAYER_RECONCILED
360
1100
  0
DICTIONARY
  5
1101
330
37
100
AcDbDictionary
280
     1
281
     1
  3
ADSK_XREC_LAYER_RECONCILED
360
1102
  0
DICTIONARY
  5
1103
330
5D6
100
AcDbDictionary
280
     1
281
     1
  3
ADSK_XREC_LAYER_RECONCILED
360
1104
  0
DICTIONARY
  5
1105
330
8AF
100
AcDbDictionary
280
     1
281
     1
  3
ADSK_XREC_LAYER_RECONCILED
360
1106
  0
DICTIONARY
  5
1107
330
8F8
100
AcDbDictionary
280
     1
281
     1
  3
ADSK_XREC_LAYER_RECONCILED
360
1108
  0
DICTIONARY
  5
1109
330
91D
100
AcDbDictionary
280
     1
281
     1
  3
ADSK_XREC_LAYER_RECONCILED
360
110A
  0
DICTIONARY
  5
110B
330
BA5
100
AcDbDictionary
280
     1
281
     1
  3
ADSK_XREC_LAYER_RECONCILED
360
110C
  0
DICTIONARY
  5
110D
330
F89
100
AcDbDictionary
280
     1
281
     1
  3
ADSK_XREC_LAYER_RECONCILED
360
110E
  0
DICTIONARY
  5
1094
330
1F
100
AcDbDictionary
280
     1
281
     1
  3
ACAD_SORTENTS
360
1095
  0
DICTIONARY
  5
BA9
102
{ACAD_REACTORS
330
C
102
}
330
C
100
AcDbDictionary
281
     1
  0
DICTIONARY
  5
D
102
{ACAD_REACTORS
330
C
102
}
330
C
100
AcDbDictionary
281
     1
  0
DICTIONARY
  5
1A
102
{ACAD_REACTORS
330
C
102
}
330
C
100
AcDbDictionary
281
     1
  3
Layout1
350
1E
  3
Layout2
350
26
  3
Model
350
22
  0
DICTIONARY
  5
BA8
102
{ACAD_REACTORS
330
C
102
}
330
C
100
AcDbDictionary
281
     1
  3
ByBlock
350
10B1
  3
ByLayer
350
10A9
  3
Global
350
10B9
  0
DICTIONARY
  5
10E7
102
{ACAD_REACTORS
330
C
102
}
330
C
100
AcDbDictionary
281
     1
  3
Standard
350
10E8
  0
DICTIONARY
  5
17
102
{ACAD_REACTORS
330
C
102
}
330
C
100
AcDbDictionary
281
     1
  3
Standard
350
18
  0
DICTIONARY
  5
19
102
{ACAD_REACTORS
330
C
102
}
330
C
100
AcDbDictionary
281
     1
  0
ACDBDICTIONARYWDFLT
  5
E
102
{ACAD_REACTORS
330
C
102
}
330
C
100
AcDbDictionary
281
     1
  3
Normal
350
F
100
AcDbDictionaryWithDefault
340
F
  0
DICTIONARY
  5
10D5
102
{ACAD_REACTORS
330
C
102
}
330
C
100
AcDbDictionary
281
     1
  3
A0
350
10D6
  3
A1
350
10D7
  3
A2
350
10D8
  3
A3
350
10D9
  3
A4
350
10DA
  3
A5
350
10DB
  3
A6
350
10DC
  3
A7
350
10DD
  3
A8
350
10DE
  3
A9
350
10DF
  3
B0
350
10E0
  3
B1
350
10E1
  3
B2
350
10E2
  3
B3
350
10E3
  3
B4
350
10E4
  3
B5
350
10E5
  3
B6
350
10E6
  0
DICTIONARY
  5
BAA
102
{ACAD_REACTORS
330
C
102
}
330
C
100
AcDbDictionary
281
     1
  3
Standard
350
BAB
  0
DICTIONARY
  5
10C1
102
{ACAD_REACTORS
330
C
102
}
330
C
100
AcDbDictionary
281
     1
  3
2dWireframe
350
10C7
  3
3D Hidden
350
10C9
  3
3dWireframe
350
10C8
  3
Basic
350
10C6
  3
Brighten
350
10CD
  3
ColorChange
350
10D1
  3
Conceptual
350
10CA
  3
Dim
350
10CC
  3
EdgeColorOff
350
10D4
  3
Facepattern
350
10D0
  3
Flat
350
10C2
  3
FlatWithEdges
350
10C3
  3
Gouraud
350
10C4
  3
GouraudWithEdges
350
10C5
  3
JitterOff
350
10D2
  3
Linepattern
350
10CF
  3
OverhangOff
350
10D3
  3
Realistic
350
10CB
  3
Thicken
350
10CE
  0
XRECORD
  5
1116
102
{ACAD_REACTORS
330
C
102
}
330
C
100
AcDbXrecord
280
     1
 90
        1
330
BAB
  0
DICTIONARY
  5
3D
102
{ACAD_REACTORS
330
C
102
}
330
C
100
AcDbDictionary
281
     1
  3
CANNOSCALE
350
1110
  3
CMLEADERSTYLE
350
110F
  3
CTABLESTYLE
350
BB1
  3
DIMASSOC
350
3F
  3
HIDETEXT
350
3E
  3
INDEXCTL
350
1112
  3
PROJECTNAME
350
10A7
  3
SORTENTS
350
1111
  3
XCLIPFRAME
350
1113
  0
DICTIONARY
  5
B91
102
{ACAD_REACTORS
330
C
102
}
330
C
100
AcDbDictionary
281
     1
  3
ASEBlockHierarchyIndexRecord
350
B92
1001
DCO15
1040
1485069952.593
  0
XRECORD
  5
1117
102
{ACAD_REACTORS
330
C
102
}
330
C
100
AcDbXrecord
280
     1
  1
DWGPROPS COOKIE
  2

  3

  4

  6

  7

  8
Julio
  9

300
=
301
=
302
=
303
=
304
=
305
=
306
=
307
=
308
=
309
=
 40
0.0032798032407407
 41
2453909.48887044
 42
2456147.737418796
  1

 90
        0
  0
XRECORD
  5
10F0
102
{ACAD_REACTORS
330
10EF
102
}
330
10EF
100
AcDbXrecord
280
     1
290
     1
  0
XRECORD
  5
10F2
102
{ACAD_REACTORS
330
10F1
102
}
330
10F1
100
AcDbXrecord
280
     1
290
     1
  0
XRECORD
  5
10F4
102
{ACAD_REACTORS
330
10F3
102
}
330
10F3
100
AcDbXrecord
280
     1
290
     1
  0
XRECORD
  5
10F6
102
{ACAD_REACTORS
330
10F5
102
}
330
10F5
100
AcDbXrecord
280
     1
290
     1
  0
XRECORD
  5
10F8
102
{ACAD_REACTORS
330
10F7
102
}
330
10F7
100
AcDbXrecord
280
     1
290
     1
  0
XRECORD
  5
10FA
102
{ACAD_REACTORS
330
10F9
102
}
330
10F9
100
AcDbXrecord
280
     1
290
     1
  0
XRECORD
  5
10FC
102
{ACAD_REACTORS
330
10FB
102
}
330
10FB
100
AcDbXrecord
280
     1
290
     1
  0
XRECORD
  5
10FE
102
{ACAD_REACTORS
330
10FD
102
}
330
10FD
100
AcDbXrecord
280
     1
290
     1
  0
XRECORD
  5
1100
102
{ACAD_REACTORS
330
10FF
102
}
330
10FF
100
AcDbXrecord
280
     1
290
     1
  0
XRECORD
  5
1102
102
{ACAD_REACTORS
330
1101
102
}
330
1101
100
AcDbXrecord
280
     1
290
     1
  0
XRECORD
  5
1104
102
{ACAD_REACTORS
330
1103
102
}
330
1103
100
AcDbXrecord
280
     1
290
     1
  0
XRECORD
  5
1106
102
{ACAD_REACTORS
330
1105
102
}
330
1105
100
AcDbXrecord
280
     1
290
     1
  0
XRECORD
  5
1108
102
{ACAD_REACTORS
330
1107
102
}
330
1107
100
AcDbXrecord
280
     1
290
     1
  0
XRECORD
  5
110A
102
{ACAD_REACTORS
330
1109
102
}
330
1109
100
AcDbXrecord
280
     1
290
     1
  0
XRECORD
  5
110C
102
{ACAD_REACTORS
330
110B
102
}
330
110B
100
AcDbXrecord
280
     1
290
     1
  0
XRECORD
  5
110E
102
{ACAD_REACTORS
330
110D
102
}
330
110D
100
AcDbXrecord
280
     1
290
     1
  0
SORTENTSTABLE
  5
1095
102
{ACAD_REACTORS
330
1094
102
}
330
1094
100
AcDbSortentsTable
330
1F
331
1080
  5
107F
331
1088
  5
1087
331
1082
  5
1081
331
108A
  5
1089
331
1081
  5
1080
331
108D
  5
108C
331
1084
  5
1083
331
108C
  5
108B
331
1083
  5
1082
331
108F
  5
108E
331
1086
  5
1085
331
1077
  5
1093
331
1037
  5
1037
331
108E
  5
108D
331
1085
  5
1084
331
1090
  5
108F
331
1087
  5
1086
331
1091
  5
1090
331
1079
  5
1078
331
107A
  5
1079
331
1093
  5
1092
331
107C
  5
107B
331
107B
  5
107A
331
107D
  5
107C
331
1092
  5
1091
331
107E
  5
107D
331
107F
  5
107E
331
FB6
  5
FB6
331
1078
  5
1077
331
1089
  5
1088
  0
LAYOUT
  5
1E
102
{ACAD_XDICTIONARY
360
1118
102
}
102
{ACAD_REACTORS
330
1A
102
}
330
1A
100
AcDbPlotSettings
  1

  2
Ploter HP500
  4

  6

 40
0.0
 41
0.0
 42
0.0
 43
0.0
 44
0.0
 45
0.0
 46
0.0
 47
0.0
 48
0.0
 49
0.0
140
0.0
141
0.0
142
1.0
143
1.0
 70
   688
 72
     0
 73
     0
 74
     5
  7
monochrome.ctb
 75
    16
147
1.0
148
0.0
149
0.0
100
AcDbLayout
  1
Layout1
 70
     1
 71
     1
 10
0.0
 20
0.0
 11
420.0
 21
297.0
 12
0.0
 22
0.0
 32
0.0
 14
1.000000000000000E+20
 24
1.000000000000000E+20
 34
1.000000000000000E+20
 15
-1.000000000000000E+20
 25
-1.000000000000000E+20
 35
-1.000000000000000E+20
146
0.0
 13
0.0
 23
0.0
 33
0.0
 16
1.0
 26
0.0
 36
0.0
 17
0.0
 27
1.0
 37
0.0
 76
     0
330
1B
  0
LAYOUT
  5
26
102
{ACAD_XDICTIONARY
360
111C
102
}
102
{ACAD_REACTORS
330
1A
102
}
330
1A
100
AcDbPlotSettings
  1

  2
Ploter HP500
  4

  6

 40
0.0
 41
0.0
 42
0.0
 43
0.0
 44
0.0
 45
0.0
 46
0.0
 47
0.0
 48
0.0
 49
0.0
140
0.0
141
0.0
142
1.0
143
1.0
 70
   688
 72
     0
 73
     0
 74
     5
  7
monochrome.ctb
 75
    16
147
1.0
148
0.0
149
0.0
100
AcDbLayout
  1
Layout2
 70
     1
 71
     2
 10
0.0
 20
0.0
 11
12.0
 21
9.0
 12
0.0
 22
0.0
 32
0.0
 14
0.0
 24
0.0
 34
0.0
 15
0.0
 25
0.0
 35
0.0
146
0.0
 13
0.0
 23
0.0
 33
0.0
 16
1.0
 26
0.0
 36
0.0
 17
0.0
 27
1.0
 37
0.0
 76
     0
330
23
  0
LAYOUT
  5
22
102
{ACAD_XDICTIONARY
360
111A
102
}
102
{ACAD_REACTORS
330
1A
102
}
330
1A
100
AcDbPlotSettings
  1

  2
Ploter HP500
  4
User268
  6

 40
4.995333194732666
 41
16.97565841674804
 42
4.995330810546875
 43
16.97567749023437
 44
209.9733276367187
 45
296.9259948730469
 46
0.0
 47
0.0
 48
0.0
 49
0.0
140
0.0
141
0.0
142
1.0
143
1.0
 70
 11952
 72
     1
 73
     1
 74
     0
  7
sanindusa.ctb
 75
     0
147
1.0
148
-427.5957866592534
149
7.362384574453926
100
AcDbLayout
  1
Model
 70
     1
 71
     0
 10
0.0
 20
0.0
 11
12.0
 21
9.0
 12
0.0
 22
0.0
 32
0.0
 14
0.0
 24
0.0
 34
0.0
 15
0.0
 25
0.0
 35
0.0
146
0.0
 13
0.0
 23
0.0
 33
0.0
 16
1.0
 26
0.0
 36
0.0
 17
0.0
 27
1.0
 37
0.0
 76
     0
330
1F
331
109F
  0
MATERIAL
  5
10B1
102
{ACAD_XDICTIONARY
360
10B2
102
}
102
{ACAD_REACTORS
330
BA8
102
}
330
BA8
100
AcDbMaterial
  1
ByBlock
 72
     0
 43
0.0008202099737533
 43
0.0
 43
0.0
 43
0.0
 43
0.0
 43
0.0008202099737533
 43
0.0
 43
0.0
 43
0.0
 43
0.0
 43
1.0
 43
0.0
 43
0.0
 43
0.0
 43
0.0
 43
1.0
 77
     0
 47
0.0008202099737533
 47
0.0
 47
0.0
 47
0.0
 47
0.0
 47
0.0008202099737533
 47
0.0
 47
0.0
 47
0.0
 47
0.0
 47
1.0
 47
0.0
 47
0.0
 47
0.0
 47
0.0
 47
1.0
171
     0
 49
0.0008202099737533
 49
0.0
 49
0.0
 49
0.0
 49
0.0
 49
0.0008202099737533
 49
0.0
 49
0.0
 49
0.0
 49
0.0
 49
1.0
 49
0.0
 49
0.0
 49
0.0
 49
0.0
 49
1.0
175
     0
142
0.0008202099737533
142
0.0
142
0.0
142
0.0
142
0.0
142
0.0008202099737533
142
0.0
142
0.0
142
0.0
142
0.0
142
1.0
142
0.0
142
0.0
142
0.0
142
0.0
142
1.0
179
     0
144
0.0008202099737533
144
0.0
144
0.0
144
0.0
144
0.0
144
0.0008202099737533
144
0.0
144
0.0
144
0.0
144
0.0
144
1.0
144
0.0
144
0.0
144
0.0
144
0.0
144
1.0
147
0.0008202099737533
147
0.0
147
0.0
147
0.0
147
0.0
147
0.0008202099737533
147
0.0
147
0.0
147
0.0
147
0.0
147
1.0
147
0.0
147
0.0
147
0.0
147
0.0
147
1.0
  0
MATERIAL
  5
10A9
102
{ACAD_XDICTIONARY
360
10AA
102
}
102
{ACAD_REACTORS
330
BA8
102
}
330
BA8
100
AcDbMaterial
  1
ByLayer
 72
     0
 43
0.0008202099737533
 43
0.0
 43
0.0
 43
0.0
 43
0.0
 43
0.0008202099737533
 43
0.0
 43
0.0
 43
0.0
 43
0.0
 43
1.0
 43
0.0
 43
0.0
 43
0.0
 43
0.0
 43
1.0
 77
     0
 47
0.0008202099737533
 47
0.0
 47
0.0
 47
0.0
 47
0.0
 47
0.0008202099737533
 47
0.0
 47
0.0
 47
0.0
 47
0.0
 47
1.0
 47
0.0
 47
0.0
 47
0.0
 47
0.0
 47
1.0
171
     0
 49
0.0008202099737533
 49
0.0
 49
0.0
 49
0.0
 49
0.0
 49
0.0008202099737533
 49
0.0
 49
0.0
 49
0.0
 49
0.0
 49
1.0
 49
0.0
 49
0.0
 49
0.0
 49
0.0
 49
1.0
175
     0
142
0.0008202099737533
142
0.0
142
0.0
142
0.0
142
0.0
142
0.0008202099737533
142
0.0
142
0.0
142
0.0
142
0.0
142
1.0
142
0.0
142
0.0
142
0.0
142
0.0
142
1.0
179
     0
144
0.0008202099737533
144
0.0
144
0.0
144
0.0
144
0.0
144
0.0008202099737533
144
0.0
144
0.0
144
0.0
144
0.0
144
1.0
144
0.0
144
0.0
144
0.0
144
0.0
144
1.0
147
0.0008202099737533
147
0.0
147
0.0
147
0.0
147
0.0
147
0.0008202099737533
147
0.0
147
0.0
147
0.0
147
0.0
147
1.0
147
0.0
147
0.0
147
0.0
147
0.0
147
1.0
  0
MATERIAL
  5
10B9
102
{ACAD_XDICTIONARY
360
10BA
102
}
102
{ACAD_REACTORS
330
BA8
102
}
330
BA8
100
AcDbMaterial
  1
Global
 72
     0
 43
0.0008202099737533
 43
0.0
 43
0.0
 43
0.0
 43
0.0
 43
0.0008202099737533
 43
0.0
 43
0.0
 43
0.0
 43
0.0
 43
1.0
 43
0.0
 43
0.0
 43
0.0
 43
0.0
 43
1.0
 77
     0
 47
0.0008202099737533
 47
0.0
 47
0.0
 47
0.0
 47
0.0
 47
0.0008202099737533
 47
0.0
 47
0.0
 47
0.0
 47
0.0
 47
1.0
 47
0.0
 47
0.0
 47
0.0
 47
0.0
 47
1.0
171
     0
 49
0.0008202099737533
 49
0.0
 49
0.0
 49
0.0
 49
0.0
 49
0.0008202099737533
 49
0.0
 49
0.0
 49
0.0
 49
0.0
 49
1.0
 49
0.0
 49
0.0
 49
0.0
 49
0.0
 49
1.0
175
     0
142
0.0008202099737533
142
0.0
142
0.0
142
0.0
142
0.0
142
0.0008202099737533
142
0.0
142
0.0
142
0.0
142
0.0
142
1.0
142
0.0
142
0.0
142
0.0
142
0.0
142
1.0
179
     0
144
0.0008202099737533
144
0.0
144
0.0
144
0.0
144
0.0
144
0.0008202099737533
144
0.0
144
0.0
144
0.0
144
0.0
144
1.0
144
0.0
144
0.0
144
0.0
144
0.0
144
1.0
147
0.0008202099737533
147
0.0
147
0.0
147
0.0
147
0.0
147
0.0008202099737533
147
0.0
147
0.0
147
0.0
147
0.0
147
1.0
147
0.0
147
0.0
147
0.0
147
0.0
147
1.0
  0
MLEADERSTYLE
  5
10E8
102
{ACAD_REACTORS
330
10E7
102
}
330
10E7
100
AcDbMLeaderStyle
170
     2
171
     1
172
     0
 90
        2
 40
0.0
 41
0.0
173
     1
 91
-1056964608
340
14
 92
       -2
290
     1
 42
2.0
291
     1
 43
0.36
  3
Standard
 44
4.0
300

342
11
174
     1
178
     6
175
     1
176
     0
 93
-1056964608
 45
4.0
292
     0
297
     0
 46
4.0
 94
-1056964608
 47
1.0
 49
1.0
140
1.0
293
     1
141
0.0
294
     1
177
     0
142
1.0
295
     0
296
     0
143
0.125
1001
ACAD_MLEADERVER
1070
     2
  0
MLINESTYLE
  5
18
102
{ACAD_REACTORS
330
17
102
}
330
17
100
AcDbMlineStyle
  2
STANDARD
 70
     0
  3

 62
   256
 51
90.0
 52
90.0
 71
     2
 49
0.5
 62
   256
  6
BYLAYER
 49
-0.5
 62
   256
  6
BYLAYER
  0
ACDBPLACEHOLDER
  5
F
102
{ACAD_REACTORS
330
E
102
}
330
E
  0
SCALE
  5
10D6
102
{ACAD_REACTORS
330
10D5
102
}
330
10D5
100
AcDbScale
 70
     0
300
1:1
140
1.0
141
1.0
290
     1
  0
SCALE
  5
10D7
102
{ACAD_REACTORS
330
10D5
102
}
330
10D5
100
AcDbScale
 70
     0
300
1:2
140
1.0
141
2.0
290
     0
  0
SCALE
  5
10D8
102
{ACAD_REACTORS
330
10D5
102
}
330
10D5
100
AcDbScale
 70
     0
300
1:4
140
1.0
141
4.0
290
     0
  0
SCALE
  5
10D9
102
{ACAD_REACTORS
330
10D5
102
}
330
10D5
100
AcDbScale
 70
     0
300
1:5
140
1.0
141
5.0
290
     0
  0
SCALE
  5
10DA
102
{ACAD_REACTORS
330
10D5
102
}
330
10D5
100
AcDbScale
 70
     0
300
1:8
140
1.0
141
8.0
290
     0
  0
SCALE
  5
10DB
102
{ACAD_REACTORS
330
10D5
102
}
330
10D5
100
AcDbScale
 70
     0
300
1:10
140
1.0
141
10.0
290
     0
  0
SCALE
  5
10DC
102
{ACAD_REACTORS
330
10D5
102
}
330
10D5
100
AcDbScale
 70
     0
300
1:16
140
1.0
141
16.0
290
     0
  0
SCALE
  5
10DD
102
{ACAD_REACTORS
330
10D5
102
}
330
10D5
100
AcDbScale
 70
     0
300
1:20
140
1.0
141
20.0
290
     0
  0
SCALE
  5
10DE
102
{ACAD_REACTORS
330
10D5
102
}
330
10D5
100
AcDbScale
 70
     0
300
1:30
140
1.0
141
30.0
290
     0
  0
SCALE
  5
10DF
102
{ACAD_REACTORS
330
10D5
102
}
330
10D5
100
AcDbScale
 70
     0
300
1:40
140
1.0
141
40.0
290
     0
  0
SCALE
  5
10E0
102
{ACAD_REACTORS
330
10D5
102
}
330
10D5
100
AcDbScale
 70
     0
300
1:50
140
1.0
141
50.0
290
     0
  0
SCALE
  5
10E1
102
{ACAD_REACTORS
330
10D5
102
}
330
10D5
100
AcDbScale
 70
     0
300
1:100
140
1.0
141
100.0
290
     0
  0
SCALE
  5
10E2
102
{ACAD_REACTORS
330
10D5
102
}
330
10D5
100
AcDbScale
 70
     0
300
2:1
140
2.0
141
1.0
290
     0
  0
SCALE
  5
10E3
102
{ACAD_REACTORS
330
10D5
102
}
330
10D5
100
AcDbScale
 70
     0
300
4:1
140
4.0
141
1.0
290
     0
  0
SCALE
  5
10E4
102
{ACAD_REACTORS
330
10D5
102
}
330
10D5
100
AcDbScale
 70
     0
300
8:1
140
8.0
141
1.0
290
     0
  0
SCALE
  5
10E5
102
{ACAD_REACTORS
330
10D5
102
}
330
10D5
100
AcDbScale
 70
     0
300
10:1
140
10.0
141
1.0
290
     0
  0
SCALE
  5
10E6
102
{ACAD_REACTORS
330
10D5
102
}
330
10D5
100
AcDbScale
 70
     0
300
100:1
140
100.0
141
1.0
290
     0
  0
TABLESTYLE
  5
BAB
102
{ACAD_XDICTIONARY
360
1114
102
}
102
{ACAD_REACTORS
330
BAA
102
}
330
BAA
100
AcDbTableStyle
  3
Standard
 70
     0
 71
     0
 40
1.5
 41
1.5
280
     0
281
     0
  7
Standard
140
4.5
170
     2
 62
     0
 63
     7
283
     0
274
    -2
284
     1
 64
     0
275
    -2
285
     1
 65
     0
276
    -2
286
     1
 66
     0
277
    -2
287
     1
 67
     0
278
    -2
288
     1
 68
     0
279
    -2
289
     1
 69
     0
  7
Standard
140
6.0
170
     5
 62
     0
 63
     7
283
     0
274
    -2
284
     1
 64
     0
275
    -2
285
     1
 65
     0
276
    -2
286
     1
 66
     0
277
    -2
287
     1
 67
     0
278
    -2
288
     1
 68
     0
279
    -2
289
     1
 69
     0
  7
Standard
140
4.5
170
     5
 62
     0
 63
     7
283
     0
274
    -2
284
     1
 64
     0
275
    -2
285
     1
 65
     0
276
    -2
286
     1
 66
     0
277
    -2
287
     1
 67
     0
278
    -2
288
     1
 68
     0
279
    -2
289
     1
 69
     0
  0
VISUALSTYLE
  5
10C7
102
{ACAD_XDICTIONARY
360
1134
102
}
102
{ACAD_REACTORS
330
10C1
102
}
330
10C1
100
AcDbVisualStyle
  2
2dWireframe
 70
     4
 71
     0
 72
     2
 73
     0
 90
        0
 40
-0.6
 41
-30.0
 62
     5
 63
     7
 74
     1
 91
        4
 64
     7
 65
   257
 75
     1
175
     1
 42
1.0
 92
        0
 66
   257
 43
1.0
 76
     1
 77
     6
 78
     2
 67
     7
 79
     5
170
     0
171
     0
290
     0
174
     0
 93
        1
 44
0.0
173
     0
291
     0
 45
0.0
1001
ACAD
1000
AcDbSavedByObjectVersion
1070
     0
  0
VISUALSTYLE
  5
10C9
102
{ACAD_XDICTIONARY
360
1138
102
}
102
{ACAD_REACTORS
330
10C1
102
}
330
10C1
100
AcDbVisualStyle
  2
3D Hidden
 70
     6
 71
     1
 72
     2
 73
     2
 90
        0
 40
-0.6
 41
-30.0
 62
     5
 63
     7
 74
     2
 91
        2
 64
     7
 65
   257
 75
     2
175
     1
 42
179.0
 92
        0
 66
   257
 43
1.0
 76
     1
 77
     6
 78
     2
 67
     7
 79
     3
170
     0
171
     0
290
     0
174
     0
 93
        1
 44
0.0
173
     0
291
     0
 45
0.0
1001
ACAD
1000
AcDbSavedByObjectVersion
1070
     0
  0
VISUALSTYLE
  5
10C8
102
{ACAD_XDICTIONARY
360
1136
102
}
102
{ACAD_REACTORS
330
10C1
102
}
330
10C1
100
AcDbVisualStyle
  2
3dWireframe
 70
     5
 71
     0
 72
     2
 73
     0
 90
        0
 40
-0.6
 41
-30.0
 62
     5
 63
     7
 74
     1
 91
        4
 64
     7
 65
   257
 75
     1
175
     1
 42
1.0
 92
        0
 66
   257
 43
1.0
 76
     1
 77
     6
 78
     2
 67
     7
 79
     5
170
     0
171
     0
290
     0
174
     0
 93
        1
 44
0.0
173
     0
291
     0
 45
0.0
1001
ACAD
1000
AcDbSavedByObjectVersion
1070
     0
  0
VISUALSTYLE
  5
10C6
102
{ACAD_XDICTIONARY
360
1132
102
}
102
{ACAD_REACTORS
330
10C1
102
}
330
10C1
100
AcDbVisualStyle
  2
Basic
 70
     7
 71
     1
 72
     0
 73
     1
 90
        0
 40
-0.6
 41
-30.0
 62
     5
 63
     7
 74
     0
 91
        4
 64
     7
 65
   257
 75
     1
175
     1
 42
1.0
 92
        8
 66
     7
 43
1.0
 76
     1
 77
     6
 78
     2
 67
     7
 79
     5
170
     0
171
     0
290
     0
174
     0
 93
        1
 44
0.0
173
     0
291
     1
 45
0.0
1001
ACAD
1000
AcDbSavedByObjectVersion
1070
     0
  0
VISUALSTYLE
  5
10CD
102
{ACAD_XDICTIONARY
360
1140
102
}
102
{ACAD_REACTORS
330
10C1
102
}
330
10C1
100
AcDbVisualStyle
  2
Brighten
 70
    12
 71
     2
 72
     2
 73
     0
 90
        0
 40
-0.6
 41
-30.0
 62
     5
 63
     7
 74
     1
 91
        4
 64
     7
 65
   257
 75
     1
175
     1
 42
1.0
 92
        8
 66
     7
 43
1.0
 76
     1
 77
     6
 78
     2
 67
     7
 79
     5
170
     0
171
     0
290
     0
174
     0
 93
        1
 44
50.0
173
     0
291
     1
 45
0.0
1001
ACAD
1000
AcDbSavedByObjectVersion
1070
     0
  0
VISUALSTYLE
  5
10D1
102
{ACAD_XDICTIONARY
360
1148
102
}
102
{ACAD_REACTORS
330
10C1
102
}
330
10C1
100
AcDbVisualStyle
  2
ColorChange
 70
    16
 71
     2
 72
     2
 73
     3
 90
        0
 40
-0.6
 41
-30.0
 62
     5
 63
     8
 74
     1
 91
        4
 64
     7
 65
   257
 75
     1
175
     1
 42
1.0
 92
        8
 66
     8
 43
1.0
 76
     1
 77
     6
 78
     2
 67
     7
 79
     5
170
     0
171
     0
290
     0
174
     0
 93
        1
 44
0.0
173
     0
291
     1
 45
0.0
1001
ACAD
1000
AcDbSavedByObjectVersion
1070
     0
  0
VISUALSTYLE
  5
10CA
102
{ACAD_XDICTIONARY
360
113A
102
}
102
{ACAD_REACTORS
330
10C1
102
}
330
10C1
100
AcDbVisualStyle
  2
Conceptual
 70
     9
 71
     3
 72
     2
 73
     0
 90
        0
 40
-0.6
 41
-30.0
 62
     5
 63
     7
 74
     2
 91
        2
 64
     7
 65
   257
 75
     1
175
     1
 42
179.0
 92
        8
 66
     7
 43
1.0
 76
     1
 77
     6
 78
     2
 67
     7
 79
     3
170
     0
171
     0
290
     0
174
     0
 93
        1
 44
0.0
173
     0
291
     0
 45
0.0
1001
ACAD
1000
AcDbSavedByObjectVersion
1070
     0
  0
VISUALSTYLE
  5
10CC
102
{ACAD_XDICTIONARY
360
113E
102
}
102
{ACAD_REACTORS
330
10C1
102
}
330
10C1
100
AcDbVisualStyle
  2
Dim
 70
    11
 71
     2
 72
     2
 73
     0
 90
        0
 40
-0.6
 41
-30.0
 62
     5
 63
     7
 74
     1
 91
        4
 64
     7
 65
   257
 75
     1
175
     1
 42
1.0
 92
        8
 66
     7
 43
1.0
 76
     1
 77
     6
 78
     2
 67
     7
 79
     5
170
     0
171
     0
290
     0
174
     0
 93
        1
 44
-50.0
173
     0
291
     1
 45
0.0
1001
ACAD
1000
AcDbSavedByObjectVersion
1070
     0
  0
VISUALSTYLE
  5
10D4
102
{ACAD_XDICTIONARY
360
114E
102
}
102
{ACAD_REACTORS
330
10C1
102
}
330
10C1
100
AcDbVisualStyle
  2
EdgeColorOff
 70
    22
 71
     2
 72
     2
 73
     0
 90
        0
 40
-0.6
 41
-30.0
 62
     5
 63
     7
 74
     1
 91
        4
 64
     7
 65
   257
 75
     1
175
     1
 42
1.0
 92
        8
 66
     7
 43
1.0
 76
     1
 77
     6
 78
     2
 67
     7
 79
     5
170
     0
171
     0
290
     0
174
     0
 93
        1
 44
0.0
173
     0
291
     1
 45
0.0
1001
ACAD
1000
AcDbSavedByObjectVersion
1070
     0
  0
VISUALSTYLE
  5
10D0
102
{ACAD_XDICTIONARY
360
1146
102
}
102
{ACAD_REACTORS
330
10C1
102
}
330
10C1
100
AcDbVisualStyle
  2
Facepattern
 70
    15
 71
     2
 72
     2
 73
     0
 90
        0
 40
-0.6
 41
-30.0
 62
     5
 63
     7
 74
     1
 91
        4
 64
     7
 65
   257
 75
     1
175
     1
 42
1.0
 92
        8
 66
     7
 43
1.0
 76
     1
 77
     6
 78
     2
 67
     7
 79
     5
170
     0
171
     0
290
     0
174
     0
 93
        1
 44
0.0
173
     0
291
     1
 45
0.0
1001
ACAD
1000
AcDbSavedByObjectVersion
1070
     0
  0
VISUALSTYLE
  5
10C2
102
{ACAD_XDICTIONARY
360
112A
102
}
102
{ACAD_REACTORS
330
10C1
102
}
330
10C1
100
AcDbVisualStyle
  2
Flat
 70
     0
 71
     2
 72
     1
 73
     1
 90
        2
 40
-0.6
 41
30.0
 62
     5
 63
     7
 74
     0
 91
        4
 64
     7
 65
   257
 75
     1
175
     1
 42
1.0
 92
        8
 66
     7
 43
1.0
 76
     1
 77
     6
 78
     2
 67
     7
 79
     5
170
     0
171
     0
290
     0
174
     0
 93
       13
 44
0.0
173
     0
291
     1
 45
0.0
1001
ACAD
1000
AcDbSavedByObjectVersion
1070
     0
  0
VISUALSTYLE
  5
10C3
102
{ACAD_XDICTIONARY
360
112C
102
}
102
{ACAD_REACTORS
330
10C1
102
}
330
10C1
100
AcDbVisualStyle
  2
FlatWithEdges
 70
     1
 71
     2
 72
     1
 73
     1
 90
        2
 40
-0.6
 41
30.0
 62
     5
 63
     7
 74
     1
 91
        4
 64
     7
 65
   257
 75
     1
175
     1
 42
1.0
 92
        0
 66
   257
 43
1.0
 76
     1
 77
     6
 78
     2
 67
     7
 79
     5
170
     0
171
     0
290
     0
174
     0
 93
       13
 44
0.0
173
     0
291
     1
 45
0.0
1001
ACAD
1000
AcDbSavedByObjectVersion
1070
     0
  0
VISUALSTYLE
  5
10C4
102
{ACAD_XDICTIONARY
360
112E
102
}
102
{ACAD_REACTORS
330
10C1
102
}
330
10C1
100
AcDbVisualStyle
  2
Gouraud
 70
     2
 71
     2
 72
     2
 73
     1
 90
        2
 40
-0.6
 41
30.0
 62
     5
 63
     7
 74
     0
 91
        4
 64
     7
 65
   257
 75
     1
175
     1
 42
1.0
 92
        0
 66
     7
 43
1.0
 76
     1
 77
     6
 78
     2
 67
     7
 79
     5
170
     0
171
     0
290
     0
174
     0
 93
       13
 44
0.0
173
     0
291
     1
 45
0.0
1001
ACAD
1000
AcDbSavedByObjectVersion
1070
     0
  0
VISUALSTYLE
  5
10C5
102
{ACAD_XDICTIONARY
360
1130
102
}
102
{ACAD_REACTORS
330
10C1
102
}
330
10C1
100
AcDbVisualStyle
  2
GouraudWithEdges
 70
     3
 71
     2
 72
     2
 73
     1
 90
        2
 40
-0.6
 41
30.0
 62
     5
 63
     7
 74
     1
 91
        4
 64
     7
 65
   257
 75
     1
175
     1
 42
1.0
 92
        0
 66
   257
 43
1.0
 76
     1
 77
     6
 78
     2
 67
     7
 79
     5
170
     0
171
     0
290
     0
174
     0
 93
       13
 44
0.0
173
     0
291
     1
 45
0.0
1001
ACAD
1000
AcDbSavedByObjectVersion
1070
     0
  0
VISUALSTYLE
  5
10D2
102
{ACAD_XDICTIONARY
360
114A
102
}
102
{ACAD_REACTORS
330
10C1
102
}
330
10C1
100
AcDbVisualStyle
  2
JitterOff
 70
    20
 71
     2
 72
     2
 73
     0
 90
        0
 40
-0.6
 41
-30.0
 62
     5
 63
     7
 74
     1
 91
        4
 64
     7
 65
   257
 75
     1
175
     1
 42
1.0
 92
       10
 66
     7
 43
1.0
 76
     1
 77
     6
 78
     2
 67
     7
 79
     5
170
     0
171
     0
290
     0
174
     0
 93
        1
 44
0.0
173
     0
291
     1
 45
0.0
1001
ACAD
1000
AcDbSavedByObjectVersion
1070
     0
  0
VISUALSTYLE
  5
10CF
102
{ACAD_XDICTIONARY
360
1144
102
}
102
{ACAD_REACTORS
330
10C1
102
}
330
10C1
100
AcDbVisualStyle
  2
Linepattern
 70
    14
 71
     2
 72
     2
 73
     0
 90
        0
 40
-0.6
 41
-30.0
 62
     5
 63
     7
 74
     1
 91
        4
 64
     7
 65
   257
 75
     7
175
     7
 42
1.0
 92
        8
 66
     7
 43
1.0
 76
     1
 77
     6
 78
     2
 67
     7
 79
     5
170
     0
171
     0
290
     0
174
     0
 93
        1
 44
0.0
173
     0
291
     1
 45
0.0
1001
ACAD
1000
AcDbSavedByObjectVersion
1070
     0
  0
VISUALSTYLE
  5
10D3
102
{ACAD_XDICTIONARY
360
114C
102
}
102
{ACAD_REACTORS
330
10C1
102
}
330
10C1
100
AcDbVisualStyle
  2
OverhangOff
 70
    21
 71
     2
 72
     2
 73
     0
 90
        0
 40
-0.6
 41
-30.0
 62
     5
 63
     7
 74
     1
 91
        4
 64
     7
 65
   257
 75
     1
175
     1
 42
1.0
 92
        9
 66
     7
 43
1.0
 76
     1
 77
     6
 78
     2
 67
     7
 79
     5
170
     0
171
     0
290
     0
174
     0
 93
        1
 44
0.0
173
     0
291
     1
 45
0.0
1001
ACAD
1000
AcDbSavedByObjectVersion
1070
     0
  0
VISUALSTYLE
  5
10CB
102
{ACAD_XDICTIONARY
360
113C
102
}
102
{ACAD_REACTORS
330
10C1
102
}
330
10C1
100
AcDbVisualStyle
  2
Realistic
 70
     8
 71
     2
 72
     2
 73
     0
 90
        0
 40
-0.6
 41
-30.0
 62
     5
 63
     7
 74
     1
 91
        0
 64
     7
 65
   257
 75
     1
175
     1
 42
1.0
 92
        8
 66
     8
 43
1.0
 76
     1
 77
     6
 78
     2
 67
     7
 79
     5
170
     0
171
     0
290
     0
174
     0
 93
       13
 44
0.0
173
     0
291
     0
 45
0.0
1001
ACAD
1000
AcDbSavedByObjectVersion
1070
     0
  0
VISUALSTYLE
  5
10CE
102
{ACAD_XDICTIONARY
360
1142
102
}
102
{ACAD_REACTORS
330
10C1
102
}
330
10C1
100
AcDbVisualStyle
  2
Thicken
 70
    13
 71
     2
 72
     2
 73
     0
 90
        0
 40
-0.6
 41
-30.0
 62
     5
 63
     7
 74
     1
 91
        4
 64
     7
 65
   257
 75
     1
175
     1
 42
1.0
 92
       12
 66
     7
 43
1.0
 76
     1
 77
     6
 78
     2
 67
     7
 79
     5
170
     0
171
     0
290
     0
174
     0
 93
        1
 44
0.0
173
     0
291
     1
 45
0.0
1001
ACAD
1000
AcDbSavedByObjectVersion
1070
     0
  0
DICTIONARYVAR
  5
1110
102
{ACAD_REACTORS
330
3D
102
}
330
3D
100
DictionaryVariables
280
     0
  1
1:1
  0
DICTIONARYVAR
  5
110F
102
{ACAD_REACTORS
330
3D
102
}
330
3D
100
DictionaryVariables
280
     0
  1
STANDARD
  0
DICTIONARYVAR
  5
BB1
102
{ACAD_REACTORS
330
3D
102
}
330
3D
100
DictionaryVariables
280
     0
  1
STANDARD
  0
DICTIONARYVAR
  5
3F
102
{ACAD_REACTORS
330
3D
102
}
330
3D
100
DictionaryVariables
280
     0
  1
2
  0
DICTIONARYVAR
  5
3E
102
{ACAD_REACTORS
330
3D
102
}
330
3D
100
DictionaryVariables
280
     0
  1
1
  0
DICTIONARYVAR
  5
1112
102
{ACAD_REACTORS
330
3D
102
}
330
3D
100
DictionaryVariables
280
     0
  1
0
  0
DICTIONARYVAR
  5
10A7
102
{ACAD_REACTORS
330
3D
102
}
330
3D
100
DictionaryVariables
280
     0
  1

  0
DICTIONARYVAR
  5
1111
102
{ACAD_REACTORS
330
3D
102
}
330
3D
100
DictionaryVariables
280
     0
  1
127
  0
DICTIONARYVAR
  5
1113
102
{ACAD_REACTORS
330
3D
102
}
330
3D
100
DictionaryVariables
280
     0
  1
2
  0
XRECORD
  5
B92
102
{ACAD_REACTORS
330
B91
102
}
330
B91
100
AcDbXrecord
280
     1
  0
DICTIONARY
  5
1118
330
1E
100
AcDbDictionary
280
     1
281
     1
  3
ACAD_XREC_ROUNDTRIP
360
1119
  0
DICTIONARY
  5
111C
330
26
100
AcDbDictionary
280
     1
281
     1
  3
ACAD_XREC_ROUNDTRIP
360
111D
  0
DICTIONARY
  5
111A
330
22
100
AcDbDictionary
280
     1
281
     1
  3
ACAD_XREC_ROUNDTRIP
360
111B
  0
DICTIONARY
  5
10B2
330
10B1
100
AcDbDictionary
280
     1
281
     1
  3
ACAD_XREC_ROUNDTRIP
360
1128
  3
BUMPTILE
360
10B4
  3
DIFFUSETILE
360
10B3
  3
OPACITYTILE
360
10B7
  3
REFLECTIONTILE
360
10B6
  3
REFRACTIONTILE
360
10B8
  3
SPECULARTILE
360
10B5
  0
DICTIONARY
  5
10AA
330
10A9
100
AcDbDictionary
280
     1
281
     1
  3
ACAD_XREC_ROUNDTRIP
360
1127
  3
BUMPTILE
360
10AC
  3
DIFFUSETILE
360
10AB
  3
OPACITYTILE
360
10AF
  3
REFLECTIONTILE
360
10AE
  3
REFRACTIONTILE
360
10B0
  3
SPECULARTILE
360
10AD
  0
DICTIONARY
  5
10BA
330
10B9
100
AcDbDictionary
280
     1
281
     1
  3
ACAD_XREC_ROUNDTRIP
360
1129
  3
BUMPTILE
360
10BC
  3
DIFFUSETILE
360
10BB
  3
OPACITYTILE
360
10BF
  3
REFLECTIONTILE
360
10BE
  3
REFRACTIONTILE
360
10C0
  3
SPECULARTILE
360
10BD
  0
DICTIONARY
  5
1114
330
BAB
100
AcDbDictionary
280
     1
281
     1
  3
ACAD_ROUNDTRIP_2008_TABLESTYLE_CELLSTYLEMAP
360
1115
  3
ACAD_XREC_ROUNDTRIP
360
111E
  0
DICTIONARY
  5
1134
330
10C7
100
AcDbDictionary
280
     1
281
     1
  3
ACAD_XREC_ROUNDTRIP
360
1135
  0
DICTIONARY
  5
1138
330
10C9
100
AcDbDictionary
280
     1
281
     1
  3
ACAD_XREC_ROUNDTRIP
360
1139
  0
DICTIONARY
  5
1136
330
10C8
100
AcDbDictionary
280
     1
281
     1
  3
ACAD_XREC_ROUNDTRIP
360
1137
  0
DICTIONARY
  5
1132
330
10C6
100
AcDbDictionary
280
     1
281
     1
  3
ACAD_XREC_ROUNDTRIP
360
1133
  0
DICTIONARY
  5
1140
330
10CD
100
AcDbDictionary
280
     1
281
     1
  3
ACAD_XREC_ROUNDTRIP
360
1141
  0
DICTIONARY
  5
1148
330
10D1
100
AcDbDictionary
280
     1
281
     1
  3
ACAD_XREC_ROUNDTRIP
360
1149
  0
DICTIONARY
  5
113A
330
10CA
100
AcDbDictionary
280
     1
281
     1
  3
ACAD_XREC_ROUNDTRIP
360
113B
  0
DICTIONARY
  5
113E
330
10CC
100
AcDbDictionary
280
     1
281
     1
  3
ACAD_XREC_ROUNDTRIP
360
113F
  0
DICTIONARY
  5
114E
330
10D4
100
AcDbDictionary
280
     1
281
     1
  3
ACAD_XREC_ROUNDTRIP
360
114F
  0
DICTIONARY
  5
1146
330
10D0
100
AcDbDictionary
280
     1
281
     1
  3
ACAD_XREC_ROUNDTRIP
360
1147
  0
DICTIONARY
  5
112A
330
10C2
100
AcDbDictionary
280
     1
281
     1
  3
ACAD_XREC_ROUNDTRIP
360
112B
  0
DICTIONARY
  5
112C
330
10C3
100
AcDbDictionary
280
     1
281
     1
  3
ACAD_XREC_ROUNDTRIP
360
112D
  0
DICTIONARY
  5
112E
330
10C4
100
AcDbDictionary
280
     1
281
     1
  3
ACAD_XREC_ROUNDTRIP
360
112F
  0
DICTIONARY
  5
1130
330
10C5
100
AcDbDictionary
280
     1
281
     1
  3
ACAD_XREC_ROUNDTRIP
360
1131
  0
DICTIONARY
  5
114A
330
10D2
100
AcDbDictionary
280
     1
281
     1
  3
ACAD_XREC_ROUNDTRIP
360
114B
  0
DICTIONARY
  5
1144
330
10CF
100
AcDbDictionary
280
     1
281
     1
  3
ACAD_XREC_ROUNDTRIP
360
1145
  0
DICTIONARY
  5
114C
330
10D3
100
AcDbDictionary
280
     1
281
     1
  3
ACAD_XREC_ROUNDTRIP
360
114D
  0
DICTIONARY
  5
113C
330
10CB
100
AcDbDictionary
280
     1
281
     1
  3
ACAD_XREC_ROUNDTRIP
360
113D
  0
DICTIONARY
  5
1142
330
10CE
100
AcDbDictionary
280
     1
281
     1
  3
ACAD_XREC_ROUNDTRIP
360
1143
  0
XRECORD
  5
1119
102
{ACAD_REACTORS
330
1118
102
}
330
1118
100
AcDbXrecord
280
     1
102
SHADEPLOT
 70
     0
102
SHADEPLOTRESLEVEL
 70
     2
102
SHADEPLOTCUSTOMDPI
 70
   300
  0
XRECORD
  5
111D
102
{ACAD_REACTORS
330
111C
102
}
330
111C
100
AcDbXrecord
280
     1
102
SHADEPLOT
 70
     0
102
SHADEPLOTRESLEVEL
 70
     2
102
SHADEPLOTCUSTOMDPI
 70
   300
  0
XRECORD
  5
111B
102
{ACAD_REACTORS
330
111A
102
}
330
111A
100
AcDbXrecord
280
     1
102
SHADEPLOT
 70
     0
102
SHADEPLOTRESLEVEL
 70
     2
102
SHADEPLOTCUSTOMDPI
 70
   300
  0
XRECORD
  5
1128
102
{ACAD_REACTORS
330
10B2
102
}
330
10B2
100
AcDbXrecord
280
     1
102
MATERIAL
148
0.0
149
0.0
149
0.0
 93
        0
 94
      127
282
     0
 72
     0
 77
     0
171
     0
175
     0
179
     0
273
     0
  0
XRECORD
  5
10B4
102
{ACAD_REACTORS
330
10B2
102
}
330
10B2
100
AcDbXrecord
280
     1
270
     1
271
     1
  0
XRECORD
  5
10B3
102
{ACAD_REACTORS
330
10B2
102
}
330
10B2
100
AcDbXrecord
280
     1
270
     1
271
     1
  0
XRECORD
  5
10B7
102
{ACAD_REACTORS
330
10B2
102
}
330
10B2
100
AcDbXrecord
280
     1
270
     1
271
     1
  0
XRECORD
  5
10B6
102
{ACAD_REACTORS
330
10B2
102
}
330
10B2
100
AcDbXrecord
280
     1
270
     1
271
     1
  0
XRECORD
  5
10B8
102
{ACAD_REACTORS
330
10B2
102
}
330
10B2
100
AcDbXrecord
280
     1
270
     1
271
     1
  0
XRECORD
  5
10B5
102
{ACAD_REACTORS
330
10B2
102
}
330
10B2
100
AcDbXrecord
280
     1
270
     1
271
     1
  0
XRECORD
  5
1127
102
{ACAD_REACTORS
330
10AA
102
}
330
10AA
100
AcDbXrecord
280
     1
102
MATERIAL
148
0.0
149
0.0
149
0.0
 93
        0
 94
      127
282
     0
 72
     0
 77
     0
171
     0
175
     0
179
     0
273
     0
  0
XRECORD
  5
10AC
102
{ACAD_REACTORS
330
10AA
102
}
330
10AA
100
AcDbXrecord
280
     1
270
     1
271
     1
  0
XRECORD
  5
10AB
102
{ACAD_REACTORS
330
10AA
102
}
330
10AA
100
AcDbXrecord
280
     1
270
     1
271
     1
  0
XRECORD
  5
10AF
102
{ACAD_REACTORS
330
10AA
102
}
330
10AA
100
AcDbXrecord
280
     1
270
     1
271
     1
  0
XRECORD
  5
10AE
102
{ACAD_REACTORS
330
10AA
102
}
330
10AA
100
AcDbXrecord
280
     1
270
     1
271
     1
  0
XRECORD
  5
10B0
102
{ACAD_REACTORS
330
10AA
102
}
330
10AA
100
AcDbXrecord
280
     1
270
     1
271
     1
  0
XRECORD
  5
10AD
102
{ACAD_REACTORS
330
10AA
102
}
330
10AA
100
AcDbXrecord
280
     1
270
     1
271
     1
  0
XRECORD
  5
1129
102
{ACAD_REACTORS
330
10BA
102
}
330
10BA
100
AcDbXrecord
280
     1
102
MATERIAL
148
0.0
149
0.0
149
0.0
 93
        0
 94
      127
282
     0
 72
     0
 77
     0
171
     0
175
     0
179
     0
273
     0
  0
XRECORD
  5
10BC
102
{ACAD_REACTORS
330
10BA
102
}
330
10BA
100
AcDbXrecord
280
     1
270
     1
271
     1
  0
XRECORD
  5
10BB
102
{ACAD_REACTORS
330
10BA
102
}
330
10BA
100
AcDbXrecord
280
     1
270
     1
271
     1
  0
XRECORD
  5
10BF
102
{ACAD_REACTORS
330
10BA
102
}
330
10BA
100
AcDbXrecord
280
     1
270
     1
271
     1
  0
XRECORD
  5
10BE
102
{ACAD_REACTORS
330
10BA
102
}
330
10BA
100
AcDbXrecord
280
     1
270
     1
271
     1
  0
XRECORD
  5
10C0
102
{ACAD_REACTORS
330
10BA
102
}
330
10BA
100
AcDbXrecord
280
     1
270
     1
271
     1
  0
XRECORD
  5
10BD
102
{ACAD_REACTORS
330
10BA
102
}
330
10BA
100
AcDbXrecord
280
     1
270
     1
271
     1
  0
CELLSTYLEMAP
  5
1115
102
{ACAD_REACTORS
330
1114
102
}
330
1114
100
AcDbCellStyleMap
 90
        3
300
CELLSTYLE
  1
TABLEFORMAT_BEGIN
 90
        5
170
     1
 91
        0
 92
    32768
 62
   257
 93
        1
300
CONTENTFORMAT
  1
CONTENTFORMAT_BEGIN
 90
        0
 91
        0
 92
        4
 93
        0
300

 40
0.0
140
1.0
 94
        5
 62
     0
340
11
144
6.0
309
CONTENTFORMAT_END
171
     1
301
MARGIN
  1
CELLMARGIN_BEGIN
 40
1.5
 40
1.5
 40
1.5
 40
1.5
 40
0.18
 40
0.18
309
CELLMARGIN_END
 94
        6
 95
        1
302
GRIDFORMAT
  1
GRIDFORMAT_BEGIN
 90
        0
 91
        1
 62
     0
 92
       -2
340
0
 93
        0
 40
0.045
309
GRIDFORMAT_END
 95
        2
302
GRIDFORMAT
  1
GRIDFORMAT_BEGIN
 90
        0
 91
        1
 62
     0
 92
       -2
340
0
 93
        0
 40
0.045
309
GRIDFORMAT_END
 95
        4
302
GRIDFORMAT
  1
GRIDFORMAT_BEGIN
 90
        0
 91
        1
 62
     0
 92
       -2
340
0
 93
        0
 40
0.045
309
GRIDFORMAT_END
 95
        8
302
GRIDFORMAT
  1
GRIDFORMAT_BEGIN
 90
        0
 91
        1
 62
     0
 92
       -2
340
0
 93
        0
 40
0.045
309
GRIDFORMAT_END
 95
       16
302
GRIDFORMAT
  1
GRIDFORMAT_BEGIN
 90
        0
 91
        1
 62
     0
 92
       -2
340
0
 93
        0
 40
0.045
309
GRIDFORMAT_END
 95
       32
302
GRIDFORMAT
  1
GRIDFORMAT_BEGIN
 90
        0
 91
        1
 62
     0
 92
       -2
340
0
 93
        0
 40
0.045
309
GRIDFORMAT_END
309
TABLEFORMAT_END
  1
CELLSTYLE_BEGIN
 90
        1
 91
        1
300
_TITLE
309
CELLSTYLE_END
300
CELLSTYLE
  1
TABLEFORMAT_BEGIN
 90
        5
170
     1
 91
        0
 92
        0
 62
   257
 93
        1
300
CONTENTFORMAT
  1
CONTENTFORMAT_BEGIN
 90
        0
 91
        0
 92
        4
 93
        0
300

 40
0.0
140
1.0
 94
        5
 62
     0
340
11
144
4.5
309
CONTENTFORMAT_END
171
     1
301
MARGIN
  1
CELLMARGIN_BEGIN
 40
1.5
 40
1.5
 40
1.5
 40
1.5
 40
0.18
 40
0.18
309
CELLMARGIN_END
 94
        6
 95
        1
302
GRIDFORMAT
  1
GRIDFORMAT_BEGIN
 90
        0
 91
        1
 62
     0
 92
       -2
340
0
 93
        0
 40
0.045
309
GRIDFORMAT_END
 95
        2
302
GRIDFORMAT
  1
GRIDFORMAT_BEGIN
 90
        0
 91
        1
 62
     0
 92
       -2
340
0
 93
        0
 40
0.045
309
GRIDFORMAT_END
 95
        4
302
GRIDFORMAT
  1
GRIDFORMAT_BEGIN
 90
        0
 91
        1
 62
     0
 92
       -2
340
0
 93
        0
 40
0.045
309
GRIDFORMAT_END
 95
        8
302
GRIDFORMAT
  1
GRIDFORMAT_BEGIN
 90
        0
 91
        1
 62
     0
 92
       -2
340
0
 93
        0
 40
0.045
309
GRIDFORMAT_END
 95
       16
302
GRIDFORMAT
  1
GRIDFORMAT_BEGIN
 90
        0
 91
        1
 62
     0
 92
       -2
340
0
 93
        0
 40
0.045
309
GRIDFORMAT_END
 95
       32
302
GRIDFORMAT
  1
GRIDFORMAT_BEGIN
 90
        0
 91
        1
 62
     0
 92
       -2
340
0
 93
        0
 40
0.045
309
GRIDFORMAT_END
309
TABLEFORMAT_END
  1
CELLSTYLE_BEGIN
 90
        2
 91
        1
300
_HEADER
309
CELLSTYLE_END
300
CELLSTYLE
  1
TABLEFORMAT_BEGIN
 90
        5
170
     1
 91
        0
 92
        0
 62
   257
 93
        1
300
CONTENTFORMAT
  1
CONTENTFORMAT_BEGIN
 90
        0
 91
        0
 92
        4
 93
        0
300

 40
0.0
140
1.0
 94
        2
 62
     0
340
11
144
4.5
309
CONTENTFORMAT_END
171
     1
301
MARGIN
  1
CELLMARGIN_BEGIN
 40
1.5
 40
1.5
 40
1.5
 40
1.5
 40
0.18
 40
0.18
309
CELLMARGIN_END
 94
        6
 95
        1
302
GRIDFORMAT
  1
GRIDFORMAT_BEGIN
 90
        0
 91
        1
 62
     0
 92
       -2
340
0
 93
        0
 40
0.045
309
GRIDFORMAT_END
 95
        2
302
GRIDFORMAT
  1
GRIDFORMAT_BEGIN
 90
        0
 91
        1
 62
     0
 92
       -2
340
0
 93
        0
 40
0.045
309
GRIDFORMAT_END
 95
        4
302
GRIDFORMAT
  1
GRIDFORMAT_BEGIN
 90
        0
 91
        1
 62
     0
 92
       -2
340
0
 93
        0
 40
0.045
309
GRIDFORMAT_END
 95
        8
302
GRIDFORMAT
  1
GRIDFORMAT_BEGIN
 90
        0
 91
        1
 62
     0
 92
       -2
340
0
 93
        0
 40
0.045
309
GRIDFORMAT_END
 95
       16
302
GRIDFORMAT
  1
GRIDFORMAT_BEGIN
 90
        0
 91
        1
 62
     0
 92
       -2
340
0
 93
        0
 40
0.045
309
GRIDFORMAT_END
 95
       32
302
GRIDFORMAT
  1
GRIDFORMAT_BEGIN
 90
        0
 91
        1
 62
     0
 92
       -2
340
0
 93
        0
 40
0.045
309
GRIDFORMAT_END
309
TABLEFORMAT_END
  1
CELLSTYLE_BEGIN
 90
        3
 91
        2
300
_DATA
309
CELLSTYLE_END
  0
XRECORD
  5
111E
102
{ACAD_REACTORS
330
1114
102
}
330
1114
100
AcDbXrecord
280
     1
102
ACAD_ROUNDTRIP_PRE2007_TABLESTYLE
 90
        4
 91
        0
  1

 92
        4
 93
        0
  2

 94
        4
 95
        0
  3

  0
XRECORD
  5
1135
102
{ACAD_REACTORS
330
1134
102
}
330
1134
100
AcDbXrecord
280
     1
102
RTVSPropertyOp0
 70
     1
102
RTVSPropertyOp1
 70
     1
102
RTVSPropertyOp2
 70
     1
102
RTVSPropertyOp3
 70
     1
102
RTVSPropertyOp4
 70
     1
102
RTVSPropertyOp5
 70
     1
102
RTVSPropertyOp6
 70
     1
102
RTVSPropertyOp7
 70
     1
102
RTVSPropertyOp8
 70
     1
102
RTVSPropertyOp9
 70
     1
102
RTVSPropertyOp10
 70
     1
102
RTVSPropertyOp11
 70
     1
102
RTVSPropertyOp12
 70
     1
102
RTVSPropertyOp13
 70
     1
102
RTVSPropertyOp14
 70
     1
102
RTVSPropertyOp15
 70
     1
102
RTVSPropertyOp16
 70
     1
102
RTVSPropertyOp17
 70
     1
102
RTVSPropertyOp18
 70
     1
102
RTVSPropertyOp19
 70
     1
102
RTVSPropertyOp20
 70
     1
102
RTVSPropertyOp21
 70
     1
102
RTVSPropertyOp22
 70
     1
102
RTVSPropertyOp23
 70
     1
102
RTVSPropertyOp24
 70
     1
102
RTVSPropertyOp25
 70
     1
102
RTVSPropertyOp26
 70
     1
102
RTVSPropertyOp27
 70
     1
  0
XRECORD
  5
1139
102
{ACAD_REACTORS
330
1138
102
}
330
1138
100
AcDbXrecord
280
     1
102
RTVSPropertyOp0
 70
     1
102
RTVSPropertyOp1
 70
     1
102
RTVSPropertyOp2
 70
     1
102
RTVSPropertyOp3
 70
     1
102
RTVSPropertyOp4
 70
     1
102
RTVSPropertyOp5
 70
     1
102
RTVSPropertyOp6
 70
     1
102
RTVSPropertyOp7
 70
     1
102
RTVSPropertyOp8
 70
     1
102
RTVSPropertyOp9
 70
     1
102
RTVSPropertyOp10
 70
     1
102
RTVSPropertyOp11
 70
     1
102
RTVSPropertyOp12
 70
     1
102
RTVSPropertyOp13
 70
     1
102
RTVSPropertyOp14
 70
     1
102
RTVSPropertyOp15
 70
     1
102
RTVSPropertyOp16
 70
     1
102
RTVSPropertyOp17
 70
     1
102
RTVSPropertyOp18
 70
     1
102
RTVSPropertyOp19
 70
     1
102
RTVSPropertyOp20
 70
     1
102
RTVSPropertyOp21
 70
     1
102
RTVSPropertyOp22
 70
     1
102
RTVSPropertyOp23
 70
     1
102
RTVSPropertyOp24
 70
     1
102
RTVSPropertyOp25
 70
     1
102
RTVSPropertyOp26
 70
     1
102
RTVSPropertyOp27
 70
     1
  0
XRECORD
  5
1137
102
{ACAD_REACTORS
330
1136
102
}
330
1136
100
AcDbXrecord
280
     1
102
RTVSPropertyOp0
 70
     1
102
RTVSPropertyOp1
 70
     1
102
RTVSPropertyOp2
 70
     1
102
RTVSPropertyOp3
 70
     1
102
RTVSPropertyOp4
 70
     1
102
RTVSPropertyOp5
 70
     1
102
RTVSPropertyOp6
 70
     1
102
RTVSPropertyOp7
 70
     1
102
RTVSPropertyOp8
 70
     1
102
RTVSPropertyOp9
 70
     1
102
RTVSPropertyOp10
 70
     1
102
RTVSPropertyOp11
 70
     1
102
RTVSPropertyOp12
 70
     1
102
RTVSPropertyOp13
 70
     1
102
RTVSPropertyOp14
 70
     1
102
RTVSPropertyOp15
 70
     1
102
RTVSPropertyOp16
 70
     1
102
RTVSPropertyOp17
 70
     1
102
RTVSPropertyOp18
 70
     1
102
RTVSPropertyOp19
 70
     1
102
RTVSPropertyOp20
 70
     1
102
RTVSPropertyOp21
 70
     1
102
RTVSPropertyOp22
 70
     1
102
RTVSPropertyOp23
 70
     1
102
RTVSPropertyOp24
 70
     1
102
RTVSPropertyOp25
 70
     1
102
RTVSPropertyOp26
 70
     1
102
RTVSPropertyOp27
 70
     1
  0
XRECORD
  5
1133
102
{ACAD_REACTORS
330
1132
102
}
330
1132
100
AcDbXrecord
280
     1
102
RTVSPropertyOp0
 70
     1
102
RTVSPropertyOp1
 70
     1
102
RTVSPropertyOp2
 70
     1
102
RTVSPropertyOp3
 70
     1
102
RTVSPropertyOp4
 70
     1
102
RTVSPropertyOp5
 70
     1
102
RTVSPropertyOp6
 70
     1
102
RTVSPropertyOp7
 70
     1
102
RTVSPropertyOp8
 70
     1
102
RTVSPropertyOp9
 70
     1
102
RTVSPropertyOp10
 70
     1
102
RTVSPropertyOp11
 70
     1
102
RTVSPropertyOp12
 70
     1
102
RTVSPropertyOp13
 70
     1
102
RTVSPropertyOp14
 70
     1
102
RTVSPropertyOp15
 70
     1
102
RTVSPropertyOp16
 70
     1
102
RTVSPropertyOp17
 70
     1
102
RTVSPropertyOp18
 70
     1
102
RTVSPropertyOp19
 70
     1
102
RTVSPropertyOp20
 70
     1
102
RTVSPropertyOp21
 70
     1
102
RTVSPropertyOp22
 70
     1
102
RTVSPropertyOp23
 70
     1
102
RTVSPropertyOp24
 70
     1
102
RTVSPropertyOp25
 70
     1
102
RTVSPropertyOp26
 70
     1
102
RTVSPropertyOp27
 70
     1
  0
XRECORD
  5
1141
102
{ACAD_REACTORS
330
1140
102
}
330
1140
100
AcDbXrecord
280
     1
102
RTVSPropertyOp0
 70
     1
102
RTVSPropertyOp1
 70
     1
102
RTVSPropertyOp2
 70
     1
102
RTVSPropertyOp3
 70
     1
102
RTVSPropertyOp4
 70
     1
102
RTVSPropertyOp5
 70
     1
102
RTVSPropertyOp6
 70
     1
102
RTVSPropertyOp7
 70
     1
102
RTVSPropertyOp8
 70
     1
102
RTVSPropertyOp9
 70
     1
102
RTVSPropertyOp10
 70
     1
102
RTVSPropertyOp11
 70
     1
102
RTVSPropertyOp12
 70
     1
102
RTVSPropertyOp13
 70
     1
102
RTVSPropertyOp14
 70
     1
102
RTVSPropertyOp15
 70
     1
102
RTVSPropertyOp16
 70
     1
102
RTVSPropertyOp17
 70
     1
102
RTVSPropertyOp18
 70
     1
102
RTVSPropertyOp19
 70
     1
102
RTVSPropertyOp20
 70
     1
102
RTVSPropertyOp21
 70
     1
102
RTVSPropertyOp22
 70
     1
102
RTVSPropertyOp23
 70
     1
102
RTVSPropertyOp24
 70
     1
102
RTVSPropertyOp25
 70
     1
102
RTVSPropertyOp26
 70
     1
102
RTVSPropertyOp27
 70
     1
  0
XRECORD
  5
1149
102
{ACAD_REACTORS
330
1148
102
}
330
1148
100
AcDbXrecord
280
     1
102
RTVSPropertyOp0
 70
     1
102
RTVSPropertyOp1
 70
     1
102
RTVSPropertyOp2
 70
     1
102
RTVSPropertyOp3
 70
     1
102
RTVSPropertyOp4
 70
     1
102
RTVSPropertyOp5
 70
     1
102
RTVSPropertyOp6
 70
     1
102
RTVSPropertyOp7
 70
     1
102
RTVSPropertyOp8
 70
     1
102
RTVSPropertyOp9
 70
     1
102
RTVSPropertyOp10
 70
     1
102
RTVSPropertyOp11
 70
     1
102
RTVSPropertyOp12
 70
     1
102
RTVSPropertyOp13
 70
     1
102
RTVSPropertyOp14
 70
     1
102
RTVSPropertyOp15
 70
     1
102
RTVSPropertyOp16
 70
     1
102
RTVSPropertyOp17
 70
     1
102
RTVSPropertyOp18
 70
     1
102
RTVSPropertyOp19
 70
     1
102
RTVSPropertyOp20
 70
     1
102
RTVSPropertyOp21
 70
     1
102
RTVSPropertyOp22
 70
     1
102
RTVSPropertyOp23
 70
     1
102
RTVSPropertyOp24
 70
     1
102
RTVSPropertyOp25
 70
     1
102
RTVSPropertyOp26
 70
     1
102
RTVSPropertyOp27
 70
     1
  0
XRECORD
  5
113B
102
{ACAD_REACTORS
330
113A
102
}
330
113A
100
AcDbXrecord
280
     1
102
RTVSPropertyOp0
 70
     1
102
RTVSPropertyOp1
 70
     1
102
RTVSPropertyOp2
 70
     1
102
RTVSPropertyOp3
 70
     1
102
RTVSPropertyOp4
 70
     1
102
RTVSPropertyOp5
 70
     1
102
RTVSPropertyOp6
 70
     1
102
RTVSPropertyOp7
 70
     1
102
RTVSPropertyOp8
 70
     1
102
RTVSPropertyOp9
 70
     1
102
RTVSPropertyOp10
 70
     1
102
RTVSPropertyOp11
 70
     1
102
RTVSPropertyOp12
 70
     1
102
RTVSPropertyOp13
 70
     1
102
RTVSPropertyOp14
 70
     1
102
RTVSPropertyOp15
 70
     1
102
RTVSPropertyOp16
 70
     1
102
RTVSPropertyOp17
 70
     1
102
RTVSPropertyOp18
 70
     1
102
RTVSPropertyOp19
 70
     1
102
RTVSPropertyOp20
 70
     1
102
RTVSPropertyOp21
 70
     1
102
RTVSPropertyOp22
 70
     1
102
RTVSPropertyOp23
 70
     1
102
RTVSPropertyOp24
 70
     1
102
RTVSPropertyOp25
 70
     1
102
RTVSPropertyOp26
 70
     1
102
RTVSPropertyOp27
 70
     1
  0
XRECORD
  5
113F
102
{ACAD_REACTORS
330
113E
102
}
330
113E
100
AcDbXrecord
280
     1
102
RTVSPropertyOp0
 70
     1
102
RTVSPropertyOp1
 70
     1
102
RTVSPropertyOp2
 70
     1
102
RTVSPropertyOp3
 70
     1
102
RTVSPropertyOp4
 70
     1
102
RTVSPropertyOp5
 70
     1
102
RTVSPropertyOp6
 70
     1
102
RTVSPropertyOp7
 70
     1
102
RTVSPropertyOp8
 70
     1
102
RTVSPropertyOp9
 70
     1
102
RTVSPropertyOp10
 70
     1
102
RTVSPropertyOp11
 70
     1
102
RTVSPropertyOp12
 70
     1
102
RTVSPropertyOp13
 70
     1
102
RTVSPropertyOp14
 70
     1
102
RTVSPropertyOp15
 70
     1
102
RTVSPropertyOp16
 70
     1
102
RTVSPropertyOp17
 70
     1
102
RTVSPropertyOp18
 70
     1
102
RTVSPropertyOp19
 70
     1
102
RTVSPropertyOp20
 70
     1
102
RTVSPropertyOp21
 70
     1
102
RTVSPropertyOp22
 70
     1
102
RTVSPropertyOp23
 70
     1
102
RTVSPropertyOp24
 70
     1
102
RTVSPropertyOp25
 70
     1
102
RTVSPropertyOp26
 70
     1
102
RTVSPropertyOp27
 70
     1
  0
XRECORD
  5
114F
102
{ACAD_REACTORS
330
114E
102
}
330
114E
100
AcDbXrecord
280
     1
102
RTVSPropertyOp0
 70
     0
102
RTVSPropertyOp1
 70
     0
102
RTVSPropertyOp2
 70
     0
102
RTVSPropertyOp3
 70
     0
102
RTVSPropertyOp4
 70
     0
102
RTVSPropertyOp5
 70
     0
102
RTVSPropertyOp6
 70
     0
102
RTVSPropertyOp7
 70
     0
102
RTVSPropertyOp8
 70
     0
102
RTVSPropertyOp9
 70
     0
102
RTVSPropertyOp10
 70
     0
102
RTVSPropertyOp11
 70
     0
102
RTVSPropertyOp12
 70
     0
102
RTVSPropertyOp13
 70
     0
102
RTVSPropertyOp14
 70
     2
102
RTVSPropertyOp15
 70
     0
102
RTVSPropertyOp16
 70
     0
102
RTVSPropertyOp17
 70
     0
102
RTVSPropertyOp18
 70
     0
102
RTVSPropertyOp19
 70
     0
102
RTVSPropertyOp20
 70
     0
102
RTVSPropertyOp21
 70
     0
102
RTVSPropertyOp22
 70
     0
102
RTVSPropertyOp23
 70
     0
102
RTVSPropertyOp24
 70
     0
102
RTVSPropertyOp25
 70
     0
102
RTVSPropertyOp26
 70
     0
102
RTVSPropertyOp27
 70
     0
  0
XRECORD
  5
1147
102
{ACAD_REACTORS
330
1146
102
}
330
1146
100
AcDbXrecord
280
     1
102
RTVSPropertyOp0
 70
     1
102
RTVSPropertyOp1
 70
     1
102
RTVSPropertyOp2
 70
     1
102
RTVSPropertyOp3
 70
     1
102
RTVSPropertyOp4
 70
     1
102
RTVSPropertyOp5
 70
     1
102
RTVSPropertyOp6
 70
     1
102
RTVSPropertyOp7
 70
     1
102
RTVSPropertyOp8
 70
     1
102
RTVSPropertyOp9
 70
     1
102
RTVSPropertyOp10
 70
     1
102
RTVSPropertyOp11
 70
     1
102
RTVSPropertyOp12
 70
     1
102
RTVSPropertyOp13
 70
     1
102
RTVSPropertyOp14
 70
     1
102
RTVSPropertyOp15
 70
     1
102
RTVSPropertyOp16
 70
     1
102
RTVSPropertyOp17
 70
     1
102
RTVSPropertyOp18
 70
     1
102
RTVSPropertyOp19
 70
     1
102
RTVSPropertyOp20
 70
     1
102
RTVSPropertyOp21
 70
     1
102
RTVSPropertyOp22
 70
     1
102
RTVSPropertyOp23
 70
     1
102
RTVSPropertyOp24
 70
     1
102
RTVSPropertyOp25
 70
     1
102
RTVSPropertyOp26
 70
     1
102
RTVSPropertyOp27
 70
     1
  0
XRECORD
  5
112B
102
{ACAD_REACTORS
330
112A
102
}
330
112A
100
AcDbXrecord
280
     1
102
RTVSPropertyOp0
 70
     1
102
RTVSPropertyOp1
 70
     1
102
RTVSPropertyOp2
 70
     1
102
RTVSPropertyOp3
 70
     1
102
RTVSPropertyOp4
 70
     1
102
RTVSPropertyOp5
 70
     1
102
RTVSPropertyOp6
 70
     1
102
RTVSPropertyOp7
 70
     1
102
RTVSPropertyOp8
 70
     1
102
RTVSPropertyOp9
 70
     1
102
RTVSPropertyOp10
 70
     1
102
RTVSPropertyOp11
 70
     1
102
RTVSPropertyOp12
 70
     1
102
RTVSPropertyOp13
 70
     1
102
RTVSPropertyOp14
 70
     1
102
RTVSPropertyOp15
 70
     1
102
RTVSPropertyOp16
 70
     1
102
RTVSPropertyOp17
 70
     1
102
RTVSPropertyOp18
 70
     1
102
RTVSPropertyOp19
 70
     1
102
RTVSPropertyOp20
 70
     1
102
RTVSPropertyOp21
 70
     1
102
RTVSPropertyOp22
 70
     1
102
RTVSPropertyOp23
 70
     1
102
RTVSPropertyOp24
 70
     1
102
RTVSPropertyOp25
 70
     1
102
RTVSPropertyOp26
 70
     1
102
RTVSPropertyOp27
 70
     1
  0
XRECORD
  5
112D
102
{ACAD_REACTORS
330
112C
102
}
330
112C
100
AcDbXrecord
280
     1
102
RTVSPropertyOp0
 70
     1
102
RTVSPropertyOp1
 70
     1
102
RTVSPropertyOp2
 70
     1
102
RTVSPropertyOp3
 70
     1
102
RTVSPropertyOp4
 70
     1
102
RTVSPropertyOp5
 70
     1
102
RTVSPropertyOp6
 70
     1
102
RTVSPropertyOp7
 70
     1
102
RTVSPropertyOp8
 70
     1
102
RTVSPropertyOp9
 70
     1
102
RTVSPropertyOp10
 70
     1
102
RTVSPropertyOp11
 70
     1
102
RTVSPropertyOp12
 70
     1
102
RTVSPropertyOp13
 70
     1
102
RTVSPropertyOp14
 70
     1
102
RTVSPropertyOp15
 70
     1
102
RTVSPropertyOp16
 70
     1
102
RTVSPropertyOp17
 70
     1
102
RTVSPropertyOp18
 70
     1
102
RTVSPropertyOp19
 70
     1
102
RTVSPropertyOp20
 70
     1
102
RTVSPropertyOp21
 70
     1
102
RTVSPropertyOp22
 70
     1
102
RTVSPropertyOp23
 70
     1
102
RTVSPropertyOp24
 70
     1
102
RTVSPropertyOp25
 70
     1
102
RTVSPropertyOp26
 70
     1
102
RTVSPropertyOp27
 70
     1
  0
XRECORD
  5
112F
102
{ACAD_REACTORS
330
112E
102
}
330
112E
100
AcDbXrecord
280
     1
102
RTVSPropertyOp0
 70
     1
102
RTVSPropertyOp1
 70
     1
102
RTVSPropertyOp2
 70
     1
102
RTVSPropertyOp3
 70
     1
102
RTVSPropertyOp4
 70
     1
102
RTVSPropertyOp5
 70
     1
102
RTVSPropertyOp6
 70
     1
102
RTVSPropertyOp7
 70
     1
102
RTVSPropertyOp8
 70
     1
102
RTVSPropertyOp9
 70
     1
102
RTVSPropertyOp10
 70
     1
102
RTVSPropertyOp11
 70
     1
102
RTVSPropertyOp12
 70
     1
102
RTVSPropertyOp13
 70
     1
102
RTVSPropertyOp14
 70
     1
102
RTVSPropertyOp15
 70
     1
102
RTVSPropertyOp16
 70
     1
102
RTVSPropertyOp17
 70
     1
102
RTVSPropertyOp18
 70
     1
102
RTVSPropertyOp19
 70
     1
102
RTVSPropertyOp20
 70
     1
102
RTVSPropertyOp21
 70
     1
102
RTVSPropertyOp22
 70
     1
102
RTVSPropertyOp23
 70
     1
102
RTVSPropertyOp24
 70
     1
102
RTVSPropertyOp25
 70
     1
102
RTVSPropertyOp26
 70
     1
102
RTVSPropertyOp27
 70
     1
  0
XRECORD
  5
1131
102
{ACAD_REACTORS
330
1130
102
}
330
1130
100
AcDbXrecord
280
     1
102
RTVSPropertyOp0
 70
     1
102
RTVSPropertyOp1
 70
     1
102
RTVSPropertyOp2
 70
     1
102
RTVSPropertyOp3
 70
     1
102
RTVSPropertyOp4
 70
     1
102
RTVSPropertyOp5
 70
     1
102
RTVSPropertyOp6
 70
     1
102
RTVSPropertyOp7
 70
     1
102
RTVSPropertyOp8
 70
     1
102
RTVSPropertyOp9
 70
     1
102
RTVSPropertyOp10
 70
     1
102
RTVSPropertyOp11
 70
     1
102
RTVSPropertyOp12
 70
     1
102
RTVSPropertyOp13
 70
     1
102
RTVSPropertyOp14
 70
     1
102
RTVSPropertyOp15
 70
     1
102
RTVSPropertyOp16
 70
     1
102
RTVSPropertyOp17
 70
     1
102
RTVSPropertyOp18
 70
     1
102
RTVSPropertyOp19
 70
     1
102
RTVSPropertyOp20
 70
     1
102
RTVSPropertyOp21
 70
     1
102
RTVSPropertyOp22
 70
     1
102
RTVSPropertyOp23
 70
     1
102
RTVSPropertyOp24
 70
     1
102
RTVSPropertyOp25
 70
     1
102
RTVSPropertyOp26
 70
     1
102
RTVSPropertyOp27
 70
     1
  0
XRECORD
  5
114B
102
{ACAD_REACTORS
330
114A
102
}
330
114A
100
AcDbXrecord
280
     1
102
RTVSPropertyOp0
 70
     0
102
RTVSPropertyOp1
 70
     0
102
RTVSPropertyOp2
 70
     0
102
RTVSPropertyOp3
 70
     0
102
RTVSPropertyOp4
 70
     0
102
RTVSPropertyOp5
 70
     0
102
RTVSPropertyOp6
 70
     0
102
RTVSPropertyOp7
 70
     0
102
RTVSPropertyOp8
 70
     0
102
RTVSPropertyOp9
 70
     0
102
RTVSPropertyOp10
 70
     0
102
RTVSPropertyOp11
 70
     0
102
RTVSPropertyOp12
 70
     0
102
RTVSPropertyOp13
 70
     0
102
RTVSPropertyOp14
 70
     2
102
RTVSPropertyOp15
 70
     0
102
RTVSPropertyOp16
 70
     0
102
RTVSPropertyOp17
 70
     0
102
RTVSPropertyOp18
 70
     0
102
RTVSPropertyOp19
 70
     0
102
RTVSPropertyOp20
 70
     0
102
RTVSPropertyOp21
 70
     0
102
RTVSPropertyOp22
 70
     0
102
RTVSPropertyOp23
 70
     0
102
RTVSPropertyOp24
 70
     0
102
RTVSPropertyOp25
 70
     0
102
RTVSPropertyOp26
 70
     0
102
RTVSPropertyOp27
 70
     0
  0
XRECORD
  5
1145
102
{ACAD_REACTORS
330
1144
102
}
330
1144
100
AcDbXrecord
280
     1
102
RTVSPropertyOp0
 70
     1
102
RTVSPropertyOp1
 70
     1
102
RTVSPropertyOp2
 70
     1
102
RTVSPropertyOp3
 70
     1
102
RTVSPropertyOp4
 70
     1
102
RTVSPropertyOp5
 70
     1
102
RTVSPropertyOp6
 70
     1
102
RTVSPropertyOp7
 70
     1
102
RTVSPropertyOp8
 70
     1
102
RTVSPropertyOp9
 70
     1
102
RTVSPropertyOp10
 70
     1
102
RTVSPropertyOp11
 70
     1
102
RTVSPropertyOp12
 70
     1
102
RTVSPropertyOp13
 70
     1
102
RTVSPropertyOp14
 70
     1
102
RTVSPropertyOp15
 70
     1
102
RTVSPropertyOp16
 70
     1
102
RTVSPropertyOp17
 70
     1
102
RTVSPropertyOp18
 70
     1
102
RTVSPropertyOp19
 70
     1
102
RTVSPropertyOp20
 70
     1
102
RTVSPropertyOp21
 70
     1
102
RTVSPropertyOp22
 70
     1
102
RTVSPropertyOp23
 70
     1
102
RTVSPropertyOp24
 70
     1
102
RTVSPropertyOp25
 70
     1
102
RTVSPropertyOp26
 70
     1
102
RTVSPropertyOp27
 70
     1
  0
XRECORD
  5
114D
102
{ACAD_REACTORS
330
114C
102
}
330
114C
100
AcDbXrecord
280
     1
102
RTVSPropertyOp0
 70
     0
102
RTVSPropertyOp1
 70
     0
102
RTVSPropertyOp2
 70
     0
102
RTVSPropertyOp3
 70
     0
102
RTVSPropertyOp4
 70
     0
102
RTVSPropertyOp5
 70
     0
102
RTVSPropertyOp6
 70
     0
102
RTVSPropertyOp7
 70
     0
102
RTVSPropertyOp8
 70
     0
102
RTVSPropertyOp9
 70
     0
102
RTVSPropertyOp10
 70
     0
102
RTVSPropertyOp11
 70
     0
102
RTVSPropertyOp12
 70
     0
102
RTVSPropertyOp13
 70
     0
102
RTVSPropertyOp14
 70
     2
102
RTVSPropertyOp15
 70
     0
102
RTVSPropertyOp16
 70
     0
102
RTVSPropertyOp17
 70
     0
102
RTVSPropertyOp18
 70
     0
102
RTVSPropertyOp19
 70
     0
102
RTVSPropertyOp20
 70
     0
102
RTVSPropertyOp21
 70
     0
102
RTVSPropertyOp22
 70
     0
102
RTVSPropertyOp23
 70
     0
102
RTVSPropertyOp24
 70
     0
102
RTVSPropertyOp25
 70
     0
102
RTVSPropertyOp26
 70
     0
102
RTVSPropertyOp27
 70
     0
  0
XRECORD
  5
113D
102
{ACAD_REACTORS
330
113C
102
}
330
113C
100
AcDbXrecord
280
     1
102
RTVSPropertyOp0
 70
     1
102
RTVSPropertyOp1
 70
     1
102
RTVSPropertyOp2
 70
     1
102
RTVSPropertyOp3
 70
     1
102
RTVSPropertyOp4
 70
     1
102
RTVSPropertyOp5
 70
     1
102
RTVSPropertyOp6
 70
     1
102
RTVSPropertyOp7
 70
     1
102
RTVSPropertyOp8
 70
     1
102
RTVSPropertyOp9
 70
     1
102
RTVSPropertyOp10
 70
     1
102
RTVSPropertyOp11
 70
     1
102
RTVSPropertyOp12
 70
     1
102
RTVSPropertyOp13
 70
     1
102
RTVSPropertyOp14
 70
     1
102
RTVSPropertyOp15
 70
     1
102
RTVSPropertyOp16
 70
     1
102
RTVSPropertyOp17
 70
     1
102
RTVSPropertyOp18
 70
     1
102
RTVSPropertyOp19
 70
     1
102
RTVSPropertyOp20
 70
     1
102
RTVSPropertyOp21
 70
     1
102
RTVSPropertyOp22
 70
     1
102
RTVSPropertyOp23
 70
     1
102
RTVSPropertyOp24
 70
     1
102
RTVSPropertyOp25
 70
     1
102
RTVSPropertyOp26
 70
     1
102
RTVSPropertyOp27
 70
     1
  0
XRECORD
  5
1143
102
{ACAD_REACTORS
330
1142
102
}
330
1142
100
AcDbXrecord
280
     1
102
RTVSPropertyOp0
 70
     1
102
RTVSPropertyOp1
 70
     1
102
RTVSPropertyOp2
 70
     1
102
RTVSPropertyOp3
 70
     1
102
RTVSPropertyOp4
 70
     1
102
RTVSPropertyOp5
 70
     1
102
RTVSPropertyOp6
 70
     1
102
RTVSPropertyOp7
 70
     1
102
RTVSPropertyOp8
 70
     1
102
RTVSPropertyOp9
 70
     1
102
RTVSPropertyOp10
 70
     1
102
RTVSPropertyOp11
 70
     1
102
RTVSPropertyOp12
 70
     1
102
RTVSPropertyOp13
 70
     1
102
RTVSPropertyOp14
 70
     1
102
RTVSPropertyOp15
 70
     1
102
RTVSPropertyOp16
 70
     1
102
RTVSPropertyOp17
 70
     1
102
RTVSPropertyOp18
 70
     1
102
RTVSPropertyOp19
 70
     1
102
RTVSPropertyOp20
 70
     1
102
RTVSPropertyOp21
 70
     1
102
RTVSPropertyOp22
 70
     1
102
RTVSPropertyOp23
 70
     1
102
RTVSPropertyOp24
 70
     1
102
RTVSPropertyOp25
 70
     1
102
RTVSPropertyOp26
 70
     1
102
RTVSPropertyOp27
 70
     1
  0
ENDSEC
  0
EOF
