  0
SECTION
  2
HEADER
  9
$ACADVER
  1
AC1015
  9
$ACADMAINTVER
 70
    20
  9
$DWGCODEPAGE
  3
ANSI_1252
  9
$INSBASE
 10
0.0
 20
0.0
 30
0.0
  9
$EXTMIN
 10
1160.191757153712
 20
380.5337680840687
 30
-0.0000000000000001
  9
$EXTMAX
 10
1162.592853987698
 20
381.1087680721478
 30
0.0000000000000001
  9
$LIMMIN
 10
0.0
 20
0.0
  9
$LIMMAX
 10
420.0
 20
297.0
  9
$ORTHOMODE
 70
     0
  9
$REGENMODE
 70
     1
  9
$FILLMODE
 70
     1
  9
$QTEXTMODE
 70
     0
  9
$MIRRTEXT
 70
     0
  9
$LTSCALE
 40
1.0
  9
$ATTMODE
 70
     1
  9
$TEXTSIZE
 40
2.5
  9
$TRACEWID
 40
1.0
  9
$TEXTSTYLE
  7
Standard
  9
$CLAYER
  8
0
  9
$CELTYPE
  6
ByLayer
  9
$CECOLOR
 62
   256
  9
$CELTSCALE
 40
1.0
  9
$DISPSILH
 70
     0
  9
$DIMSCALE
 40
1.0
  9
$DIMASZ
 40
2.5
  9
$DIMEXO
 40
0.625
  9
$DIMDLI
 40
3.75
  9
$DIMRND
 40
0.0
  9
$DIMDLE
 40
0.0
  9
$DIMEXE
 40
1.25
  9
$DIMTP
 40
0.0
  9
$DIMTM
 40
0.0
  9
$DIMTXT
 40
2.5
  9
$DIMCEN
 40
2.5
  9
$DIMTSZ
 40
0.0
  9
$DIMTOL
 70
     0
  9
$DIMLIM
 70
     0
  9
$DIMTIH
 70
     0
  9
$DIMTOH
 70
     0
  9
$DIMSE1
 70
     0
  9
$DIMSE2
 70
     0
  9
$DIMTAD
 70
     1
  9
$DIMZIN
 70
     8
  9
$DIMBLK
  1

  9
$DIMASO
 70
     1
  9
$DIMSHO
 70
     1
  9
$DIMPOST
  1

  9
$DIMAPOST
  1

  9
$DIMALT
 70
     0
  9
$DIMALTD
 70
     3
  9
$DIMALTF
 40
0.03937007874016
  9
$DIMLFAC
 40
1.0
  9
$DIMTOFL
 70
     1
  9
$DIMTVP
 40
0.0
  9
$DIMTIX
 70
     0
  9
$DIMSOXD
 70
     0
  9
$DIMSAH
 70
     0
  9
$DIMBLK1
  1

  9
$DIMBLK2
  1

  9
$DIMSTYLE
  2
ISO-25
  9
$DIMCLRD
 70
     0
  9
$DIMCLRE
 70
     0
  9
$DIMCLRT
 70
     0
  9
$DIMTFAC
 40
1.0
  9
$DIMGAP
 40
0.625
  9
$DIMJUST
 70
     0
  9
$DIMSD1
 70
     0
  9
$DIMSD2
 70
     0
  9
$DIMTOLJ
 70
     0
  9
$DIMTZIN
 70
     8
  9
$DIMALTZ
 70
     0
  9
$DIMALTTZ
 70
     0
  9
$DIMUPT
 70
     0
  9
$DIMDEC
 70
     2
  9
$DIMTDEC
 70
     2
  9
$DIMALTU
 70
     2
  9
$DIMALTTD
 70
     3
  9
$DIMTXSTY
  7
Standard
  9
$DIMAUNIT
 70
     0
  9
$DIMADEC
 70
     0
  9
$DIMALTRND
 40
0.0
  9
$DIMAZIN
 70
     0
  9
$DIMDSEP
 70
    44
  9
$DIMATFIT
 70
     3
  9
$DIMFRAC
 70
     0
  9
$DIMLDRBLK
  1

  9
$DIMLUNIT
 70
     2
  9
$DIMLWD
 70
    -2
  9
$DIMLWE
 70
    -2
  9
$DIMTMOVE
 70
     0
  9
$LUNITS
 70
     2
  9
$LUPREC
 70
     4
  9
$SKETCHINC
 40
1.0
  9
$FILLETRAD
 40
0.0
  9
$AUNITS
 70
     0
  9
$AUPREC
 70
     0
  9
$MENU
  1
.
  9
$ELEVATION
 40
0.0
  9
$PELEVATION
 40
0.0
  9
$THICKNESS
 40
0.0
  9
$LIMCHECK
 70
     0
  9
$CHAMFERA
 40
0.0
  9
$CHAMFERB
 40
0.0
  9
$CHAMFERC
 40
0.0
  9
$CHAMFERD
 40
0.0
  9
$SKPOLY
 70
     0
  9
$TDCREATE
 40
2454625.705391887
  9
$TDUCREATE
 40
2454625.663725220
  9
$TDUPDATE
 40
2456147.494925845
  9
$TDUUPDATE
 40
2456147.453259179
  9
$TDINDWG
 40
0.0005213773
  9
$TDUSRTIMER
 40
0.0005213773
  9
$USRTIMER
 70
     1
  9
$ANGBASE
 50
0.0
  9
$ANGDIR
 70
     0
  9
$PDMODE
 70
     0
  9
$PDSIZE
 40
0.0
  9
$PLINEWID
 40
0.0
  9
$SPLFRAME
 70
     0
  9
$SPLINETYPE
 70
     6
  9
$SPLINESEGS
 70
     8
  9
$HANDSEED
  5
2CE
  9
$SURFTAB1
 70
     6
  9
$SURFTAB2
 70
     6
  9
$SURFTYPE
 70
     6
  9
$SURFU
 70
     6
  9
$SURFV
 70
     6
  9
$UCSBASE
  2

  9
$UCSNAME
  2

  9
$UCSORG
 10
0.0
 20
0.0
 30
0.0
  9
$UCSXDIR
 10
1.0
 20
0.0
 30
0.0
  9
$UCSYDIR
 10
0.0
 20
1.0
 30
0.0
  9
$UCSORTHOREF
  2

  9
$UCSORTHOVIEW
 70
     0
  9
$UCSORGTOP
 10
0.0
 20
0.0
 30
0.0
  9
$UCSORGBOTTOM
 10
0.0
 20
0.0
 30
0.0
  9
$UCSORGLEFT
 10
0.0
 20
0.0
 30
0.0
  9
$UCSORGRIGHT
 10
0.0
 20
0.0
 30
0.0
  9
$UCSORGFRONT
 10
0.0
 20
0.0
 30
0.0
  9
$UCSORGBACK
 10
0.0
 20
0.0
 30
0.0
  9
$PUCSBASE
  2

  9
$PUCSNAME
  2

  9
$PUCSORG
 10
0.0
 20
0.0
 30
0.0
  9
$PUCSXDIR
 10
1.0
 20
0.0
 30
0.0
  9
$PUCSYDIR
 10
0.0
 20
1.0
 30
0.0
  9
$PUCSORTHOREF
  2

  9
$PUCSORTHOVIEW
 70
     0
  9
$PUCSORGTOP
 10
0.0
 20
0.0
 30
0.0
  9
$PUCSORGBOTTOM
 10
0.0
 20
0.0
 30
0.0
  9
$PUCSORGLEFT
 10
0.0
 20
0.0
 30
0.0
  9
$PUCSORGRIGHT
 10
0.0
 20
0.0
 30
0.0
  9
$PUCSORGFRONT
 10
0.0
 20
0.0
 30
0.0
  9
$PUCSORGBACK
 10
0.0
 20
0.0
 30
0.0
  9
$USERI1
 70
     0
  9
$USERI2
 70
     0
  9
$USERI3
 70
     0
  9
$USERI4
 70
     0
  9
$USERI5
 70
     0
  9
$USERR1
 40
0.0
  9
$USERR2
 40
0.0
  9
$USERR3
 40
0.0
  9
$USERR4
 40
0.0
  9
$USERR5
 40
0.0
  9
$WORLDVIEW
 70
     1
  9
$SHADEDGE
 70
     3
  9
$SHADEDIF
 70
    70
  9
$TILEMODE
 70
     1
  9
$MAXACTVP
 70
    64
  9
$PINSBASE
 10
0.0
 20
0.0
 30
0.0
  9
$PLIMCHECK
 70
     0
  9
$PEXTMIN
 10
1.000000000000000E+20
 20
1.000000000000000E+20
 30
1.000000000000000E+20
  9
$PEXTMAX
 10
-1.000000000000000E+20
 20
-1.000000000000000E+20
 30
-1.000000000000000E+20
  9
$PLIMMIN
 10
0.0
 20
0.0
  9
$PLIMMAX
 10
420.0
 20
297.0
  9
$UNITMODE
 70
     0
  9
$VISRETAIN
 70
     1
  9
$PLINEGEN
 70
     0
  9
$PSLTSCALE
 70
     1
  9
$TREEDEPTH
 70
  3020
  9
$CMLSTYLE
  2
Standard
  9
$CMLJUST
 70
     0
  9
$CMLSCALE
 40
20.0
  9
$PROXYGRAPHICS
 70
     1
  9
$MEASUREMENT
 70
     1
  9
$CELWEIGHT
370
    -1
  9
$ENDCAPS
280
     0
  9
$JOINSTYLE
280
     0
  9
$LWDISPLAY
290
     0
  9
$INSUNITS
 70
     4
  9
$HYPERLINKBASE
  1

  9
$STYLESHEET
  1

  9
$XEDIT
290
     1
  9
$CEPSNTYPE
380
     0
  9
$PSTYLEMODE
290
     1
  9
$FINGERPRINTGUID
  2
{4014DFE4-54EF-4982-ACE5-05F82B308BF1}
  9
$VERSIONGUID
  2
{78C42138-242B-4C02-98C1-449C2E2EC55F}
  9
$EXTNAMES
290
     1
  9
$PSVPSCALE
 40
0.0
  9
$OLESTARTUP
290
     0
  0
ENDSEC
  0
SECTION
  2
CLASSES
  0
CLASS
  1
ACDBDICTIONARYWDFLT
  2
AcDbDictionaryWithDefault
  3
ObjectDBX Classes
 90
        0
280
     0
281
     0
  0
CLASS
  1
TABLESTYLE
  2
AcDbTableStyle
  3
ObjectDBX Classes
 90
     4095
280
     0
281
     0
  0
CLASS
  1
DICTIONARYVAR
  2
AcDbDictionaryVar
  3
ObjectDBX Classes
 90
        0
280
     0
281
     0
  0
CLASS
  1
ACDBPLACEHOLDER
  2
AcDbPlaceHolder
  3
ObjectDBX Classes
 90
        0
280
     0
281
     0
  0
CLASS
  1
LAYOUT
  2
AcDbLayout
  3
ObjectDBX Classes
 90
        0
280
     0
281
     0
  0
CLASS
  1
MATERIAL
  2
AcDbMaterial
  3
ObjectDBX Classes
 90
     1153
280
     0
281
     0
  0
CLASS
  1
VISUALSTYLE
  2
AcDbVisualStyle
  3
ObjectDBX Classes
 90
     4095
280
     0
281
     0
  0
CLASS
  1
SCALE
  2
AcDbScale
  3
ObjectDBX Classes
 90
     1153
280
     0
281
     0
  0
CLASS
  1
MLEADERSTYLE
  2
AcDbMLeaderStyle
  3
ACDB_MLEADERSTYLE_CLASS
 90
     4095
280
     0
281
     0
  0
CLASS
  1
CELLSTYLEMAP
  2
AcDbCellStyleMap
  3
ObjectDBX Classes
 90
     1152
280
     0
281
     0
  0
ENDSEC
  0
SECTION
  2
TABLES
  0
TABLE
  2
VPORT
  5
8
330
0
100
AcDbSymbolTable
 70
     1
  0
VPORT
  5
240
330
8
100
AcDbSymbolTableRecord
100
AcDbViewportTableRecord
  2
*Active
 70
     0
 10
0.0
 20
0.0
 11
1.0
 21
1.0
 12
1161.440057530355
 22
380.8212680781082
 13
0.0
 23
0.0
 14
10.0
 24
10.0
 15
10.0
 25
10.0
 16
0.0
 26
0.0
 36
1.0
 17
0.0
 27
0.0
 37
0.0
 40
1.522805247025268
 41
1.645464025026068
 42
50.0
 43
0.0
 44
0.0
 50
0.0
 51
0.0
 71
     0
 72
  1000
 73
     1
 74
     3
 75
     0
 76
     0
 77
     0
 78
     0
281
     0
 65
     1
110
0.0
120
0.0
130
0.0
111
1.0
121
0.0
131
0.0
112
0.0
122
1.0
132
0.0
 79
     0
146
0.0
  0
ENDTAB
  0
TABLE
  2
LTYPE
  5
5
330
0
100
AcDbSymbolTable
 70
     1
  0
LTYPE
  5
14
330
5
100
AcDbSymbolTableRecord
100
AcDbLinetypeTableRecord
  2
ByBlock
 70
     0
  3

 72
    65
 73
     0
 40
0.0
  0
LTYPE
  5
15
330
5
100
AcDbSymbolTableRecord
100
AcDbLinetypeTableRecord
  2
ByLayer
 70
     0
  3

 72
    65
 73
     0
 40
0.0
  0
LTYPE
  5
16
330
5
100
AcDbSymbolTableRecord
100
AcDbLinetypeTableRecord
  2
Continuous
 70
     0
  3
Solid line
 72
    65
 73
     0
 40
0.0
  0
ENDTAB
  0
TABLE
  2
LAYER
  5
2
330
0
100
AcDbSymbolTable
 70
     2
  0
LAYER
  5
10
102
{ACAD_XDICTIONARY
360
290
102
}
330
2
100
AcDbSymbolTableRecord
100
AcDbLayerTableRecord
  2
0
 70
     0
 62
     7
  6
Continuous
370
    -3
390
F
  0
LAYER
  5
2F
102
{ACAD_XDICTIONARY
360
292
102
}
330
2
100
AcDbSymbolTableRecord
100
AcDbLayerTableRecord
  2
SANINDUSA
 70
     0
 62
     3
  6
Continuous
370
    -3
390
F
  0
ENDTAB
  0
TABLE
  2
STYLE
  5
3
330
0
100
AcDbSymbolTable
 70
     1
  0
STYLE
  5
11
330
3
100
AcDbSymbolTableRecord
100
AcDbTextStyleTableRecord
  2
Standard
 70
     0
 40
0.0
 41
1.0
 50
0.0
 71
     0
 42
2.5
  3
txt
  4

  0
ENDTAB
  0
TABLE
  2
VIEW
  5
6
330
0
100
AcDbSymbolTable
 70
     0
  0
ENDTAB
  0
TABLE
  2
UCS
  5
7
330
0
100
AcDbSymbolTable
 70
     0
  0
ENDTAB
  0
TABLE
  2
APPID
  5
9
330
0
100
AcDbSymbolTable
 70
     2
  0
APPID
  5
12
330
9
100
AcDbSymbolTableRecord
100
AcDbRegAppTableRecord
  2
ACAD
 70
     0
  0
APPID
  5
2CD
330
9
100
AcDbSymbolTableRecord
100
AcDbRegAppTableRecord
  2
ACAD_MLEADERVER
 70
     0
  0
ENDTAB
  0
TABLE
  2
DIMSTYLE
  5
A
330
0
100
AcDbSymbolTable
 70
     1
100
AcDbDimStyleTable
 71
     0
  0
DIMSTYLE
105
2B
330
A
100
AcDbSymbolTableRecord
100
AcDbDimStyleTableRecord
  2
ISO-25
 70
     0
 41
2.5
 42
0.625
 43
3.75
 44
1.25
 73
     0
 74
     0
 77
     1
 78
     8
140
2.5
141
2.5
143
0.03937007874016
147
0.625
171
     3
172
     1
271
     2
272
     2
274
     3
278
    44
283
     0
284
     8
340
11
  0
ENDTAB
  0
TABLE
  2
BLOCK_RECORD
  5
1
330
0
100
AcDbSymbolTable
 70
     1
  0
BLOCK_RECORD
  5
23
330
1
100
AcDbSymbolTableRecord
100
AcDbBlockTableRecord
  2
*Model_Space
340
26
  0
BLOCK_RECORD
  5
1F
330
1
100
AcDbSymbolTableRecord
100
AcDbBlockTableRecord
  2
*Paper_Space
340
22
  0
BLOCK_RECORD
  5
27
330
1
100
AcDbSymbolTableRecord
100
AcDbBlockTableRecord
  2
*Paper_Space0
340
2A
  0
ENDTAB
  0
ENDSEC
  0
SECTION
  2
BLOCKS
  0
BLOCK
  5
24
330
23
100
AcDbEntity
  8
0
100
AcDbBlockBegin
  2
*Model_Space
 70
     0
 10
0.0
 20
0.0
 30
0.0
  3
*Model_Space
  1

  0
ENDBLK
  5
25
330
23
100
AcDbEntity
  8
0
100
AcDbBlockEnd
  0
BLOCK
  5
20
330
1F
100
AcDbEntity
 67
     1
  8
0
100
AcDbBlockBegin
  2
*Paper_Space
 70
     0
 10
0.0
 20
0.0
 30
0.0
  3
*Paper_Space
  1

  0
ENDBLK
  5
21
330
1F
100
AcDbEntity
 67
     1
  8
0
100
AcDbBlockEnd
  0
BLOCK
  5
28
330
27
100
AcDbEntity
 67
     1
  8
0
100
AcDbBlockBegin
  2
*Paper_Space0
 70
     0
 10
0.0
 20
0.0
 30
0.0
  3
*Paper_Space0
  1

  0
ENDBLK
  5
29
330
27
100
AcDbEntity
 67
     1
  8
0
100
AcDbBlockEnd
  0
ENDSEC
  0
SECTION
  2
ENTITIES
  0
ARC
  5
13A
330
23
100
AcDbEntity
  8
SANINDUSA
100
AcDbCircle
 10
1161.71070293422
 20
377.6952418977736
 30
0.0
 40
3.388127239585506
100
AcDbArc
 50
106.2890193689412
 51
106.8206174773224
  0
ARC
  5
13B
330
23
100
AcDbEntity
  8
SANINDUSA
100
AcDbCircle
 10
1160.278669583563
 20
378.2291474597011
 30
0.0
 40
2.830988825565665
100
AcDbArc
 50
73.13717070092067
 51
73.77196200262473
  0
LWPOLYLINE
  5
13C
330
23
100
AcDbEntity
  8
SANINDUSA
100
AcDbPolyline
 90
       40
 70
   128
 43
0.0
 10
1160.915072734753
 20
380.9463663714715
 10
1160.909179646379
 20
380.9463865178414
 10
1160.902766144692
 20
380.9463849681206
 10
1160.896798814504
 20
380.946375759203
 10
1160.890584223761
 20
380.9463653283902
 10
1160.884251792772
 20
380.9463530498334
 10
1160.878026119291
 20
380.9463402348347
 10
1160.8719009113
 20
380.9463278072663
 10
1160.865871167599
 20
380.946316780407
 10
1160.859938072829
 20
380.9463080781289
 10
1160.854096843718
 20
380.9463027137109
 10
1160.848374574302
 20
380.9463019984551
 10
1160.842873184799
 20
380.9463070648499
 10
1160.837538770257
 20
380.9463184493371
 10
1160.832384004115
 20
380.946336747963
 10
1160.827421597062
 20
380.9463625567742
 10
1160.822664326845
 20
380.9463963824101
 10
1160.818125164925
 20
380.9464387911149
 10
1160.813816591023
 20
380.946490289528
 10
1160.80975078684
 20
380.9465513246842
 10
1160.805939524292
 20
380.9466222840138
 10
1160.802394210218
 20
380.9467034953423
 10
1160.799125886379
 20
380.9467952268906
 10
1160.796145430623
 20
380.9468974786587
 10
1160.793463817655
 20
380.9470100718327
 10
1160.791583946763
 20
380.9471089857407
 10
1160.789875916063
 20
380.9472232478448
 10
1160.78814873737
 20
380.9473674314805
 10
1160.786561182557
 20
380.9475296753236
 10
1160.785043529092
 20
380.947713406641
 10
1160.783458462773
 20
380.9479296820946
 10
1160.781355819522
 20
380.9482161420174
 10
1160.778336620747
 20
380.9485302584954
 10
1160.775424576222
 20
380.9487142282315
 10
1160.772723114907
 20
380.9487850683518
 10
1160.770233324586
 20
380.9487656372376
 10
1160.767581439434
 20
380.9486378448792
 10
1160.765143862783
 20
380.9483976679631
 10
1160.762884071885
 20
380.9480343180485
 10
1160.761898315369
 20
380.9477925020047
  0
LWPOLYLINE
  5
13D
330
23
100
AcDbEntity
  8
SANINDUSA
100
AcDbPolyline
 90
       39
 70
   128
 43
0.0
 10
1161.068432799398
 20
380.9477237778493
 10
1161.066069162308
 20
380.9482457059212
 10
1161.063758379637
 20
380.948536874611
 10
1161.061015731512
 20
380.9487271922417
 10
1161.058085492669
 20
380.9487883466072
 10
1161.0555232082
 20
380.9487447458096
 10
1161.052510655342
 20
380.9485852735825
 10
1161.049296161948
 20
380.9482777136155
 10
1161.046013808666
 20
380.9478357749768
 10
1161.044425523697
 20
380.9476282018014
 10
1161.042835510193
 20
380.9474494176694
 10
1161.041162035285
 20
380.9472938793488
 10
1161.03935950142
 20
380.9471592324563
 10
1161.037398054122
 20
380.9470448213406
 10
1161.035293652533
 20
380.9469489472695
 10
1161.032879820882
 20
380.9468566196748
 10
1161.029829501032
 20
380.94675967272
 10
1161.02649300438
 20
380.9466727691479
 10
1161.022878697931
 20
380.9465958493539
 10
1161.018997094451
 20
380.9465287941285
 10
1161.014858952581
 20
380.9464713352509
 10
1161.010475440739
 20
380.9464231150933
 10
1161.005858166932
 20
380.9463837164231
 10
1161.001019186198
 20
380.9463526922055
 10
1160.995970926105
 20
380.9463295059987
 10
1160.990726194202
 20
380.9463136213608
 10
1160.985298081159
 20
380.9463045316525
 10
1160.979699409424
 20
380.9463016110249
 10
1160.973949442475
 20
380.946304203827
 10
1160.968093941777
 20
380.9463108497449
 10
1160.962107068716
 20
380.9463205354997
 10
1160.956033534228
 20
380.94633221801
 10
1160.949868610917
 20
380.946344883997
 10
1160.943609303652
 20
380.9463576095887
 10
1160.937254878549
 20
380.9463694113084
 10
1160.930810854627
 20
380.9463798421212
 10
1160.924515331952
 20
380.9463874715157
 10
1160.918003545466
 20
380.9463807361908
 10
1160.915072152183
 20
380.9463638084718
  0
ARC
  5
13E
330
23
100
AcDbEntity
  8
SANINDUSA
100
AcDbCircle
 10
1161.048239776248
 20
380.6337736908727
 30
0.0
 40
0.0020000017352106
100
AcDbArc
 50
271.9849256724701
 51
0.0
  0
ARC
  5
13F
330
23
100
AcDbEntity
  8
SANINDUSA
100
AcDbCircle
 10
1160.781905138988
 20
380.6337736816757
 30
0.0
 40
0.0019999922140231
100
AcDbArc
 50
180.0
 51
268.0153377985023
  0
LINE
  5
140
330
23
100
AcDbEntity
  8
SANINDUSA
100
AcDbLine
 10
1160.779905012666
 20
380.6528882550784
 30
0.0
 11
1160.779905012666
 21
380.6337736862488
 31
0.0
  0
LINE
  5
141
330
23
100
AcDbEntity
  8
SANINDUSA
100
AcDbLine
 10
1161.050239912091
 20
380.6337736862488
 30
0.0
 11
1161.050239912091
 21
380.6528889330812
 31
0.0
  0
ARC
  5
142
330
23
100
AcDbEntity
  8
SANINDUSA
100
AcDbCircle
 10
1160.915261308968
 20
380.3641757889084
 30
0.0
 40
0.6021226141428319
100
AcDbArc
 50
83.66477429998957
 51
90.01801124228025
  0
ARC
  5
143
330
23
100
AcDbEntity
  8
SANINDUSA
100
AcDbCircle
 10
1160.915080825773
 20
380.3578124204367
 30
0.0
 40
0.6084842839939232
100
AcDbArc
 50
90.00080548051109
 51
96.12968616790373
  0
LINE
  5
144
330
23
100
AcDbEntity
  8
SANINDUSA
100
AcDbLine
 10
1160.725073090612
 20
380.9315442758389
 30
0.0
 11
1160.725073925077
 21
380.9249125736542
 31
0.0
  0
LINE
  5
145
330
23
100
AcDbEntity
  8
SANINDUSA
100
AcDbLine
 10
1161.105070999681
 20
380.9249125736542
 30
0.0
 11
1161.10475928229
 21
380.9188198762722
 31
0.0
  0
LINE
  5
146
330
23
100
AcDbEntity
  8
SANINDUSA
100
AcDbLine
 10
1161.105071834146
 20
380.9315442758389
 30
0.0
 11
1161.105070999681
 21
380.9249125736542
 31
0.0
  0
LINE
  5
147
330
23
100
AcDbEntity
  8
SANINDUSA
100
AcDbLine
 10
1160.725073925077
 20
380.9249125736542
 30
0.0
 11
1160.725385642468
 21
380.9188198762722
 31
0.0
  0
ARC
  5
148
330
23
100
AcDbEntity
  8
SANINDUSA
100
AcDbCircle
 10
1160.732099840164
 20
380.9316285236197
 30
0.0
 40
0.0070263809291047
100
AcDbArc
 50
105.1853284791244
 51
179.9395902043846
  0
ARC
  5
149
330
23
100
AcDbEntity
  8
SANINDUSA
100
AcDbCircle
 10
1161.098044825492
 20
380.931628440451
 30
0.0
 40
0.0070266401367286
100
AcDbArc
 50
0.0612244447336985
 51
74.80298360603757
  0
LWPOLYLINE
  5
14A
330
23
100
AcDbEntity
  8
SANINDUSA
100
AcDbPolyline
 90
        4
 70
   128
 43
0.0
 10
1161.10475928229
 20
380.9188198762722
 10
1161.099770805656
 20
380.876668574173
 10
1161.093456617414
 20
380.8346596377679
 10
1161.091253301917
 20
380.8225758689232
  0
ARC
  5
14B
330
23
100
AcDbEntity
  8
SANINDUSA
100
AcDbCircle
 10
1162.580636290701
 20
380.1978134055909
 30
0.0
 40
1.596708725099577
100
AcDbArc
 50
162.7539845655572
 51
164.1775431278098
  0
LWPOLYLINE
  5
14C
330
23
100
AcDbEntity
  8
SANINDUSA
100
AcDbPolyline
 90
        4
 70
   128
 43
0.0
 10
1160.725385642468
 20
380.9188198762722
 10
1160.730374119102
 20
380.876668574173
 10
1160.736688307344
 20
380.8346596377679
 10
1160.73925491315
 20
380.8205834644624
  0
ARC
  5
14D
330
23
100
AcDbEntity
  8
SANINDUSA
100
AcDbCircle
 10
1159.249508634058
 20
380.1978134055913
 30
0.0
 40
1.596708725098205
100
AcDbArc
 50
15.82245687219019
 51
17.2460154344428
  0
ARC
  5
14E
330
23
100
AcDbEntity
  8
SANINDUSA
100
AcDbCircle
 10
1160.915735568928
 20
380.3345400205315
 30
0.0
 40
0.6316312066222415
100
AcDbArc
 50
95.96957551996649
 51
102.8177597894257
  0
ARC
  5
14F
330
23
100
AcDbEntity
  8
SANINDUSA
100
AcDbCircle
 10
1161.220747027842
 20
378.9859238197359
 30
0.0
 40
2.014308556099678
100
AcDbArc
 50
102.7671074425926
 51
102.9945309577457
  0
LINE
  5
150
330
23
100
AcDbEntity
  8
SANINDUSA
100
AcDbLine
 10
1160.761898315369
 20
380.9477925020047
 30
0.0
 11
1160.760391658962
 21
380.9473665374112
 31
0.0
  0
LINE
  5
151
330
23
100
AcDbEntity
  8
SANINDUSA
100
AcDbLine
 10
1161.068432799398
 20
380.9477237778493
 30
0.0
 11
1161.069820544539
 21
380.9473413246461
 31
0.0
  0
ARC
  5
152
330
23
100
AcDbEntity
  8
SANINDUSA
100
AcDbCircle
 10
1160.6102555694
 20
378.9896909378348
 30
0.0
 40
2.010445038918085
100
AcDbArc
 50
77.00276779208785
 51
77.23300591217631
  0
ARC
  5
153
330
23
100
AcDbEntity
  8
SANINDUSA
100
AcDbCircle
 10
1160.915406535997
 20
380.3396499192353
 30
0.0
 40
0.626427438949389
100
AcDbArc
 50
77.16748667387946
 51
83.91916998722305
  0
LINE
  5
154
330
23
100
AcDbEntity
  8
SANINDUSA
100
AcDbLine
 10
1160.915072462379
 20
380.6317736821957
 30
0.0
 11
1161.042524239837
 21
380.6317736821957
 31
0.0
  0
ARC
  5
155
330
23
100
AcDbEntity
  8
SANINDUSA
100
AcDbCircle
 10
1161.042522572119
 20
380.633768699338
 30
0.0
 40
0.0019950178394043
100
AcDbArc
 50
270.047895904635
 51
342.4702361373499
  0
LINE
  5
156
330
23
100
AcDbEntity
  8
SANINDUSA
100
AcDbLine
 10
1160.915072462379
 20
380.6317736821957
 30
0.0
 11
1160.787620684921
 21
380.6317736821957
 31
0.0
  0
ARC
  5
157
330
23
100
AcDbEntity
  8
SANINDUSA
100
AcDbCircle
 10
1160.787622352638
 20
380.633768699338
 30
0.0
 40
0.0019950178393833
100
AcDbArc
 50
197.5297638696797
 51
269.952104095365
  0
LINE
  5
158
330
23
100
AcDbEntity
  8
SANINDUSA
100
AcDbLine
 10
1161.042524239837
 20
380.6317736821957
 30
0.0
 11
1161.048309049426
 21
380.6317748891898
 31
0.0
  0
LINE
  5
159
330
23
100
AcDbEntity
  8
SANINDUSA
100
AcDbLine
 10
1160.787620684921
 20
380.6317736821957
 30
0.0
 11
1160.781835875331
 21
380.6317748891897
 31
0.0
  0
LWPOLYLINE
  5
15A
330
23
100
AcDbEntity
  8
SANINDUSA
100
AcDbPolyline
 90
       27
 70
   128
 43
0.0
 10
1160.730259335457
 20
380.9384095686265
 10
1160.730708232938
 20
380.9384468811341
 10
1160.732629365145
 20
380.9385223406144
 10
1160.735300338684
 20
380.9385726469346
 10
1160.738951331793
 20
380.9386056679078
 10
1160.743610150038
 20
380.9386076050587
 10
1160.749304598986
 20
380.9385647195168
 10
1160.751201352893
 20
380.9385402220078
 10
1160.753345138251
 20
380.9385093468018
 10
1160.755868053852
 20
380.9384747761079
 10
1160.758902183591
 20
380.9384391623326
 10
1160.762579656063
 20
380.9384051578827
 10
1160.767032525359
 20
380.938375415165
 10
1160.773554152666
 20
380.9383454340287
 10
1160.781092516004
 20
380.938320876915
 10
1160.789564869224
 20
380.938301833231
 10
1160.798888436376
 20
380.938288332779
 10
1160.809037244736
 20
380.9382800775357
 10
1160.819969511448
 20
380.9382761734315
 10
1160.831567942022
 20
380.9382757860013
 10
1160.843715256869
 20
380.9382781105824
 10
1160.856377887397
 20
380.9382822531052
 10
1160.869502222954
 20
380.9382873493023
 10
1160.882948032438
 20
380.9382924156972
 10
1160.896575084745
 20
380.9382964986154
 10
1160.905808888233
 20
380.93829822715
 10
1160.915072462379
 20
380.9382987635918
  0
LWPOLYLINE
  5
15B
330
23
100
AcDbEntity
  8
SANINDUSA
100
AcDbPolyline
 90
       27
 70
   128
 43
0.0
 10
1161.099886781393
 20
380.9384093600102
 10
1161.099436691819
 20
380.9384468811341
 10
1161.097515559613
 20
380.9385223406144
 10
1161.094844586073
 20
380.9385726469346
 10
1161.091193592964
 20
380.9386056679078
 10
1161.086534774719
 20
380.9386076050587
 10
1161.080840325771
 20
380.9385647195168
 10
1161.078943571864
 20
380.9385402220078
 10
1161.076799786507
 20
380.9385093468018
 10
1161.074276870905
 20
380.9384747761079
 10
1161.071242741166
 20
380.9384391623326
 10
1161.067565268694
 20
380.9384051578827
 10
1161.063112399398
 20
380.938375415165
 10
1161.056590772091
 20
380.9383454340287
 10
1161.049052408754
 20
380.938320876915
 10
1161.040580055534
 20
380.938301833231
 10
1161.031256488382
 20
380.938288332779
 10
1161.021107680022
 20
380.9382800775357
 10
1161.010175413309
 20
380.9382761734315
 10
1160.998576982735
 20
380.9382757860013
 10
1160.986429667889
 20
380.9382781105824
 10
1160.97376703736
 20
380.9382822531052
 10
1160.960642701803
 20
380.9382873493023
 10
1160.94719689232
 20
380.9382924156972
 10
1160.933569840013
 20
380.9382964986154
 10
1160.924336036524
 20
380.93829822715
 10
1160.915072462379
 20
380.9382987635918
  0
ARC
  5
15C
330
23
100
AcDbEntity
  8
SANINDUSA
100
AcDbCircle
 10
1159.800623940336
 20
381.0457128894143
 30
0.0
 40
1.309776423245374
100
AcDbArc
 50
343.3850671708115
 51
350.1910933506391
  0
ARC
  5
15D
330
23
100
AcDbEntity
  8
SANINDUSA
100
AcDbCircle
 10
1162.024261218259
 20
381.044325492549
 30
0.0
 40
1.304339564416362
100
AcDbArc
 50
189.8771746560426
 51
196.622597977124
  0
LWPOLYLINE
  5
15E
330
23
100
AcDbEntity
  8
SANINDUSA
100
AcDbPolyline
 90
       47
 70
   128
 43
0.0
 10
1161.866654267913
 20
380.9462045150586
 10
1161.866624465591
 20
380.9462124424763
 10
1161.86607842744
 20
380.9463091510125
 10
1161.865627816326
 20
380.9463583844491
 10
1161.865244022018
 20
380.9463805275746
 10
1161.864892295009
 20
380.9463875311204
 10
1161.864496222145
 20
380.9463856237717
 10
1161.863702884323
 20
380.9463751035519
 10
1161.862845948345
 20
380.9463662820645
 10
1161.861769309646
 20
380.9463562386818
 10
1161.860207489139
 20
380.9463435130902
 10
1161.858346751339
 20
380.9463309365101
 10
1161.856185725338
 20
380.9463194924184
 10
1161.853724053508
 20
380.9463101046868
 10
1161.850959709293
 20
380.9463037567921
 10
1161.84789626897
 20
380.9463016408273
 10
1161.844580760605
 20
380.946305127699
 10
1161.841009905941
 20
380.9463147538491
 10
1161.837176731235
 20
380.9463311749287
 10
1161.833089819557
 20
380.946354957182
 10
1161.828758528835
 20
380.9463866966553
 10
1161.824192932255
 20
380.9464269595929
 10
1161.819404026872
 20
380.9464762824364
 10
1161.814403405792
 20
380.9465352612324
 10
1161.809203317768
 20
380.9466043430157
 10
1161.803816846019
 20
380.9466840344258
 10
1161.798257073766
 20
380.9467748122998
 10
1161.792537292845
 20
380.9468770342656
 10
1161.786670884496
 20
380.946991147358
 10
1161.781393817074
 20
380.9471040981599
 10
1161.775755307085
 20
380.9472413080521
 10
1161.769915333397
 20
380.9473963397332
 10
1161.763603231317
 20
380.9475723522492
 10
1161.756680032617
 20
380.9477678554841
 10
1161.748895397789
 20
380.9479808824845
 10
1161.739740929014
 20
380.9482073801346
 10
1161.727773359424
 20
380.9484403448887
 10
1161.709454110271
 20
380.9486675577947
 10
1161.690475454933
 20
380.9487724917718
 10
1161.670575788623
 20
380.9487800615617
 10
1161.649891725189
 20
380.9486942606755
 10
1161.628980270035
 20
380.9485242384263
 10
1161.607843151695
 20
380.9482813494988
 10
1161.586488416797
 20
380.9479779916592
 10
1161.564926883585
 20
380.9476273971386
 10
1161.543172425038
 20
380.9472436922379
 10
1161.527317574627
 20
380.9469531791993
  0
LWPOLYLINE
  5
15F
330
23
100
AcDbEntity
  8
SANINDUSA
100
AcDbPolyline
 90
       14
 70
   128
 43
0.0
 10
1161.527317574627
 20
380.9469531791993
 10
1161.526282331354
 20
380.9469378906079
 10
1161.523538610345
 20
380.9469547885247
 10
1161.520848965651
 20
380.9470450895615
 10
1161.518232738978
 20
380.9472059028932
 10
1161.515710851556
 20
380.9474333840199
 10
1161.513381591446
 20
380.9477160292455
 10
1161.511247372634
 20
380.9480476098843
 10
1161.509329906112
 20
380.9484182911702
 10
1161.507729700214
 20
380.9487989860364
 10
1161.506451925642
 20
380.9491717534848
 10
1161.505593946582
 20
380.9494752007314
 10
1161.505054286129
 20
380.9497044103928
 10
1161.504887080199
 20
380.9497865753956
  0
LWPOLYLINE
  5
160
330
23
100
AcDbEntity
  8
SANINDUSA
100
AcDbPolyline
 90
       24
 70
   128
 43
0.0
 10
1161.504887080199
 20
380.9497865753956
 10
1161.504770731932
 20
380.949848266203
 10
1161.501266828186
 20
380.951722355444
 10
1161.497819206125
 20
380.9535791593381
 10
1161.494466966397
 20
380.9553979652711
 10
1161.491408443457
 20
380.9570698159524
 10
1161.488644695288
 20
380.9585916417428
 10
1161.486175572878
 20
380.9599612074681
 10
1161.483997440345
 20
380.9611780958958
 10
1161.482103338844
 20
380.9622437375375
 10
1161.480493968731
 20
380.9631554501839
 10
1161.479169896251
 20
380.9639106410332
 10
1161.47854069472
 20
380.9642714577504
 10
1161.478040686256
 20
380.9645597356148
 10
1161.477742394811
 20
380.9647387581654
 10
1161.477319276339
 20
380.9650069492646
 10
1161.477073198563
 20
380.965162845213
 10
1161.476788765198
 20
380.9653327780552
 10
1161.476440808183
 20
380.965521247942
 10
1161.475982820994
 20
380.9657357054539
 10
1161.475387758023
 20
380.9659599083253
 10
1161.47461686135
 20
380.9661654549428
 10
1161.473644396669
 20
380.9662978666612
 10
1161.472599273926
 20
380.9662941413707
  0
LINE
  5
161
330
23
100
AcDbEntity
  8
SANINDUSA
100
AcDbLine
 10
1161.381762141741
 20
380.9517736750432
 30
0.0
 11
1161.330262141448
 21
380.9517736750432
 31
0.0
  0
LINE
  5
162
330
23
100
AcDbEntity
  8
SANINDUSA
100
AcDbLine
 10
1161.436681641645
 20
380.9517736750432
 30
0.0
 11
1161.418762138492
 21
380.9517736750432
 31
0.0
  0
ARC
  5
163
330
23
100
AcDbEntity
  8
SANINDUSA
100
AcDbCircle
 10
1161.330262141353
 20
380.9497736857569
 30
0.0
 40
0.0020000000000002
100
AcDbArc
 50
90.0
 51
180.0
  0
ARC
  5
164
330
23
100
AcDbEntity
  8
SANINDUSA
100
AcDbCircle
 10
1161.436681642901
 20
380.9597736857049
 30
0.0
 40
0.0080000001409568
100
AcDbArc
 50
270.0069342402444
 51
348.5901116268711
  0
LWPOLYLINE
  5
165
330
23
100
AcDbEntity
  8
SANINDUSA
100
AcDbPolyline
 90
       28
 70
   128
 43
0.0
 10
1161.903262129432
 20
380.9315395372697
 10
1161.902992835647
 20
380.9315387624092
 10
1161.902182331687
 20
380.9315363484212
 10
1161.900016716129
 20
380.9315306263753
 10
1161.896707347042
 20
380.9315236526318
 10
1161.89212774337
 20
380.9315165596791
 10
1161.886394730217
 20
380.9315108376332
 10
1161.87975453437
 20
380.931507857401
 10
1161.872110357887
 20
380.931508602459
 10
1161.863247862465
 20
380.9315145927258
 10
1161.853442838794
 20
380.9315270500966
 10
1161.84307723344
 20
380.9315464812108
 10
1161.831960549957
 20
380.9315738397427
 10
1161.819815090305
 20
380.9316107350178
 10
1161.80704425872
 20
380.931656690199
 10
1161.796653291589
 20
380.9316993373223
 10
1161.785969814665
 20
380.9317476170846
 10
1161.775065711147
 20
380.931800903637
 10
1161.763657262928
 20
380.9318607765027
 10
1161.752143970138
 20
380.9319193082639
 10
1161.74060156048
 20
380.9319665747472
 10
1161.702489814169
 20
380.9320386069604
 10
1161.664251795417
 20
380.9320307987519
 10
1161.625817289955
 20
380.9319782572575
 10
1161.587302497036
 20
380.9318956154175
 10
1161.541838935024
 20
380.9317733960934
 10
1161.519070333249
 20
380.9317039864846
 10
1161.496296262747
 20
380.9316358881779
  0
LINE
  5
166
330
23
100
AcDbEntity
  8
SANINDUSA
100
AcDbLine
 10
1161.903262129432
 20
380.9315395372697
 30
0.0
 11
1161.903262129432
 21
380.9276388305016
 31
0.0
  0
LWPOLYLINE
  5
167
330
23
100
AcDbEntity
  8
SANINDUSA
100
AcDbPolyline
 90
        3
 70
   128
 43
0.0
 10
1161.496296262747
 20
380.9316358881779
 10
1161.495941197878
 20
380.9315779226609
 10
1161.495855337388
 20
380.9315442758389
  0
LWPOLYLINE
  5
168
330
23
100
AcDbEntity
  8
SANINDUSA
100
AcDbPolyline
 90
        3
 70
   128
 43
0.0
 10
1161.903262129432
 20
380.9276388305016
 10
1161.902985206253
 20
380.9218808430024
 10
1161.902146628505
 20
380.9161228555031
  0
ARC
  5
169
330
23
100
AcDbEntity
  8
SANINDUSA
100
AcDbCircle
 10
1161.896262158288
 20
380.9315395411011
 30
0.0
 40
0.0069999711445739
100
AcDbArc
 50
0.0
 51
74.92962428268423
  0
ARC
  5
16A
330
23
100
AcDbEntity
  8
SANINDUSA
100
AcDbCircle
 10
1161.502095408703
 20
380.886479794434
 30
0.0
 40
0.0454944609191182
100
AcDbArc
 50
97.88360574274571
 51
107.1141569006146
  0
LINE
  5
16B
330
23
100
AcDbEntity
  8
SANINDUSA
100
AcDbLine
 10
1161.489476969844
 20
380.9239756184407
 30
0.0
 11
1161.488707458979
 21
380.9299597757645
 31
0.0
  0
LINE
  5
16C
330
23
100
AcDbEntity
  8
SANINDUSA
100
AcDbLine
 10
1161.490042424208
 20
380.9186828451939
 30
0.0
 11
1161.489476969844
 21
380.9239756184407
 31
0.0
  0
ARC
  5
16D
330
23
100
AcDbEntity
  8
SANINDUSA
100
AcDbCircle
 10
1160.488794669004
 20
381.1925319417046
 30
0.0
 40
1.440126988970544
100
AcDbArc
 50
337.1368172842891
 51
348.934338238909
  0
LWPOLYLINE
  5
16E
330
23
100
AcDbEntity
  8
SANINDUSA
100
AcDbPolyline
 90
        7
 70
   128
 43
0.0
 10
1161.513743719465
 20
380.6717878299542
 10
1161.50915574134
 20
380.7120884972401
 10
1161.50492148698
 20
380.7528100925275
 10
1161.500985613471
 20
380.7936347442456
 10
1161.497247388965
 20
380.8347778933831
 10
1161.493606036908
 20
380.8766147511788
 10
1161.490042424208
 20
380.9186828451939
  0
ARC
  5
16F
330
23
100
AcDbEntity
  8
SANINDUSA
100
AcDbCircle
 10
1162.208873084279
 20
382.1960338542119
 30
0.0
 40
1.456565171895667
100
AcDbArc
 50
238.8559172438334
 51
240.3680052441429
  0
LINE
  5
170
330
23
100
AcDbEntity
  8
SANINDUSA
100
AcDbLine
 10
1161.866663029796
 20
380.946206213791
 30
0.0
 11
1161.898082187778
 21
380.9382987635918
 31
0.0
  0
LINE
  5
171
330
23
100
AcDbEntity
  8
SANINDUSA
100
AcDbLine
 10
1161.451670496172
 20
380.964581848938
 30
0.0
 11
1161.472599273926
 21
380.9662941413709
 31
0.0
  0
LWPOLYLINE
  5
172
330
23
100
AcDbEntity
  8
SANINDUSA
100
AcDbPolyline
 90
        8
 70
   128
 43
0.0
 10
1161.465435063845
 20
380.9391675012894
 10
1161.466419151432
 20
380.9379049855061
 10
1161.467399916059
 20
380.9361737685986
 10
1161.468349701173
 20
380.9340060966798
 10
1161.469231551892
 20
380.931475879509
 10
1161.470008364326
 20
380.9286685305425
 10
1161.470659679181
 20
380.9256510454007
 10
1161.471190279729
 20
380.9222713130303
  0
LWPOLYLINE
  5
173
330
23
100
AcDbEntity
  8
SANINDUSA
100
AcDbPolyline
 90
        3
 70
   128
 43
0.0
 10
1161.45554926098
 20
380.949404271204
 10
1161.460126599676
 20
380.944666953642
 10
1161.465435063845
 20
380.9391675012894
  0
ARC
  5
174
330
23
100
AcDbEntity
  8
SANINDUSA
100
AcDbCircle
 10
1164.515520433257
 20
381.3106016463024
 30
0.0
 40
3.068997642785319
100
AcDbArc
 50
187.2693093022208
 51
192.0139968664668
  0
LWPOLYLINE
  5
175
330
23
100
AcDbEntity
  8
SANINDUSA
100
AcDbPolyline
 90
        7
 70
   128
 43
0.0
 10
1161.515343433625
 20
380.6336856129356
 10
1161.515957957512
 20
380.6349160241671
 10
1161.5166058451
 20
380.6381144317575
 10
1161.516843190796
 20
380.6437107491084
 10
1161.51657851637
 20
380.6493162977286
 10
1161.515636584169
 20
380.6588646339961
 10
1161.513743719465
 20
380.6717878299542
  0
LINE
  5
176
330
23
100
AcDbEntity
  8
SANINDUSA
100
AcDbLine
 10
1161.513532838232
 20
380.6317736821957
 30
0.0
 11
1161.330262141448
 21
380.6317736821957
 31
0.0
  0
ARC
  5
177
330
23
100
AcDbEntity
  8
SANINDUSA
100
AcDbCircle
 10
1161.456813678388
 20
380.9392275745846
 30
0.0
 40
0.0086215947481671
100
AcDbArc
 50
276.675013309761
 51
359.6007729173935
  0
ARC
  5
178
330
23
100
AcDbEntity
  8
SANINDUSA
100
AcDbCircle
 10
1161.813935575435
 20
380.6337736857569
 30
0.0
 40
0.0020000000000083
100
AcDbArc
 50
270.0
 51
337.1367434384702
  0
LINE
  5
179
330
23
100
AcDbEntity
  8
SANINDUSA
100
AcDbLine
 10
1161.813935568935
 20
380.6317736821957
 30
0.0
 11
1161.518328255421
 21
380.6317736821957
 31
0.0
  0
LWPOLYLINE
  5
17A
330
23
100
AcDbEntity
  8
SANINDUSA
100
AcDbPolyline
 90
        5
 70
   128
 43
0.0
 10
1161.330262141448
 20
380.929754407961
 10
1161.36426582039
 20
380.9297589975186
 10
1161.398273235566
 20
380.9299363511391
 10
1161.428049361712
 20
380.9302339571305
 10
1161.457815831906
 20
380.9306644218751
  0
LINE
  5
17B
330
23
100
AcDbEntity
  8
SANINDUSA
100
AcDbLine
 10
1161.328262141353
 20
380.920325280983
 30
0.0
 11
1161.328262141353
 21
380.9278686064072
 31
0.0
  0
ARC
  5
17C
330
23
100
AcDbEntity
  8
SANINDUSA
100
AcDbCircle
 10
1161.390262004694
 20
380.871773700565
 30
0.0
 40
0.0109995729568157
100
AcDbArc
 50
88.66143106495311
 51
271.3869197149776
  0
ARC
  5
17D
330
23
100
AcDbEntity
  8
SANINDUSA
100
AcDbCircle
 10
1161.390262247633
 20
380.8717737006675
 30
0.0
 40
0.0109995671819053
100
AcDbArc
 50
271.3856546299794
 51
88.66269616363075
  0
LINE
  5
17E
330
23
100
AcDbEntity
  8
SANINDUSA
100
AcDbLine
 10
1161.328262141353
 20
380.6337736862488
 30
0.0
 11
1161.328262141353
 21
380.920325280983
 31
0.0
  0
ARC
  5
17F
330
23
100
AcDbEntity
  8
SANINDUSA
100
AcDbCircle
 10
1161.330262141353
 20
380.6337736857569
 30
0.0
 40
0.002
100
AcDbArc
 50
180.0
 51
270.0
  0
ARC
  5
180
330
23
100
AcDbEntity
  8
SANINDUSA
100
AcDbCircle
 10
1161.519328209347
 20
380.6332283094974
 30
0.0
 40
0.0040109305647169
100
AcDbArc
 50
173.4532253749845
 51
201.2640018440863
  0
LINE
  5
181
330
23
100
AcDbEntity
  8
SANINDUSA
100
AcDbLine
 10
1161.518328255421
 20
380.6317736821957
 30
0.0
 11
1161.515590345866
 21
380.6317736821957
 31
0.0
  0
LINE
  5
182
330
23
100
AcDbEntity
  8
SANINDUSA
100
AcDbLine
 10
1161.515590345866
 20
380.6317736821957
 30
0.0
 11
1161.513532838232
 21
380.6317736821957
 31
0.0
  0
LINE
  5
183
330
23
100
AcDbEntity
  8
SANINDUSA
100
AcDbLine
 10
1161.328262141353
 20
380.9278686064072
 30
0.0
 11
1161.328262141353
 21
380.94977367099
 31
0.0
  0
ARC
  5
184
330
23
100
AcDbEntity
  8
SANINDUSA
100
AcDbCircle
 10
1161.164481502379
 20
380.5955700212432
 30
0.0
 40
0.4581693099089816
100
AcDbArc
 50
50.5589280830938
 51
52.32220446069835
  0
ARC
  5
185
330
23
100
AcDbEntity
  8
SANINDUSA
100
AcDbCircle
 10
1161.452366145634
 20
380.9566121979169
 30
0.0
 40
0.0079999540981898
100
AcDbArc
 50
94.98855118108176
 51
168.6038802406419
  0
ARC
  5
186
330
23
100
AcDbEntity
  8
SANINDUSA
100
AcDbCircle
 10
1160.381868805151
 20
380.5748064748177
 30
0.0
 40
0.4169422469619767
100
AcDbArc
 50
63.58808800063069
 51
77.2509406459026
  0
ARC
  5
187
330
23
100
AcDbEntity
  8
SANINDUSA
100
AcDbCircle
 10
1160.382540652564
 20
380.5720267366772
 30
0.0
 40
0.4198625154983562
100
AcDbArc
 50
102.784681755354
 51
116.3567686560114
  0
ARC
  5
188
330
23
100
AcDbEntity
  8
SANINDUSA
100
AcDbCircle
 10
1160.40914345017
 20
380.7115696131536
 30
0.0
 40
0.2775710903260408
100
AcDbArc
 50
76.51143604425083
 51
79.13998239014839
  0
LWPOLYLINE
  5
189
330
23
100
AcDbEntity
  8
SANINDUSA
100
AcDbPolyline
 90
        3
 70
   128
 43
0.0
 10
1160.301766928847
 20
380.9840853476719
 10
1160.294493739123
 20
380.9825714791016
 10
1160.289635178263
 20
380.9814606273369
  0
ARC
  5
18A
330
23
100
AcDbEntity
  8
SANINDUSA
100
AcDbCircle
 10
1160.521063317347
 20
380.9732502360218
 30
0.0
 40
0.0069735977945258
100
AcDbArc
 50
175.6201032679837
 51
208.6712598375142
  0
ARC
  5
18B
330
23
100
AcDbEntity
  8
SANINDUSA
100
AcDbCircle
 10
1160.242452225189
 20
380.9732515301509
 30
0.0
 40
0.0069712933704478
100
AcDbArc
 50
331.4360197914935
 51
3.986940720956372
  0
ARC
  5
18C
330
23
100
AcDbEntity
  8
SANINDUSA
100
AcDbCircle
 10
1160.563975921927
 20
380.9412091510574
 30
0.0
 40
0.0077800513873877
100
AcDbArc
 50
359.7475831597113
 51
64.1785875736832
  0
ARC
  5
18D
330
23
100
AcDbEntity
  8
SANINDUSA
100
AcDbCircle
 10
1160.199658423378
 20
380.9411692095545
 30
0.0
 40
0.007901272328568
100
AcDbArc
 50
116.2579092182389
 51
179.9529661190009
  0
ARC
  5
18E
330
23
100
AcDbEntity
  8
SANINDUSA
100
AcDbCircle
 10
1160.409476878329
 20
380.7518856935354
 30
0.0
 40
0.2379971147598573
100
AcDbArc
 50
77.40428693833301
 51
81.52974630356196
  0
ARC
  5
18F
330
23
100
AcDbEntity
  8
SANINDUSA
100
AcDbCircle
 10
1160.351521203498
 20
380.7649265180711
 30
0.0
 40
0.2247250469185523
100
AcDbArc
 50
98.59121817804519
 51
102.7755985816377
  0
ARC
  5
190
330
23
100
AcDbEntity
  8
SANINDUSA
100
AcDbCircle
 10
1160.381118797883
 20
380.6125907092369
 30
0.0
 40
0.3444418428338853
100
AcDbArc
 50
66.73617524605688
 51
89.89391778218905
  0
ARC
  5
191
330
23
100
AcDbEntity
  8
SANINDUSA
100
AcDbCircle
 10
1160.382394254213
 20
380.6125907092369
 30
0.0
 40
0.3444418428339006
100
AcDbArc
 50
90.10608221781096
 51
113.2638247539431
  0
ARC
  5
192
330
23
100
AcDbEntity
  8
SANINDUSA
100
AcDbCircle
 10
1160.381883418268
 20
380.5106141810643
 30
0.0
 40
0.4185030224736559
100
AcDbArc
 50
75.02631618256694
 51
90.01737237110047
  0
ARC
  5
193
330
23
100
AcDbEntity
  8
SANINDUSA
100
AcDbCircle
 10
1160.381629633828
 20
380.5106141810643
 30
0.0
 40
0.4185030224736585
100
AcDbArc
 50
89.9826276288995
 51
104.973683817433
  0
LWPOLYLINE
  5
194
330
23
100
AcDbEntity
  8
SANINDUSA
100
AcDbPolyline
 90
       26
 70
   128
 43
0.0
 10
1160.529092576916
 20
380.9097643012003
 10
1160.527776104028
 20
380.871792774816
 10
1160.52549230736
 20
380.8338446283535
 10
1160.522229414994
 20
380.7959610486225
 10
1160.51797572952
 20
380.7581831777291
 10
1160.512719479019
 20
380.7205522322849
 10
1160.511030447299
 20
380.7093043589787
 10
1160.509267028982
 20
380.6980236435131
 10
1160.507227402742
 20
380.6867964828209
 10
1160.504709695096
 20
380.6757092738346
 10
1160.501512062366
 20
380.6648483836846
 10
1160.49743263107
 20
380.6543002093033
 10
1160.492676746661
 20
380.6446889603332
 10
1160.487109955961
 20
380.6354782843785
 10
1160.480795171673
 20
380.6267629826264
 10
1160.4737953214
 20
380.6186379456715
 10
1160.466124531443
 20
380.6111378336148
 10
1160.457819764132
 20
380.6042856240467
 10
1160.448971544022
 20
380.598151531239
 10
1160.439670406843
 20
380.592805769463
 10
1160.429963674957
 20
380.5882876777844
 10
1160.419872619773
 20
380.5845945143894
 10
1160.409506945501
 20
380.5817635917858
 10
1160.398976360077
 20
380.5798321628765
 10
1160.390386969412
 20
380.5789404773907
 10
1160.381756526048
 20
380.5786418581204
  0
LWPOLYLINE
  5
195
330
23
100
AcDbEntity
  8
SANINDUSA
100
AcDbPolyline
 90
       26
 70
   128
 43
0.0
 10
1160.23442047518
 20
380.9097643012003
 10
1160.235736948068
 20
380.871792774816
 10
1160.238020744736
 20
380.8338446283535
 10
1160.241283637101
 20
380.7959610486225
 10
1160.245537322576
 20
380.7581831777291
 10
1160.250793573077
 20
380.7205522322849
 10
1160.252482604797
 20
380.7093043589787
 10
1160.254246023113
 20
380.6980236435131
 10
1160.256285649354
 20
380.6867964828209
 10
1160.258803357
 20
380.6757092738346
 10
1160.26200098973
 20
380.6648483836846
 10
1160.266080421026
 20
380.6543002093033
 10
1160.270836305434
 20
380.6446889603332
 10
1160.276403096134
 20
380.6354782843785
 10
1160.282717880423
 20
380.6267629826264
 10
1160.289717730696
 20
380.6186379456715
 10
1160.297388520653
 20
380.6111378336148
 10
1160.305693287964
 20
380.6042856240467
 10
1160.314541508074
 20
380.598151531239
 10
1160.323842645253
 20
380.592805769463
 10
1160.333549377138
 20
380.5882876777844
 10
1160.343640432323
 20
380.5845945143894
 10
1160.354006106595
 20
380.5817635917858
 10
1160.364536692018
 20
380.5798321628765
 10
1160.373126082683
 20
380.5789404773907
 10
1160.381756526048
 20
380.5786418581204
  0
LWPOLYLINE
  5
196
330
23
100
AcDbEntity
  8
SANINDUSA
100
AcDbPolyline
 90
       22
 70
   128
 43
0.0
 10
1160.381756526048
 20
380.6163049900726
 10
1160.392402788254
 20
380.6169035101131
 10
1160.402953787337
 20
380.6186487937168
 10
1160.413223703022
 20
380.6215141976074
 10
1160.423636589761
 20
380.6257306003765
 10
1160.433540791834
 20
380.6311093533234
 10
1160.44275103193
 20
380.6375422740178
 10
1160.451101165826
 20
380.6449077093796
 10
1160.458610449548
 20
380.653175618668
 10
1160.465141069705
 20
380.6621938014225
 10
1160.470633123631
 20
380.6719137692646
 10
1160.475028496797
 20
380.6822145545677
 10
1160.478238050456
 20
380.6929070019917
 10
1160.481883805806
 20
380.7098924482064
 10
1160.484877471442
 20
380.7270117664532
 10
1160.487421934123
 20
380.7442189121441
 10
1160.489720058257
 20
380.7614679002957
 10
1160.491974730606
 20
380.7787127459244
 10
1160.497190390343
 20
380.821088072081
 10
1160.5015631957
 20
380.8635567689137
 10
1160.502952177639
 20
380.8791681790546
 10
1160.504155476207
 20
380.894783776422
  0
LWPOLYLINE
  5
197
330
23
100
AcDbEntity
  8
SANINDUSA
100
AcDbPolyline
 90
       22
 70
   128
 43
0.0
 10
1160.381756526048
 20
380.6163049900726
 10
1160.371110263842
 20
380.6169035101131
 10
1160.360559264759
 20
380.6186487937168
 10
1160.350289349074
 20
380.6215141976074
 10
1160.339876462335
 20
380.6257306003765
 10
1160.329972260262
 20
380.6311093533234
 10
1160.320762020166
 20
380.6375422740178
 10
1160.31241188627
 20
380.6449077093796
 10
1160.304902602548
 20
380.653175618668
 10
1160.298371982391
 20
380.6621938014225
 10
1160.292879928465
 20
380.6719137692646
 10
1160.288484555299
 20
380.6822145545677
 10
1160.28527500164
 20
380.6929070019917
 10
1160.28162924629
 20
380.7098924482064
 10
1160.278635580654
 20
380.7270117664532
 10
1160.276091117973
 20
380.7442189121441
 10
1160.273792993838
 20
380.7614679002957
 10
1160.27153832149
 20
380.7787127459244
 10
1160.266322661752
 20
380.821088072081
 10
1160.261949856395
 20
380.8635567689137
 10
1160.260560874457
 20
380.8791681790546
 10
1160.259357575888
 20
380.894783776422
  0
ARC
  5
198
330
23
100
AcDbEntity
  8
SANINDUSA
100
AcDbCircle
 10
1160.508871039326
 20
380.9105666300396
 30
0.0
 40
0.0202374483091587
100
AcDbArc
 50
357.7278703018373
 51
65.81669806770161
  0
ARC
  5
199
330
23
100
AcDbEntity
  8
SANINDUSA
100
AcDbCircle
 10
1160.25464201277
 20
380.9105666300396
 30
0.0
 40
0.0202374483091434
100
AcDbArc
 50
114.1833019322984
 51
182.2721296981626
  0
LINE
  5
19A
330
23
100
AcDbEntity
  8
SANINDUSA
100
AcDbLine
 10
1160.25397777241
 20
381.1087680721478
 30
0.0
 11
1160.509535279686
 21
381.1087680721478
 31
0.0
  0
CIRCLE
  5
19B
330
23
100
AcDbEntity
  8
SANINDUSA
100
AcDbCircle
 10
1160.381756519357
 20
381.0367680715219
 30
0.0
 40
0.017500001937152
  0
LWPOLYLINE
  5
19C
330
23
100
AcDbEntity
  8
SANINDUSA
100
AcDbPolyline
 90
       28
 70
   128
 43
0.0
 10
1160.381756526048
 20
380.5337680840687
 10
1160.391311732682
 20
380.5340384507374
 10
1160.400836432914
 20
380.5348478818134
 10
1160.414896693642
 20
380.5370568299488
 10
1160.428770796026
 20
380.5404523873524
 10
1160.442313585992
 20
380.5449925923542
 10
1160.455379907603
 20
380.5506354832844
 10
1160.46791644078
 20
380.5573739075855
 10
1160.47988453191
 20
380.5651704931454
 10
1160.491161097402
 20
380.5739375615315
 10
1160.501623068566
 20
380.5835873747067
 10
1160.511222016627
 20
380.5940950775341
 10
1160.519934382851
 20
380.6054131055073
 10
1160.527673077399
 20
380.6174178981976
 10
1160.534351002986
 20
380.629985954781
 10
1160.538848411853
 20
380.6405186915593
 10
1160.542549606974
 20
380.6513752901749
 10
1160.545591574724
 20
380.6624751651482
 10
1160.548111301477
 20
380.6737377608017
 10
1160.550245758707
 20
380.6850824320511
 10
1160.552131947691
 20
380.6964286530213
 10
1160.557743814404
 20
380.7345810497002
 10
1160.562417474205
 20
380.7728716099457
 10
1160.566149082596
 20
380.8112654650406
 10
1160.56893483978
 20
380.8497277164654
 10
1160.57046821397
 20
380.8800421172575
 10
1160.571415301974
 20
380.910383176227
 10
1160.571755525286
 20
380.9407339507536
  0
LWPOLYLINE
  5
19D
330
23
100
AcDbEntity
  8
SANINDUSA
100
AcDbPolyline
 90
       28
 70
   128
 43
0.0
 10
1160.381756526048
 20
380.5337680840687
 10
1160.372216572615
 20
380.5340373778538
 10
1160.362676619182
 20
380.5348478818134
 10
1160.348789766992
 20
380.5370134973721
 10
1160.335130230153
 20
380.5403228664593
 10
1160.321411394144
 20
380.5449024701313
 10
1160.308133144493
 20
380.5506354832844
 10
1160.295745913501
 20
380.557275679131
 10
1160.283951763625
 20
380.5649198556141
 10
1160.272522103602
 20
380.5737823510365
 10
1160.26188998353
 20
380.5835873747067
 10
1160.252399396712
 20
380.593952980061
 10
1160.243800696547
 20
380.6050696635441
 10
1160.235949140603
 20
380.617215123196
 10
1160.22916204911
 20
380.629985954781
 10
1160.22462162059
 20
380.6403769219116
 10
1160.220782261903
 20
380.6510603988365
 10
1160.217669781859
 20
380.6619645023541
 10
1160.215192925746
 20
380.6733729505733
 10
1160.213202115709
 20
380.6848862433628
 10
1160.211381104405
 20
380.6964286530213
 10
1160.205774125273
 20
380.7345403993324
 10
1160.201104637796
 20
380.7727784180836
 10
1160.197367843802
 20
380.8112129235462
 10
1160.194578212316
 20
380.8497277164654
 10
1160.192508932764
 20
380.8951912784771
 10
1160.191962507183
 20
380.9179598802523
 10
1160.19175752681
 20
380.9407339507536
  0
LWPOLYLINE
  5
19E
330
23
100
AcDbEntity
  8
SANINDUSA
100
AcDbPolyline
 90
        3
 70
   128
 43
0.0
 10
1160.571755525286
 20
380.9407339507536
 10
1160.57175583821
 20
380.9410890156225
 10
1160.571755897815
 20
380.9411748761133
  0
LWPOLYLINE
  5
19F
330
23
100
AcDbEntity
  8
SANINDUSA
100
AcDbPolyline
 90
        3
 70
   128
 43
0.0
 10
1160.19175752681
 20
380.9407339507536
 10
1160.191757213886
 20
380.9410890156225
 10
1160.191757154281
 20
380.9411748761133
  0
ARC
  5
1A0
330
23
100
AcDbEntity
  8
SANINDUSA
100
AcDbCircle
 10
1158.127503169524
 20
381.0903504871626
 30
0.0
 40
2.389424176959427
100
AcDbArc
 50
357.2037513090391
 51
0.3939948741757797
  0
ARC
  5
1A1
330
23
100
AcDbEntity
  8
SANINDUSA
100
AcDbCircle
 10
1162.636009882572
 20
381.0903504871626
 30
0.0
 40
2.389424176959517
100
AcDbArc
 50
179.6060051258242
 51
182.7962486909608
  0
ARC
  5
1A2
330
23
100
AcDbEntity
  8
SANINDUSA
100
AcDbCircle
 10
1160.514870890259
 20
381.1067680721478
 30
0.0
 40
0.0020000000000001
100
AcDbArc
 50
0.3775690874586683
 51
90.0
  0
LINE
  5
1A3
330
23
100
AcDbEntity
  8
SANINDUSA
100
AcDbLine
 10
1160.514870893771
 20
381.1087680721478
 30
0.0
 11
1160.509535279686
 21
381.1087680721478
 31
0.0
  0
ARC
  5
1A4
330
23
100
AcDbEntity
  8
SANINDUSA
100
AcDbCircle
 10
1160.248642161837
 20
381.1067680721478
 30
0.0
 40
0.0020000000000001
100
AcDbArc
 50
90.0
 51
179.6224309125413
  0
LINE
  5
1A5
330
23
100
AcDbEntity
  8
SANINDUSA
100
AcDbLine
 10
1160.248642158324
 20
381.1087680721478
 30
0.0
 11
1160.25397777241
 21
381.1087680721478
 31
0.0
  0
ARC
  5
1A6
330
23
100
AcDbEntity
  8
SANINDUSA
100
AcDbCircle
 10
1160.483562304983
 20
380.8950963992331
 30
0.0
 40
0.0205955440349757
100
AcDbArc
 50
359.1302654808792
 51
71.85163153665984
  0
ARC
  5
1A7
330
23
100
AcDbEntity
  8
SANINDUSA
100
AcDbCircle
 10
1160.279950747113
 20
380.8950963992331
 30
0.0
 40
0.0205955440350285
100
AcDbArc
 50
108.1483684633401
 51
180.8697345191208
  0
ARC
  5
1A8
330
23
100
AcDbEntity
  8
SANINDUSA
100
AcDbCircle
 10
1160.381517450674
 20
380.6095034315555
 30
0.0
 40
0.3830029423977908
100
AcDbArc
 50
80.53007403657733
 51
89.96423523777114
  0
ARC
  5
1A9
330
23
100
AcDbEntity
  8
SANINDUSA
100
AcDbCircle
 10
1160.382067420552
 20
380.6075086075013
 30
0.0
 40
0.3849978173622826
100
AcDbArc
 50
90.04626765550113
 51
99.58655100103952
  0
ARC
  5
1AA
330
23
100
AcDbEntity
  8
SANINDUSA
100
AcDbCircle
 10
1161.400262140116
 20
381.0471004498054
 30
0.0
 40
0.0971053238833339
100
AcDbArc
 50
259.0171729426801
 51
280.9828270573198
  0
LINE
  5
1AB
330
23
100
AcDbEntity
  8
SANINDUSA
100
AcDbLine
 10
1162.028853985612
 20
380.9417736651483
 30
0.0
 11
1162.046893274903
 21
380.9417736651483
 31
0.0
  0
ARC
  5
1AC
330
23
100
AcDbEntity
  8
SANINDUSA
100
AcDbCircle
 10
1162.028853985612
 20
380.9407736651484
 30
0.0
 40
0.001
100
AcDbArc
 50
90.0
 51
180.0
  0
LINE
  5
1AD
330
23
100
AcDbEntity
  8
SANINDUSA
100
AcDbLine
 10
1162.036849814986
 20
380.6427387727748
 30
0.0
 11
1162.037533994788
 21
380.6623311023546
 31
0.0
  0
ARC
  5
1AE
330
23
100
AcDbEntity
  8
SANINDUSA
100
AcDbCircle
 10
1162.036534603962
 20
380.6623660018807
 30
0.0
 40
0.001
100
AcDbArc
 50
357.9999983144427
 51
95.00000144734938
  0
LINE
  5
1AF
330
23
100
AcDbEntity
  8
SANINDUSA
100
AcDbLine
 10
1162.027853985612
 20
380.9340000476518
 30
0.0
 11
1162.027853985612
 21
380.9407736651484
 31
0.0
  0
ARC
  5
1B0
330
23
100
AcDbEntity
  8
SANINDUSA
100
AcDbCircle
 10
1162.028853985612
 20
380.9340000476518
 30
0.0
 40
0.001
100
AcDbArc
 50
180.0
 51
265.0000241709516
  0
ARC
  5
1B1
330
23
100
AcDbEntity
  8
SANINDUSA
100
AcDbCircle
 10
1162.062091962581
 20
380.9357736758621
 30
0.0
 40
0.015
100
AcDbArc
 50
161.7900835231528
 51
177.9999999995013
  0
ARC
  5
1B2
330
23
100
AcDbEntity
  8
SANINDUSA
100
AcDbCircle
 10
1162.046893274903
 20
380.9407736651484
 30
0.0
 40
0.001
100
AcDbArc
 50
341.7900835231528
 51
90.0
  0
LINE
  5
1B3
330
23
100
AcDbEntity
  8
SANINDUSA
100
AcDbLine
 10
1162.046967378157
 20
380.9324678742271
 30
0.0
 11
1162.047101100726
 21
380.936297180533
 31
0.0
  0
LINE
  5
1B4
330
23
100
AcDbEntity
  8
SANINDUSA
100
AcDbLine
 10
1162.04588083201
 20
380.9315065790529
 30
0.0
 11
1162.02876683029
 21
380.933003852917
 31
0.0
  0
ARC
  5
1B5
330
23
100
AcDbEntity
  8
SANINDUSA
100
AcDbCircle
 10
1162.045967987333
 20
380.9325027737878
 30
0.0
 40
0.001
100
AcDbArc
 50
265.0000241709516
 51
357.9999963299329
  0
ARC
  5
1B6
330
23
100
AcDbEntity
  8
SANINDUSA
100
AcDbCircle
 10
1162.016853985612
 20
380.6539452487373
 30
0.0
 40
0.0130000000000001
100
AcDbArc
 50
0.0
 51
33.46837456740871
  0
ARC
  5
1B7
330
23
100
AcDbEntity
  8
SANINDUSA
100
AcDbCircle
 10
1162.028532650464
 20
380.6616659214597
 30
0.0
 40
0.001
100
AcDbArc
 50
95.00000144734938
 51
213.4683745674087
  0
ARC
  5
1B8
330
23
100
AcDbEntity
  8
SANINDUSA
100
AcDbCircle
 10
1162.016853985612
 20
380.6496021029868
 30
0.0
 40
0.0130000000000001
100
AcDbArc
 50
330.807522363307
 51
0.0
  0
ARC
  5
1B9
330
23
100
AcDbEntity
  8
SANINDUSA
100
AcDbCircle
 10
1162.029075791304
 20
380.6427736723009
 30
0.0
 40
0.001
100
AcDbArc
 50
150.807522363307
 51
270.0
  0
LINE
  5
1BA
330
23
100
AcDbEntity
  8
SANINDUSA
100
AcDbLine
 10
1162.029853985707
 20
380.649602099556
 30
0.0
 11
1162.029853985707
 21
380.6539452516022
 31
0.0
  0
LINE
  5
1BB
330
23
100
AcDbEntity
  8
SANINDUSA
100
AcDbLine
 10
1162.028445494696
 20
380.6626621161555
 30
0.0
 11
1162.036447448194
 21
380.6633621965766
 31
0.0
  0
LINE
  5
1BC
330
23
100
AcDbEntity
  8
SANINDUSA
100
AcDbLine
 10
1162.029075791304
 20
380.6417736723009
 30
0.0
 11
1162.03585042416
 21
380.6417736723009
 31
0.0
  0
ARC
  5
1BD
330
23
100
AcDbEntity
  8
SANINDUSA
100
AcDbCircle
 10
1162.03585042416
 20
380.6427736723009
 30
0.0
 40
0.001
100
AcDbArc
 50
270.0
 51
357.9999983144427
  0
LWPOLYLINE
  5
1BE
330
23
100
AcDbEntity
  8
SANINDUSA
100
AcDbPolyline
 90
       20
 70
   128
 43
0.0
 10
1160.381753675031
 20
380.904758559991
 10
1160.386881356943
 20
380.9043804402175
 10
1160.392009038856
 20
380.9032212138372
 10
1160.397404345278
 20
380.9010651802026
 10
1160.402506955569
 20
380.8979545673603
 10
1160.406932066705
 20
380.8941176416761
 10
1160.410766189971
 20
380.8894734660524
 10
1160.413736205486
 20
380.8843323032048
 10
1160.415872383329
 20
380.8786128259837
 10
1160.417013528338
 20
380.8727068838414
 10
1160.417151524566
 20
380.8665195201107
 10
1160.416244409108
 20
380.8605913258677
 10
1160.41424952875
 20
380.8547340969725
 10
1160.411493146871
 20
380.8496908160376
 10
1160.407835978595
 20
380.8450472712331
 10
1160.403536912218
 20
380.8411455285419
 10
1160.398512703373
 20
380.8379211648316
 10
1160.393104495181
 20
380.8356086862316
 10
1160.387224874674
 20
380.8341870667923
 10
1160.381753675031
 20
380.8337681896876
  0
LWPOLYLINE
  5
1BF
330
23
100
AcDbEntity
  8
SANINDUSA
100
AcDbPolyline
 90
       20
 70
   128
 43
0.0
 10
1160.381753675031
 20
380.904758559991
 10
1160.376625993119
 20
380.9043804402175
 10
1160.371498311207
 20
380.9032212138372
 10
1160.366103004784
 20
380.9010651802026
 10
1160.361000394493
 20
380.8979545673603
 10
1160.356575283357
 20
380.8941176416761
 10
1160.352741160091
 20
380.8894734660524
 10
1160.349771144576
 20
380.8843323032048
 10
1160.347634966733
 20
380.8786128259837
 10
1160.346493821724
 20
380.8727068838414
 10
1160.346355825496
 20
380.8665195201107
 10
1160.347262940954
 20
380.8605913258677
 10
1160.349257821312
 20
380.8547340969725
 10
1160.352014203192
 20
380.8496908160376
 10
1160.355671371468
 20
380.8450472712331
 10
1160.359970437844
 20
380.8411455285419
 10
1160.36499464669
 20
380.8379211648316
 10
1160.370402854881
 20
380.8356086862316
 10
1160.376282475388
 20
380.8341870667923
 10
1160.381753675031
 20
380.8337681896876
  0
CIRCLE
  5
1C0
330
23
100
AcDbEntity
  8
SANINDUSA
100
AcDbCircle
 10
-1160.381753675031
 20
380.8687681896877
 30
0.0000000000040867
 40
0.0235000000000002
210
0.0000000000000035
220
0.0000000000000001
230
-1.0
  0
LWPOLYLINE
  5
1C1
330
23
100
AcDbEntity
  8
SANINDUSA
100
AcDbPolyline
 90
       44
 70
   128
 43
0.0
 10
1162.555170361935
 20
380.946361236149
 10
1162.554835897618
 20
380.9463805328064
 10
1162.554484140266
 20
380.9463875141266
 10
1162.554088077315
 20
380.9463856256411
 10
1162.553294746944
 20
380.9463751139142
 10
1162.552437814261
 20
380.9463662918156
 10
1162.551361163374
 20
380.9463562328609
 10
1162.549799343504
 20
380.9463435127946
 10
1162.547938626246
 20
380.946330944109
 10
1162.545777566834
 20
380.9463194805598
 10
1162.543315898462
 20
380.9463100922074
 10
1162.540551573431
 20
380.9463037526711
 10
1162.537488137633
 20
380.9463016307269
 10
1162.534172614329
 20
380.9463051107872
 10
1162.530601755443
 20
380.9463147575008
 10
1162.526768584605
 20
380.9463311739707
 10
1162.522681671166
 20
380.9463549555841
 10
1162.518350355529
 20
380.9463866892476
 10
1162.513784783136
 20
380.9464269490989
 10
1162.508995872494
 20
380.9464762921648
 10
1162.50399525308
 20
380.9465352541866
 10
1162.498795177637
 20
380.9466043458466
 10
1162.493408699471
 20
380.9466840451404
 10
1162.487848922985
 20
380.946774803421
 10
1162.482129151125
 20
380.946877041125
 10
1162.476262739716
 20
380.9469911476723
 10
1162.470985657341
 20
380.9471041077681
 10
1162.465347145282
 20
380.9472412897603
 10
1162.459507178196
 20
380.9473963266822
 10
1162.453195081513
 20
380.9475723347508
 10
1162.446271872574
 20
380.9477678484175
 10
1162.438487246957
 20
380.9479808681814
 10
1162.429332777747
 20
380.948207375391
 10
1162.41736521906
 20
380.9484403442998
 10
1162.3990459534
 20
380.9486675619842
 10
1162.380067303461
 20
380.9487724990289
 10
1162.360167621952
 20
380.9487800442025
 10
1162.339483565936
 20
380.9486942688923
 10
1162.31857211759
 20
380.9485242218226
 10
1162.297435009657
 20
380.948281345548
 10
1162.276080271411
 20
380.9479779841984
 10
1162.254518732802
 20
380.9476273864527
 10
1162.23276426398
 20
380.9472436897074
 10
1162.216909424487
 20
380.9469531898585
  0
LWPOLYLINE
  5
1C2
330
23
100
AcDbEntity
  8
SANINDUSA
100
AcDbPolyline
 90
       24
 70
   128
 43
0.0
 10
1162.194463697532
 20
380.9497936960952
 10
1162.194189658644
 20
380.9499405774423
 10
1162.190703641157
 20
380.9518055598348
 10
1162.187275068062
 20
380.9536526737179
 10
1162.183934279294
 20
380.9554657982124
 10
1162.180887214821
 20
380.9571318573721
 10
1162.17813491464
 20
380.9586478304327
 10
1162.175677197
 20
380.9600114493117
 10
1162.173510275056
 20
380.961222399844
 10
1162.171627285353
 20
380.9622820911376
 10
1162.170028996635
 20
380.9631877683908
 10
1162.168715980905
 20
380.9639368481169
 10
1162.168090919961
 20
380.9642953738512
 10
1162.167597575121
 20
380.9645799819199
 10
1162.167300871165
 20
380.9647584078352
 10
1162.166873328291
 20
380.9650295277379
 10
1162.166644791103
 20
380.9651736428953
 10
1162.166367113096
 20
380.9653388661152
 10
1162.166017381158
 20
380.9655275268454
 10
1162.165557709822
 20
380.9657416581493
 10
1162.164960189201
 20
380.9659652089195
 10
1162.164185810562
 20
380.9661694291742
 10
1162.163210034625
 20
380.9662991249086
 10
1162.162202248245
 20
380.9662791550277
  0
LWPOLYLINE
  5
1C3
330
23
100
AcDbEntity
  8
SANINDUSA
100
AcDbPolyline
 90
       14
 70
   128
 43
0.0
 10
1162.216908978683
 20
380.9469601008857
 10
1162.215874178665
 20
380.9469378834868
 10
1162.213130460368
 20
380.9469547711799
 10
1162.210440807184
 20
380.9470450961455
 10
1162.207824580588
 20
380.9472059033661
 10
1162.205302694096
 20
380.9474333946366
 10
1162.202973436555
 20
380.9477160133099
 10
1162.200839225429
 20
380.9480476123907
 10
1162.198921754232
 20
380.9484182934836
 10
1162.197321546372
 20
380.9487989819251
 10
1162.196043766053
 20
380.949171753413
 10
1162.195185791755
 20
380.9494751966657
 10
1162.194646137409
 20
380.9497044101251
 10
1162.194482198336
 20
380.9497882202327
  0
LWPOLYLINE
  5
1C4
330
23
100
AcDbEntity
  8
SANINDUSA
100
AcDbPolyline
 90
        3
 70
   128
 43
0.0
 10
1162.592853987698
 20
380.9276388245788
 10
1162.592577062563
 20
380.9218808450079
 10
1162.591738473644
 20
380.9161228654371
  0
ARC
  5
1C5
330
23
100
AcDbEntity
  8
SANINDUSA
100
AcDbCircle
 10
1162.554661203212
 20
380.9393900474781
 30
0.0
 40
0.0070000000098878
100
AcDbArc
 50
76.84025733186477
 51
162.635844557387
  0
ARC
  5
1C6
330
23
100
AcDbEntity
  8
SANINDUSA
100
AcDbCircle
 10
1161.178388625115
 20
381.1925312676974
 30
0.0
 40
1.429124780762934
100
AcDbArc
 50
337.3593224178537
 51
349.1262859707662
  0
ARC
  5
1C7
330
23
100
AcDbEntity
  8
SANINDUSA
100
AcDbCircle
 10
1162.496458041577
 20
380.6427736821957
 30
0.0
 40
0.001
100
AcDbArc
 50
270.0
 51
337.3593224178537
  0
LWPOLYLINE
  5
1C8
330
23
100
AcDbEntity
  8
SANINDUSA
100
AcDbPolyline
 90
        3
 70
   128
 43
0.0
 10
1162.547980212639
 20
380.9414791537713
 10
1162.535463316066
 20
380.9014499449324
 10
1162.510317066147
 20
380.8210318835655
  0
LINE
  5
1C9
330
23
100
AcDbEntity
  8
SANINDUSA
100
AcDbLine
 10
1162.592853987698
 20
380.9276388245788
 30
0.0
 11
1162.592853987698
 21
380.9315395288852
 31
0.0
  0
ARC
  5
1CA
330
23
100
AcDbEntity
  8
SANINDUSA
100
AcDbCircle
 10
1162.585853987698
 20
380.9315395288855
 30
0.0
 40
0.0070000000005064
100
AcDbArc
 50
0.0
 51
74.92932293451009
  0
ARC
  5
1CB
330
23
100
AcDbEntity
  8
SANINDUSA
100
AcDbCircle
 10
1162.451328341384
 20
380.786153949144
 30
0.0
 40
0.0050000000000001
100
AcDbArc
 50
4.999999999535611
 51
91.95136726326211
  0
ARC
  5
1CC
330
23
100
AcDbEntity
  8
SANINDUSA
100
AcDbCircle
 10
1162.486456362119
 20
380.8284929951355
 30
0.0
 40
0.0250000276513358
100
AcDbArc
 50
272.3222657553657
 51
342.6358219273042
  0
ARC
  5
1CD
330
23
100
AcDbEntity
  8
SANINDUSA
100
AcDbCircle
 10
1162.47168662615
 20
380.6337736821957
 30
0.0
 40
0.0020000000000002
100
AcDbArc
 50
184.9999999995356
 51
270.0
  0
LINE
  5
1CE
330
23
100
AcDbEntity
  8
SANINDUSA
100
AcDbLine
 10
1162.059909057149
 20
380.6317736821957
 30
0.0
 11
1162.47168662615
 21
380.6317736821957
 31
0.0
  0
LINE
  5
1CF
330
23
100
AcDbEntity
  8
SANINDUSA
100
AcDbLine
 10
1162.466951936356
 20
380.7917130953183
 30
0.0
 11
1162.487915091299
 21
380.7925225336417
 31
0.0
  0
ARC
  5
1D0
330
23
100
AcDbEntity
  8
SANINDUSA
100
AcDbCircle
 10
1162.466990520033
 20
380.7907138399457
 30
0.0
 40
0.001
100
AcDbArc
 50
92.21123071174297
 51
184.9999999995356
  0
ARC
  5
1D1
330
23
100
AcDbEntity
  8
SANINDUSA
100
AcDbCircle
 10
1162.079854145352
 20
380.8717737141167
 30
0.0
 40
0.0109999499304736
100
AcDbArc
 50
301.9501473644344
 51
125.8390866844592
  0
ARC
  5
1D2
330
23
100
AcDbEntity
  8
SANINDUSA
100
AcDbCircle
 10
1162.079853886173
 20
380.8717735399905
 30
0.0
 40
0.010999939340312
100
AcDbArc
 50
125.8374612475569
 51
301.9517728161805
  0
LINE
  5
1D3
330
23
100
AcDbEntity
  8
SANINDUSA
100
AcDbLine
 10
1162.456309314875
 20
380.7865897278578
 30
0.0
 11
1162.469694236754
 21
380.6335993707102
 31
0.0
  0
LWPOLYLINE
  5
1D4
330
23
100
AcDbEntity
  8
SANINDUSA
100
AcDbPolyline
 90
        4
 70
   128
 43
0.0
 10
1162.304097536747
 20
380.788046833185
 10
1162.356741072692
 20
380.788720159728
 10
1162.403950196472
 20
380.7897391176616
 10
1162.451158085385
 20
380.7911510495927
  0
LINE
  5
1D5
330
23
100
AcDbEntity
  8
SANINDUSA
100
AcDbLine
 10
1162.556254870499
 20
380.9462062212375
 30
0.0
 11
1162.587674060242
 21
380.938298769667
 31
0.0
  0
ARC
  5
1D6
330
23
100
AcDbEntity
  8
SANINDUSA
100
AcDbCircle
 10
1161.178390758078
 20
381.1925306705261
 30
0.0
 40
1.44012257805014
100
AcDbArc
 50
337.1367979823332
 51
348.9343558526686
  0
ARC
  5
1D7
330
23
100
AcDbEntity
  8
SANINDUSA
100
AcDbCircle
 10
1162.304179198837
 20
380.7780471666255
 30
0.0
 40
0.0100000000000001
100
AcDbArc
 50
90.46789451080899
 51
175.0000000004644
  0
LINE
  5
1D8
330
23
100
AcDbEntity
  8
SANINDUSA
100
AcDbLine
 10
1162.294217251856
 20
380.7789187240529
 30
0.0
 11
1162.291853987698
 21
380.751906491119
 31
0.0
  0
LINE
  5
1D9
330
23
100
AcDbEntity
  8
SANINDUSA
100
AcDbLine
 10
1162.291853987698
 20
380.751906491119
 30
0.0
 11
1162.281353987698
 21
380.751906491119
 31
0.0
  0
LINE
  5
1DA
330
23
100
AcDbEntity
  8
SANINDUSA
100
AcDbLine
 10
1162.281353987698
 20
380.751906491119
 30
0.0
 11
1162.281353987698
 21
380.7889695022295
 31
0.0
  0
LINE
  5
1DB
330
23
100
AcDbEntity
  8
SANINDUSA
100
AcDbLine
 10
1162.292853987698
 20
380.7989662997144
 30
0.0
 11
1162.281353987698
 21
380.7889695022295
 31
0.0
  0
SPLINE
  5
1DC
330
23
100
AcDbEntity
  8
SANINDUSA
100
AcDbSpline
210
0.0
220
0.0
230
1.0
 70
    12
 71
     3
 72
     9
 73
     5
 74
     0
 42
0.0000000001
 43
0.0000000001
 40
0.2802892266461365
 40
0.2802892266461365
 40
0.2802892266461365
 40
0.2802892266461365
 40
0.5600000000000001
 40
0.9112325579185174
 40
0.9112325579185174
 40
0.9112325579185174
 40
0.9112325579185174
 10
1162.292853987698
 20
380.7989662997144
 30
0.0
 41
1.0
 10
1162.321643747695
 20
380.7991450529979
 30
0.0
 41
1.0
 10
1162.386502257322
 20
380.8000395560982
 30
0.0
 41
1.0
 10
1162.451370093365
 20
380.8020495352565
 30
0.0
 41
1.0
 10
1162.487469365418
 20
380.8035134994063
 30
0.0
 41
1.0
  0
ARC
  5
1DD
330
23
100
AcDbEntity
  8
SANINDUSA
100
AcDbCircle
 10
1162.486456365611
 20
380.8284930052169
 30
0.0
 40
0.0360000375829753
100
AcDbArc
 50
272.3222673852437
 51
342.6358339989099
  0
ARC
  5
1DE
330
23
100
AcDbEntity
  8
SANINDUSA
100
AcDbCircle
 10
1162.50352742178
 20
380.6337736821957
 30
0.0
 40
0.002000000000034
100
AcDbArc
 50
270.0
 51
337.1367434354691
  0
LINE
  5
1DF
330
23
100
AcDbEntity
  8
SANINDUSA
100
AcDbLine
 10
1162.47168662615
 20
380.6317736821957
 30
0.0
 11
1162.50352742178
 21
380.6317736821957
 31
0.0
  0
LWPOLYLINE
  5
1E0
330
23
100
AcDbEntity
  8
SANINDUSA
100
AcDbPolyline
 90
        7
 70
   128
 43
0.0
 10
1162.581853987698
 20
380.9229341330336
 10
1162.581853987698
 20
380.9276900396787
 42
0.3436037337564684
 10
1162.581098421056
 20
380.9286597057726
 10
1162.558284166342
 20
380.9344107214166
 42
0.3978684613990046
 10
1162.557085305746
 20
380.9337394990267
 10
1162.54323277565
 20
380.8894389094137
 10
1162.520815779542
 20
380.8177490124626
  0
LINE
  5
1E1
330
23
100
AcDbEntity
  8
SANINDUSA
100
AcDbLine
 10
1162.496458041577
 20
380.6417736821957
 30
0.0
 11
1162.479933606717
 21
380.6417736821957
 31
0.0
  0
LINE
  5
1E2
330
23
100
AcDbEntity
  8
SANINDUSA
100
AcDbLine
 10
1162.465994325335
 20
380.7906266842028
 30
0.0
 11
1162.478937412018
 21
380.642686526453
 31
0.0
  0
ARC
  5
1E3
330
23
100
AcDbEntity
  8
SANINDUSA
100
AcDbCircle
 10
1162.479933606717
 20
380.6427736821957
 30
0.0
 40
0.001
100
AcDbArc
 50
184.9999999995356
 51
270.0
  0
LINE
  5
1E4
330
23
100
AcDbEntity
  8
SANINDUSA
100
AcDbLine
 10
1162.234353987698
 20
380.7889695022295
 30
0.0
 11
1162.221863617395
 21
380.7998272154847
 31
0.0
  0
LWPOLYLINE
  5
1E5
330
23
100
AcDbEntity
  8
SANINDUSA
100
AcDbPolyline
 90
       20
 70
   128
 43
0.0
 10
1162.221863617395
 20
380.7998272154847
 10
1162.222241737168
 20
380.7998177792337
 10
1162.223400963549
 20
380.7997894725551
 10
1162.225556997183
 20
380.7997393227548
 10
1162.228667610026
 20
380.7996726939626
 10
1162.23250453571
 20
380.7995998234073
 10
1162.237148711334
 20
380.7995253857546
 10
1162.242289874181
 20
380.7994605587757
 10
1162.248009351402
 20
380.7994101625089
 10
1162.253915293545
 20
380.7993828243612
 10
1162.260102657275
 20
380.7993741704968
 10
1162.266030851518
 20
380.7993546505426
 10
1162.271888080413
 20
380.7993112672829
 10
1162.276931361349
 20
380.7992552983674
 10
1162.281574906153
 20
380.7991886274836
 10
1162.285476648844
 20
380.7991213928801
 10
1162.288701012554
 20
380.7990581065719
 10
1162.291013491155
 20
380.7990084159143
 10
1162.292435110594
 20
380.7989760848968
 10
1162.292853987698
 20
380.7989662997144
  0
LINE
  5
1E6
330
23
100
AcDbEntity
  8
SANINDUSA
100
AcDbLine
 10
1162.14126234317
 20
380.964581858534
 30
0.0
 11
1162.162191115128
 21
380.9662941266
 31
0.0
  0
LINE
  5
1E7
330
23
100
AcDbEntity
  8
SANINDUSA
100
AcDbLine
 10
1162.108353987698
 20
380.9517736821957
 30
0.0
 11
1162.126273489195
 21
380.9517736821957
 31
0.0
  0
ARC
  5
1E8
330
23
100
AcDbEntity
  8
SANINDUSA
100
AcDbCircle
 10
1162.089853987698
 20
381.334971498553
 30
0.0
 40
0.3836441273641298
100
AcDbArc
 50
267.2360240292935
 51
272.7639759707065
  0
LINE
  5
1E9
330
23
100
AcDbEntity
  8
SANINDUSA
100
AcDbLine
 10
1162.019853987698
 20
380.9517736821957
 30
0.0
 11
1162.071353987698
 21
380.9517736821957
 31
0.0
  0
ARC
  5
1EA
330
23
100
AcDbEntity
  8
SANINDUSA
100
AcDbCircle
 10
1162.071353987698
 20
380.9507736821957
 30
0.0
 40
0.001
100
AcDbArc
 50
0.0
 51
90.0
  0
ARC
  5
1EB
330
23
100
AcDbEntity
  8
SANINDUSA
100
AcDbCircle
 10
1162.108353987698
 20
380.9507736821957
 30
0.0
 40
0.0010000000000002
100
AcDbArc
 50
90.0
 51
180.0
  0
LINE
  5
1EC
330
23
100
AcDbEntity
  8
SANINDUSA
100
AcDbLine
 10
1162.107353987698
 20
380.9407736821957
 30
0.0
 11
1162.107353987698
 21
380.9507736821957
 31
0.0
  0
ARC
  5
1ED
330
23
100
AcDbEntity
  8
SANINDUSA
100
AcDbCircle
 10
1162.089853987698
 20
381.3150084107444
 30
0.0
 40
0.374643673444394
100
AcDbArc
 50
267.3226796603591
 51
272.6773203396409
  0
LINE
  5
1EE
330
23
100
AcDbEntity
  8
SANINDUSA
100
AcDbLine
 10
1162.072353987698
 20
380.9507736821957
 30
0.0
 11
1162.072353987698
 21
380.9407736821957
 31
0.0
  0
LINE
  5
1EF
330
23
100
AcDbEntity
  8
SANINDUSA
100
AcDbLine
 10
1162.107353987698
 20
380.9407736821957
 30
0.0
 11
1162.12355659243
 21
380.9407736821957
 31
0.0
  0
LWPOLYLINE
  5
1F0
330
23
100
AcDbEntity
  8
SANINDUSA
100
AcDbPolyline
 90
        4
 70
   128
 43
0.0
 10
1162.070016584037
 20
380.9385858643018
 10
1162.069817932873
 20
380.938851074578
 10
1162.069183555021
 20
380.939099360411
 10
1162.068877374438
 20
380.9391757024061
  0
ARC
  5
1F1
330
23
100
AcDbEntity
  8
SANINDUSA
100
AcDbCircle
 10
1162.160115519963
 20
381.3418002355081
 30
0.0
 40
0.4128327916414143
100
AcDbArc
 50
256.264427048152
 51
257.2319267732624
  0
LINE
  5
1F2
330
23
100
AcDbEntity
  8
SANINDUSA
100
AcDbLine
 10
1162.062091964667
 20
380.9407736821957
 30
0.0
 11
1162.072353987698
 21
380.9407736821957
 31
0.0
  0
ARC
  5
1F3
330
23
100
AcDbEntity
  8
SANINDUSA
100
AcDbCircle
 10
1162.17431198599
 20
380.9317410738925
 30
0.0
 40
0.0010000000001694
100
AcDbArc
 50
281.2227704370934
 51
11.22277049010876
  0
ARC
  5
1F4
330
23
100
AcDbEntity
  8
SANINDUSA
100
AcDbCircle
 10
1161.795663991473
 20
380.8418276819048
 30
0.0
 40
0.3901762875161328
100
AcDbArc
 50
9.093014795280879
 51
13.35252608482782
  0
ARC
  5
1F5
330
23
100
AcDbEntity
  8
SANINDUSA
100
AcDbCircle
 10
1162.179956087391
 20
380.903295615215
 30
0.0
 40
0.0010000000004083
100
AcDbArc
 50
11.22277055973103
 51
101.2227704364595
  0
LINE
  5
1F6
330
23
100
AcDbEntity
  8
SANINDUSA
100
AcDbLine
 10
1162.179761463204
 20
380.9042764931005
 30
0.0
 11
1162.16995268435
 21
380.902330251238
 31
0.0
  0
ARC
  5
1F7
330
23
100
AcDbEntity
  8
SANINDUSA
100
AcDbCircle
 10
1161.776195443017
 20
380.8379647643512
 30
0.0
 40
0.3989833091810103
100
AcDbArc
 50
9.283740224139402
 51
13.16180065511935
  0
LINE
  5
1F8
330
23
100
AcDbEntity
  8
SANINDUSA
100
AcDbLine
 10
1162.164697831322
 20
380.9288139541446
 30
0.0
 11
1162.174506610176
 21
380.9307601960071
 31
0.0
  0
LINE
  5
1F9
330
23
100
AcDbEntity
  8
SANINDUSA
100
AcDbLine
 10
1162.169590100381
 20
380.9606768052603
 30
0.0
 11
1162.175292863875
 21
380.9319356980788
 31
0.0
  0
LINE
  5
1FA
330
23
100
AcDbEntity
  8
SANINDUSA
100
AcDbLine
 10
1162.197504879806
 20
380.8199903348742
 30
0.0
 11
1162.180936965276
 21
380.9034902394012
 31
0.0
  0
LINE
  5
1FB
330
23
100
AcDbEntity
  8
SANINDUSA
100
AcDbLine
 10
1162.186715223066
 20
380.8178494688257
 30
0.0
 11
1162.16995268435
 21
380.902330251238
 31
0.0
  0
LINE
  5
1FC
330
23
100
AcDbEntity
  8
SANINDUSA
100
AcDbLine
 10
1162.159491573381
 20
380.9550527447995
 30
0.0
 11
1162.164697831322
 21
380.9288139541446
 31
0.0
  0
LINE
  5
1FD
330
23
100
AcDbEntity
  8
SANINDUSA
100
AcDbLine
 10
1162.146081952577
 20
380.9539568095273
 30
0.0
 11
1162.159491573381
 21
380.9550527447995
 31
0.0
  0
LINE
  5
1FE
330
23
100
AcDbEntity
  8
SANINDUSA
100
AcDbLine
 10
1162.146081952577
 20
380.9539568095273
 30
0.0
 11
1162.146122467507
 21
380.9536140766377
 31
0.0
  0
ARC
  5
1FF
330
23
100
AcDbEntity
  8
SANINDUSA
100
AcDbCircle
 10
1162.134205523792
 20
380.9522046609792
 30
0.0
 40
0.0120000000000002
100
AcDbArc
 50
287.7150541570154
 51
6.745032854693021
  0
LINE
  5
200
330
23
100
AcDbEntity
  8
SANINDUSA
100
AcDbLine
 10
1162.169073323424
 20
380.7834475226248
 30
0.0
 11
1162.137856924079
 21
380.9407736821957
 31
0.0
  0
ARC
  5
201
330
23
100
AcDbEntity
  8
SANINDUSA
100
AcDbCircle
 10
1162.188690881133
 20
380.7873400063497
 30
0.0
 40
0.0200000000000001
100
AcDbArc
 50
191.2227704396541
 51
267.9999999962464
  0
LINE
  5
202
330
23
100
AcDbEntity
  8
SANINDUSA
100
AcDbLine
 10
1162.233388887195
 20
380.7657669266973
 30
0.0
 11
1162.187992891199
 21
380.7673521898093
 31
0.0
  0
ARC
  5
203
330
23
100
AcDbEntity
  8
SANINDUSA
100
AcDbCircle
 10
1162.233353987699
 20
380.7647675358703
 30
0.0
 40
0.0010000000000001
100
AcDbArc
 50
0.0
 51
87.9999999962464
  0
LINE
  5
204
330
23
100
AcDbEntity
  8
SANINDUSA
100
AcDbLine
 10
1162.234353987698
 20
380.7647675358703
 30
0.0
 11
1162.234353987698
 21
380.751906491119
 31
0.0
  0
LINE
  5
205
330
23
100
AcDbEntity
  8
SANINDUSA
100
AcDbLine
 10
1162.234353987698
 20
380.751906491119
 30
0.0
 11
1162.223853987698
 21
380.751906491119
 31
0.0
  0
ARC
  5
206
330
23
100
AcDbEntity
  8
SANINDUSA
100
AcDbCircle
 10
1162.218895451253
 20
380.7512639054685
 30
0.0
 40
0.0050000000000001
100
AcDbArc
 50
7.383911338038381
 51
87.9999999962464
  0
LINE
  5
207
330
23
100
AcDbEntity
  8
SANINDUSA
100
AcDbLine
 10
1162.219069948736
 20
380.7562608596036
 30
0.0
 11
1162.187643896232
 21
380.7573582815391
 31
0.0
  0
ARC
  5
208
330
23
100
AcDbEntity
  8
SANINDUSA
100
AcDbCircle
 10
1162.188690881133
 20
380.7873400063497
 30
0.0
 40
0.03
100
AcDbArc
 50
191.2227704396541
 51
267.9999999962464
  0
LINE
  5
209
330
23
100
AcDbEntity
  8
SANINDUSA
100
AcDbLine
 10
1162.15926454457
 20
380.7815012807624
 30
0.0
 11
1162.128460981857
 21
380.9367468031269
 31
0.0
  0
ARC
  5
20A
330
23
100
AcDbEntity
  8
SANINDUSA
100
AcDbCircle
 10
1162.12355659243
 20
380.9357736821957
 30
0.0
 40
0.005
100
AcDbArc
 50
11.22277043965414
 51
90.0
  0
ARC
  5
20B
330
23
100
AcDbEntity
  8
SANINDUSA
100
AcDbCircle
 10
1162.126273489195
 20
380.9597736821957
 30
0.0
 40
0.0080000000000013
100
AcDbArc
 50
270.0
 51
348.6036527100395
  0
ARC
  5
20C
330
23
100
AcDbEntity
  8
SANINDUSA
100
AcDbCircle
 10
1162.141958029573
 20
380.9566121646612
 30
0.0
 40
0.0079999999999225
100
AcDbArc
 50
94.9887880595757
 51
168.6036527100394
  0
ARC
  5
20D
330
23
100
AcDbEntity
  8
SANINDUSA
100
AcDbCircle
 10
1162.162723955183
 20
380.9593144359567
 30
0.0
 40
0.0070000000001859
100
AcDbArc
 50
11.22277043965414
 51
94.36557800797739
  0
LINE
  5
20E
330
23
100
AcDbEntity
  8
SANINDUSA
100
AcDbLine
 10
1162.220632325168
 20
380.799894862534
 30
0.0
 11
1162.221863617395
 21
380.7998272154847
 31
0.0
  0
LINE
  5
20F
330
23
100
AcDbEntity
  8
SANINDUSA
100
AcDbLine
 10
1162.234353987698
 20
380.7889695022295
 30
0.0
 11
1162.234353987698
 21
380.7767748504018
 31
0.0
  0
ARC
  5
210
330
23
100
AcDbEntity
  8
SANINDUSA
100
AcDbCircle
 10
1162.233353987699
 20
380.7767748504018
 30
0.0
 40
0.001
100
AcDbArc
 50
267.9999999962464
 51
0.0
  0
LINE
  5
211
330
23
100
AcDbEntity
  8
SANINDUSA
100
AcDbLine
 10
1162.221730317868
 20
380.7761801483523
 30
0.0
 11
1162.233319088202
 21
380.7757754595748
 31
0.0
  0
LINE
  5
212
330
23
100
AcDbEntity
  8
SANINDUSA
100
AcDbLine
 10
1162.221730317868
 20
380.7761801483523
 30
0.0
 11
1162.221310019353
 21
380.7809841823638
 31
0.0
  0
ARC
  5
213
330
23
100
AcDbEntity
  8
SANINDUSA
100
AcDbCircle
 10
1162.211348072372
 20
380.7801126249363
 30
0.0
 40
0.0099999999999853
100
AcDbArc
 50
4.999999999535611
 51
76.57650187666836
  0
ARC
  5
214
330
23
100
AcDbEntity
  8
SANINDUSA
100
AcDbCircle
 10
1162.222043826345
 20
380.8248722982146
 30
0.0
 40
0.0360198603874127
100
AcDbArc
 50
191.2430314258159
 51
256.5562408944219
  0
ARC
  5
215
330
23
100
AcDbEntity
  8
SANINDUSA
100
AcDbCircle
 10
1162.222026826942
 20
380.8248559395306
 30
0.0
 40
0.0250000000005343
100
AcDbArc
 50
191.2227704396541
 51
266.8023777059846
  0
LWPOLYLINE
  5
216
330
23
100
AcDbEntity
  8
SANINDUSA
100
AcDbPolyline
 90
        4
 70
   128
 43
0.0
 10
1162.055398312516
 20
380.6786481307583
 10
1162.053634760129
 20
380.6766740503107
 10
1162.052023851311
 20
380.6753131944003
 10
1162.050380024629
 20
380.6746193416966
  0
LINE
  5
217
330
23
100
AcDbEntity
  8
SANINDUSA
100
AcDbLine
 10
1162.046540407125
 20
380.6337038832023
 30
0.0
 11
1162.047961818385
 21
380.6744077760641
 31
0.0
  0
LINE
  5
218
330
23
100
AcDbEntity
  8
SANINDUSA
100
AcDbLine
 10
1162.047961818385
 20
380.6744077760641
 30
0.0
 11
1162.050380003523
 21
380.67461933985
 31
0.0
  0
LINE
  5
219
330
23
100
AcDbEntity
  8
SANINDUSA
100
AcDbLine
 10
1162.017853987698
 20
380.9257530709028
 30
0.0
 11
1162.017853987698
 21
380.9497736821957
 31
0.0
  0
ARC
  5
21A
330
23
100
AcDbEntity
  8
SANINDUSA
100
AcDbCircle
 10
1162.019853987698
 20
380.9497736821957
 30
0.0
 40
0.0020000000000002
100
AcDbArc
 50
90.0
 51
180.0
  0
ARC
  5
21B
330
23
100
AcDbEntity
  8
SANINDUSA
100
AcDbCircle
 10
1162.062091964667
 20
380.9357736821957
 30
0.0
 40
0.005
100
AcDbArc
 50
90.0
 51
177.9999999995013
  0
LINE
  5
21C
330
23
100
AcDbEntity
  8
SANINDUSA
100
AcDbLine
 10
1162.056556747941
 20
380.9205343557864
 30
0.0
 11
1162.057095010532
 21
380.9359481796792
 31
0.0
  0
LINE
  5
21D
330
23
100
AcDbEntity
  8
SANINDUSA
100
AcDbLine
 10
1162.056556747941
 20
380.9205343557864
 30
0.0
 11
1162.019679676213
 21
380.9237606815067
 31
0.0
  0
ARC
  5
21E
330
23
100
AcDbEntity
  8
SANINDUSA
100
AcDbCircle
 10
1162.019853987698
 20
380.9257530709028
 30
0.0
 40
0.0020000000000002
100
AcDbArc
 50
180.0
 51
265.0000000039927
  0
LINE
  5
21F
330
23
100
AcDbEntity
  8
SANINDUSA
100
AcDbLine
 10
1162.017853987698
 20
380.9121329775082
 30
0.0
 11
1162.017853987698
 21
380.9257530709028
 31
0.0
  0
ARC
  5
220
330
23
100
AcDbEntity
  8
SANINDUSA
100
AcDbCircle
 10
1162.016853987698
 20
380.6539452550709
 30
0.0
 40
0.0030000000000001
100
AcDbArc
 50
0.0
 51
48.18968510730822
  0
ARC
  5
221
330
23
100
AcDbEntity
  8
SANINDUSA
100
AcDbCircle
 10
1162.019853987698
 20
380.6699410198477
 30
0.0
 40
0.0020000000000002
100
AcDbArc
 50
94.99999999600724
 51
180.0
  0
ARC
  5
222
330
23
100
AcDbEntity
  8
SANINDUSA
100
AcDbCircle
 10
1162.044541625471
 20
380.6337736821957
 30
0.0
 40
0.002
100
AcDbArc
 50
270.0
 51
357.9999999995013
  0
ARC
  5
223
330
23
100
AcDbEntity
  8
SANINDUSA
100
AcDbCircle
 10
1162.016853987698
 20
380.6496021093204
 30
0.0
 40
0.0030000000000001
100
AcDbArc
 50
311.8103148926918
 51
0.0
  0
LINE
  5
224
330
23
100
AcDbEntity
  8
SANINDUSA
100
AcDbLine
 10
1162.019853987698
 20
380.6496021093204
 30
0.0
 11
1162.019853987698
 21
380.6539452550709
 31
0.0
  0
ARC
  5
225
330
23
100
AcDbEntity
  8
SANINDUSA
100
AcDbCircle
 10
1162.020853987698
 20
380.658417391026
 30
0.0
 40
0.0030000000000001
100
AcDbArc
 50
180.0
 51
228.1896851073082
  0
ARC
  5
226
330
23
100
AcDbEntity
  8
SANINDUSA
100
AcDbCircle
 10
1162.019853987698
 20
380.6337736821957
 30
0.0
 40
0.0020000000000002
100
AcDbArc
 50
180.0
 51
270.0
  0
ARC
  5
227
330
23
100
AcDbEntity
  8
SANINDUSA
100
AcDbCircle
 10
1162.020853987698
 20
380.6451299733654
 30
0.0
 40
0.0030000000000002
100
AcDbArc
 50
131.8103148926917
 51
180.0
  0
LINE
  5
228
330
23
100
AcDbEntity
  8
SANINDUSA
100
AcDbLine
 10
1162.017853987698
 20
380.658417391026
 30
0.0
 11
1162.017853987698
 21
380.6699410198477
 31
0.0
  0
LINE
  5
229
330
23
100
AcDbEntity
  8
SANINDUSA
100
AcDbLine
 10
1162.017853987698
 20
380.6337736821957
 30
0.0
 11
1162.017853987698
 21
380.6451299733654
 31
0.0
  0
LINE
  5
22A
330
23
100
AcDbEntity
  8
SANINDUSA
100
AcDbLine
 10
1162.019679676213
 20
380.6719334092439
 30
0.0
 11
1162.047961818385
 21
380.6744077760641
 31
0.0
  0
LINE
  5
22B
330
23
100
AcDbEntity
  8
SANINDUSA
100
AcDbLine
 10
1162.019853987698
 20
380.6317736821957
 30
0.0
 11
1162.044541625471
 21
380.6317736821957
 31
0.0
  0
LINE
  5
22C
330
23
100
AcDbEntity
  8
SANINDUSA
100
AcDbLine
 10
1162.063448229558
 20
380.9107518442996
 30
0.0
 11
1162.064017834423
 21
380.9095128080184
 31
0.0
  0
ARC
  5
22D
330
23
100
AcDbEntity
  8
SANINDUSA
100
AcDbCircle
 10
1161.760832709426
 20
380.7048870955696
 30
0.0
 40
0.3660006117408054
100
AcDbArc
 50
34.22686022752472
 51
36.10020014052473
  0
LINE
  5
22E
330
23
100
AcDbEntity
  8
SANINDUSA
100
AcDbLine
 10
1162.281353987698
 20
380.751906491119
 30
0.0
 11
1162.234353987698
 21
380.751906491119
 31
0.0
  0
LINE
  5
22F
330
23
100
AcDbEntity
  8
SANINDUSA
100
AcDbLine
 10
1162.051980202004
 20
380.6317736821957
 30
0.0
 11
1162.044541625471
 21
380.6317736821957
 31
0.0
  0
LINE
  5
230
330
23
100
AcDbEntity
  8
SANINDUSA
100
AcDbLine
 10
1162.05726666458
 20
380.7117736821957
 30
0.0
 11
1162.056183662236
 21
380.6807605527623
 31
0.0
  0
LWPOLYLINE
  5
231
330
23
100
AcDbEntity
  8
SANINDUSA
100
AcDbPolyline
 90
        3
 70
   128
 43
0.0
 10
1162.056183662236
 20
380.6807605527623
 10
1162.055567478856
 20
380.678874362279
 10
1162.055398312516
 20
380.6786481307583
  0
LINE
  5
232
330
23
100
AcDbEntity
  8
SANINDUSA
100
AcDbLine
 10
1162.017853987698
 20
380.7117736821957
 30
0.0
 11
1162.017853987698
 21
380.6699410198477
 31
0.0
  0
ARC
  5
233
330
23
100
AcDbEntity
  8
SANINDUSA
100
AcDbCircle
 10
1162.070000299458
 20
380.9336016789467
 30
0.0
 40
0.0049842119578913
100
AcDbArc
 50
89.81280104049588
 51
177.8397002889458
  0
LINE
  5
234
330
23
100
AcDbEntity
  8
SANINDUSA
100
AcDbLine
 10
1162.064133466706
 20
380.9084131671331
 30
0.0
 11
1162.065019629902
 21
380.9337895608584
 31
0.0
  0
LINE
  5
235
330
23
100
AcDbEntity
  8
SANINDUSA
100
AcDbLine
 10
1162.064133466706
 20
380.9084131671331
 30
0.0
 11
1162.064017834423
 21
380.9095128080184
 31
0.0
  0
LINE
  5
236
330
23
100
AcDbEntity
  8
SANINDUSA
100
AcDbLine
 10
1162.062972127297
 20
380.8751567576759
 30
0.0
 11
1162.064133466706
 21
380.9084131671331
 31
0.0
  0
LINE
  5
237
330
23
100
AcDbEntity
  8
SANINDUSA
100
AcDbLine
 10
1162.054540407125
 20
380.6337038832023
 30
0.0
 11
1162.056183662236
 21
380.6807605527623
 31
0.0
  0
ARC
  5
238
330
23
100
AcDbEntity
  8
SANINDUSA
100
AcDbCircle
 10
1162.052541625471
 20
380.6337736821957
 30
0.0
 40
0.002
100
AcDbArc
 50
270.0
 51
357.9999999995013
  0
LINE
  5
239
330
23
100
AcDbEntity
  8
SANINDUSA
100
AcDbLine
 10
1162.051980202004
 20
380.6317736821957
 30
0.0
 11
1162.052541625471
 21
380.6317736821957
 31
0.0
  0
LINE
  5
23A
330
23
100
AcDbEntity
  8
SANINDUSA
100
AcDbLine
 10
1162.017853987698
 20
380.9121329775082
 30
0.0
 11
1162.017853987698
 21
380.8772566103149
 31
0.0
  0
LINE
  5
23B
330
23
100
AcDbEntity
  8
SANINDUSA
100
AcDbLine
 10
1162.062972127297
 20
380.8751567576759
 30
0.0
 11
1162.05726666458
 21
380.7117736821957
 31
0.0
  0
LINE
  5
23C
330
23
100
AcDbEntity
  8
SANINDUSA
100
AcDbLine
 10
1162.017853987698
 20
380.8772566103149
 30
0.0
 11
1162.017853987698
 21
380.7117736821957
 31
0.0
  0
LINE
  5
23D
330
23
100
AcDbEntity
  8
SANINDUSA
100
AcDbLine
 10
1162.017853987698
 20
380.6517736821957
 30
0.0
 11
1162.017853987698
 21
380.6451299733654
 31
0.0
  0
LINE
  5
23E
330
23
100
AcDbEntity
  8
SANINDUSA
100
AcDbLine
 10
1162.052541625471
 20
380.6317736821957
 30
0.0
 11
1162.059909057149
 21
380.6317736821957
 31
0.0
  0
LINE
  5
23F
330
23
100
AcDbEntity
  8
SANINDUSA
100
AcDbLine
 10
1162.017853987698
 20
380.658417391026
 30
0.0
 11
1162.017853987698
 21
380.6517736821957
 31
0.0
  0
ENDSEC
  0
SECTION
  2
OBJECTS
  0
DICTIONARY
  5
C
330
0
100
AcDbDictionary
281
     1
  3
ACAD_COLOR
350
1C
  3
ACAD_GROUP
350
D
  3
ACAD_LAYOUT
350
1A
  3
ACAD_MATERIAL
350
1B
  3
ACAD_MLEADERSTYLE
350
28C
  3
ACAD_MLINESTYLE
350
17
  3
ACAD_PLOTSETTINGS
350
19
  3
ACAD_PLOTSTYLENAME
350
E
  3
ACAD_SCALELIST
350
27A
  3
ACAD_TABLESTYLE
350
1D
  3
ACAD_VISUALSTYLE
350
266
  3
ACDB_RECOMPOSE_DATA
350
29B
  3
AcDbVariableDictionary
350
248
  3
DWGPROPS
350
29C
  0
DICTIONARY
  5
290
330
10
100
AcDbDictionary
280
     1
281
     1
  3
ADSK_XREC_LAYER_RECONCILED
360
291
  0
DICTIONARY
  5
292
330
2F
100
AcDbDictionary
280
     1
281
     1
  3
ADSK_XREC_LAYER_RECONCILED
360
293
  0
DICTIONARY
  5
1C
102
{ACAD_REACTORS
330
C
102
}
330
C
100
AcDbDictionary
281
     1
  0
DICTIONARY
  5
D
102
{ACAD_REACTORS
330
C
102
}
330
C
100
AcDbDictionary
281
     1
  0
DICTIONARY
  5
1A
102
{ACAD_REACTORS
330
C
102
}
330
C
100
AcDbDictionary
281
     1
  3
Layout1
350
22
  3
Layout2
350
2A
  3
Model
350
26
  0
DICTIONARY
  5
1B
102
{ACAD_REACTORS
330
C
102
}
330
C
100
AcDbDictionary
281
     1
  3
ByBlock
350
256
  3
ByLayer
350
24E
  3
Global
350
25E
  0
DICTIONARY
  5
28C
102
{ACAD_REACTORS
330
C
102
}
330
C
100
AcDbDictionary
281
     1
  3
Standard
350
28D
  0
DICTIONARY
  5
17
102
{ACAD_REACTORS
330
C
102
}
330
C
100
AcDbDictionary
281
     1
  3
Standard
350
18
  0
DICTIONARY
  5
19
102
{ACAD_REACTORS
330
C
102
}
330
C
100
AcDbDictionary
281
     1
  0
ACDBDICTIONARYWDFLT
  5
E
102
{ACAD_REACTORS
330
C
102
}
330
C
100
AcDbDictionary
281
     1
  3
Normal
350
F
100
AcDbDictionaryWithDefault
340
F
  0
DICTIONARY
  5
27A
102
{ACAD_REACTORS
330
C
102
}
330
C
100
AcDbDictionary
281
     1
  3
A0
350
27B
  3
A1
350
27C
  3
A2
350
27D
  3
A3
350
27E
  3
A4
350
27F
  3
A5
350
280
  3
A6
350
281
  3
A7
350
282
  3
A8
350
283
  3
A9
350
284
  3
B0
350
285
  3
B1
350
286
  3
B2
350
287
  3
B3
350
288
  3
B4
350
289
  3
B5
350
28A
  3
B6
350
28B
  0
DICTIONARY
  5
1D
102
{ACAD_REACTORS
330
C
102
}
330
C
100
AcDbDictionary
281
     1
  3
Standard
350
1E
  0
DICTIONARY
  5
266
102
{ACAD_REACTORS
330
C
102
}
330
C
100
AcDbDictionary
281
     1
  3
2dWireframe
350
26C
  3
3D Hidden
350
26E
  3
3dWireframe
350
26D
  3
Basic
350
26B
  3
Brighten
350
272
  3
ColorChange
350
276
  3
Conceptual
350
26F
  3
Dim
350
271
  3
EdgeColorOff
350
279
  3
Facepattern
350
275
  3
Flat
350
267
  3
FlatWithEdges
350
268
  3
Gouraud
350
269
  3
GouraudWithEdges
350
26A
  3
JitterOff
350
277
  3
Linepattern
350
274
  3
OverhangOff
350
278
  3
Realistic
350
270
  3
Thicken
350
273
  0
XRECORD
  5
29B
102
{ACAD_REACTORS
330
C
102
}
330
C
100
AcDbXrecord
280
     1
 90
        1
330
1E
  0
DICTIONARY
  5
248
102
{ACAD_REACTORS
330
C
102
}
330
C
100
AcDbDictionary
281
     1
  3
CANNOSCALE
350
295
  3
CMLEADERSTYLE
350
294
  3
CTABLESTYLE
350
249
  3
DIMASSOC
350
24B
  3
HIDETEXT
350
24A
  3
INDEXCTL
350
297
  3
PROJECTNAME
350
24C
  3
SORTENTS
350
296
  3
XCLIPFRAME
350
298
  0
XRECORD
  5
29C
102
{ACAD_REACTORS
330
C
102
}
330
C
100
AcDbXrecord
280
     1
  1
DWGPROPS COOKIE
  2

  3

  4

  6

  7

  8
Julio
  9

300
=
301
=
302
=
303
=
304
=
305
=
306
=
307
=
308
=
309
=
 40
0.0005211921296296
 41
2454625.705391887
 42
2456147.494925845
  1

 90
        0
  0
XRECORD
  5
291
102
{ACAD_REACTORS
330
290
102
}
330
290
100
AcDbXrecord
280
     1
290
     1
  0
XRECORD
  5
293
102
{ACAD_REACTORS
330
292
102
}
330
292
100
AcDbXrecord
280
     1
290
     1
  0
LAYOUT
  5
22
102
{ACAD_XDICTIONARY
360
29E
102
}
102
{ACAD_REACTORS
330
1A
102
}
330
1A
100
AcDbPlotSettings
  1

  2
C:\Documents and Settings\Julio\Application Data\Autodesk\AutoCAD 2006\R16.2\enu\plotters\Default Windows System Printer.pc3
  4

  6

 40
0.0
 41
0.0
 42
0.0
 43
0.0
 44
0.0
 45
0.0
 46
0.0
 47
0.0
 48
0.0
 49
0.0
140
0.0
141
0.0
142
1.0
143
1.0
 70
   688
 72
     0
 73
     0
 74
     5
  7

 75
    16
147
1.0
148
0.0
149
0.0
100
AcDbLayout
  1
Layout1
 70
     1
 71
     1
 10
0.0
 20
0.0
 11
420.0
 21
297.0
 12
0.0
 22
0.0
 32
0.0
 14
1.000000000000000E+20
 24
1.000000000000000E+20
 34
1.000000000000000E+20
 15
-1.000000000000000E+20
 25
-1.000000000000000E+20
 35
-1.000000000000000E+20
146
0.0
 13
0.0
 23
0.0
 33
0.0
 16
1.0
 26
0.0
 36
0.0
 17
0.0
 27
1.0
 37
0.0
 76
     0
330
1F
  0
LAYOUT
  5
2A
102
{ACAD_XDICTIONARY
360
2A2
102
}
102
{ACAD_REACTORS
330
1A
102
}
330
1A
100
AcDbPlotSettings
  1

  2
C:\Documents and Settings\Julio\Application Data\Autodesk\AutoCAD 2006\R16.2\enu\plotters\Default Windows System Printer.pc3
  4

  6

 40
0.0
 41
0.0
 42
0.0
 43
0.0
 44
0.0
 45
0.0
 46
0.0
 47
0.0
 48
0.0
 49
0.0
140
0.0
141
0.0
142
1.0
143
1.0
 70
   688
 72
     0
 73
     0
 74
     5
  7

 75
    16
147
1.0
148
0.0
149
0.0
100
AcDbLayout
  1
Layout2
 70
     1
 71
     2
 10
0.0
 20
0.0
 11
12.0
 21
9.0
 12
0.0
 22
0.0
 32
0.0
 14
0.0
 24
0.0
 34
0.0
 15
0.0
 25
0.0
 35
0.0
146
0.0
 13
0.0
 23
0.0
 33
0.0
 16
1.0
 26
0.0
 36
0.0
 17
0.0
 27
1.0
 37
0.0
 76
     0
330
27
  0
LAYOUT
  5
26
102
{ACAD_XDICTIONARY
360
2A0
102
}
102
{ACAD_REACTORS
330
1A
102
}
330
1A
100
AcDbPlotSettings
  1

  2
C:\Documents and Settings\Julio\Application Data\Autodesk\AutoCAD 2006\R16.2\enu\plotters\Default Windows System Printer.pc3
  4

  6

 40
0.0
 41
0.0
 42
0.0
 43
0.0
 44
0.0
 45
0.0
 46
0.0
 47
0.0
 48
0.0
 49
0.0
140
0.0
141
0.0
142
1.0
143
1.0
 70
  1712
 72
     0
 73
     0
 74
     0
  7

 75
     0
147
1.0
148
0.0
149
0.0
100
AcDbLayout
  1
Model
 70
     1
 71
     0
 10
0.0
 20
0.0
 11
12.0
 21
9.0
 12
0.0
 22
0.0
 32
0.0
 14
0.0
 24
0.0
 34
0.0
 15
0.0
 25
0.0
 35
0.0
146
0.0
 13
0.0
 23
0.0
 33
0.0
 16
1.0
 26
0.0
 36
0.0
 17
0.0
 27
1.0
 37
0.0
 76
     0
330
23
331
240
  0
MATERIAL
  5
256
102
{ACAD_XDICTIONARY
360
257
102
}
102
{ACAD_REACTORS
330
1B
102
}
330
1B
100
AcDbMaterial
  1
ByBlock
 72
     0
 43
0.0008202099737533
 43
0.0
 43
0.0
 43
0.0
 43
0.0
 43
0.0008202099737533
 43
0.0
 43
0.0
 43
0.0
 43
0.0
 43
1.0
 43
0.0
 43
0.0
 43
0.0
 43
0.0
 43
1.0
 77
     0
 47
0.0008202099737533
 47
0.0
 47
0.0
 47
0.0
 47
0.0
 47
0.0008202099737533
 47
0.0
 47
0.0
 47
0.0
 47
0.0
 47
1.0
 47
0.0
 47
0.0
 47
0.0
 47
0.0
 47
1.0
171
     0
 49
0.0008202099737533
 49
0.0
 49
0.0
 49
0.0
 49
0.0
 49
0.0008202099737533
 49
0.0
 49
0.0
 49
0.0
 49
0.0
 49
1.0
 49
0.0
 49
0.0
 49
0.0
 49
0.0
 49
1.0
175
     0
142
0.0008202099737533
142
0.0
142
0.0
142
0.0
142
0.0
142
0.0008202099737533
142
0.0
142
0.0
142
0.0
142
0.0
142
1.0
142
0.0
142
0.0
142
0.0
142
0.0
142
1.0
179
     0
144
0.0008202099737533
144
0.0
144
0.0
144
0.0
144
0.0
144
0.0008202099737533
144
0.0
144
0.0
144
0.0
144
0.0
144
1.0
144
0.0
144
0.0
144
0.0
144
0.0
144
1.0
147
0.0008202099737533
147
0.0
147
0.0
147
0.0
147
0.0
147
0.0008202099737533
147
0.0
147
0.0
147
0.0
147
0.0
147
1.0
147
0.0
147
0.0
147
0.0
147
0.0
147
1.0
  0
MATERIAL
  5
24E
102
{ACAD_XDICTIONARY
360
24F
102
}
102
{ACAD_REACTORS
330
1B
102
}
330
1B
100
AcDbMaterial
  1
ByLayer
 72
     0
 43
0.0008202099737533
 43
0.0
 43
0.0
 43
0.0
 43
0.0
 43
0.0008202099737533
 43
0.0
 43
0.0
 43
0.0
 43
0.0
 43
1.0
 43
0.0
 43
0.0
 43
0.0
 43
0.0
 43
1.0
 77
     0
 47
0.0008202099737533
 47
0.0
 47
0.0
 47
0.0
 47
0.0
 47
0.0008202099737533
 47
0.0
 47
0.0
 47
0.0
 47
0.0
 47
1.0
 47
0.0
 47
0.0
 47
0.0
 47
0.0
 47
1.0
171
     0
 49
0.0008202099737533
 49
0.0
 49
0.0
 49
0.0
 49
0.0
 49
0.0008202099737533
 49
0.0
 49
0.0
 49
0.0
 49
0.0
 49
1.0
 49
0.0
 49
0.0
 49
0.0
 49
0.0
 49
1.0
175
     0
142
0.0008202099737533
142
0.0
142
0.0
142
0.0
142
0.0
142
0.0008202099737533
142
0.0
142
0.0
142
0.0
142
0.0
142
1.0
142
0.0
142
0.0
142
0.0
142
0.0
142
1.0
179
     0
144
0.0008202099737533
144
0.0
144
0.0
144
0.0
144
0.0
144
0.0008202099737533
144
0.0
144
0.0
144
0.0
144
0.0
144
1.0
144
0.0
144
0.0
144
0.0
144
0.0
144
1.0
147
0.0008202099737533
147
0.0
147
0.0
147
0.0
147
0.0
147
0.0008202099737533
147
0.0
147
0.0
147
0.0
147
0.0
147
1.0
147
0.0
147
0.0
147
0.0
147
0.0
147
1.0
  0
MATERIAL
  5
25E
102
{ACAD_XDICTIONARY
360
25F
102
}
102
{ACAD_REACTORS
330
1B
102
}
330
1B
100
AcDbMaterial
  1
Global
 72
     0
 43
0.0008202099737533
 43
0.0
 43
0.0
 43
0.0
 43
0.0
 43
0.0008202099737533
 43
0.0
 43
0.0
 43
0.0
 43
0.0
 43
1.0
 43
0.0
 43
0.0
 43
0.0
 43
0.0
 43
1.0
 77
     0
 47
0.0008202099737533
 47
0.0
 47
0.0
 47
0.0
 47
0.0
 47
0.0008202099737533
 47
0.0
 47
0.0
 47
0.0
 47
0.0
 47
1.0
 47
0.0
 47
0.0
 47
0.0
 47
0.0
 47
1.0
171
     0
 49
0.0008202099737533
 49
0.0
 49
0.0
 49
0.0
 49
0.0
 49
0.0008202099737533
 49
0.0
 49
0.0
 49
0.0
 49
0.0
 49
1.0
 49
0.0
 49
0.0
 49
0.0
 49
0.0
 49
1.0
175
     0
142
0.0008202099737533
142
0.0
142
0.0
142
0.0
142
0.0
142
0.0008202099737533
142
0.0
142
0.0
142
0.0
142
0.0
142
1.0
142
0.0
142
0.0
142
0.0
142
0.0
142
1.0
179
     0
144
0.0008202099737533
144
0.0
144
0.0
144
0.0
144
0.0
144
0.0008202099737533
144
0.0
144
0.0
144
0.0
144
0.0
144
1.0
144
0.0
144
0.0
144
0.0
144
0.0
144
1.0
147
0.0008202099737533
147
0.0
147
0.0
147
0.0
147
0.0
147
0.0008202099737533
147
0.0
147
0.0
147
0.0
147
0.0
147
1.0
147
0.0
147
0.0
147
0.0
147
0.0
147
1.0
  0
MLEADERSTYLE
  5
28D
102
{ACAD_REACTORS
330
28C
102
}
330
28C
100
AcDbMLeaderStyle
170
     2
171
     1
172
     0
 90
        2
 40
0.0
 41
0.0
173
     1
 91
-1056964608
340
14
 92
       -2
290
     1
 42
2.0
291
     1
 43
0.36
  3
Standard
 44
4.0
300

342
11
174
     1
178
     6
175
     1
176
     0
 93
-1056964608
 45
4.0
292
     0
297
     0
 46
4.0
 94
-1056964608
 47
1.0
 49
1.0
140
1.0
293
     1
141
0.0
294
     1
177
     0
142
1.0
295
     0
296
     0
143
0.125
1001
ACAD_MLEADERVER
1070
     2
  0
MLINESTYLE
  5
18
102
{ACAD_REACTORS
330
17
102
}
330
17
100
AcDbMlineStyle
  2
STANDARD
 70
     0
  3

 62
   256
 51
90.0
 52
90.0
 71
     2
 49
0.5
 62
   256
  6
BYLAYER
 49
-0.5
 62
   256
  6
BYLAYER
  0
ACDBPLACEHOLDER
  5
F
102
{ACAD_REACTORS
330
E
102
}
330
E
  0
SCALE
  5
27B
102
{ACAD_REACTORS
330
27A
102
}
330
27A
100
AcDbScale
 70
     0
300
1:1
140
1.0
141
1.0
290
     1
  0
SCALE
  5
27C
102
{ACAD_REACTORS
330
27A
102
}
330
27A
100
AcDbScale
 70
     0
300
1:2
140
1.0
141
2.0
290
     0
  0
SCALE
  5
27D
102
{ACAD_REACTORS
330
27A
102
}
330
27A
100
AcDbScale
 70
     0
300
1:4
140
1.0
141
4.0
290
     0
  0
SCALE
  5
27E
102
{ACAD_REACTORS
330
27A
102
}
330
27A
100
AcDbScale
 70
     0
300
1:5
140
1.0
141
5.0
290
     0
  0
SCALE
  5
27F
102
{ACAD_REACTORS
330
27A
102
}
330
27A
100
AcDbScale
 70
     0
300
1:8
140
1.0
141
8.0
290
     0
  0
SCALE
  5
280
102
{ACAD_REACTORS
330
27A
102
}
330
27A
100
AcDbScale
 70
     0
300
1:10
140
1.0
141
10.0
290
     0
  0
SCALE
  5
281
102
{ACAD_REACTORS
330
27A
102
}
330
27A
100
AcDbScale
 70
     0
300
1:16
140
1.0
141
16.0
290
     0
  0
SCALE
  5
282
102
{ACAD_REACTORS
330
27A
102
}
330
27A
100
AcDbScale
 70
     0
300
1:20
140
1.0
141
20.0
290
     0
  0
SCALE
  5
283
102
{ACAD_REACTORS
330
27A
102
}
330
27A
100
AcDbScale
 70
     0
300
1:30
140
1.0
141
30.0
290
     0
  0
SCALE
  5
284
102
{ACAD_REACTORS
330
27A
102
}
330
27A
100
AcDbScale
 70
     0
300
1:40
140
1.0
141
40.0
290
     0
  0
SCALE
  5
285
102
{ACAD_REACTORS
330
27A
102
}
330
27A
100
AcDbScale
 70
     0
300
1:50
140
1.0
141
50.0
290
     0
  0
SCALE
  5
286
102
{ACAD_REACTORS
330
27A
102
}
330
27A
100
AcDbScale
 70
     0
300
1:100
140
1.0
141
100.0
290
     0
  0
SCALE
  5
287
102
{ACAD_REACTORS
330
27A
102
}
330
27A
100
AcDbScale
 70
     0
300
2:1
140
2.0
141
1.0
290
     0
  0
SCALE
  5
288
102
{ACAD_REACTORS
330
27A
102
}
330
27A
100
AcDbScale
 70
     0
300
4:1
140
4.0
141
1.0
290
     0
  0
SCALE
  5
289
102
{ACAD_REACTORS
330
27A
102
}
330
27A
100
AcDbScale
 70
     0
300
8:1
140
8.0
141
1.0
290
     0
  0
SCALE
  5
28A
102
{ACAD_REACTORS
330
27A
102
}
330
27A
100
AcDbScale
 70
     0
300
10:1
140
10.0
141
1.0
290
     0
  0
SCALE
  5
28B
102
{ACAD_REACTORS
330
27A
102
}
330
27A
100
AcDbScale
 70
     0
300
100:1
140
100.0
141
1.0
290
     0
  0
TABLESTYLE
  5
1E
102
{ACAD_XDICTIONARY
360
299
102
}
102
{ACAD_REACTORS
330
1D
102
}
330
1D
100
AcDbTableStyle
  3
Standard
 70
     0
 71
     0
 40
1.5
 41
1.5
280
     0
281
     0
  7
Standard
140
4.5
170
     2
 62
     0
 63
     7
283
     0
274
    -2
284
     1
 64
     0
275
    -2
285
     1
 65
     0
276
    -2
286
     1
 66
     0
277
    -2
287
     1
 67
     0
278
    -2
288
     1
 68
     0
279
    -2
289
     1
 69
     0
  7
Standard
140
6.0
170
     5
 62
     0
 63
     7
283
     0
274
    -2
284
     1
 64
     0
275
    -2
285
     1
 65
     0
276
    -2
286
     1
 66
     0
277
    -2
287
     1
 67
     0
278
    -2
288
     1
 68
     0
279
    -2
289
     1
 69
     0
  7
Standard
140
4.5
170
     5
 62
     0
 63
     7
283
     0
274
    -2
284
     1
 64
     0
275
    -2
285
     1
 65
     0
276
    -2
286
     1
 66
     0
277
    -2
287
     1
 67
     0
278
    -2
288
     1
 68
     0
279
    -2
289
     1
 69
     0
  0
VISUALSTYLE
  5
26C
102
{ACAD_XDICTIONARY
360
2B1
102
}
102
{ACAD_REACTORS
330
266
102
}
330
266
100
AcDbVisualStyle
  2
2dWireframe
 70
     4
 71
     0
 72
     2
 73
     0
 90
        0
 40
-0.6
 41
-30.0
 62
     5
 63
     7
 74
     1
 91
        4
 64
     7
 65
   257
 75
     1
175
     1
 42
1.0
 92
        0
 66
   257
 43
1.0
 76
     1
 77
     6
 78
     2
 67
     7
 79
     5
170
     0
171
     0
290
     0
174
     0
 93
        1
 44
0.0
173
     0
291
     0
 45
0.0
1001
ACAD
1000
AcDbSavedByObjectVersion
1070
     0
  0
VISUALSTYLE
  5
26E
102
{ACAD_XDICTIONARY
360
2B5
102
}
102
{ACAD_REACTORS
330
266
102
}
330
266
100
AcDbVisualStyle
  2
3D Hidden
 70
     6
 71
     1
 72
     2
 73
     2
 90
        0
 40
-0.6
 41
-30.0
 62
     5
 63
     7
 74
     2
 91
        2
 64
     7
 65
   257
 75
     2
175
     1
 42
179.0
 92
        0
 66
   257
 43
1.0
 76
     1
 77
     6
 78
     2
 67
     7
 79
     3
170
     0
171
     0
290
     0
174
     0
 93
        1
 44
0.0
173
     0
291
     0
 45
0.0
1001
ACAD
1000
AcDbSavedByObjectVersion
1070
     0
  0
VISUALSTYLE
  5
26D
102
{ACAD_XDICTIONARY
360
2B3
102
}
102
{ACAD_REACTORS
330
266
102
}
330
266
100
AcDbVisualStyle
  2
3dWireframe
 70
     5
 71
     0
 72
     2
 73
     0
 90
        0
 40
-0.6
 41
-30.0
 62
     5
 63
     7
 74
     1
 91
        4
 64
     7
 65
   257
 75
     1
175
     1
 42
1.0
 92
        0
 66
   257
 43
1.0
 76
     1
 77
     6
 78
     2
 67
     7
 79
     5
170
     0
171
     0
290
     0
174
     0
 93
        1
 44
0.0
173
     0
291
     0
 45
0.0
1001
ACAD
1000
AcDbSavedByObjectVersion
1070
     0
  0
VISUALSTYLE
  5
26B
102
{ACAD_XDICTIONARY
360
2AF
102
}
102
{ACAD_REACTORS
330
266
102
}
330
266
100
AcDbVisualStyle
  2
Basic
 70
     7
 71
     1
 72
     0
 73
     1
 90
        0
 40
-0.6
 41
-30.0
 62
     5
 63
     7
 74
     0
 91
        4
 64
     7
 65
   257
 75
     1
175
     1
 42
1.0
 92
        8
 66
     7
 43
1.0
 76
     1
 77
     6
 78
     2
 67
     7
 79
     5
170
     0
171
     0
290
     0
174
     0
 93
        1
 44
0.0
173
     0
291
     1
 45
0.0
1001
ACAD
1000
AcDbSavedByObjectVersion
1070
     0
  0
VISUALSTYLE
  5
272
102
{ACAD_XDICTIONARY
360
2BD
102
}
102
{ACAD_REACTORS
330
266
102
}
330
266
100
AcDbVisualStyle
  2
Brighten
 70
    12
 71
     2
 72
     2
 73
     0
 90
        0
 40
-0.6
 41
-30.0
 62
     5
 63
     7
 74
     1
 91
        4
 64
     7
 65
   257
 75
     1
175
     1
 42
1.0
 92
        8
 66
     7
 43
1.0
 76
     1
 77
     6
 78
     2
 67
     7
 79
     5
170
     0
171
     0
290
     0
174
     0
 93
        1
 44
50.0
173
     0
291
     1
 45
0.0
1001
ACAD
1000
AcDbSavedByObjectVersion
1070
     0
  0
VISUALSTYLE
  5
276
102
{ACAD_XDICTIONARY
360
2C5
102
}
102
{ACAD_REACTORS
330
266
102
}
330
266
100
AcDbVisualStyle
  2
ColorChange
 70
    16
 71
     2
 72
     2
 73
     3
 90
        0
 40
-0.6
 41
-30.0
 62
     5
 63
     8
 74
     1
 91
        4
 64
     7
 65
   257
 75
     1
175
     1
 42
1.0
 92
        8
 66
     8
 43
1.0
 76
     1
 77
     6
 78
     2
 67
     7
 79
     5
170
     0
171
     0
290
     0
174
     0
 93
        1
 44
0.0
173
     0
291
     1
 45
0.0
1001
ACAD
1000
AcDbSavedByObjectVersion
1070
     0
  0
VISUALSTYLE
  5
26F
102
{ACAD_XDICTIONARY
360
2B7
102
}
102
{ACAD_REACTORS
330
266
102
}
330
266
100
AcDbVisualStyle
  2
Conceptual
 70
     9
 71
     3
 72
     2
 73
     0
 90
        0
 40
-0.6
 41
-30.0
 62
     5
 63
     7
 74
     2
 91
        2
 64
     7
 65
   257
 75
     1
175
     1
 42
179.0
 92
        8
 66
     7
 43
1.0
 76
     1
 77
     6
 78
     2
 67
     7
 79
     3
170
     0
171
     0
290
     0
174
     0
 93
        1
 44
0.0
173
     0
291
     0
 45
0.0
1001
ACAD
1000
AcDbSavedByObjectVersion
1070
     0
  0
VISUALSTYLE
  5
271
102
{ACAD_XDICTIONARY
360
2BB
102
}
102
{ACAD_REACTORS
330
266
102
}
330
266
100
AcDbVisualStyle
  2
Dim
 70
    11
 71
     2
 72
     2
 73
     0
 90
        0
 40
-0.6
 41
-30.0
 62
     5
 63
     7
 74
     1
 91
        4
 64
     7
 65
   257
 75
     1
175
     1
 42
1.0
 92
        8
 66
     7
 43
1.0
 76
     1
 77
     6
 78
     2
 67
     7
 79
     5
170
     0
171
     0
290
     0
174
     0
 93
        1
 44
-50.0
173
     0
291
     1
 45
0.0
1001
ACAD
1000
AcDbSavedByObjectVersion
1070
     0
  0
VISUALSTYLE
  5
279
102
{ACAD_XDICTIONARY
360
2CB
102
}
102
{ACAD_REACTORS
330
266
102
}
330
266
100
AcDbVisualStyle
  2
EdgeColorOff
 70
    22
 71
     2
 72
     2
 73
     0
 90
        0
 40
-0.6
 41
-30.0
 62
     5
 63
     7
 74
     1
 91
        4
 64
     7
 65
   257
 75
     1
175
     1
 42
1.0
 92
        8
 66
     7
 43
1.0
 76
     1
 77
     6
 78
     2
 67
     7
 79
     5
170
     0
171
     0
290
     0
174
     0
 93
        1
 44
0.0
173
     0
291
     1
 45
0.0
1001
ACAD
1000
AcDbSavedByObjectVersion
1070
     0
  0
VISUALSTYLE
  5
275
102
{ACAD_XDICTIONARY
360
2C3
102
}
102
{ACAD_REACTORS
330
266
102
}
330
266
100
AcDbVisualStyle
  2
Facepattern
 70
    15
 71
     2
 72
     2
 73
     0
 90
        0
 40
-0.6
 41
-30.0
 62
     5
 63
     7
 74
     1
 91
        4
 64
     7
 65
   257
 75
     1
175
     1
 42
1.0
 92
        8
 66
     7
 43
1.0
 76
     1
 77
     6
 78
     2
 67
     7
 79
     5
170
     0
171
     0
290
     0
174
     0
 93
        1
 44
0.0
173
     0
291
     1
 45
0.0
1001
ACAD
1000
AcDbSavedByObjectVersion
1070
     0
  0
VISUALSTYLE
  5
267
102
{ACAD_XDICTIONARY
360
2A7
102
}
102
{ACAD_REACTORS
330
266
102
}
330
266
100
AcDbVisualStyle
  2
Flat
 70
     0
 71
     2
 72
     1
 73
     1
 90
        2
 40
-0.6
 41
30.0
 62
     5
 63
     7
 74
     0
 91
        4
 64
     7
 65
   257
 75
     1
175
     1
 42
1.0
 92
        8
 66
     7
 43
1.0
 76
     1
 77
     6
 78
     2
 67
     7
 79
     5
170
     0
171
     0
290
     0
174
     0
 93
       13
 44
0.0
173
     0
291
     1
 45
0.0
1001
ACAD
1000
AcDbSavedByObjectVersion
1070
     0
  0
VISUALSTYLE
  5
268
102
{ACAD_XDICTIONARY
360
2A9
102
}
102
{ACAD_REACTORS
330
266
102
}
330
266
100
AcDbVisualStyle
  2
FlatWithEdges
 70
     1
 71
     2
 72
     1
 73
     1
 90
        2
 40
-0.6
 41
30.0
 62
     5
 63
     7
 74
     1
 91
        4
 64
     7
 65
   257
 75
     1
175
     1
 42
1.0
 92
        0
 66
   257
 43
1.0
 76
     1
 77
     6
 78
     2
 67
     7
 79
     5
170
     0
171
     0
290
     0
174
     0
 93
       13
 44
0.0
173
     0
291
     1
 45
0.0
1001
ACAD
1000
AcDbSavedByObjectVersion
1070
     0
  0
VISUALSTYLE
  5
269
102
{ACAD_XDICTIONARY
360
2AB
102
}
102
{ACAD_REACTORS
330
266
102
}
330
266
100
AcDbVisualStyle
  2
Gouraud
 70
     2
 71
     2
 72
     2
 73
     1
 90
        2
 40
-0.6
 41
30.0
 62
     5
 63
     7
 74
     0
 91
        4
 64
     7
 65
   257
 75
     1
175
     1
 42
1.0
 92
        0
 66
     7
 43
1.0
 76
     1
 77
     6
 78
     2
 67
     7
 79
     5
170
     0
171
     0
290
     0
174
     0
 93
       13
 44
0.0
173
     0
291
     1
 45
0.0
1001
ACAD
1000
AcDbSavedByObjectVersion
1070
     0
  0
VISUALSTYLE
  5
26A
102
{ACAD_XDICTIONARY
360
2AD
102
}
102
{ACAD_REACTORS
330
266
102
}
330
266
100
AcDbVisualStyle
  2
GouraudWithEdges
 70
     3
 71
     2
 72
     2
 73
     1
 90
        2
 40
-0.6
 41
30.0
 62
     5
 63
     7
 74
     1
 91
        4
 64
     7
 65
   257
 75
     1
175
     1
 42
1.0
 92
        0
 66
   257
 43
1.0
 76
     1
 77
     6
 78
     2
 67
     7
 79
     5
170
     0
171
     0
290
     0
174
     0
 93
       13
 44
0.0
173
     0
291
     1
 45
0.0
1001
ACAD
1000
AcDbSavedByObjectVersion
1070
     0
  0
VISUALSTYLE
  5
277
102
{ACAD_XDICTIONARY
360
2C7
102
}
102
{ACAD_REACTORS
330
266
102
}
330
266
100
AcDbVisualStyle
  2
JitterOff
 70
    20
 71
     2
 72
     2
 73
     0
 90
        0
 40
-0.6
 41
-30.0
 62
     5
 63
     7
 74
     1
 91
        4
 64
     7
 65
   257
 75
     1
175
     1
 42
1.0
 92
       10
 66
     7
 43
1.0
 76
     1
 77
     6
 78
     2
 67
     7
 79
     5
170
     0
171
     0
290
     0
174
     0
 93
        1
 44
0.0
173
     0
291
     1
 45
0.0
1001
ACAD
1000
AcDbSavedByObjectVersion
1070
     0
  0
VISUALSTYLE
  5
274
102
{ACAD_XDICTIONARY
360
2C1
102
}
102
{ACAD_REACTORS
330
266
102
}
330
266
100
AcDbVisualStyle
  2
Linepattern
 70
    14
 71
     2
 72
     2
 73
     0
 90
        0
 40
-0.6
 41
-30.0
 62
     5
 63
     7
 74
     1
 91
        4
 64
     7
 65
   257
 75
     7
175
     7
 42
1.0
 92
        8
 66
     7
 43
1.0
 76
     1
 77
     6
 78
     2
 67
     7
 79
     5
170
     0
171
     0
290
     0
174
     0
 93
        1
 44
0.0
173
     0
291
     1
 45
0.0
1001
ACAD
1000
AcDbSavedByObjectVersion
1070
     0
  0
VISUALSTYLE
  5
278
102
{ACAD_XDICTIONARY
360
2C9
102
}
102
{ACAD_REACTORS
330
266
102
}
330
266
100
AcDbVisualStyle
  2
OverhangOff
 70
    21
 71
     2
 72
     2
 73
     0
 90
        0
 40
-0.6
 41
-30.0
 62
     5
 63
     7
 74
     1
 91
        4
 64
     7
 65
   257
 75
     1
175
     1
 42
1.0
 92
        9
 66
     7
 43
1.0
 76
     1
 77
     6
 78
     2
 67
     7
 79
     5
170
     0
171
     0
290
     0
174
     0
 93
        1
 44
0.0
173
     0
291
     1
 45
0.0
1001
ACAD
1000
AcDbSavedByObjectVersion
1070
     0
  0
VISUALSTYLE
  5
270
102
{ACAD_XDICTIONARY
360
2B9
102
}
102
{ACAD_REACTORS
330
266
102
}
330
266
100
AcDbVisualStyle
  2
Realistic
 70
     8
 71
     2
 72
     2
 73
     0
 90
        0
 40
-0.6
 41
-30.0
 62
     5
 63
     7
 74
     1
 91
        0
 64
     7
 65
   257
 75
     1
175
     1
 42
1.0
 92
        8
 66
     8
 43
1.0
 76
     1
 77
     6
 78
     2
 67
     7
 79
     5
170
     0
171
     0
290
     0
174
     0
 93
       13
 44
0.0
173
     0
291
     0
 45
0.0
1001
ACAD
1000
AcDbSavedByObjectVersion
1070
     0
  0
VISUALSTYLE
  5
273
102
{ACAD_XDICTIONARY
360
2BF
102
}
102
{ACAD_REACTORS
330
266
102
}
330
266
100
AcDbVisualStyle
  2
Thicken
 70
    13
 71
     2
 72
     2
 73
     0
 90
        0
 40
-0.6
 41
-30.0
 62
     5
 63
     7
 74
     1
 91
        4
 64
     7
 65
   257
 75
     1
175
     1
 42
1.0
 92
       12
 66
     7
 43
1.0
 76
     1
 77
     6
 78
     2
 67
     7
 79
     5
170
     0
171
     0
290
     0
174
     0
 93
        1
 44
0.0
173
     0
291
     1
 45
0.0
1001
ACAD
1000
AcDbSavedByObjectVersion
1070
     0
  0
DICTIONARYVAR
  5
295
102
{ACAD_REACTORS
330
248
102
}
330
248
100
DictionaryVariables
280
     0
  1
1:1
  0
DICTIONARYVAR
  5
294
102
{ACAD_REACTORS
330
248
102
}
330
248
100
DictionaryVariables
280
     0
  1
STANDARD
  0
DICTIONARYVAR
  5
249
102
{ACAD_REACTORS
330
248
102
}
330
248
100
DictionaryVariables
280
     0
  1
STANDARD
  0
DICTIONARYVAR
  5
24B
102
{ACAD_REACTORS
330
248
102
}
330
248
100
DictionaryVariables
280
     0
  1
2
  0
DICTIONARYVAR
  5
24A
102
{ACAD_REACTORS
330
248
102
}
330
248
100
DictionaryVariables
280
     0
  1
1
  0
DICTIONARYVAR
  5
297
102
{ACAD_REACTORS
330
248
102
}
330
248
100
DictionaryVariables
280
     0
  1
0
  0
DICTIONARYVAR
  5
24C
102
{ACAD_REACTORS
330
248
102
}
330
248
100
DictionaryVariables
280
     0
  1

  0
DICTIONARYVAR
  5
296
102
{ACAD_REACTORS
330
248
102
}
330
248
100
DictionaryVariables
280
     0
  1
127
  0
DICTIONARYVAR
  5
298
102
{ACAD_REACTORS
330
248
102
}
330
248
100
DictionaryVariables
280
     0
  1
2
  0
DICTIONARY
  5
29E
330
22
100
AcDbDictionary
280
     1
281
     1
  3
ACAD_XREC_ROUNDTRIP
360
29F
  0
DICTIONARY
  5
2A2
330
2A
100
AcDbDictionary
280
     1
281
     1
  3
ACAD_XREC_ROUNDTRIP
360
2A3
  0
DICTIONARY
  5
2A0
330
26
100
AcDbDictionary
280
     1
281
     1
  3
ACAD_XREC_ROUNDTRIP
360
2A1
  0
DICTIONARY
  5
257
330
256
100
AcDbDictionary
280
     1
281
     1
  3
ACAD_XREC_ROUNDTRIP
360
2A5
  3
BUMPTILE
360
259
  3
DIFFUSETILE
360
258
  3
OPACITYTILE
360
25C
  3
REFLECTIONTILE
360
25B
  3
REFRACTIONTILE
360
25D
  3
SPECULARTILE
360
25A
  0
DICTIONARY
  5
24F
330
24E
100
AcDbDictionary
280
     1
281
     1
  3
ACAD_XREC_ROUNDTRIP
360
2A4
  3
BUMPTILE
360
251
  3
DIFFUSETILE
360
250
  3
OPACITYTILE
360
254
  3
REFLECTIONTILE
360
253
  3
REFRACTIONTILE
360
255
  3
SPECULARTILE
360
252
  0
DICTIONARY
  5
25F
330
25E
100
AcDbDictionary
280
     1
281
     1
  3
ACAD_XREC_ROUNDTRIP
360
2A6
  3
BUMPTILE
360
261
  3
DIFFUSETILE
360
260
  3
OPACITYTILE
360
264
  3
REFLECTIONTILE
360
263
  3
REFRACTIONTILE
360
265
  3
SPECULARTILE
360
262
  0
DICTIONARY
  5
299
330
1E
100
AcDbDictionary
280
     1
281
     1
  3
ACAD_ROUNDTRIP_2008_TABLESTYLE_CELLSTYLEMAP
360
29A
  3
ACAD_XREC_ROUNDTRIP
360
29D
  0
DICTIONARY
  5
2B1
330
26C
100
AcDbDictionary
280
     1
281
     1
  3
ACAD_XREC_ROUNDTRIP
360
2B2
  0
DICTIONARY
  5
2B5
330
26E
100
AcDbDictionary
280
     1
281
     1
  3
ACAD_XREC_ROUNDTRIP
360
2B6
  0
DICTIONARY
  5
2B3
330
26D
100
AcDbDictionary
280
     1
281
     1
  3
ACAD_XREC_ROUNDTRIP
360
2B4
  0
DICTIONARY
  5
2AF
330
26B
100
AcDbDictionary
280
     1
281
     1
  3
ACAD_XREC_ROUNDTRIP
360
2B0
  0
DICTIONARY
  5
2BD
330
272
100
AcDbDictionary
280
     1
281
     1
  3
ACAD_XREC_ROUNDTRIP
360
2BE
  0
DICTIONARY
  5
2C5
330
276
100
AcDbDictionary
280
     1
281
     1
  3
ACAD_XREC_ROUNDTRIP
360
2C6
  0
DICTIONARY
  5
2B7
330
26F
100
AcDbDictionary
280
     1
281
     1
  3
ACAD_XREC_ROUNDTRIP
360
2B8
  0
DICTIONARY
  5
2BB
330
271
100
AcDbDictionary
280
     1
281
     1
  3
ACAD_XREC_ROUNDTRIP
360
2BC
  0
DICTIONARY
  5
2CB
330
279
100
AcDbDictionary
280
     1
281
     1
  3
ACAD_XREC_ROUNDTRIP
360
2CC
  0
DICTIONARY
  5
2C3
330
275
100
AcDbDictionary
280
     1
281
     1
  3
ACAD_XREC_ROUNDTRIP
360
2C4
  0
DICTIONARY
  5
2A7
330
267
100
AcDbDictionary
280
     1
281
     1
  3
ACAD_XREC_ROUNDTRIP
360
2A8
  0
DICTIONARY
  5
2A9
330
268
100
AcDbDictionary
280
     1
281
     1
  3
ACAD_XREC_ROUNDTRIP
360
2AA
  0
DICTIONARY
  5
2AB
330
269
100
AcDbDictionary
280
     1
281
     1
  3
ACAD_XREC_ROUNDTRIP
360
2AC
  0
DICTIONARY
  5
2AD
330
26A
100
AcDbDictionary
280
     1
281
     1
  3
ACAD_XREC_ROUNDTRIP
360
2AE
  0
DICTIONARY
  5
2C7
330
277
100
AcDbDictionary
280
     1
281
     1
  3
ACAD_XREC_ROUNDTRIP
360
2C8
  0
DICTIONARY
  5
2C1
330
274
100
AcDbDictionary
280
     1
281
     1
  3
ACAD_XREC_ROUNDTRIP
360
2C2
  0
DICTIONARY
  5
2C9
330
278
100
AcDbDictionary
280
     1
281
     1
  3
ACAD_XREC_ROUNDTRIP
360
2CA
  0
DICTIONARY
  5
2B9
330
270
100
AcDbDictionary
280
     1
281
     1
  3
ACAD_XREC_ROUNDTRIP
360
2BA
  0
DICTIONARY
  5
2BF
330
273
100
AcDbDictionary
280
     1
281
     1
  3
ACAD_XREC_ROUNDTRIP
360
2C0
  0
XRECORD
  5
29F
102
{ACAD_REACTORS
330
29E
102
}
330
29E
100
AcDbXrecord
280
     1
102
SHADEPLOT
 70
     0
102
SHADEPLOTRESLEVEL
 70
     2
102
SHADEPLOTCUSTOMDPI
 70
   300
  0
XRECORD
  5
2A3
102
{ACAD_REACTORS
330
2A2
102
}
330
2A2
100
AcDbXrecord
280
     1
102
SHADEPLOT
 70
     0
102
SHADEPLOTRESLEVEL
 70
     2
102
SHADEPLOTCUSTOMDPI
 70
   300
  0
XRECORD
  5
2A1
102
{ACAD_REACTORS
330
2A0
102
}
330
2A0
100
AcDbXrecord
280
     1
102
SHADEPLOT
 70
     0
102
SHADEPLOTRESLEVEL
 70
     2
102
SHADEPLOTCUSTOMDPI
 70
   300
  0
XRECORD
  5
2A5
102
{ACAD_REACTORS
330
257
102
}
330
257
100
AcDbXrecord
280
     1
102
MATERIAL
148
0.0
149
0.0
149
0.0
 93
        0
 94
      127
282
     0
 72
     0
 77
     0
171
     0
175
     0
179
     0
273
     0
  0
XRECORD
  5
259
102
{ACAD_REACTORS
330
257
102
}
330
257
100
AcDbXrecord
280
     1
270
     1
271
     1
  0
XRECORD
  5
258
102
{ACAD_REACTORS
330
257
102
}
330
257
100
AcDbXrecord
280
     1
270
     1
271
     1
  0
XRECORD
  5
25C
102
{ACAD_REACTORS
330
257
102
}
330
257
100
AcDbXrecord
280
     1
270
     1
271
     1
  0
XRECORD
  5
25B
102
{ACAD_REACTORS
330
257
102
}
330
257
100
AcDbXrecord
280
     1
270
     1
271
     1
  0
XRECORD
  5
25D
102
{ACAD_REACTORS
330
257
102
}
330
257
100
AcDbXrecord
280
     1
270
     1
271
     1
  0
XRECORD
  5
25A
102
{ACAD_REACTORS
330
257
102
}
330
257
100
AcDbXrecord
280
     1
270
     1
271
     1
  0
XRECORD
  5
2A4
102
{ACAD_REACTORS
330
24F
102
}
330
24F
100
AcDbXrecord
280
     1
102
MATERIAL
148
0.0
149
0.0
149
0.0
 93
        0
 94
      127
282
     0
 72
     0
 77
     0
171
     0
175
     0
179
     0
273
     0
  0
XRECORD
  5
251
102
{ACAD_REACTORS
330
24F
102
}
330
24F
100
AcDbXrecord
280
     1
270
     1
271
     1
  0
XRECORD
  5
250
102
{ACAD_REACTORS
330
24F
102
}
330
24F
100
AcDbXrecord
280
     1
270
     1
271
     1
  0
XRECORD
  5
254
102
{ACAD_REACTORS
330
24F
102
}
330
24F
100
AcDbXrecord
280
     1
270
     1
271
     1
  0
XRECORD
  5
253
102
{ACAD_REACTORS
330
24F
102
}
330
24F
100
AcDbXrecord
280
     1
270
     1
271
     1
  0
XRECORD
  5
255
102
{ACAD_REACTORS
330
24F
102
}
330
24F
100
AcDbXrecord
280
     1
270
     1
271
     1
  0
XRECORD
  5
252
102
{ACAD_REACTORS
330
24F
102
}
330
24F
100
AcDbXrecord
280
     1
270
     1
271
     1
  0
XRECORD
  5
2A6
102
{ACAD_REACTORS
330
25F
102
}
330
25F
100
AcDbXrecord
280
     1
102
MATERIAL
148
0.0
149
0.0
149
0.0
 93
        0
 94
      127
282
     0
 72
     0
 77
     0
171
     0
175
     0
179
     0
273
     0
  0
XRECORD
  5
261
102
{ACAD_REACTORS
330
25F
102
}
330
25F
100
AcDbXrecord
280
     1
270
     1
271
     1
  0
XRECORD
  5
260
102
{ACAD_REACTORS
330
25F
102
}
330
25F
100
AcDbXrecord
280
     1
270
     1
271
     1
  0
XRECORD
  5
264
102
{ACAD_REACTORS
330
25F
102
}
330
25F
100
AcDbXrecord
280
     1
270
     1
271
     1
  0
XRECORD
  5
263
102
{ACAD_REACTORS
330
25F
102
}
330
25F
100
AcDbXrecord
280
     1
270
     1
271
     1
  0
XRECORD
  5
265
102
{ACAD_REACTORS
330
25F
102
}
330
25F
100
AcDbXrecord
280
     1
270
     1
271
     1
  0
XRECORD
  5
262
102
{ACAD_REACTORS
330
25F
102
}
330
25F
100
AcDbXrecord
280
     1
270
     1
271
     1
  0
CELLSTYLEMAP
  5
29A
102
{ACAD_REACTORS
330
299
102
}
330
299
100
AcDbCellStyleMap
 90
        3
300
CELLSTYLE
  1
TABLEFORMAT_BEGIN
 90
        5
170
     1
 91
        0
 92
    32768
 62
   257
 93
        1
300
CONTENTFORMAT
  1
CONTENTFORMAT_BEGIN
 90
        0
 91
        0
 92
        4
 93
        0
300

 40
0.0
140
1.0
 94
        5
 62
     0
340
11
144
6.0
309
CONTENTFORMAT_END
171
     1
301
MARGIN
  1
CELLMARGIN_BEGIN
 40
1.5
 40
1.5
 40
1.5
 40
1.5
 40
0.18
 40
0.18
309
CELLMARGIN_END
 94
        6
 95
        1
302
GRIDFORMAT
  1
GRIDFORMAT_BEGIN
 90
        0
 91
        1
 62
     0
 92
       -2
340
0
 93
        0
 40
0.045
309
GRIDFORMAT_END
 95
        2
302
GRIDFORMAT
  1
GRIDFORMAT_BEGIN
 90
        0
 91
        1
 62
     0
 92
       -2
340
0
 93
        0
 40
0.045
309
GRIDFORMAT_END
 95
        4
302
GRIDFORMAT
  1
GRIDFORMAT_BEGIN
 90
        0
 91
        1
 62
     0
 92
       -2
340
0
 93
        0
 40
0.045
309
GRIDFORMAT_END
 95
        8
302
GRIDFORMAT
  1
GRIDFORMAT_BEGIN
 90
        0
 91
        1
 62
     0
 92
       -2
340
0
 93
        0
 40
0.045
309
GRIDFORMAT_END
 95
       16
302
GRIDFORMAT
  1
GRIDFORMAT_BEGIN
 90
        0
 91
        1
 62
     0
 92
       -2
340
0
 93
        0
 40
0.045
309
GRIDFORMAT_END
 95
       32
302
GRIDFORMAT
  1
GRIDFORMAT_BEGIN
 90
        0
 91
        1
 62
     0
 92
       -2
340
0
 93
        0
 40
0.045
309
GRIDFORMAT_END
309
TABLEFORMAT_END
  1
CELLSTYLE_BEGIN
 90
        1
 91
        1
300
_TITLE
309
CELLSTYLE_END
300
CELLSTYLE
  1
TABLEFORMAT_BEGIN
 90
        5
170
     1
 91
        0
 92
        0
 62
   257
 93
        1
300
CONTENTFORMAT
  1
CONTENTFORMAT_BEGIN
 90
        0
 91
        0
 92
        4
 93
        0
300

 40
0.0
140
1.0
 94
        5
 62
     0
340
11
144
4.5
309
CONTENTFORMAT_END
171
     1
301
MARGIN
  1
CELLMARGIN_BEGIN
 40
1.5
 40
1.5
 40
1.5
 40
1.5
 40
0.18
 40
0.18
309
CELLMARGIN_END
 94
        6
 95
        1
302
GRIDFORMAT
  1
GRIDFORMAT_BEGIN
 90
        0
 91
        1
 62
     0
 92
       -2
340
0
 93
        0
 40
0.045
309
GRIDFORMAT_END
 95
        2
302
GRIDFORMAT
  1
GRIDFORMAT_BEGIN
 90
        0
 91
        1
 62
     0
 92
       -2
340
0
 93
        0
 40
0.045
309
GRIDFORMAT_END
 95
        4
302
GRIDFORMAT
  1
GRIDFORMAT_BEGIN
 90
        0
 91
        1
 62
     0
 92
       -2
340
0
 93
        0
 40
0.045
309
GRIDFORMAT_END
 95
        8
302
GRIDFORMAT
  1
GRIDFORMAT_BEGIN
 90
        0
 91
        1
 62
     0
 92
       -2
340
0
 93
        0
 40
0.045
309
GRIDFORMAT_END
 95
       16
302
GRIDFORMAT
  1
GRIDFORMAT_BEGIN
 90
        0
 91
        1
 62
     0
 92
       -2
340
0
 93
        0
 40
0.045
309
GRIDFORMAT_END
 95
       32
302
GRIDFORMAT
  1
GRIDFORMAT_BEGIN
 90
        0
 91
        1
 62
     0
 92
       -2
340
0
 93
        0
 40
0.045
309
GRIDFORMAT_END
309
TABLEFORMAT_END
  1
CELLSTYLE_BEGIN
 90
        2
 91
        1
300
_HEADER
309
CELLSTYLE_END
300
CELLSTYLE
  1
TABLEFORMAT_BEGIN
 90
        5
170
     1
 91
        0
 92
        0
 62
   257
 93
        1
300
CONTENTFORMAT
  1
CONTENTFORMAT_BEGIN
 90
        0
 91
        0
 92
        4
 93
        0
300

 40
0.0
140
1.0
 94
        2
 62
     0
340
11
144
4.5
309
CONTENTFORMAT_END
171
     1
301
MARGIN
  1
CELLMARGIN_BEGIN
 40
1.5
 40
1.5
 40
1.5
 40
1.5
 40
0.18
 40
0.18
309
CELLMARGIN_END
 94
        6
 95
        1
302
GRIDFORMAT
  1
GRIDFORMAT_BEGIN
 90
        0
 91
        1
 62
     0
 92
       -2
340
0
 93
        0
 40
0.045
309
GRIDFORMAT_END
 95
        2
302
GRIDFORMAT
  1
GRIDFORMAT_BEGIN
 90
        0
 91
        1
 62
     0
 92
       -2
340
0
 93
        0
 40
0.045
309
GRIDFORMAT_END
 95
        4
302
GRIDFORMAT
  1
GRIDFORMAT_BEGIN
 90
        0
 91
        1
 62
     0
 92
       -2
340
0
 93
        0
 40
0.045
309
GRIDFORMAT_END
 95
        8
302
GRIDFORMAT
  1
GRIDFORMAT_BEGIN
 90
        0
 91
        1
 62
     0
 92
       -2
340
0
 93
        0
 40
0.045
309
GRIDFORMAT_END
 95
       16
302
GRIDFORMAT
  1
GRIDFORMAT_BEGIN
 90
        0
 91
        1
 62
     0
 92
       -2
340
0
 93
        0
 40
0.045
309
GRIDFORMAT_END
 95
       32
302
GRIDFORMAT
  1
GRIDFORMAT_BEGIN
 90
        0
 91
        1
 62
     0
 92
       -2
340
0
 93
        0
 40
0.045
309
GRIDFORMAT_END
309
TABLEFORMAT_END
  1
CELLSTYLE_BEGIN
 90
        3
 91
        2
300
_DATA
309
CELLSTYLE_END
  0
XRECORD
  5
29D
102
{ACAD_REACTORS
330
299
102
}
330
299
100
AcDbXrecord
280
     1
102
ACAD_ROUNDTRIP_PRE2007_TABLESTYLE
 90
        4
 91
        0
  1

 92
        4
 93
        0
  2

 94
        4
 95
        0
  3

  0
XRECORD
  5
2B2
102
{ACAD_REACTORS
330
2B1
102
}
330
2B1
100
AcDbXrecord
280
     1
102
RTVSPropertyOp0
 70
     1
102
RTVSPropertyOp1
 70
     1
102
RTVSPropertyOp2
 70
     1
102
RTVSPropertyOp3
 70
     1
102
RTVSPropertyOp4
 70
     1
102
RTVSPropertyOp5
 70
     1
102
RTVSPropertyOp6
 70
     1
102
RTVSPropertyOp7
 70
     1
102
RTVSPropertyOp8
 70
     1
102
RTVSPropertyOp9
 70
     1
102
RTVSPropertyOp10
 70
     1
102
RTVSPropertyOp11
 70
     1
102
RTVSPropertyOp12
 70
     1
102
RTVSPropertyOp13
 70
     1
102
RTVSPropertyOp14
 70
     1
102
RTVSPropertyOp15
 70
     1
102
RTVSPropertyOp16
 70
     1
102
RTVSPropertyOp17
 70
     1
102
RTVSPropertyOp18
 70
     1
102
RTVSPropertyOp19
 70
     1
102
RTVSPropertyOp20
 70
     1
102
RTVSPropertyOp21
 70
     1
102
RTVSPropertyOp22
 70
     1
102
RTVSPropertyOp23
 70
     1
102
RTVSPropertyOp24
 70
     1
102
RTVSPropertyOp25
 70
     1
102
RTVSPropertyOp26
 70
     1
102
RTVSPropertyOp27
 70
     1
  0
XRECORD
  5
2B6
102
{ACAD_REACTORS
330
2B5
102
}
330
2B5
100
AcDbXrecord
280
     1
102
RTVSPropertyOp0
 70
     1
102
RTVSPropertyOp1
 70
     1
102
RTVSPropertyOp2
 70
     1
102
RTVSPropertyOp3
 70
     1
102
RTVSPropertyOp4
 70
     1
102
RTVSPropertyOp5
 70
     1
102
RTVSPropertyOp6
 70
     1
102
RTVSPropertyOp7
 70
     1
102
RTVSPropertyOp8
 70
     1
102
RTVSPropertyOp9
 70
     1
102
RTVSPropertyOp10
 70
     1
102
RTVSPropertyOp11
 70
     1
102
RTVSPropertyOp12
 70
     1
102
RTVSPropertyOp13
 70
     1
102
RTVSPropertyOp14
 70
     1
102
RTVSPropertyOp15
 70
     1
102
RTVSPropertyOp16
 70
     1
102
RTVSPropertyOp17
 70
     1
102
RTVSPropertyOp18
 70
     1
102
RTVSPropertyOp19
 70
     1
102
RTVSPropertyOp20
 70
     1
102
RTVSPropertyOp21
 70
     1
102
RTVSPropertyOp22
 70
     1
102
RTVSPropertyOp23
 70
     1
102
RTVSPropertyOp24
 70
     1
102
RTVSPropertyOp25
 70
     1
102
RTVSPropertyOp26
 70
     1
102
RTVSPropertyOp27
 70
     1
  0
XRECORD
  5
2B4
102
{ACAD_REACTORS
330
2B3
102
}
330
2B3
100
AcDbXrecord
280
     1
102
RTVSPropertyOp0
 70
     1
102
RTVSPropertyOp1
 70
     1
102
RTVSPropertyOp2
 70
     1
102
RTVSPropertyOp3
 70
     1
102
RTVSPropertyOp4
 70
     1
102
RTVSPropertyOp5
 70
     1
102
RTVSPropertyOp6
 70
     1
102
RTVSPropertyOp7
 70
     1
102
RTVSPropertyOp8
 70
     1
102
RTVSPropertyOp9
 70
     1
102
RTVSPropertyOp10
 70
     1
102
RTVSPropertyOp11
 70
     1
102
RTVSPropertyOp12
 70
     1
102
RTVSPropertyOp13
 70
     1
102
RTVSPropertyOp14
 70
     1
102
RTVSPropertyOp15
 70
     1
102
RTVSPropertyOp16
 70
     1
102
RTVSPropertyOp17
 70
     1
102
RTVSPropertyOp18
 70
     1
102
RTVSPropertyOp19
 70
     1
102
RTVSPropertyOp20
 70
     1
102
RTVSPropertyOp21
 70
     1
102
RTVSPropertyOp22
 70
     1
102
RTVSPropertyOp23
 70
     1
102
RTVSPropertyOp24
 70
     1
102
RTVSPropertyOp25
 70
     1
102
RTVSPropertyOp26
 70
     1
102
RTVSPropertyOp27
 70
     1
  0
XRECORD
  5
2B0
102
{ACAD_REACTORS
330
2AF
102
}
330
2AF
100
AcDbXrecord
280
     1
102
RTVSPropertyOp0
 70
     1
102
RTVSPropertyOp1
 70
     1
102
RTVSPropertyOp2
 70
     1
102
RTVSPropertyOp3
 70
     1
102
RTVSPropertyOp4
 70
     1
102
RTVSPropertyOp5
 70
     1
102
RTVSPropertyOp6
 70
     1
102
RTVSPropertyOp7
 70
     1
102
RTVSPropertyOp8
 70
     1
102
RTVSPropertyOp9
 70
     1
102
RTVSPropertyOp10
 70
     1
102
RTVSPropertyOp11
 70
     1
102
RTVSPropertyOp12
 70
     1
102
RTVSPropertyOp13
 70
     1
102
RTVSPropertyOp14
 70
     1
102
RTVSPropertyOp15
 70
     1
102
RTVSPropertyOp16
 70
     1
102
RTVSPropertyOp17
 70
     1
102
RTVSPropertyOp18
 70
     1
102
RTVSPropertyOp19
 70
     1
102
RTVSPropertyOp20
 70
     1
102
RTVSPropertyOp21
 70
     1
102
RTVSPropertyOp22
 70
     1
102
RTVSPropertyOp23
 70
     1
102
RTVSPropertyOp24
 70
     1
102
RTVSPropertyOp25
 70
     1
102
RTVSPropertyOp26
 70
     1
102
RTVSPropertyOp27
 70
     1
  0
XRECORD
  5
2BE
102
{ACAD_REACTORS
330
2BD
102
}
330
2BD
100
AcDbXrecord
280
     1
102
RTVSPropertyOp0
 70
     1
102
RTVSPropertyOp1
 70
     1
102
RTVSPropertyOp2
 70
     1
102
RTVSPropertyOp3
 70
     1
102
RTVSPropertyOp4
 70
     1
102
RTVSPropertyOp5
 70
     1
102
RTVSPropertyOp6
 70
     1
102
RTVSPropertyOp7
 70
     1
102
RTVSPropertyOp8
 70
     1
102
RTVSPropertyOp9
 70
     1
102
RTVSPropertyOp10
 70
     1
102
RTVSPropertyOp11
 70
     1
102
RTVSPropertyOp12
 70
     1
102
RTVSPropertyOp13
 70
     1
102
RTVSPropertyOp14
 70
     1
102
RTVSPropertyOp15
 70
     1
102
RTVSPropertyOp16
 70
     1
102
RTVSPropertyOp17
 70
     1
102
RTVSPropertyOp18
 70
     1
102
RTVSPropertyOp19
 70
     1
102
RTVSPropertyOp20
 70
     1
102
RTVSPropertyOp21
 70
     1
102
RTVSPropertyOp22
 70
     1
102
RTVSPropertyOp23
 70
     1
102
RTVSPropertyOp24
 70
     1
102
RTVSPropertyOp25
 70
     1
102
RTVSPropertyOp26
 70
     1
102
RTVSPropertyOp27
 70
     1
  0
XRECORD
  5
2C6
102
{ACAD_REACTORS
330
2C5
102
}
330
2C5
100
AcDbXrecord
280
     1
102
RTVSPropertyOp0
 70
     1
102
RTVSPropertyOp1
 70
     1
102
RTVSPropertyOp2
 70
     1
102
RTVSPropertyOp3
 70
     1
102
RTVSPropertyOp4
 70
     1
102
RTVSPropertyOp5
 70
     1
102
RTVSPropertyOp6
 70
     1
102
RTVSPropertyOp7
 70
     1
102
RTVSPropertyOp8
 70
     1
102
RTVSPropertyOp9
 70
     1
102
RTVSPropertyOp10
 70
     1
102
RTVSPropertyOp11
 70
     1
102
RTVSPropertyOp12
 70
     1
102
RTVSPropertyOp13
 70
     1
102
RTVSPropertyOp14
 70
     1
102
RTVSPropertyOp15
 70
     1
102
RTVSPropertyOp16
 70
     1
102
RTVSPropertyOp17
 70
     1
102
RTVSPropertyOp18
 70
     1
102
RTVSPropertyOp19
 70
     1
102
RTVSPropertyOp20
 70
     1
102
RTVSPropertyOp21
 70
     1
102
RTVSPropertyOp22
 70
     1
102
RTVSPropertyOp23
 70
     1
102
RTVSPropertyOp24
 70
     1
102
RTVSPropertyOp25
 70
     1
102
RTVSPropertyOp26
 70
     1
102
RTVSPropertyOp27
 70
     1
  0
XRECORD
  5
2B8
102
{ACAD_REACTORS
330
2B7
102
}
330
2B7
100
AcDbXrecord
280
     1
102
RTVSPropertyOp0
 70
     1
102
RTVSPropertyOp1
 70
     1
102
RTVSPropertyOp2
 70
     1
102
RTVSPropertyOp3
 70
     1
102
RTVSPropertyOp4
 70
     1
102
RTVSPropertyOp5
 70
     1
102
RTVSPropertyOp6
 70
     1
102
RTVSPropertyOp7
 70
     1
102
RTVSPropertyOp8
 70
     1
102
RTVSPropertyOp9
 70
     1
102
RTVSPropertyOp10
 70
     1
102
RTVSPropertyOp11
 70
     1
102
RTVSPropertyOp12
 70
     1
102
RTVSPropertyOp13
 70
     1
102
RTVSPropertyOp14
 70
     1
102
RTVSPropertyOp15
 70
     1
102
RTVSPropertyOp16
 70
     1
102
RTVSPropertyOp17
 70
     1
102
RTVSPropertyOp18
 70
     1
102
RTVSPropertyOp19
 70
     1
102
RTVSPropertyOp20
 70
     1
102
RTVSPropertyOp21
 70
     1
102
RTVSPropertyOp22
 70
     1
102
RTVSPropertyOp23
 70
     1
102
RTVSPropertyOp24
 70
     1
102
RTVSPropertyOp25
 70
     1
102
RTVSPropertyOp26
 70
     1
102
RTVSPropertyOp27
 70
     1
  0
XRECORD
  5
2BC
102
{ACAD_REACTORS
330
2BB
102
}
330
2BB
100
AcDbXrecord
280
     1
102
RTVSPropertyOp0
 70
     1
102
RTVSPropertyOp1
 70
     1
102
RTVSPropertyOp2
 70
     1
102
RTVSPropertyOp3
 70
     1
102
RTVSPropertyOp4
 70
     1
102
RTVSPropertyOp5
 70
     1
102
RTVSPropertyOp6
 70
     1
102
RTVSPropertyOp7
 70
     1
102
RTVSPropertyOp8
 70
     1
102
RTVSPropertyOp9
 70
     1
102
RTVSPropertyOp10
 70
     1
102
RTVSPropertyOp11
 70
     1
102
RTVSPropertyOp12
 70
     1
102
RTVSPropertyOp13
 70
     1
102
RTVSPropertyOp14
 70
     1
102
RTVSPropertyOp15
 70
     1
102
RTVSPropertyOp16
 70
     1
102
RTVSPropertyOp17
 70
     1
102
RTVSPropertyOp18
 70
     1
102
RTVSPropertyOp19
 70
     1
102
RTVSPropertyOp20
 70
     1
102
RTVSPropertyOp21
 70
     1
102
RTVSPropertyOp22
 70
     1
102
RTVSPropertyOp23
 70
     1
102
RTVSPropertyOp24
 70
     1
102
RTVSPropertyOp25
 70
     1
102
RTVSPropertyOp26
 70
     1
102
RTVSPropertyOp27
 70
     1
  0
XRECORD
  5
2CC
102
{ACAD_REACTORS
330
2CB
102
}
330
2CB
100
AcDbXrecord
280
     1
102
RTVSPropertyOp0
 70
     0
102
RTVSPropertyOp1
 70
     0
102
RTVSPropertyOp2
 70
     0
102
RTVSPropertyOp3
 70
     0
102
RTVSPropertyOp4
 70
     0
102
RTVSPropertyOp5
 70
     0
102
RTVSPropertyOp6
 70
     0
102
RTVSPropertyOp7
 70
     0
102
RTVSPropertyOp8
 70
     0
102
RTVSPropertyOp9
 70
     0
102
RTVSPropertyOp10
 70
     0
102
RTVSPropertyOp11
 70
     0
102
RTVSPropertyOp12
 70
     0
102
RTVSPropertyOp13
 70
     0
102
RTVSPropertyOp14
 70
     2
102
RTVSPropertyOp15
 70
     0
102
RTVSPropertyOp16
 70
     0
102
RTVSPropertyOp17
 70
     0
102
RTVSPropertyOp18
 70
     0
102
RTVSPropertyOp19
 70
     0
102
RTVSPropertyOp20
 70
     0
102
RTVSPropertyOp21
 70
     0
102
RTVSPropertyOp22
 70
     0
102
RTVSPropertyOp23
 70
     0
102
RTVSPropertyOp24
 70
     0
102
RTVSPropertyOp25
 70
     0
102
RTVSPropertyOp26
 70
     0
102
RTVSPropertyOp27
 70
     0
  0
XRECORD
  5
2C4
102
{ACAD_REACTORS
330
2C3
102
}
330
2C3
100
AcDbXrecord
280
     1
102
RTVSPropertyOp0
 70
     1
102
RTVSPropertyOp1
 70
     1
102
RTVSPropertyOp2
 70
     1
102
RTVSPropertyOp3
 70
     1
102
RTVSPropertyOp4
 70
     1
102
RTVSPropertyOp5
 70
     1
102
RTVSPropertyOp6
 70
     1
102
RTVSPropertyOp7
 70
     1
102
RTVSPropertyOp8
 70
     1
102
RTVSPropertyOp9
 70
     1
102
RTVSPropertyOp10
 70
     1
102
RTVSPropertyOp11
 70
     1
102
RTVSPropertyOp12
 70
     1
102
RTVSPropertyOp13
 70
     1
102
RTVSPropertyOp14
 70
     1
102
RTVSPropertyOp15
 70
     1
102
RTVSPropertyOp16
 70
     1
102
RTVSPropertyOp17
 70
     1
102
RTVSPropertyOp18
 70
     1
102
RTVSPropertyOp19
 70
     1
102
RTVSPropertyOp20
 70
     1
102
RTVSPropertyOp21
 70
     1
102
RTVSPropertyOp22
 70
     1
102
RTVSPropertyOp23
 70
     1
102
RTVSPropertyOp24
 70
     1
102
RTVSPropertyOp25
 70
     1
102
RTVSPropertyOp26
 70
     1
102
RTVSPropertyOp27
 70
     1
  0
XRECORD
  5
2A8
102
{ACAD_REACTORS
330
2A7
102
}
330
2A7
100
AcDbXrecord
280
     1
102
RTVSPropertyOp0
 70
     1
102
RTVSPropertyOp1
 70
     1
102
RTVSPropertyOp2
 70
     1
102
RTVSPropertyOp3
 70
     1
102
RTVSPropertyOp4
 70
     1
102
RTVSPropertyOp5
 70
     1
102
RTVSPropertyOp6
 70
     1
102
RTVSPropertyOp7
 70
     1
102
RTVSPropertyOp8
 70
     1
102
RTVSPropertyOp9
 70
     1
102
RTVSPropertyOp10
 70
     1
102
RTVSPropertyOp11
 70
     1
102
RTVSPropertyOp12
 70
     1
102
RTVSPropertyOp13
 70
     1
102
RTVSPropertyOp14
 70
     1
102
RTVSPropertyOp15
 70
     1
102
RTVSPropertyOp16
 70
     1
102
RTVSPropertyOp17
 70
     1
102
RTVSPropertyOp18
 70
     1
102
RTVSPropertyOp19
 70
     1
102
RTVSPropertyOp20
 70
     1
102
RTVSPropertyOp21
 70
     1
102
RTVSPropertyOp22
 70
     1
102
RTVSPropertyOp23
 70
     1
102
RTVSPropertyOp24
 70
     1
102
RTVSPropertyOp25
 70
     1
102
RTVSPropertyOp26
 70
     1
102
RTVSPropertyOp27
 70
     1
  0
XRECORD
  5
2AA
102
{ACAD_REACTORS
330
2A9
102
}
330
2A9
100
AcDbXrecord
280
     1
102
RTVSPropertyOp0
 70
     1
102
RTVSPropertyOp1
 70
     1
102
RTVSPropertyOp2
 70
     1
102
RTVSPropertyOp3
 70
     1
102
RTVSPropertyOp4
 70
     1
102
RTVSPropertyOp5
 70
     1
102
RTVSPropertyOp6
 70
     1
102
RTVSPropertyOp7
 70
     1
102
RTVSPropertyOp8
 70
     1
102
RTVSPropertyOp9
 70
     1
102
RTVSPropertyOp10
 70
     1
102
RTVSPropertyOp11
 70
     1
102
RTVSPropertyOp12
 70
     1
102
RTVSPropertyOp13
 70
     1
102
RTVSPropertyOp14
 70
     1
102
RTVSPropertyOp15
 70
     1
102
RTVSPropertyOp16
 70
     1
102
RTVSPropertyOp17
 70
     1
102
RTVSPropertyOp18
 70
     1
102
RTVSPropertyOp19
 70
     1
102
RTVSPropertyOp20
 70
     1
102
RTVSPropertyOp21
 70
     1
102
RTVSPropertyOp22
 70
     1
102
RTVSPropertyOp23
 70
     1
102
RTVSPropertyOp24
 70
     1
102
RTVSPropertyOp25
 70
     1
102
RTVSPropertyOp26
 70
     1
102
RTVSPropertyOp27
 70
     1
  0
XRECORD
  5
2AC
102
{ACAD_REACTORS
330
2AB
102
}
330
2AB
100
AcDbXrecord
280
     1
102
RTVSPropertyOp0
 70
     1
102
RTVSPropertyOp1
 70
     1
102
RTVSPropertyOp2
 70
     1
102
RTVSPropertyOp3
 70
     1
102
RTVSPropertyOp4
 70
     1
102
RTVSPropertyOp5
 70
     1
102
RTVSPropertyOp6
 70
     1
102
RTVSPropertyOp7
 70
     1
102
RTVSPropertyOp8
 70
     1
102
RTVSPropertyOp9
 70
     1
102
RTVSPropertyOp10
 70
     1
102
RTVSPropertyOp11
 70
     1
102
RTVSPropertyOp12
 70
     1
102
RTVSPropertyOp13
 70
     1
102
RTVSPropertyOp14
 70
     1
102
RTVSPropertyOp15
 70
     1
102
RTVSPropertyOp16
 70
     1
102
RTVSPropertyOp17
 70
     1
102
RTVSPropertyOp18
 70
     1
102
RTVSPropertyOp19
 70
     1
102
RTVSPropertyOp20
 70
     1
102
RTVSPropertyOp21
 70
     1
102
RTVSPropertyOp22
 70
     1
102
RTVSPropertyOp23
 70
     1
102
RTVSPropertyOp24
 70
     1
102
RTVSPropertyOp25
 70
     1
102
RTVSPropertyOp26
 70
     1
102
RTVSPropertyOp27
 70
     1
  0
XRECORD
  5
2AE
102
{ACAD_REACTORS
330
2AD
102
}
330
2AD
100
AcDbXrecord
280
     1
102
RTVSPropertyOp0
 70
     1
102
RTVSPropertyOp1
 70
     1
102
RTVSPropertyOp2
 70
     1
102
RTVSPropertyOp3
 70
     1
102
RTVSPropertyOp4
 70
     1
102
RTVSPropertyOp5
 70
     1
102
RTVSPropertyOp6
 70
     1
102
RTVSPropertyOp7
 70
     1
102
RTVSPropertyOp8
 70
     1
102
RTVSPropertyOp9
 70
     1
102
RTVSPropertyOp10
 70
     1
102
RTVSPropertyOp11
 70
     1
102
RTVSPropertyOp12
 70
     1
102
RTVSPropertyOp13
 70
     1
102
RTVSPropertyOp14
 70
     1
102
RTVSPropertyOp15
 70
     1
102
RTVSPropertyOp16
 70
     1
102
RTVSPropertyOp17
 70
     1
102
RTVSPropertyOp18
 70
     1
102
RTVSPropertyOp19
 70
     1
102
RTVSPropertyOp20
 70
     1
102
RTVSPropertyOp21
 70
     1
102
RTVSPropertyOp22
 70
     1
102
RTVSPropertyOp23
 70
     1
102
RTVSPropertyOp24
 70
     1
102
RTVSPropertyOp25
 70
     1
102
RTVSPropertyOp26
 70
     1
102
RTVSPropertyOp27
 70
     1
  0
XRECORD
  5
2C8
102
{ACAD_REACTORS
330
2C7
102
}
330
2C7
100
AcDbXrecord
280
     1
102
RTVSPropertyOp0
 70
     0
102
RTVSPropertyOp1
 70
     0
102
RTVSPropertyOp2
 70
     0
102
RTVSPropertyOp3
 70
     0
102
RTVSPropertyOp4
 70
     0
102
RTVSPropertyOp5
 70
     0
102
RTVSPropertyOp6
 70
     0
102
RTVSPropertyOp7
 70
     0
102
RTVSPropertyOp8
 70
     0
102
RTVSPropertyOp9
 70
     0
102
RTVSPropertyOp10
 70
     0
102
RTVSPropertyOp11
 70
     0
102
RTVSPropertyOp12
 70
     0
102
RTVSPropertyOp13
 70
     0
102
RTVSPropertyOp14
 70
     2
102
RTVSPropertyOp15
 70
     0
102
RTVSPropertyOp16
 70
     0
102
RTVSPropertyOp17
 70
     0
102
RTVSPropertyOp18
 70
     0
102
RTVSPropertyOp19
 70
     0
102
RTVSPropertyOp20
 70
     0
102
RTVSPropertyOp21
 70
     0
102
RTVSPropertyOp22
 70
     0
102
RTVSPropertyOp23
 70
     0
102
RTVSPropertyOp24
 70
     0
102
RTVSPropertyOp25
 70
     0
102
RTVSPropertyOp26
 70
     0
102
RTVSPropertyOp27
 70
     0
  0
XRECORD
  5
2C2
102
{ACAD_REACTORS
330
2C1
102
}
330
2C1
100
AcDbXrecord
280
     1
102
RTVSPropertyOp0
 70
     1
102
RTVSPropertyOp1
 70
     1
102
RTVSPropertyOp2
 70
     1
102
RTVSPropertyOp3
 70
     1
102
RTVSPropertyOp4
 70
     1
102
RTVSPropertyOp5
 70
     1
102
RTVSPropertyOp6
 70
     1
102
RTVSPropertyOp7
 70
     1
102
RTVSPropertyOp8
 70
     1
102
RTVSPropertyOp9
 70
     1
102
RTVSPropertyOp10
 70
     1
102
RTVSPropertyOp11
 70
     1
102
RTVSPropertyOp12
 70
     1
102
RTVSPropertyOp13
 70
     1
102
RTVSPropertyOp14
 70
     1
102
RTVSPropertyOp15
 70
     1
102
RTVSPropertyOp16
 70
     1
102
RTVSPropertyOp17
 70
     1
102
RTVSPropertyOp18
 70
     1
102
RTVSPropertyOp19
 70
     1
102
RTVSPropertyOp20
 70
     1
102
RTVSPropertyOp21
 70
     1
102
RTVSPropertyOp22
 70
     1
102
RTVSPropertyOp23
 70
     1
102
RTVSPropertyOp24
 70
     1
102
RTVSPropertyOp25
 70
     1
102
RTVSPropertyOp26
 70
     1
102
RTVSPropertyOp27
 70
     1
  0
XRECORD
  5
2CA
102
{ACAD_REACTORS
330
2C9
102
}
330
2C9
100
AcDbXrecord
280
     1
102
RTVSPropertyOp0
 70
     0
102
RTVSPropertyOp1
 70
     0
102
RTVSPropertyOp2
 70
     0
102
RTVSPropertyOp3
 70
     0
102
RTVSPropertyOp4
 70
     0
102
RTVSPropertyOp5
 70
     0
102
RTVSPropertyOp6
 70
     0
102
RTVSPropertyOp7
 70
     0
102
RTVSPropertyOp8
 70
     0
102
RTVSPropertyOp9
 70
     0
102
RTVSPropertyOp10
 70
     0
102
RTVSPropertyOp11
 70
     0
102
RTVSPropertyOp12
 70
     0
102
RTVSPropertyOp13
 70
     0
102
RTVSPropertyOp14
 70
     2
102
RTVSPropertyOp15
 70
     0
102
RTVSPropertyOp16
 70
     0
102
RTVSPropertyOp17
 70
     0
102
RTVSPropertyOp18
 70
     0
102
RTVSPropertyOp19
 70
     0
102
RTVSPropertyOp20
 70
     0
102
RTVSPropertyOp21
 70
     0
102
RTVSPropertyOp22
 70
     0
102
RTVSPropertyOp23
 70
     0
102
RTVSPropertyOp24
 70
     0
102
RTVSPropertyOp25
 70
     0
102
RTVSPropertyOp26
 70
     0
102
RTVSPropertyOp27
 70
     0
  0
XRECORD
  5
2BA
102
{ACAD_REACTORS
330
2B9
102
}
330
2B9
100
AcDbXrecord
280
     1
102
RTVSPropertyOp0
 70
     1
102
RTVSPropertyOp1
 70
     1
102
RTVSPropertyOp2
 70
     1
102
RTVSPropertyOp3
 70
     1
102
RTVSPropertyOp4
 70
     1
102
RTVSPropertyOp5
 70
     1
102
RTVSPropertyOp6
 70
     1
102
RTVSPropertyOp7
 70
     1
102
RTVSPropertyOp8
 70
     1
102
RTVSPropertyOp9
 70
     1
102
RTVSPropertyOp10
 70
     1
102
RTVSPropertyOp11
 70
     1
102
RTVSPropertyOp12
 70
     1
102
RTVSPropertyOp13
 70
     1
102
RTVSPropertyOp14
 70
     1
102
RTVSPropertyOp15
 70
     1
102
RTVSPropertyOp16
 70
     1
102
RTVSPropertyOp17
 70
     1
102
RTVSPropertyOp18
 70
     1
102
RTVSPropertyOp19
 70
     1
102
RTVSPropertyOp20
 70
     1
102
RTVSPropertyOp21
 70
     1
102
RTVSPropertyOp22
 70
     1
102
RTVSPropertyOp23
 70
     1
102
RTVSPropertyOp24
 70
     1
102
RTVSPropertyOp25
 70
     1
102
RTVSPropertyOp26
 70
     1
102
RTVSPropertyOp27
 70
     1
  0
XRECORD
  5
2C0
102
{ACAD_REACTORS
330
2BF
102
}
330
2BF
100
AcDbXrecord
280
     1
102
RTVSPropertyOp0
 70
     1
102
RTVSPropertyOp1
 70
     1
102
RTVSPropertyOp2
 70
     1
102
RTVSPropertyOp3
 70
     1
102
RTVSPropertyOp4
 70
     1
102
RTVSPropertyOp5
 70
     1
102
RTVSPropertyOp6
 70
     1
102
RTVSPropertyOp7
 70
     1
102
RTVSPropertyOp8
 70
     1
102
RTVSPropertyOp9
 70
     1
102
RTVSPropertyOp10
 70
     1
102
RTVSPropertyOp11
 70
     1
102
RTVSPropertyOp12
 70
     1
102
RTVSPropertyOp13
 70
     1
102
RTVSPropertyOp14
 70
     1
102
RTVSPropertyOp15
 70
     1
102
RTVSPropertyOp16
 70
     1
102
RTVSPropertyOp17
 70
     1
102
RTVSPropertyOp18
 70
     1
102
RTVSPropertyOp19
 70
     1
102
RTVSPropertyOp20
 70
     1
102
RTVSPropertyOp21
 70
     1
102
RTVSPropertyOp22
 70
     1
102
RTVSPropertyOp23
 70
     1
102
RTVSPropertyOp24
 70
     1
102
RTVSPropertyOp25
 70
     1
102
RTVSPropertyOp26
 70
     1
102
RTVSPropertyOp27
 70
     1
  0
ENDSEC
  0
EOF
