  0
SECTION
  2
HEADER
  9
$ACADVER
  1
AC1015
  9
$ACADMAINTVER
 70
    20
  9
$DWGCODEPAGE
  3
ANSI_1252
  9
$INSBASE
 10
0.0
 20
0.0
 30
0.0
  9
$EXTMIN
 10
131.1596060526565
 20
245.9669363104782
 30
0.0
  9
$EXTMAX
 10
134.2144420906594
 20
246.8069363104782
 30
0.0
  9
$LIMMIN
 10
0.0
 20
0.0
  9
$LIMMAX
 10
0.0
 20
0.0
  9
$ORTHOMODE
 70
     1
  9
$REGENMODE
 70
     1
  9
$FILLMODE
 70
     1
  9
$QTEXTMODE
 70
     0
  9
$MIRRTEXT
 70
     1
  9
$LTSCALE
 40
1.0
  9
$ATTMODE
 70
     1
  9
$TEXTSIZE
 40
0.0
  9
$TRACEWID
 40
0.05
  9
$TEXTSTYLE
  7
STANDARD
  9
$CLAYER
  8
INDUSA
  9
$CELTYPE
  6
CONTINUOUS
  9
$CECOLOR
 62
   256
  9
$CELTSCALE
 40
1.0
  9
$DISPSILH
 70
     0
  9
$DIMSCALE
 40
1.0
  9
$DIMASZ
 40
5.994399999999999
  9
$DIMEXO
 40
0.9905999999999998
  9
$DIMDLI
 40
0.38
  9
$DIMRND
 40
0.0
  9
$DIMDLE
 40
0.9905999999999998
  9
$DIMEXE
 40
0.18
  9
$DIMTP
 40
0.0
  9
$DIMTM
 40
0.0
  9
$DIMTXT
 40
6.349999999999999
  9
$DIMCEN
 40
0.09
  9
$DIMTSZ
 40
0.0
  9
$DIMTOL
 70
     0
  9
$DIMLIM
 70
     0
  9
$DIMTIH
 70
     1
  9
$DIMTOH
 70
     1
  9
$DIMSE1
 70
     0
  9
$DIMSE2
 70
     0
  9
$DIMTAD
 70
     1
  9
$DIMZIN
 70
     0
  9
$DIMBLK
  1

  9
$DIMASO
 70
     1
  9
$DIMSHO
 70
     1
  9
$DIMPOST
  1

  9
$DIMAPOST
  1

  9
$DIMALT
 70
     0
  9
$DIMALTD
 70
     2
  9
$DIMALTF
 40
0.0394
  9
$DIMLFAC
 40
1.0
  9
$DIMTOFL
 70
     0
  9
$DIMTVP
 40
0.0
  9
$DIMTIX
 70
     0
  9
$DIMSOXD
 70
     0
  9
$DIMSAH
 70
     0
  9
$DIMBLK1
  1

  9
$DIMBLK2
  1

  9
$DIMSTYLE
  2
STANDARD
  9
$DIMCLRD
 70
     0
  9
$DIMCLRE
 70
     0
  9
$DIMCLRT
 70
     0
  9
$DIMTFAC
 40
1.0
  9
$DIMGAP
 40
0.9905999999999998
  9
$DIMJUST
 70
     0
  9
$DIMSD1
 70
     0
  9
$DIMSD2
 70
     0
  9
$DIMTOLJ
 70
     1
  9
$DIMTZIN
 70
     0
  9
$DIMALTZ
 70
     0
  9
$DIMALTTZ
 70
     0
  9
$DIMUPT
 70
     0
  9
$DIMDEC
 70
     4
  9
$DIMTDEC
 70
     4
  9
$DIMALTU
 70
     2
  9
$DIMALTTD
 70
     2
  9
$DIMTXSTY
  7
STANDARD
  9
$DIMAUNIT
 70
     0
  9
$DIMADEC
 70
     0
  9
$DIMALTRND
 40
0.0
  9
$DIMAZIN
 70
     0
  9
$DIMDSEP
 70
    46
  9
$DIMATFIT
 70
     3
  9
$DIMFRAC
 70
     0
  9
$DIMLDRBLK
  1

  9
$DIMLUNIT
 70
     2
  9
$DIMLWD
 70
    -2
  9
$DIMLWE
 70
    -2
  9
$DIMTMOVE
 70
     0
  9
$LUNITS
 70
     2
  9
$LUPREC
 70
     2
  9
$SKETCHINC
 40
0.1
  9
$FILLETRAD
 40
0.0
  9
$AUNITS
 70
     0
  9
$AUPREC
 70
     2
  9
$MENU
  1
acad
  9
$ELEVATION
 40
0.0
  9
$PELEVATION
 40
0.0
  9
$THICKNESS
 40
0.0
  9
$LIMCHECK
 70
     0
  9
$CHAMFERA
 40
0.0
  9
$CHAMFERB
 40
0.0
  9
$CHAMFERC
 40
0.0
  9
$CHAMFERD
 40
0.0
  9
$SKPOLY
 70
     0
  9
$TDCREATE
 40
2444972.041666667
  9
$TDUCREATE
 40
2444972.000000000
  9
$TDUPDATE
 40
2454930.668492477
  9
$TDUUPDATE
 40
2454930.626825810
  9
$TDINDWG
 40
0.0162974074
  9
$TDUSRTIMER
 40
0.0162974074
  9
$USRTIMER
 70
     1
  9
$ANGBASE
 50
0.0
  9
$ANGDIR
 70
     0
  9
$PDMODE
 70
     0
  9
$PDSIZE
 40
-1.0
  9
$PLINEWID
 40
0.0
  9
$SPLFRAME
 70
     0
  9
$SPLINETYPE
 70
     6
  9
$SPLINESEGS
 70
     8
  9
$HANDSEED
  5
1608
  9
$SURFTAB1
 70
     6
  9
$SURFTAB2
 70
     6
  9
$SURFTYPE
 70
     6
  9
$SURFU
 70
     6
  9
$SURFV
 70
     6
  9
$UCSBASE
  2

  9
$UCSNAME
  2

  9
$UCSORG
 10
0.0
 20
0.0
 30
0.0
  9
$UCSXDIR
 10
1.0
 20
0.0
 30
0.0
  9
$UCSYDIR
 10
0.0
 20
1.0
 30
0.0
  9
$UCSORTHOREF
  2

  9
$UCSORTHOVIEW
 70
     0
  9
$UCSORGTOP
 10
0.0
 20
0.0
 30
0.0
  9
$UCSORGBOTTOM
 10
0.0
 20
0.0
 30
0.0
  9
$UCSORGLEFT
 10
0.0
 20
0.0
 30
0.0
  9
$UCSORGRIGHT
 10
0.0
 20
0.0
 30
0.0
  9
$UCSORGFRONT
 10
0.0
 20
0.0
 30
0.0
  9
$UCSORGBACK
 10
0.0
 20
0.0
 30
0.0
  9
$PUCSBASE
  2

  9
$PUCSNAME
  2

  9
$PUCSORG
 10
0.0
 20
0.0
 30
0.0
  9
$PUCSXDIR
 10
1.0
 20
0.0
 30
0.0
  9
$PUCSYDIR
 10
0.0
 20
1.0
 30
0.0
  9
$PUCSORTHOREF
  2

  9
$PUCSORTHOVIEW
 70
     0
  9
$PUCSORGTOP
 10
0.0
 20
0.0
 30
0.0
  9
$PUCSORGBOTTOM
 10
0.0
 20
0.0
 30
0.0
  9
$PUCSORGLEFT
 10
0.0
 20
0.0
 30
0.0
  9
$PUCSORGRIGHT
 10
0.0
 20
0.0
 30
0.0
  9
$PUCSORGFRONT
 10
0.0
 20
0.0
 30
0.0
  9
$PUCSORGBACK
 10
0.0
 20
0.0
 30
0.0
  9
$USERI1
 70
     0
  9
$USERI2
 70
     0
  9
$USERI3
 70
     0
  9
$USERI4
 70
     0
  9
$USERI5
 70
     0
  9
$USERR1
 40
0.0
  9
$USERR2
 40
0.0
  9
$USERR3
 40
0.0
  9
$USERR4
 40
0.0
  9
$USERR5
 40
0.0
  9
$WORLDVIEW
 70
     1
  9
$SHADEDGE
 70
     3
  9
$SHADEDIF
 70
    70
  9
$TILEMODE
 70
     1
  9
$MAXACTVP
 70
    16
  9
$PINSBASE
 10
0.0
 20
0.0
 30
0.0
  9
$PLIMCHECK
 70
     0
  9
$PEXTMIN
 10
1.000000000000000E+20
 20
1.000000000000000E+20
 30
1.000000000000000E+20
  9
$PEXTMAX
 10
-1.000000000000000E+20
 20
-1.000000000000000E+20
 30
-1.000000000000000E+20
  9
$PLIMMIN
 10
0.0
 20
0.0
  9
$PLIMMAX
 10
12.0
 20
9.0
  9
$UNITMODE
 70
     0
  9
$VISRETAIN
 70
     0
  9
$PLINEGEN
 70
     1
  9
$PSLTSCALE
 70
     1
  9
$TREEDEPTH
 70
  3020
  9
$CMLSTYLE
  2
STANDARD
  9
$CMLJUST
 70
     0
  9
$CMLSCALE
 40
1.0
  9
$PROXYGRAPHICS
 70
     1
  9
$MEASUREMENT
 70
     0
  9
$CELWEIGHT
370
    -1
  9
$ENDCAPS
280
     0
  9
$JOINSTYLE
280
     0
  9
$LWDISPLAY
290
     0
  9
$INSUNITS
 70
     0
  9
$HYPERLINKBASE
  1

  9
$STYLESHEET
  1

  9
$XEDIT
290
     1
  9
$CEPSNTYPE
380
     0
  9
$PSTYLEMODE
290
     1
  9
$FINGERPRINTGUID
  2
{C96C0C16-82B0-49C8-83DA-D3F7A68EFED4}
  9
$VERSIONGUID
  2
{0D83BFAB-1470-49B6-831B-6CA421272ACA}
  9
$EXTNAMES
290
     1
  9
$PSVPSCALE
 40
0.0
  9
$OLESTARTUP
290
     0
  0
ENDSEC
  0
SECTION
  2
CLASSES
  0
CLASS
  1
IMAGE
  2
AcDbRasterImage
  3
ISM
 90
    32895
280
     0
281
     1
  0
CLASS
  1
DICTIONARYVAR
  2
AcDbDictionaryVar
  3
ObjectDBX Classes
 90
        0
280
     0
281
     0
  0
CLASS
  1
RASTERVARIABLES
  2
AcDbRasterVariables
  3
ISM
 90
    32768
280
     0
281
     0
  0
CLASS
  1
IMAGEDEF
  2
AcDbRasterImageDef
  3
ISM
 90
    32768
280
     0
281
     0
  0
CLASS
  1
IMAGEDEF_REACTOR
  2
AcDbRasterImageDefReactor
  3
ISM
 90
    32769
280
     0
281
     0
  0
CLASS
  1
IDBUFFER
  2
AcDbIdBuffer
  3
ObjectDBX Classes
 90
    32768
280
     0
281
     0
  0
CLASS
  1
SPATIAL_FILTER
  2
AcDbSpatialFilter
  3
ObjectDBX Classes
 90
    32768
280
     0
281
     0
  0
CLASS
  1
SORTENTSTABLE
  2
AcDbSortentsTable
  3
ObjectDBX Classes
 90
    32768
280
     0
281
     0
  0
CLASS
  1
LAYER_INDEX
  2
AcDbLayerIndex
  3
ObjectDBX Classes
 90
    32768
280
     0
281
     0
  0
CLASS
  1
SPATIAL_INDEX
  2
AcDbSpatialIndex
  3
ObjectDBX Classes
 90
    32768
280
     0
281
     0
  0
CLASS
  1
OBJECT_PTR
  2
CAseDLPNTableRecord
  3
ASE-LPNTableRecord
 90
    32769
280
     0
281
     0
  0
CLASS
  1
LAYOUT
  2
AcDbLayout
  3
ObjectDBX Classes
 90
        0
280
     0
281
     0
  0
CLASS
  1
PLOTSETTINGS
  2
AcDbPlotSettings
  3
ObjectDBX Classes
 90
    32768
280
     0
281
     0
  0
CLASS
  1
ACDBDICTIONARYWDFLT
  2
AcDbDictionaryWithDefault
  3
ObjectDBX Classes
 90
        0
280
     0
281
     0
  0
CLASS
  1
ACDBPLACEHOLDER
  2
AcDbPlaceHolder
  3
ObjectDBX Classes
 90
        0
280
     0
281
     0
  0
CLASS
  1
VBA_PROJECT
  2
AcDbVbaProject
  3
acad
 90
    32768
280
     0
281
     0
  0
CLASS
  1
WIPEOUT
  2
AcDbWipeout
  3
WipeOut|AutoCAD Express Tool|expresstools@autodesk.com
 90
    32768
280
     0
281
     1
  0
CLASS
  1
WIPEOUTVARIABLES
  2
AcDbWipeoutVariables
  3
WipeOut|AutoCAD Express Tool|expresstools@autodesk.com
 90
    32768
280
     0
281
     0
  0
CLASS
  1
RTEXT
  2
RText
  3
RText|AutoCAD Express Tool|expresstools@autodesk.com
 90
    32768
280
     0
281
     1
  0
CLASS
  1
ARCALIGNEDTEXT
  2
AcDbArcAlignedText
  3
ATEXT|AutoCAD Express Tool|expresstools@autodesk.com
 90
    32768
280
     0
281
     1
  0
CLASS
  1
TABLESTYLE
  2
AcDbTableStyle
  3
ObjectDBX Classes
 90
     2047
280
     0
281
     0
  0
ENDSEC
  0
SECTION
  2
TABLES
  0
TABLE
  2
VPORT
  5
7
330
0
100
AcDbSymbolTable
 70
     2
  0
VPORT
  5
1602
330
7
100
AcDbSymbolTableRecord
100
AcDbViewportTableRecord
  2
*Active
 70
     0
 10
0.0
 20
0.0
 11
1.0
 21
1.0
 12
132.6870264406784
 22
246.3869363104782
 13
0.0
 23
0.0
 14
1.0
 24
1.0
 15
0.0
 25
0.0
 16
0.0
 26
0.0
 36
1.0
 17
0.0
 27
0.0
 37
0.0
 40
1.914092728218946
 41
1.602030456852791
 42
50.0
 43
0.0
 44
0.0
 50
0.0
 51
0.0
 71
     0
 72
  2000
 73
     1
 74
     1
 75
     0
 76
     0
 77
     0
 78
     0
281
     0
 65
     1
110
0.0
120
0.0
130
0.0
111
1.0
121
0.0
131
0.0
112
0.0
122
1.0
132
0.0
 79
     0
146
0.0
  0
ENDTAB
  0
TABLE
  2
LTYPE
  5
4
330
0
100
AcDbSymbolTable
 70
     6
  0
LTYPE
  5
11
330
4
100
AcDbSymbolTableRecord
100
AcDbLinetypeTableRecord
  2
BYBLOCK
 70
     0
  3

 72
    65
 73
     0
 40
0.0
  0
LTYPE
  5
12
330
4
100
AcDbSymbolTableRecord
100
AcDbLinetypeTableRecord
  2
BYLAYER
 70
     0
  3

 72
    65
 73
     0
 40
0.0
  0
LTYPE
  5
13
330
4
100
AcDbSymbolTableRecord
100
AcDbLinetypeTableRecord
  2
CONTINUOUS
 70
     0
  3
Solid line
 72
    65
 73
     0
 40
0.0
  0
LTYPE
  5
1E
330
4
100
AcDbSymbolTableRecord
100
AcDbLinetypeTableRecord
  2
HIDDEN
 70
     0
  3
Hidden __ __ __ __ __ __ __ __ __ __ __ __ __ __
 72
    65
 73
     2
 40
1.905
 49
1.27
 74
     0
 49
-0.635
 74
     0
  0
LTYPE
  5
1F
330
4
100
AcDbSymbolTableRecord
100
AcDbLinetypeTableRecord
  2
PHANTOM
 70
     0
  3
Phantom ______  __  __  ______  __  __  ______
 72
    65
 73
     6
 40
12.7
 49
6.349999999999999
 74
     0
 49
-1.27
 74
     0
 49
1.27
 74
     0
 49
-1.27
 74
     0
 49
1.27
 74
     0
 49
-1.27
 74
     0
  0
LTYPE
  5
20
330
4
100
AcDbSymbolTableRecord
100
AcDbLinetypeTableRecord
  2
CENTER
 70
     0
  3
Center ____ _ ____ _ ____ _ ____ _ ____ _ ____
 72
    65
 73
     4
 40
10.16
 49
6.349999999999999
 74
     0
 49
-1.27
 74
     0
 49
1.27
 74
     0
 49
-1.27
 74
     0
  0
LTYPE
  5
21
330
4
100
AcDbSymbolTableRecord
100
AcDbLinetypeTableRecord
  2
CENTERX2
 70
     0
  3
Center (2x) ________  __  ________  __  _____
 72
    65
 73
     4
 40
20.32
 49
12.7
 74
     0
 49
-2.54
 74
     0
 49
2.54
 74
     0
 49
-2.54
 74
     0
  0
LTYPE
  5
22
330
4
100
AcDbSymbolTableRecord
100
AcDbLinetypeTableRecord
  2
DOT2
 70
     0
  3
Dot (.5x) ........................................
 72
    65
 73
     2
 40
0.635
 49
0.0
 74
     0
 49
-0.635
 74
     0
  0
ENDTAB
  0
TABLE
  2
LAYER
  5
2
330
0
100
AcDbSymbolTable
 70
     4
  0
LAYER
  5
14
330
2
100
AcDbSymbolTableRecord
100
AcDbLayerTableRecord
  2
0
 70
     0
 62
     7
  6
CONTINUOUS
370
    -3
390
1594
  0
LAYER
  5
26
330
2
100
AcDbSymbolTableRecord
100
AcDbLayerTableRecord
  2
DEFPOINTS
 70
     0
 62
     7
  6
CONTINUOUS
290
     0
370
    -3
390
1594
  0
LAYER
  5
27
330
2
100
AcDbSymbolTableRecord
100
AcDbLayerTableRecord
  2
FORMAT
 70
     0
 62
     7
  6
CONTINUOUS
370
    -3
390
1594
  0
LAYER
  5
159B
330
2
100
AcDbSymbolTableRecord
100
AcDbLayerTableRecord
  2
INDUSA
 70
     0
 62
     3
  6
CONTINUOUS
370
    -3
390
1594
  0
ENDTAB
  0
TABLE
  2
STYLE
  5
3
330
0
100
AcDbSymbolTable
 70
     2
  0
STYLE
  5
17
330
3
100
AcDbSymbolTableRecord
100
AcDbTextStyleTableRecord
  2
STANDARD
 70
     0
 40
0.0
 41
1.0
 50
0.0
 71
     0
 42
0.0
  3
txt
  4

  0
STYLE
  5
68
330
3
100
AcDbSymbolTableRecord
100
AcDbTextStyleTableRecord
  2
SLDTEXTSTYLE0
 70
     0
 40
0.0
 41
0.75
 50
0.0
 71
     0
 42
0.0
  3
txt
  4

  0
ENDTAB
  0
TABLE
  2
VIEW
  5
5
330
0
100
AcDbSymbolTable
 70
     0
  0
ENDTAB
  0
TABLE
  2
UCS
  5
6
330
0
100
AcDbSymbolTable
 70
     0
  0
ENDTAB
  0
TABLE
  2
APPID
  5
8
330
0
100
AcDbSymbolTable
 70
     2
  0
APPID
  5
16
330
8
100
AcDbSymbolTableRecord
100
AcDbRegAppTableRecord
  2
ACAD
 70
     0
  0
APPID
  5
15B7
330
8
100
AcDbSymbolTableRecord
100
AcDbRegAppTableRecord
  2
DCO15
 70
     0
  0
ENDTAB
  0
TABLE
  2
DIMSTYLE
  5
9
330
0
100
AcDbSymbolTable
 70
     1
100
AcDbDimStyleTable
 71
     1
340
18
  0
DIMSTYLE
105
18
330
9
100
AcDbSymbolTableRecord
100
AcDbDimStyleTableRecord
  2
STANDARD
 70
     0
289
     0
340
17
  0
ENDTAB
  0
TABLE
  2
BLOCK_RECORD
  5
1
330
0
100
AcDbSymbolTable
 70
    16
  0
BLOCK_RECORD
  5
A
330
1
100
AcDbSymbolTableRecord
100
AcDbBlockTableRecord
  2
*MODEL_SPACE
340
1597
  0
BLOCK_RECORD
  5
B
330
1
100
AcDbSymbolTableRecord
100
AcDbBlockTableRecord
  2
*PAPER_SPACE
340
1598
  0
BLOCK_RECORD
  5
8C
330
1
100
AcDbSymbolTableRecord
100
AcDbBlockTableRecord
  2
NOTE35
340
0
102
{BLKREFS
331
8F
102
}
  0
BLOCK_RECORD
  5
90
330
1
100
AcDbSymbolTableRecord
100
AcDbBlockTableRecord
  2
NOTE36
340
0
102
{BLKREFS
331
93
102
}
  0
BLOCK_RECORD
  5
95
330
1
100
AcDbSymbolTableRecord
100
AcDbBlockTableRecord
  2
NOTE38
340
0
102
{BLKREFS
331
98
102
}
  0
BLOCK_RECORD
  5
99
330
1
100
AcDbSymbolTableRecord
100
AcDbBlockTableRecord
  2
NOTE39
340
0
102
{BLKREFS
331
9C
102
}
  0
BLOCK_RECORD
  5
9D
330
1
100
AcDbSymbolTableRecord
100
AcDbBlockTableRecord
  2
NOTE40
340
0
102
{BLKREFS
331
A0
102
}
  0
BLOCK_RECORD
  5
A1
330
1
100
AcDbSymbolTableRecord
100
AcDbBlockTableRecord
  2
NOTE41
340
0
102
{BLKREFS
331
A4
102
}
  0
BLOCK_RECORD
  5
A5
330
1
100
AcDbSymbolTableRecord
100
AcDbBlockTableRecord
  2
NOTE42
340
0
102
{BLKREFS
331
A8
102
}
  0
BLOCK_RECORD
  5
A9
330
1
100
AcDbSymbolTableRecord
100
AcDbBlockTableRecord
  2
NOTE43
340
0
102
{BLKREFS
331
AC
102
}
  0
BLOCK_RECORD
  5
AD
330
1
100
AcDbSymbolTableRecord
100
AcDbBlockTableRecord
  2
NOTE44
340
0
102
{BLKREFS
331
B0
102
}
  0
BLOCK_RECORD
  5
B1
330
1
100
AcDbSymbolTableRecord
100
AcDbBlockTableRecord
  2
NOTE45
340
0
102
{BLKREFS
331
B4
102
}
  0
BLOCK_RECORD
  5
B5
330
1
100
AcDbSymbolTableRecord
100
AcDbBlockTableRecord
  2
NOTE46
340
0
102
{BLKREFS
331
B8
102
}
  0
BLOCK_RECORD
  5
B9
330
1
100
AcDbSymbolTableRecord
100
AcDbBlockTableRecord
  2
NOTE47
340
0
102
{BLKREFS
331
BC
102
}
  0
BLOCK_RECORD
  5
BD
330
1
100
AcDbSymbolTableRecord
100
AcDbBlockTableRecord
  2
NOTE48
340
0
102
{BLKREFS
331
C0
102
}
  0
BLOCK_RECORD
  5
C2
330
1
100
AcDbSymbolTableRecord
100
AcDbBlockTableRecord
  2
NOTE50
340
0
102
{BLKREFS
331
C5
102
}
  0
BLOCK_RECORD
  5
C6
330
1
100
AcDbSymbolTableRecord
100
AcDbBlockTableRecord
  2
NOTE51
340
0
102
{BLKREFS
331
C9
102
}
  0
BLOCK_RECORD
  5
159C
330
1
100
AcDbSymbolTableRecord
100
AcDbBlockTableRecord
  2
10310PL
340
0
  0
ENDTAB
  0
ENDSEC
  0
SECTION
  2
BLOCKS
  0
BLOCK
  5
D
330
A
100
AcDbEntity
  8
0
100
AcDbBlockBegin
  2
*MODEL_SPACE
 70
     0
 10
0.0
 20
0.0
 30
0.0
  3
*MODEL_SPACE
  1

  0
ENDBLK
  5
E
330
A
100
AcDbEntity
  8
0
100
AcDbBlockEnd
  0
BLOCK
  5
F
330
B
100
AcDbEntity
 67
     1
  8
0
100
AcDbBlockBegin
  2
*PAPER_SPACE
 70
     0
 10
0.0
 20
0.0
 30
0.0
  3
*PAPER_SPACE
  1

  0
ENDBLK
  5
10
330
B
100
AcDbEntity
 67
     1
  8
0
100
AcDbBlockEnd
  0
BLOCK
  5
8D
330
8C
100
AcDbEntity
  8
0
 62
     0
100
AcDbBlockBegin
  2
NOTE35
 70
     0
 10
0.0
 20
0.0
 30
0.0
  3
NOTE35
  1

  0
ENDBLK
  5
8E
330
8C
100
AcDbEntity
  8
0
100
AcDbBlockEnd
  0
BLOCK
  5
91
330
90
100
AcDbEntity
  8
0
 62
     0
100
AcDbBlockBegin
  2
NOTE36
 70
     0
 10
0.0
 20
0.0
 30
0.0
  3
NOTE36
  1

  0
ENDBLK
  5
92
330
90
100
AcDbEntity
  8
0
100
AcDbBlockEnd
  0
BLOCK
  5
96
330
95
100
AcDbEntity
  8
0
 62
     0
100
AcDbBlockBegin
  2
NOTE38
 70
     0
 10
0.0
 20
0.0
 30
0.0
  3
NOTE38
  1

  0
ENDBLK
  5
97
330
95
100
AcDbEntity
  8
0
100
AcDbBlockEnd
  0
BLOCK
  5
9A
330
99
100
AcDbEntity
  8
0
 62
     0
100
AcDbBlockBegin
  2
NOTE39
 70
     0
 10
0.0
 20
0.0
 30
0.0
  3
NOTE39
  1

  0
ENDBLK
  5
9B
330
99
100
AcDbEntity
  8
0
100
AcDbBlockEnd
  0
BLOCK
  5
9E
330
9D
100
AcDbEntity
  8
0
 62
     0
100
AcDbBlockBegin
  2
NOTE40
 70
     0
 10
0.0
 20
0.0
 30
0.0
  3
NOTE40
  1

  0
ENDBLK
  5
9F
330
9D
100
AcDbEntity
  8
0
100
AcDbBlockEnd
  0
BLOCK
  5
A2
330
A1
100
AcDbEntity
  8
0
 62
     0
100
AcDbBlockBegin
  2
NOTE41
 70
     0
 10
0.0
 20
0.0
 30
0.0
  3
NOTE41
  1

  0
ENDBLK
  5
A3
330
A1
100
AcDbEntity
  8
0
100
AcDbBlockEnd
  0
BLOCK
  5
A6
330
A5
100
AcDbEntity
  8
0
 62
     0
100
AcDbBlockBegin
  2
NOTE42
 70
     0
 10
0.0
 20
0.0
 30
0.0
  3
NOTE42
  1

  0
ENDBLK
  5
A7
330
A5
100
AcDbEntity
  8
0
100
AcDbBlockEnd
  0
BLOCK
  5
AA
330
A9
100
AcDbEntity
  8
0
 62
     0
100
AcDbBlockBegin
  2
NOTE43
 70
     0
 10
0.0
 20
0.0
 30
0.0
  3
NOTE43
  1

  0
ENDBLK
  5
AB
330
A9
100
AcDbEntity
  8
0
100
AcDbBlockEnd
  0
BLOCK
  5
AE
330
AD
100
AcDbEntity
  8
0
 62
     0
100
AcDbBlockBegin
  2
NOTE44
 70
     0
 10
0.0
 20
0.0
 30
0.0
  3
NOTE44
  1

  0
ENDBLK
  5
AF
330
AD
100
AcDbEntity
  8
0
100
AcDbBlockEnd
  0
BLOCK
  5
B2
330
B1
100
AcDbEntity
  8
0
 62
     0
100
AcDbBlockBegin
  2
NOTE45
 70
     0
 10
0.0
 20
0.0
 30
0.0
  3
NOTE45
  1

  0
ENDBLK
  5
B3
330
B1
100
AcDbEntity
  8
0
100
AcDbBlockEnd
  0
BLOCK
  5
B6
330
B5
100
AcDbEntity
  8
0
 62
     0
100
AcDbBlockBegin
  2
NOTE46
 70
     0
 10
0.0
 20
0.0
 30
0.0
  3
NOTE46
  1

  0
ENDBLK
  5
B7
330
B5
100
AcDbEntity
  8
0
100
AcDbBlockEnd
  0
BLOCK
  5
BA
330
B9
100
AcDbEntity
  8
0
 62
     0
100
AcDbBlockBegin
  2
NOTE47
 70
     0
 10
0.0
 20
0.0
 30
0.0
  3
NOTE47
  1

  0
ENDBLK
  5
BB
330
B9
100
AcDbEntity
  8
0
100
AcDbBlockEnd
  0
BLOCK
  5
BE
330
BD
100
AcDbEntity
  8
0
 62
     0
100
AcDbBlockBegin
  2
NOTE48
 70
     0
 10
0.0
 20
0.0
 30
0.0
  3
NOTE48
  1

  0
ENDBLK
  5
BF
330
BD
100
AcDbEntity
  8
0
100
AcDbBlockEnd
  0
BLOCK
  5
C3
330
C2
100
AcDbEntity
  8
0
 62
     0
100
AcDbBlockBegin
  2
NOTE50
 70
     0
 10
0.0
 20
0.0
 30
0.0
  3
NOTE50
  1

  0
ENDBLK
  5
C4
330
C2
100
AcDbEntity
  8
0
100
AcDbBlockEnd
  0
BLOCK
  5
C7
330
C6
100
AcDbEntity
  8
0
 62
     0
100
AcDbBlockBegin
  2
NOTE51
 70
     0
 10
0.0
 20
0.0
 30
0.0
  3
NOTE51
  1

  0
ENDBLK
  5
C8
330
C6
100
AcDbEntity
  8
0
100
AcDbBlockEnd
  0
BLOCK
  5
15A3
330
159C
100
AcDbEntity
  8
0
100
AcDbBlockBegin
  2
10310PL
 70
     0
 10
0.0
 20
0.0
 30
0.0
  3
10310PL
  1

  0
CIRCLE
  5
159D
330
159C
100
AcDbEntity
  8
INDUSA
100
AcDbCircle
 10
0.0
 20
-0.07
 30
0.0
 40
0.0175
  0
CIRCLE
  5
159E
330
159C
100
AcDbEntity
  8
INDUSA
100
AcDbCircle
 10
0.0
 20
-0.195
 30
0.0
 40
0.0225
  0
LWPOLYLINE
  5
159F
330
159C
100
AcDbEntity
  8
INDUSA
100
AcDbPolyline
 90
        8
 70
     1
 43
0.0
 10
0.138944
 20
-0.429725
 42
-0.14592
 10
-0.138944
 20
-0.429725
 42
-0.130433
 10
-0.25197
 20
-0.3633
 42
-0.180994
 10
-0.2975
 20
-0.261878
 10
-0.2975
 20
0.0
 10
0.2975
 20
0.0
 10
0.2975
 20
-0.261878
 42
-0.180994
 10
0.25197
 20
-0.3633
 42
-0.130433
  0
LWPOLYLINE
  5
15A0
330
159C
100
AcDbEntity
  8
INDUSA
100
AcDbPolyline
 90
        8
 70
     0
 43
0.0
 10
-0.2875
 20
0.0
 10
-0.2875
 20
-0.261553
 42
0.180448
 10
-0.244861
 20
-0.356266
 42
0.130525
 10
-0.136172
 20
-0.4201170000000001
 42
0.146017
 10
0.136172
 20
-0.4201170000000001
 42
0.130525
 10
0.244861
 20
-0.356266
 42
0.180448
 10
0.2875
 20
-0.261553
 10
0.2875
 20
0.0
  0
LWPOLYLINE
  5
15A1
330
159C
100
AcDbEntity
  8
INDUSA
100
AcDbPolyline
 90
       10
 70
     1
 43
0.0
 10
-0.2575
 20
-0.243012
 42
0.216778
 10
-0.223535
 20
-0.335166
 42
0.110918
 10
-0.143989
 20
-0.386131
 42
0.165772
 10
0.143989
 20
-0.386131
 42
0.110918
 10
0.223535
 20
-0.335166
 42
0.216778
 10
0.2575
 20
-0.243012
 10
0.2575
 20
-0.05
 42
0.4142140000000001
 10
0.2275
 20
-0.02
 10
-0.2275
 20
-0.02
 42
0.4142140000000001
 10
-0.2575
 20
-0.05
  0
LWPOLYLINE
  5
15A2
330
159C
100
AcDbEntity
  8
INDUSA
100
AcDbPolyline
 90
       10
 70
     1
 43
0.0
 10
-0.125096
 20
-0.381679
 42
-0.130971
 10
-0.216427
 20
-0.328133
 42
-0.217649
 10
-0.2475
 20
-0.24339
 10
-0.2475
 20
-0.23
 42
-0.4142140000000001
 10
-0.1475
 20
-0.13
 10
0.1475
 20
-0.13
 42
-0.4142140000000001
 10
0.2475
 20
-0.23
 10
0.2475
 20
-0.24339
 42
-0.217649
 10
0.216427
 20
-0.328133
 42
-0.110793
 10
0.140665
 20
-0.376699
 42
-0.156041
  0
ENDBLK
  5
15A4
330
159C
100
AcDbEntity
  8
0
100
AcDbBlockEnd
  0
ENDSEC
  0
SECTION
  2
ENTITIES
  0
INSERT
  5
8F
330
A
100
AcDbEntity
  8
0
100
AcDbBlockReference
  2
NOTE35
 10
0.0
 20
0.0
 30
0.0
  0
INSERT
  5
93
330
A
100
AcDbEntity
  8
0
100
AcDbBlockReference
  2
NOTE36
 10
0.0
 20
0.0
 30
0.0
  0
INSERT
  5
98
330
A
100
AcDbEntity
  8
0
100
AcDbBlockReference
  2
NOTE38
 10
0.0
 20
0.0
 30
0.0
  0
INSERT
  5
9C
330
A
100
AcDbEntity
  8
0
100
AcDbBlockReference
  2
NOTE39
 10
0.0
 20
0.0
 30
0.0
  0
INSERT
  5
A0
330
A
100
AcDbEntity
  8
0
100
AcDbBlockReference
  2
NOTE40
 10
0.0
 20
0.0
 30
0.0
  0
INSERT
  5
A4
330
A
100
AcDbEntity
  8
0
100
AcDbBlockReference
  2
NOTE41
 10
0.0
 20
0.0
 30
0.0
  0
INSERT
  5
A8
330
A
100
AcDbEntity
  8
0
100
AcDbBlockReference
  2
NOTE42
 10
0.0
 20
0.0
 30
0.0
  0
INSERT
  5
AC
330
A
100
AcDbEntity
  8
0
100
AcDbBlockReference
  2
NOTE43
 10
0.0
 20
0.0
 30
0.0
  0
INSERT
  5
B0
330
A
100
AcDbEntity
  8
0
100
AcDbBlockReference
  2
NOTE44
 10
0.0
 20
0.0
 30
0.0
  0
INSERT
  5
B4
330
A
100
AcDbEntity
  8
0
100
AcDbBlockReference
  2
NOTE45
 10
0.0
 20
0.0
 30
0.0
  0
INSERT
  5
B8
330
A
100
AcDbEntity
  8
0
100
AcDbBlockReference
  2
NOTE46
 10
0.0
 20
0.0
 30
0.0
  0
INSERT
  5
BC
330
A
100
AcDbEntity
  8
0
100
AcDbBlockReference
  2
NOTE47
 10
0.0
 20
0.0
 30
0.0
  0
INSERT
  5
C0
330
A
100
AcDbEntity
  8
0
100
AcDbBlockReference
  2
NOTE48
 10
0.0
 20
0.0
 30
0.0
  0
INSERT
  5
C5
330
A
100
AcDbEntity
  8
0
100
AcDbBlockReference
  2
NOTE50
 10
0.0
 20
0.0
 30
0.0
  0
INSERT
  5
C9
330
A
100
AcDbEntity
  8
0
100
AcDbBlockReference
  2
NOTE51
 10
0.0
 20
0.0
 30
0.0
  0
ARC
  5
DD
330
A
100
AcDbEntity
  8
INDUSA
  6
Continuous
100
AcDbCircle
 10
131.9936624021934
 20
246.7709363104782
 30
0.0
 40
0.0040000000000001
100
AcDbArc
 50
180.0000000000004
 51
270.0000000000029
  0
ARC
  5
DE
330
A
100
AcDbEntity
  8
INDUSA
  6
Continuous
100
AcDbCircle
 10
132.5856624021934
 20
246.7709363104782
 30
0.0
 40
0.0040000000000001
100
AcDbArc
 50
269.9999999999968
 51
0.0
  0
LINE
  5
DF
330
A
100
AcDbEntity
  8
INDUSA
  6
Continuous
100
AcDbLine
 10
131.9896624021934
 20
246.8019363104782
 30
0.0
 11
131.9896624021934
 21
246.7709363104782
 31
0.0
  0
LINE
  5
E0
330
A
100
AcDbEntity
  8
INDUSA
  6
Continuous
100
AcDbLine
 10
132.5896624021934
 20
246.7709363104782
 30
0.0
 11
132.5896624021934
 21
246.8019363104782
 31
0.0
  0
ARC
  5
E1
330
A
100
AcDbEntity
  8
INDUSA
  6
Continuous
100
AcDbCircle
 10
131.9946624021934
 20
246.8019363104782
 30
0.0
 40
0.005
100
AcDbArc
 50
90.0
 51
180.0000000000004
  0
ARC
  5
E2
330
A
100
AcDbEntity
  8
INDUSA
  6
Continuous
100
AcDbCircle
 10
132.5846624021934
 20
246.8019363104782
 30
0.0
 40
0.005
100
AcDbArc
 50
0.0
 51
90.0
  0
LWPOLYLINE
  5
E3
330
A
100
AcDbEntity
  8
INDUSA
  6
Continuous
100
AcDbPolyline
 90
       18
 70
   128
 43
0.0
 10
132.4614095348567
 20
246.670833513887
 10
132.4619841419864
 20
246.6710826114873
 10
132.4647010614405
 20
246.6721760208136
 10
132.4667238533376
 20
246.6729371722079
 10
132.468747697519
 20
246.6736496113797
 10
132.4707855737278
 20
246.6743132387128
 10
132.4728664695638
 20
246.6749302951027
 10
132.4750329623153
 20
246.6755014479271
 10
132.4773003816267
 20
246.6760130074754
 10
132.4795392858933
 20
246.6764226944197
 10
132.4810115207039
 20
246.6766478276605
 10
132.4816964186662
 20
246.6767500780281
 10
132.4820627449903
 20
246.6767992500575
 10
132.4824547449355
 20
246.6768440881462
 10
132.4833101768965
 20
246.6769134414863
 10
132.4842557195916
 20
246.6769489750327
 10
132.485291070265
 20
246.6769502921918
 10
132.4857127116211
 20
246.6769411519625
  0
LWPOLYLINE
  5
F7
330
A
100
AcDbEntity
  8
INDUSA
  6
Continuous
100
AcDbPolyline
 90
       16
 70
   128
 43
0.0
 10
132.0936120927658
 20
246.6769411519625
 10
132.0940337341218
 20
246.6769502921918
 10
132.0950690847952
 20
246.6769489750327
 10
132.0960146274903
 20
246.6769134414863
 10
132.0968700594514
 20
246.6768440881462
 10
132.0972620593965
 20
246.6767992500575
 10
132.0985258830376
 20
246.6766162855032
 10
132.0998687923991
 20
246.6764091484225
 10
132.102260904391
 20
246.6759640619081
 10
132.106458334823
 20
246.6749302951027
 10
132.1085392306591
 20
246.6743132387128
 10
132.1105771068678
 20
246.6736496113797
 10
132.1126009510492
 20
246.6729371722079
 10
132.1146237429464
 20
246.6721760208136
 10
132.1173406624005
 20
246.6710826114873
 10
132.1179152695302
 20
246.670833513887
  0
LWPOLYLINE
  5
109
330
A
100
AcDbEntity
  8
INDUSA
  6
Continuous
100
AcDbPolyline
 90
        9
 70
   128
 43
0.0
 10
132.0514671929504
 20
246.7632750125316
 10
132.0511883703554
 20
246.7640341217399
 10
132.0507908191571
 20
246.7647383531424
 10
132.0502849391171
 20
246.7653692843603
 10
132.0496839638316
 20
246.7659104105144
 10
132.0490036145454
 20
246.7663475759865
 10
132.0482616888922
 20
246.7666693447227
 10
132.0474775953156
 20
246.766867299397
 10
132.0466718453535
 20
246.7669362616031
  0
LWPOLYLINE
  5
114
330
A
100
AcDbEntity
  8
INDUSA
  6
Continuous
100
AcDbPolyline
 90
        9
 70
   128
 43
0.0
 10
132.5326529590333
 20
246.7669362616031
 10
132.5318479280557
 20
246.7668674200525
 10
132.531064495788
 20
246.766669814591
 10
132.5303231196548
 20
246.7663486052039
 10
132.5296431588873
 20
246.7659121794916
 10
132.5290423690041
 20
246.765371933648
 10
132.528536438169
 20
246.764741974877
 10
132.5281385775329
 20
246.7640387530169
 10
132.527859176257
 20
246.7632806309929
  0
LWPOLYLINE
  5
11F
330
A
100
AcDbEntity
  8
INDUSA
  6
Continuous
100
AcDbPolyline
 90
       27
 70
   128
 43
0.0
 10
132.5120709850799
 20
246.6918881725834
 10
132.5126783694981
 20
246.6955874332314
 10
132.5131592906935
 20
246.6984217771085
 10
132.5135095628573
 20
246.7004377016869
 10
132.5141111597636
 20
246.7038120861653
 10
132.5147562320048
 20
246.7073164323174
 10
132.515537325554
 20
246.7114172319701
 10
132.5162737978153
 20
246.7151542711098
 10
132.5169400003743
 20
246.7184362821922
 10
132.517839929595
 20
246.7227345176812
 10
132.5187097655346
 20
246.7267544518905
 10
132.5191274967409
 20
246.7286415636057
 10
132.5196265792261
 20
246.7308615117256
 10
132.520279780174
 20
246.7337128261903
 10
132.5210459583233
 20
246.7369836371198
 10
132.5217851757715
 20
246.7400695594401
 10
132.5224807698226
 20
246.7429185085838
 10
132.5229673465507
 20
246.7448822448343
 10
132.5234204479424
 20
246.7466850911527
 10
132.5238440989006
 20
246.7483463684676
 10
132.5242423424664
 20
246.7498872441895
 10
132.5245848114446
 20
246.7512016527253
 10
132.525069419969
 20
246.7530460519886
 10
132.525690467414
 20
246.7553805408685
 10
132.526439299775
 20
246.7581517017722
 10
132.5273035592981
 20
246.7612925372694
 10
132.5278588130345
 20
246.7632708169408
  0
LWPOLYLINE
  5
13C
330
A
100
AcDbEntity
  8
INDUSA
  6
Continuous
100
AcDbPolyline
 90
       31
 70
   128
 43
0.0
 10
132.0514659913524
 20
246.7632708169408
 10
132.0520212450888
 20
246.7612925372694
 10
132.0528855046119
 20
246.7581517017722
 10
132.0536343369728
 20
246.7553805408685
 10
132.0542553844178
 20
246.7530460519886
 10
132.0547399929423
 20
246.7512016527253
 10
132.0550824619205
 20
246.7498872441895
 10
132.0554807054863
 20
246.7483463684676
 10
132.0559043564445
 20
246.7466850911527
 10
132.0564757983345
 20
246.7444071510922
 10
132.057099524158
 20
246.7418776494511
 10
132.0577661284829
 20
246.7391308561598
 10
132.058470021017
 20
246.7361746801106
 10
132.0591790324199
 20
246.7331327060181
 10
132.0597691202149
 20
246.7305484022283
 10
132.0602233026154
 20
246.7285249160555
 10
132.0606150388522
 20
246.7267544518905
 10
132.0611598719939
 20
246.7242513074129
 10
132.0618152691614
 20
246.7211736765294
 10
132.0623848040126
 20
246.7184362821922
 10
132.0628345149626
 20
246.7162306585984
 10
132.0632820362004
 20
246.7139947444384
 10
132.0637874788328
 20
246.7114172319701
 10
132.0645685723821
 20
246.7073164323174
 10
132.0652136446233
 20
246.7038120861653
 10
132.0654083524593
 20
246.7027316760487
 10
132.0655945012175
 20
246.7016883866231
 10
132.0658152415295
 20
246.7004377016869
 10
132.0661655136934
 20
246.6984217771085
 10
132.0666464348888
 20
246.6955874332314
 10
132.067253819307
 20
246.6918881725834
  0
LINE
  5
15D
330
A
100
AcDbEntity
  8
INDUSA
  6
Continuous
100
AcDbLine
 10
132.4401679183669
 20
246.6609853618749
 30
0.0
 11
132.4439411714876
 21
246.6628175075753
 31
0.0
  0
LINE
  5
16A
330
A
100
AcDbEntity
  8
INDUSA
  6
Continuous
100
AcDbLine
 10
132.439936082511
 20
246.6608727913547
 30
0.0
 11
132.4401679183669
 21
246.6609853618749
 31
0.0
  0
LINE
  5
16B
330
A
100
AcDbEntity
  8
INDUSA
  6
Continuous
100
AcDbLine
 10
132.1389740348509
 20
246.6610728643329
 30
0.0
 11
132.139798292215
 21
246.6606732320769
 31
0.0
  0
LINE
  5
17A
330
A
100
AcDbEntity
  8
INDUSA
  6
Continuous
100
AcDbLine
 10
132.5105003974452
 20
246.6828315643698
 30
0.0
 11
132.5108269831885
 21
246.6842293662876
 31
0.0
  0
ARC
  5
17C
330
A
100
AcDbEntity
  8
INDUSA
  6
Continuous
100
AcDbCircle
 10
132.0766106771366
 20
246.6847009591158
 30
0.0
 40
0.0080000000000001
100
AcDbArc
 50
193.0037532602486
 51
201.5650136502846
  0
ARC
  5
17D
330
A
100
AcDbEntity
  8
INDUSA
  6
Continuous
100
AcDbCircle
 10
132.5027141272502
 20
246.6847009591158
 30
0.0
 40
0.008
100
AcDbArc
 50
338.4349863497167
 51
346.9962467397528
  0
LWPOLYLINE
  5
17E
330
A
100
AcDbEntity
  8
INDUSA
  6
Continuous
100
AcDbPolyline
 90
        3
 70
   128
 43
0.0
 10
132.0691692158856
 20
246.6817604121572
 10
132.0703445692785
 20
246.6787827607693
 10
132.0746073531296
 20
246.6678236523602
  0
LWPOLYLINE
  5
183
330
A
100
AcDbEntity
  8
INDUSA
  6
Continuous
100
AcDbPolyline
 90
        3
 70
   128
 43
0.0
 10
132.5047109035866
 20
246.667824209028
 10
132.5054921193141
 20
246.6698469985006
 10
132.5101598063435
 20
246.681760104753
  0
LINE
  5
188
330
A
100
AcDbEntity
  8
INDUSA
  6
Continuous
100
AcDbLine
 10
132.0998721626769
 20
246.6684863311024
 30
0.0
 11
132.1033950790031
 21
246.6756847309973
 31
0.0
  0
LINE
  5
189
330
A
100
AcDbEntity
  8
INDUSA
  6
Continuous
100
AcDbLine
 10
132.4759213344122
 20
246.6757018763288
 30
0.0
 11
132.4794526417099
 21
246.6684863311024
 31
0.0
  0
LWPOLYLINE
  5
18A
330
A
100
AcDbEntity
  8
INDUSA
  6
Continuous
100
AcDbPolyline
 90
        7
 70
   128
 43
0.0
 10
132.4970652795854
 20
246.6626994692939
 10
132.4983006147461
 20
246.6627444392294
 10
132.4998334809452
 20
246.6631106231834
 10
132.5012672426647
 20
246.6637720006323
 10
132.5025545299779
 20
246.6647097635995
 10
132.5036233702242
 20
246.6658708223294
 10
132.5041943220016
 20
246.6668094775477
  0
LINE
  5
19C
330
A
100
AcDbEntity
  8
INDUSA
  6
Continuous
100
AcDbLine
 10
132.4756764187473
 20
246.6630911775785
 30
0.0
 11
132.4970622649917
 21
246.662671847267
 31
0.0
  0
LINE
  5
19D
330
A
100
AcDbEntity
  8
INDUSA
  6
Continuous
100
AcDbLine
 10
132.0822625393946
 20
246.6626718472946
 30
0.0
 11
132.1036483856395
 21
246.6630911775785
 31
0.0
  0
ARC
  5
19E
330
A
100
AcDbEntity
  8
INDUSA
  6
Continuous
100
AcDbCircle
 10
132.475754835047
 20
246.6670904088652
 30
0.0
 40
0.0040000000000001
100
AcDbArc
 50
217.9799748733382
 51
268.8766972859228
  0
ARC
  5
19F
330
A
100
AcDbEntity
  8
INDUSA
  6
Continuous
100
AcDbCircle
 10
132.1035699693398
 20
246.6670904088652
 30
0.0
 40
0.0040000000000001
100
AcDbArc
 50
271.1233027140789
 51
322.0200251266634
  0
LINE
  5
1A0
330
A
100
AcDbEntity
  8
INDUSA
  6
Continuous
100
AcDbLine
 10
132.5856624021934
 20
246.7669363104782
 30
0.0
 11
131.9936624021934
 21
246.7669363104782
 31
0.0
  0
LINE
  5
1A1
330
A
100
AcDbEntity
  8
INDUSA
  6
Continuous
100
AcDbLine
 10
131.9946624021934
 20
246.8069363104782
 30
0.0
 11
132.5846624021934
 21
246.8069363104782
 31
0.0
  0
LWPOLYLINE
  5
1A2
330
A
100
AcDbEntity
  8
INDUSA
  6
Continuous
100
AcDbPolyline
 90
        9
 70
   128
 43
0.0
 10
132.5130919379529
 20
246.7669363104782
 10
132.5125811405801
 20
246.7669117395451
 10
132.5120745267967
 20
246.7668382279894
 10
132.5115762459271
 20
246.7667163778936
 10
132.5110903790465
 20
246.7665471872479
 10
132.510620905556
 20
246.7663320417763
 10
132.5101716705894
 20
246.7660727035871
 10
132.5097463535207
 20
246.7657712967408
 10
132.5093484378292
 20
246.7654302898531
  0
LWPOLYLINE
  5
1C3
330
A
100
AcDbEntity
  8
INDUSA
  6
Continuous
100
AcDbPolyline
 90
        8
 70
   128
 43
0.0
 10
132.5093484378292
 20
246.7654302898531
 10
132.4964339986651
 20
246.7504211527856
 10
132.4828534746842
 20
246.7354174758991
 10
132.4685722879489
 20
246.7204218813714
 10
132.4571589382613
 20
246.7089658091849
 10
132.445275993153
 20
246.6974842468616
 10
132.4329282027818
 20
246.6859802249121
 10
132.420120317306
 20
246.674456773847
  0
LINE
  5
1CD
330
A
100
AcDbEntity
  8
INDUSA
  6
Continuous
100
AcDbLine
 10
132.3953139240522
 20
246.6525126567379
 30
0.0
 11
132.420120317306
 21
246.674456773847
 31
0.0
  0
LINE
  5
272
330
A
100
AcDbEntity
  8
INDUSA
  6
Continuous
100
AcDbLine
 10
132.3890686621309
 20
246.6429863263781
 30
0.0
 11
132.3942013775214
 21
246.651198671003
 31
0.0
  0
LINE
  5
277
330
A
100
AcDbEntity
  8
INDUSA
  6
Continuous
100
AcDbLine
 10
132.3763486875708
 20
246.6359363104782
 30
0.0
 11
132.202976116816
 21
246.6359363104782
 31
0.0
  0
LWPOLYLINE
  5
283
330
A
100
AcDbEntity
  8
INDUSA
  6
Continuous
100
AcDbPolyline
 90
        3
 70
   128
 43
0.0
 10
132.0662328664339
 20
246.7669363104782
 10
132.0676488519458
 20
246.7666191657312
 10
132.0689151466687
 20
246.7657012584204
  0
LWPOLYLINE
  5
298
330
A
100
AcDbEntity
  8
INDUSA
  6
Continuous
100
AcDbPolyline
 90
        6
 70
   128
 43
0.0
 10
132.5230871642739
 20
246.7669363104782
 10
132.523045660335
 20
246.7669361917088
 10
132.5210659841931
 20
246.7666457580426
 10
132.5200688090518
 20
246.766261190655
 10
132.5191646955494
 20
246.7657263446269
 10
132.5191646484835
 20
246.7657263109384
  0
LWPOLYLINE
  5
2A2
330
A
100
AcDbEntity
  8
INDUSA
  6
Continuous
100
AcDbPolyline
 90
        6
 70
   128
 43
0.0
 10
132.0562376401129
 20
246.7669363104782
 10
132.0562791440519
 20
246.7669361917088
 10
132.0582588201937
 20
246.7666457580426
 10
132.059255995335
 20
246.766261190655
 10
132.0601601088375
 20
246.7657263446269
 10
132.0601601559034
 20
246.7657263109384
  0
LWPOLYLINE
  5
2B5
330
A
100
AcDbEntity
  8
INDUSA
  6
Continuous
100
AcDbPolyline
 90
        8
 70
   128
 43
0.0
 10
132.1582672379841
 20
246.6747302477618
 10
132.1456822737033
 20
246.6860107440612
 10
132.1335407323627
 20
246.6972766346083
 10
132.1218486579058
 20
246.7085247388211
 10
132.1106120942763
 20
246.7197518761173
 10
132.0959831901158
 20
246.7350564019683
 10
132.0820962642967
 20
246.7503740827444
 10
132.0689151466687
 20
246.7657012584204
  0
LWPOLYLINE
  5
2D4
330
A
100
AcDbEntity
  8
INDUSA
  6
Continuous
100
AcDbPolyline
 90
        5
 70
   128
 43
0.0
 10
132.3869978596002
 20
246.6371408606482
 10
132.3871027783091
 20
246.638236362429
 10
132.3872859046104
 20
246.6388599252118
 10
132.3873403095694
 20
246.6390216683038
 10
132.3873438645786
 20
246.6390320147525
  0
LWPOLYLINE
  5
2E5
330
A
100
AcDbEntity
  8
INDUSA
  6
Continuous
100
AcDbPolyline
 90
        5
 70
   128
 43
0.0
 10
132.519164693848
 20
246.7657262785361
 10
132.5178276411641
 20
246.764223374402
 10
132.516971923214
 20
246.7625917831436
 10
132.5165462226389
 20
246.7610319878767
 10
132.5164911216896
 20
246.7606683808878
  0
LWPOLYLINE
  5
2EC
330
A
100
AcDbEntity
  8
INDUSA
  6
Continuous
100
AcDbPolyline
 90
        7
 70
   128
 43
0.0
 10
132.5164911216896
 20
246.7606683808878
 10
132.5149751654802
 20
246.7491929963766
 10
132.5118191336427
 20
246.7262783691817
 10
132.5080888576398
 20
246.7019884487562
 10
132.5067014943824
 20
246.6939593508741
 10
132.5050923825684
 20
246.6861282412801
 10
132.5030142908839
 20
246.6787905198028
  0
LINE
  5
2F5
330
A
100
AcDbEntity
  8
INDUSA
  6
Continuous
100
AcDbLine
 10
132.5030142908839
 20
246.6787905198028
 30
0.0
 11
132.5023835757289
 21
246.6774176624868
 31
0.0
  0
LWPOLYLINE
  5
301
330
A
100
AcDbEntity
  8
INDUSA
  6
Continuous
100
AcDbPolyline
 90
        7
 70
   128
 43
0.0
 10
132.4614090452397
 20
246.6708346308658
 10
132.4606910604658
 20
246.6705367500665
 10
132.4525243617905
 20
246.666896451963
 10
132.4484494307305
 20
246.6649850354123
 10
132.446418553641
 20
246.6640166034638
 10
132.4443923136894
 20
246.6630423790269
 10
132.4440197135331
 20
246.6628625019839
  0
LWPOLYLINE
  5
30A
330
A
100
AcDbEntity
  8
INDUSA
  6
Continuous
100
AcDbPolyline
 90
        6
 70
   128
 43
0.0
 10
132.4440197135331
 20
246.6628625019839
 10
132.4364659655777
 20
246.6591820096681
 10
132.4223183050567
 20
246.6523278332273
 10
132.4084600953145
 20
246.6459163719686
 10
132.3975726596871
 20
246.6412400347063
 10
132.3869978596002
 20
246.6371408606482
  0
LWPOLYLINE
  5
312
330
A
100
AcDbEntity
  8
INDUSA
  6
Continuous
100
AcDbPolyline
 90
        7
 70
   128
 43
0.0
 10
132.1179157591471
 20
246.6708346308658
 10
132.1186337439211
 20
246.6705367500665
 10
132.1268004425964
 20
246.666896451963
 10
132.1308753736563
 20
246.6649850354123
 10
132.1329062507458
 20
246.6640166034638
 10
132.1349324906975
 20
246.6630423790269
 10
132.1353050908538
 20
246.6628625019839
  0
LINE
  5
326
330
A
100
AcDbEntity
  8
INDUSA
  6
Continuous
100
AcDbLine
 10
132.0763105135029
 20
246.6787905198028
 30
0.0
 11
132.0769412286579
 21
246.6774176624868
 31
0.0
  0
LWPOLYLINE
  5
327
330
A
100
AcDbEntity
  8
INDUSA
  6
Continuous
100
AcDbPolyline
 90
        7
 70
   128
 43
0.0
 10
132.0628336826972
 20
246.7606683808878
 10
132.0643496389067
 20
246.7491929963766
 10
132.0675056707441
 20
246.7262783691817
 10
132.071235946747
 20
246.7019884487562
 10
132.0726233100045
 20
246.6939593508741
 10
132.0742324218185
 20
246.6861282412801
 10
132.0763105135029
 20
246.6787905198028
  0
LWPOLYLINE
  5
330
330
A
100
AcDbEntity
  8
INDUSA
  6
Continuous
100
AcDbPolyline
 90
        5
 70
   128
 43
0.0
 10
132.0601601105388
 20
246.7657262785361
 10
132.0614971632228
 20
246.764223374402
 10
132.0623528811728
 20
246.7625917831436
 10
132.0627785817479
 20
246.7610319878767
 10
132.0628336826972
 20
246.7606683808878
  0
LWPOLYLINE
  5
337
330
A
100
AcDbEntity
  8
INDUSA
  6
Continuous
100
AcDbPolyline
 90
        3
 70
   128
 43
0.0
 10
132.1835414502168
 20
246.6524444369376
 10
132.1752274004484
 20
246.6597771558517
 10
132.1582672379841
 20
246.6747302477618
  0
LWPOLYLINE
  5
33C
330
A
100
AcDbEntity
  8
INDUSA
  6
Continuous
100
AcDbPolyline
 90
        3
 70
   128
 43
0.0
 10
132.1919809398083
 20
246.6390320147525
 10
132.1902063466636
 20
246.6418493460023
 10
132.1835414502168
 20
246.6524444369376
  0
LWPOLYLINE
  5
348
330
A
100
AcDbEntity
  8
INDUSA
  6
Continuous
100
AcDbPolyline
 90
        6
 70
   128
 43
0.0
 10
132.1353050908538
 20
246.6628625019839
 10
132.1428588388092
 20
246.6591820096681
 10
132.1570064993301
 20
246.6523278332273
 10
132.1708647090723
 20
246.6459163719686
 10
132.1817521446997
 20
246.6412400347063
 10
132.1923269447867
 20
246.6371408606482
  0
LINE
  5
3AC
330
A
100
AcDbEntity
  8
INDUSA
  6
Continuous
100
AcDbLine
 10
132.5109343010751
 20
246.6848319310932
 30
0.0
 11
132.5109120812299
 21
246.6846961571855
 31
0.0
  0
LINE
  5
3AD
330
A
100
AcDbEntity
  8
INDUSA
  6
Continuous
100
AcDbLine
 10
132.5109343010751
 20
246.6848319310932
 30
0.0
 11
132.5120709850799
 21
246.6918881725834
 31
0.0
  0
LINE
  5
3AE
330
A
100
AcDbEntity
  8
INDUSA
  6
Continuous
100
AcDbLine
 10
132.0683905033117
 20
246.6848319310932
 30
0.0
 11
132.0684127231569
 21
246.6846961571855
 31
0.0
  0
LINE
  5
3AF
330
A
100
AcDbEntity
  8
INDUSA
  6
Continuous
100
AcDbLine
 10
132.0683905033117
 20
246.6848319310932
 30
0.0
 11
132.0672538193069
 21
246.6918881725834
 31
0.0
  0
ARC
  5
3B0
330
A
100
AcDbEntity
  8
INDUSA
  6
Continuous
100
AcDbCircle
 10
132.3992893673454
 20
246.648018677363
 30
0.0
 40
0.0059999999999999
100
AcDbArc
 50
131.4964683552128
 51
147.9946167919124
  0
LWPOLYLINE
  5
3F3
330
A
100
AcDbEntity
  8
INDUSA
  6
Continuous
100
AcDbPolyline
 90
        5
 70
   128
 43
0.0
 10
132.3873438645786
 20
246.6390320147525
 10
132.3874114876804
 20
246.6394870184851
 10
132.3878801622473
 20
246.6408172179306
 10
132.3885841288503
 20
246.6421786911656
 10
132.3890686621309
 20
246.6429863263781
  0
LINE
  5
3FA
330
A
100
AcDbEntity
  8
INDUSA
  6
Continuous
100
AcDbLine
 10
132.3864440566821
 20
246.6368489389801
 30
0.0
 11
132.386215672031
 21
246.6367668376074
 31
0.0
  0
LWPOLYLINE
  5
3FB
330
A
100
AcDbEntity
  8
INDUSA
  6
Continuous
100
AcDbPolyline
 90
        4
 70
   128
 43
0.0
 10
132.386215672031
 20
246.6367668376074
 10
132.3837460328014
 20
246.6364073728871
 10
132.3813485009483
 20
246.6360864789379
 10
132.378809868674
 20
246.6359363104782
  0
LINE
  5
410
330
A
100
AcDbEntity
  8
INDUSA
  6
Continuous
100
AcDbLine
 10
132.3763486875708
 20
246.6359363104782
 30
0.0
 11
132.378809868674
 21
246.6359363104782
 31
0.0
  0
LWPOLYLINE
  5
411
330
A
100
AcDbEntity
  8
INDUSA
  6
Continuous
100
AcDbPolyline
 90
        6
 70
   128
 43
0.0
 10
132.1919809398083
 20
246.6390320147525
 10
132.1919859394245
 20
246.6390208609865
 10
132.1920632357012
 20
246.6388471418051
 10
132.1920840588351
 20
246.6387998789328
 10
132.1923453856088
 20
246.638178684583
 10
132.1926616477593
 20
246.6370071516418
  0
LWPOLYLINE
  5
419
330
A
100
AcDbEntity
  8
INDUSA
  6
Continuous
100
AcDbPolyline
 90
        4
 70
   128
 43
0.0
 10
132.1931091323558
 20
246.6367668376074
 10
132.1955787715855
 20
246.6364073728871
 10
132.1979763034385
 20
246.6360864789379
 10
132.2005149357128
 20
246.6359363104782
  0
LINE
  5
41F
330
A
100
AcDbEntity
  8
INDUSA
  6
Continuous
100
AcDbLine
 10
132.1928807477047
 20
246.6368489389801
 30
0.0
 11
132.1931091323558
 21
246.6367668376074
 31
0.0
  0
LWPOLYLINE
  5
420
330
A
100
AcDbEntity
  8
INDUSA
  6
Continuous
100
AcDbPolyline
 90
        5
 70
   128
 43
0.0
 10
132.1926616477593
 20
246.6370071516418
 10
132.1926693054976
 20
246.6369789550002
 10
132.1927034680483
 20
246.6369377822166
 10
132.1927785067126
 20
246.6368905586806
 10
132.1928807477047
 20
246.6368489389801
  0
LINE
  5
427
330
A
100
AcDbEntity
  8
INDUSA
  6
Continuous
100
AcDbLine
 10
132.202976116816
 20
246.6359363104782
 30
0.0
 11
132.2005149357128
 21
246.6359363104782
 31
0.0
  0
LWPOLYLINE
  5
433
330
A
100
AcDbEntity
  8
INDUSA
  6
Continuous
100
AcDbPolyline
 90
        9
 70
   128
 43
0.0
 10
132.1926616477593
 20
246.6370071516418
 10
132.1926174193134
 20
246.6370174424753
 10
132.1925736968922
 20
246.637029628199
 10
132.1925305707141
 20
246.6370436836682
 10
132.1924881297668
 20
246.6370595798807
 10
132.1924464616245
 20
246.6370772840355
 10
132.1924056522665
 20
246.6370967596014
 10
132.1923657859
 20
246.6371179663919
 10
132.1923269447867
 20
246.6371408606482
  0
LWPOLYLINE
  5
47C
330
A
100
AcDbEntity
  8
INDUSA
  6
Continuous
100
AcDbPolyline
 90
        8
 70
   128
 43
0.0
 10
132.0898079392367
 20
246.6769363104782
 10
132.0897625852728
 20
246.676935492701
 10
132.0891163447891
 20
246.6769241422402
 10
132.0886731350269
 20
246.6769166672221
 10
132.0879335551224
 20
246.6769047107375
 10
132.085797732709
 20
246.6768733625775
 10
132.0796520886798
 20
246.6768027233881
 10
132.076766053561
 20
246.6767767614695
  0
LWPOLYLINE
  5
486
330
A
100
AcDbEntity
  8
INDUSA
  6
Continuous
100
AcDbPolyline
 90
        9
 70
   128
 43
0.0
 10
132.076941228658
 20
246.6774176624868
 10
132.0769205497004
 20
246.6773029343559
 10
132.0768994666169
 20
246.6771978544968
 10
132.0768780069031
 20
246.6771025599511
 10
132.0768561985462
 20
246.6770171749993
 10
132.0768340699881
 20
246.6769418109975
 10
132.076811650088
 20
246.6768765662332
 10
132.0767889680853
 20
246.6768215257966
 10
132.076766053561
 20
246.6767767614695
  0
LWPOLYLINE
  5
491
330
A
100
AcDbEntity
  8
INDUSA
  6
Continuous
100
AcDbPolyline
 90
        9
 70
   128
 43
0.0
 10
132.5023835757289
 20
246.6774176624868
 10
132.5024042546864
 20
246.6773029343559
 10
132.50242533777
 20
246.6771978544968
 10
132.5024467974837
 20
246.6771025599511
 10
132.5024686058406
 20
246.6770171749993
 10
132.5024907343988
 20
246.6769418109975
 10
132.5025131542989
 20
246.6768765662332
 10
132.5025358363016
 20
246.6768215257966
 10
132.5025587508258
 20
246.6767767614695
  0
LWPOLYLINE
  5
49C
330
A
100
AcDbEntity
  8
INDUSA
  6
Continuous
100
AcDbPolyline
 90
        8
 70
   128
 43
0.0
 10
132.4895168651501
 20
246.6769363104782
 10
132.4895622191141
 20
246.676935492701
 10
132.4902084595977
 20
246.6769241422402
 10
132.4906516693599
 20
246.6769166672221
 10
132.4913912492644
 20
246.6769047107375
 10
132.4935270716779
 20
246.6768733625775
 10
132.4996727157071
 20
246.6768027233881
 10
132.5025587508258
 20
246.6767767614695
  0
LWPOLYLINE
  5
4A6
330
A
100
AcDbEntity
  8
INDUSA
  6
Continuous
100
AcDbPolyline
 90
        3
 70
   128
 43
0.0
 10
132.5025587508258
 20
246.6767767614695
 10
132.4996222522549
 20
246.6693001200881
 10
132.4970629930791
 20
246.6627089797235
  0
LINE
  5
4AB
330
A
100
AcDbEntity
  8
INDUSA
  6
Continuous
100
AcDbLine
 10
132.4970629930791
 20
246.6627089797235
 30
0.0
 11
132.4756771468348
 21
246.663128310042
 31
0.0
  0
LINE
  5
4B1
330
A
100
AcDbEntity
  8
INDUSA
  6
Continuous
100
AcDbLine
 10
132.4726550118285
 20
246.6668934499441
 30
0.0
 11
132.4815357175923
 21
246.6667193184586
 31
0.0
  0
LWPOLYLINE
  5
4B8
330
A
100
AcDbEntity
  8
INDUSA
  6
Continuous
100
AcDbPolyline
 90
        3
 70
   128
 43
0.0
 10
132.076766053561
 20
246.6767767614695
 10
132.0797025521319
 20
246.6693001200881
 10
132.0822618113078
 20
246.6627089797235
  0
LINE
  5
4BD
330
A
100
AcDbEntity
  8
INDUSA
  6
Continuous
100
AcDbLine
 10
132.1066697925583
 20
246.6668934499441
 30
0.0
 11
132.0977890867946
 21
246.6667193184586
 31
0.0
  0
LINE
  5
4BF
330
A
100
AcDbEntity
  8
INDUSA
  6
Continuous
100
AcDbLine
 10
132.50461264229
 20
246.6678675257746
 30
0.0
 11
132.5041559142538
 21
246.6668328396634
 31
0.0
  0
LINE
  5
4DE
330
A
100
AcDbEntity
  8
INDUSA
  6
Continuous
100
AcDbLine
 10
132.1022114935906
 20
246.6707696544387
 30
0.0
 11
132.1065921043461
 21
246.6708555487672
 31
0.0
  0
LINE
  5
4E1
330
A
100
AcDbEntity
  8
INDUSA
  6
Continuous
100
AcDbLine
 10
132.4771133107963
 20
246.6707696544387
 30
0.0
 11
132.4727327000407
 21
246.6708555487672
 31
0.0
  0
ARC
  5
4E3
330
A
100
AcDbEntity
  8
INDUSA
  6
Continuous
100
AcDbCircle
 10
132.3346624021934
 20
246.5569363104782
 30
0.0
 40
0.1750000000000002
100
AcDbArc
 50
39.52540714422488
 51
41.40674716045947
  0
ARC
  5
4E4
330
A
100
AcDbEntity
  8
INDUSA
  6
Continuous
100
AcDbCircle
 10
132.2446624021934
 20
246.5569363104782
 30
0.0
 40
0.1750000000000001
100
AcDbArc
 50
138.5932528395406
 51
140.4745928557751
  0
LWPOLYLINE
  5
4E6
330
A
100
AcDbEntity
  8
INDUSA
  6
Continuous
100
AcDbPolyline
 90
        9
 70
   128
 43
0.0
 10
132.4696473302564
 20
246.6683098674647
 10
132.4699371913592
 20
246.6679956238725
 10
132.4702600271122
 20
246.6677151147571
 10
132.4706120294799
 20
246.6674716488866
 10
132.4709890463898
 20
246.6672680980825
 10
132.4713866307082
 20
246.667106863345
 10
132.471800092697
 20
246.6669898465314
 10
132.4722245553316
 20
246.6669184279231
 10
132.4726550118285
 20
246.6668934499441
  0
LWPOLYLINE
  5
4F1
330
A
100
AcDbEntity
  8
INDUSA
  6
Continuous
100
AcDbPolyline
 90
        9
 70
   128
 43
0.0
 10
132.1096774741304
 20
246.6683098674647
 10
132.1093876130276
 20
246.6679956238725
 10
132.1090647772747
 20
246.6677151147571
 10
132.1087127749069
 20
246.6674716488866
 10
132.108335757997
 20
246.6672680980825
 10
132.1079381736786
 20
246.667106863345
 10
132.1075247116898
 20
246.6669898465314
 10
132.1071002490552
 20
246.6669184279231
 10
132.1066697925584
 20
246.6668934499441
  0
LWPOLYLINE
  5
4FC
330
A
100
AcDbEntity
  8
INDUSA
  6
Continuous
100
AcDbPolyline
 90
        3
 70
   128
 43
0.0
 10
132.4696473302564
 20
246.6683098674647
 10
132.4711370419823
 20
246.6664793280306
 10
132.4726019315196
 20
246.6646288647671
  0
LWPOLYLINE
  5
501
330
A
100
AcDbEntity
  8
INDUSA
  6
Continuous
100
AcDbPolyline
 90
        9
 70
   128
 43
0.0
 10
132.4726019315196
 20
246.6646288647671
 10
132.4728925438308
 20
246.6642973405699
 10
132.4732190103287
 20
246.6640008034459
 10
132.4735772415656
 20
246.663742967936
 10
132.4739627501959
 20
246.6635270637892
 10
132.4743707071866
 20
246.6633557955058
 10
132.474796002308
 20
246.66323130846
 10
132.4752333081457
 20
246.6631551620253
 10
132.4756771468348
 20
246.663128310042
  0
LWPOLYLINE
  5
50C
330
A
100
AcDbEntity
  8
INDUSA
  6
Continuous
100
AcDbPolyline
 90
        3
 70
   128
 43
0.0
 10
132.1096774741304
 20
246.6683098674647
 10
132.1081877624045
 20
246.6664793280306
 10
132.1067228728673
 20
246.6646288647671
  0
LINE
  5
53C
330
A
100
AcDbEntity
  8
INDUSA
  6
Continuous
100
AcDbLine
 10
132.3522109768919
 20
245.9669363104782
 30
0.0
 11
132.2271138279101
 21
245.9669363104782
 31
0.0
  0
LINE
  5
554
330
A
100
AcDbEntity
  8
INDUSA
  6
Continuous
100
AcDbLine
 10
132.3622519794791
 20
245.9718451457343
 30
0.0
 11
132.3743704313905
 21
246.6359363104782
 31
0.0
  0
LWPOLYLINE
  5
555
330
A
100
AcDbEntity
  8
INDUSA
  6
Continuous
100
AcDbPolyline
 90
        6
 70
   128
 43
0.0
 10
132.3622519794791
 20
245.9718451457343
 10
132.3619400836743
 20
245.9701963341676
 10
132.3611000567956
 20
245.9687436981955
 10
132.3598263335072
 20
245.9676504460373
 10
132.3582616708497
 20
245.9670396980357
 10
132.3572494675504
 20
245.9669363104782
  0
LINE
  5
55D
330
A
100
AcDbEntity
  8
INDUSA
  6
Continuous
100
AcDbLine
 10
132.3572494675504
 20
245.9669363104782
 30
0.0
 11
132.3522109768919
 21
245.9669363104782
 31
0.0
  0
LINE
  5
566
330
A
100
AcDbEntity
  8
INDUSA
  6
Continuous
100
AcDbLine
 10
132.2170728249077
 20
245.9718451457343
 30
0.0
 11
132.2049543729963
 21
246.6359363104782
 31
0.0
  0
LWPOLYLINE
  5
567
330
A
100
AcDbEntity
  8
INDUSA
  6
Continuous
100
AcDbPolyline
 90
        6
 70
   128
 43
0.0
 10
132.2220753368364
 20
245.9669363104782
 10
132.2204183710425
 20
245.9672184579236
 10
132.2189482106938
 20
245.9680332158201
 10
132.217831157922
 20
245.9692884787292
 10
132.2171933213113
 20
245.9708418838558
 10
132.2170728249077
 20
245.9718451457343
  0
LINE
  5
56F
330
A
100
AcDbEntity
  8
INDUSA
  6
Continuous
100
AcDbLine
 10
132.2271138279101
 20
245.9669363104782
 30
0.0
 11
132.2220753368364
 21
245.9669363104782
 31
0.0
  0
LWPOLYLINE
  5
572
330
A
100
AcDbEntity
  8
INDUSA
  6
Continuous
100
AcDbPolyline
 90
        5
 70
   128
 43
0.0
 10
132.4895168651501
 20
246.6769363104782
 10
132.4894749319557
 20
246.6769369552363
 10
132.4889668444269
 20
246.6769438589074
 10
132.4869126149715
 20
246.6769529525542
 10
132.4857130195648
 20
246.6769266584159
  0
LWPOLYLINE
  5
579
330
A
100
AcDbEntity
  8
INDUSA
  6
Continuous
100
AcDbPolyline
 90
        5
 70
   128
 43
0.0
 10
132.0898079392367
 20
246.6769363104782
 10
132.0898498724311
 20
246.6769369552363
 10
132.0903579599599
 20
246.6769438589074
 10
132.0924121894153
 20
246.6769529525542
 10
132.093611784822
 20
246.6769266584159
  0
LWPOLYLINE
  5
5BA
330
A
100
AcDbEntity
  8
INDUSA
  6
Continuous
100
AcDbPolyline
 90
        8
 70
   128
 43
0.0
 10
132.076766053561
 20
246.6767767614695
 10
132.075335196645
 20
246.6768666496053
 10
132.0739454620074
 20
246.6772091207155
 10
132.0726416555506
 20
246.6777931333202
 10
132.0714658127998
 20
246.6785998584926
 10
132.0704558436509
 20
246.6796032869151
 10
132.0696443101328
 20
246.6807710674359
 10
132.069170668342
 20
246.6817605052161
  0
LWPOLYLINE
  5
5C4
330
A
100
AcDbEntity
  8
INDUSA
  6
Continuous
100
AcDbPolyline
 90
        8
 70
   128
 43
0.0
 10
132.5025587508258
 20
246.6767767614695
 10
132.5039896077418
 20
246.6768666496053
 10
132.5053793423795
 20
246.6772091207155
 10
132.5066831488362
 20
246.6777931333202
 10
132.5078589915871
 20
246.6785998584926
 10
132.5088689607359
 20
246.6796032869151
 10
132.509680494254
 20
246.6807710674359
 10
132.5101541360448
 20
246.6817605052161
  0
LWPOLYLINE
  5
5E7
330
A
100
AcDbEntity
  8
INDUSA
  6
Continuous
100
AcDbPolyline
 90
        5
 70
   128
 43
0.0
 10
132.5041559142538
 20
246.6668328396634
 10
132.5039150256983
 20
246.6662871231253
 10
132.5020803972236
 20
246.6643322981804
 10
132.4997140505324
 20
246.6630968777319
 10
132.4970629930791
 20
246.6627089797235
  0
LWPOLYLINE
  5
5EE
330
A
100
AcDbEntity
  8
INDUSA
  6
Continuous
100
AcDbPolyline
 90
        5
 70
   128
 43
0.0
 10
132.0977890867946
 20
246.6667193184586
 10
132.0977956610873
 20
246.6667213775846
 10
132.0986526225928
 20
246.6671310211037
 10
132.099513474634
 20
246.6679190416741
 10
132.0998516234556
 20
246.668498779479
  0
LWPOLYLINE
  5
5F5
330
A
100
AcDbEntity
  8
INDUSA
  6
Continuous
100
AcDbPolyline
 90
        5
 70
   128
 43
0.0
 10
132.4815357175923
 20
246.6667193184586
 10
132.4815291432996
 20
246.6667213775846
 10
132.480672181794
 20
246.6671310211037
 10
132.4798113297529
 20
246.6679190416741
 10
132.4794731809312
 20
246.668498779479
  0
LINE
  5
5FC
330
A
100
AcDbEntity
  8
INDUSA
  6
Continuous
100
AcDbLine
 10
132.1023431963147
 20
246.6735354116457
 30
0.0
 11
132.1022114935906
 21
246.6707696544387
 31
0.0
  0
LINE
  5
606
330
A
100
AcDbEntity
  8
INDUSA
  6
Continuous
100
AcDbLine
 10
132.4769816080721
 20
246.6735354116457
 30
0.0
 11
132.4771133107963
 21
246.6707696544387
 31
0.0
  0
ARC
  5
610
330
A
100
AcDbEntity
  8
INDUSA
  6
Continuous
100
AcDbCircle
 10
132.3346624021934
 20
246.5569363104782
 30
0.0
 40
0.1790000000000001
100
AcDbArc
 50
39.52540714422503
 51
40.88929217144694
  0
ARC
  5
611
330
A
100
AcDbEntity
  8
INDUSA
  6
Continuous
100
AcDbCircle
 10
132.2446624021934
 20
246.5569363104782
 30
0.0
 40
0.179
100
AcDbArc
 50
139.1107078285531
 51
140.4745928557751
  0
LINE
  5
612
330
A
100
AcDbEntity
  8
INDUSA
  6
Continuous
100
AcDbLine
 10
132.4970629930791
 20
246.6627089797235
 30
0.0
 11
132.4970622649917
 21
246.662671847267
 31
0.0
  0
LINE
  5
613
330
A
100
AcDbEntity
  8
INDUSA
  6
Continuous
100
AcDbLine
 10
132.0822618113078
 20
246.6627089797235
 30
0.0
 11
132.0822625393946
 21
246.6626718472946
 31
0.0
  0
LINE
  5
614
330
A
100
AcDbEntity
  8
INDUSA
  6
Continuous
100
AcDbLine
 10
132.4756764187473
 20
246.6630911775785
 30
0.0
 11
132.4756771468348
 21
246.663128310042
 31
0.0
  0
ARC
  5
61F
330
A
100
AcDbEntity
  8
INDUSA
  6
Continuous
100
AcDbCircle
 10
133.4618623509545
 20
246.7709363104782
 30
0.0
 40
0.0040000000000001
100
AcDbArc
 50
270.0000000000008
 51
0.0
  0
LINE
  5
620
330
A
100
AcDbEntity
  8
INDUSA
  6
Continuous
100
AcDbLine
 10
133.4658623509545
 20
246.7709363104782
 30
0.0
 11
133.4658623509545
 21
246.8019363104782
 31
0.0
  0
ARC
  5
621
330
A
100
AcDbEntity
  8
INDUSA
  6
Continuous
100
AcDbCircle
 10
133.4608623509545
 20
246.8019363104782
 30
0.0
 40
0.005
100
AcDbArc
 50
0.0
 51
90.0
  0
ARC
  5
622
330
A
100
AcDbEntity
  8
INDUSA
  6
Continuous
100
AcDbCircle
 10
133.4031353361498
 20
246.7609363104782
 30
0.0
 40
0.0060000000000002
100
AcDbArc
 50
90.0
 51
131.4964683552158
  0
ARC
  5
624
330
A
100
AcDbEntity
  8
INDUSA
  6
Continuous
100
AcDbCircle
 10
133.0725974801538
 20
246.6847009591158
 30
0.0
 40
0.008
100
AcDbArc
 50
277.7559293279752
 51
294.1061582651607
  0
LINE
  5
625
330
A
100
AcDbEntity
  8
INDUSA
  6
Continuous
100
AcDbLine
 10
133.2762922836658
 20
246.6567397124921
 30
0.0
 11
133.3991598928566
 21
246.7654302898531
 31
0.0
  0
LINE
  5
626
330
A
100
AcDbEntity
  8
INDUSA
  6
Continuous
100
AcDbLine
 10
132.9758641503302
 20
246.8069363104063
 30
0.0
 11
132.9758488751767
 21
246.8069363005715
 31
0.0
  0
LWPOLYLINE
  5
62C
330
A
100
AcDbEntity
  8
INDUSA
  6
Continuous
100
AcDbPolyline
 90
        8
 70
   128
 43
0.0
 10
133.0727964055689
 20
246.6759836925911
 10
133.0745472296971
 20
246.6749770048609
 10
133.0762785502963
 20
246.6737997391104
 10
133.0784892722611
 20
246.672045993297
 10
133.0808443326316
 20
246.6698695477381
 10
133.0835195571693
 20
246.6671535173134
 10
133.0871102707732
 20
246.6633019446147
 10
133.0871507775114
 20
246.6632581064443
  0
LINE
  5
63B
330
A
100
AcDbEntity
  8
INDUSA
  6
Continuous
100
AcDbLine
 10
133.265268610892
 20
246.6429863263781
 30
0.0
 11
133.2670200536721
 21
246.6457886348264
 31
0.0
  0
ARC
  5
63C
330
A
100
AcDbEntity
  8
INDUSA
  6
Continuous
100
AcDbCircle
 10
133.2525486363319
 20
246.6509363104782
 30
0.0
 40
0.0150000000000001
100
AcDbArc
 50
270.0000000000008
 51
327.994616791917
  0
LINE
  5
63D
330
A
100
AcDbEntity
  8
INDUSA
  6
Continuous
100
AcDbLine
 10
133.2389129122552
 20
245.9718840949118
 30
0.0
 11
133.2456988473048
 21
246.6359363104782
 31
0.0
  0
ARC
  5
63E
330
A
100
AcDbEntity
  8
INDUSA
  6
Continuous
100
AcDbCircle
 10
133.2339131847779
 20
245.9719363104782
 30
0.0
 40
0.005
100
AcDbArc
 50
269.9999987847883
 51
359.600702287094
  0
LINE
  5
63F
330
A
100
AcDbEntity
  8
INDUSA
  6
Continuous
100
AcDbLine
 10
133.4618623509545
 20
246.7669363104782
 30
0.0
 11
132.9746956430432
 21
246.7669363104782
 31
0.0
  0
LINE
  5
640
330
A
100
AcDbEntity
  8
INDUSA
  6
Continuous
100
AcDbLine
 10
132.9690357939101
 20
246.7673459150984
 30
0.0
 11
132.9746956430432
 21
246.7669363104782
 31
0.0
  0
LINE
  5
64D
330
A
100
AcDbEntity
  8
INDUSA
  6
Continuous
100
AcDbLine
 10
132.9708623509545
 20
246.8069363104782
 30
0.0
 11
133.4608623509545
 21
246.8069363104782
 31
0.0
  0
LWPOLYLINE
  5
6A6
330
A
100
AcDbEntity
  8
INDUSA
  6
Continuous
100
AcDbPolyline
 90
        7
 70
   128
 43
0.0
 10
133.2272098305705
 20
246.7606683808878
 10
133.2069166082453
 20
246.7491929963766
 10
133.1663055922364
 20
246.7262783691817
 10
133.1228564545448
 20
246.7019884487562
 10
133.1083207467422
 20
246.6939593508741
 10
133.0937012663703
 20
246.6861282412801
 10
133.078900932088
 20
246.6787905198028
  0
LWPOLYLINE
  5
6AF
330
A
100
AcDbEntity
  8
INDUSA
  6
Continuous
100
AcDbPolyline
 90
        5
 70
   128
 43
0.0
 10
133.2340806828006
 20
246.7657262785361
 10
133.232597640374
 20
246.764223374402
 10
133.23037473546
 20
246.7625917831436
 10
133.2278448758327
 20
246.7610319878767
 10
133.2272098305705
 20
246.7606683808878
  0
LWPOLYLINE
  5
705
330
A
100
AcDbEntity
  8
INDUSA
  6
Continuous
100
AcDbPolyline
 90
        6
 70
   128
 43
0.0
 10
133.2352503972986
 20
246.7669363104782
 10
133.2352386198421
 20
246.7669361917088
 10
133.2346703734041
 20
246.7666457580426
 10
133.2343707125022
 20
246.766261190655
 10
133.2340805599724
 20
246.7657263446269
 10
133.2340805441645
 20
246.7657263109384
  0
LWPOLYLINE
  5
71E
330
A
100
AcDbEntity
  8
INDUSA
  6
Continuous
100
AcDbPolyline
 90
        6
 70
   128
 43
0.0
 10
132.9661343201701
 20
246.7709363104782
 10
132.9662828107493
 20
246.7698578110067
 10
132.9668176270999
 20
246.7687812023251
 10
132.9674475370725
 20
246.7681164867375
 10
132.9686089484983
 20
246.7674715693426
 10
132.9690357939101
 20
246.7673459150984
  0
ARC
  5
728
330
A
100
AcDbEntity
  8
INDUSA
  6
Continuous
100
AcDbCircle
 10
132.9708623509545
 20
246.8019363104782
 30
0.0
 40
0.005
100
AcDbArc
 50
90.0
 51
180.0000000000004
  0
LWPOLYLINE
  5
729
330
A
100
AcDbEntity
  8
INDUSA
  6
Continuous
100
AcDbPolyline
 90
        3
 70
   128
 43
0.0
 10
132.9661075359997
 20
246.7710520868632
 10
132.9661318840302
 20
246.7709465071751
 10
132.9661343201701
 20
246.7709363104782
  0
LWPOLYLINE
  5
72E
330
A
100
AcDbEntity
  8
INDUSA
  6
Continuous
100
AcDbPolyline
 90
        7
 70
   128
 43
0.0
 10
132.9658623509545
 20
246.7711132207366
 10
132.965862373608
 20
246.7711187455015
 10
132.9658732433355
 20
246.7712245483503
 10
132.9659283758164
 20
246.771294851681
 10
132.9660212542721
 20
246.7712353059183
 10
132.9660781283533
 20
246.7711417433208
 10
132.9661075359997
 20
246.7710520868632
  0
LINE
  5
737
330
A
100
AcDbEntity
  8
INDUSA
  6
Continuous
100
AcDbLine
 10
132.9658623509545
 20
246.7711132207366
 30
0.0
 11
132.9658623509545
 21
246.8019363104782
 31
0.0
  0
LWPOLYLINE
  5
740
330
A
100
AcDbEntity
  8
INDUSA
  6
Continuous
100
AcDbPolyline
 90
        9
 70
   128
 43
0.0
 10
133.2457229298015
 20
246.7669363104782
 10
133.245540355131
 20
246.7669117395451
 10
133.2453592758039
 20
246.7668382279894
 10
133.2451811749161
 20
246.7667163778936
 10
133.2450075111694
 20
246.7665471872479
 10
133.2448397069237
 20
246.7663320417763
 10
133.2446791365481
 20
246.7660727035871
 10
133.2445271151639
 20
246.7657712967408
 10
133.2443848878736
 20
246.7654302898531
  0
LINE
  5
761
330
A
100
AcDbEntity
  8
INDUSA
  6
Continuous
100
AcDbLine
 10
132.9658623509545
 20
246.7679860660421
 30
0.0
 11
132.9658623509545
 21
246.7711132207366
 31
0.0
  0
LINE
  5
762
330
A
100
AcDbEntity
  8
INDUSA
  6
Continuous
100
AcDbLine
 10
133.0758905525652
 20
246.6774176624868
 30
0.0
 11
133.0758649087239
 21
246.6773986368455
 31
0.0
  0
LINE
  5
76E
330
A
100
AcDbEntity
  8
INDUSA
  6
Continuous
100
AcDbLine
 10
132.9658623509545
 20
246.7630368634804
 30
0.0
 11
132.9658623509545
 21
246.7679860660421
 31
0.0
  0
LWPOLYLINE
  5
77A
330
A
100
AcDbEntity
  8
INDUSA
  6
Continuous
100
AcDbPolyline
 90
        3
 70
   128
 43
0.0
 10
133.0736851151248
 20
246.6767767614695
 10
133.0187929424073
 20
246.6693001200881
 10
132.97040616844
 20
246.6627089797235
  0
LWPOLYLINE
  5
787
330
A
100
AcDbEntity
  8
INDUSA
  6
Continuous
100
AcDbPolyline
 90
        9
 70
   128
 43
0.0
 10
133.2443848878736
 20
246.7654302898531
 10
133.2331536867842
 20
246.7541874673562
 10
133.2222381702597
 20
246.7429518638696
 10
133.2116463489205
 20
246.7316866769593
 10
133.2014678491688
 20
246.7204218813714
 10
133.1916414602462
 20
246.7090017088315
 10
133.1823878032632
 20
246.6975670965842
 10
133.1737389069526
 20
246.686027223895
 10
133.1658623509545
 20
246.674456773847
  0
LINE
  5
7A8
330
A
100
AcDbEntity
  8
INDUSA
  6
Continuous
100
AcDbLine
 10
132.9658623509545
 20
246.6705281648311
 30
0.0
 11
132.9658623509545
 21
246.7630368634804
 31
0.0
  0
LWPOLYLINE
  5
7C5
330
A
100
AcDbEntity
  8
INDUSA
  6
Continuous
100
AcDbPolyline
 90
        9
 70
   128
 43
0.0
 10
132.97040616844
 20
246.6627089797235
 10
132.9695545757935
 20
246.6626837032522
 10
132.9687169455437
 20
246.6628393163491
 10
132.9679312772678
 20
246.6631687595369
 10
132.9672332132577
 20
246.6636570874363
 10
132.9666544215878
 20
246.6642821467719
 10
132.9662211594746
 20
246.6650155813684
 10
132.9659530821021
 20
246.6658241185442
 10
132.9658623509545
 20
246.6666710785466
  0
LINE
  5
7D0
330
A
100
AcDbEntity
  8
INDUSA
  6
Continuous
100
AcDbLine
 10
132.9658623509545
 20
246.6666710785466
 30
0.0
 11
132.9658623509545
 21
246.6705281648311
 31
0.0
  0
LINE
  5
7DE
330
A
100
AcDbEntity
  8
INDUSA
  6
Continuous
100
AcDbLine
 10
133.0708623509545
 20
246.7669363104782
 30
0.0
 11
133.0708623509545
 21
246.7669363104782
 31
0.0
  0
LINE
  5
7DF
330
A
100
AcDbEntity
  8
INDUSA
  6
Continuous
100
AcDbLine
 10
133.0708623509545
 20
246.7669363104782
 30
0.0
 11
133.0708623509545
 21
246.7669363104782
 31
0.0
  0
LWPOLYLINE
  5
7E1
330
A
100
AcDbEntity
  8
INDUSA
  6
Continuous
100
AcDbPolyline
 90
        7
 70
   128
 43
0.0
 10
133.120785671857
 20
246.6380613670224
 10
133.1135480655518
 20
246.641762394068
 10
133.1068950447114
 20
246.6459046397122
 10
133.0981982553089
 20
246.6525187017218
 10
133.0908655519136
 20
246.6593701489511
 10
133.0905189080333
 20
246.659694042081
 10
133.0881175341536
 20
246.6622638874715
  0
LWPOLYLINE
  5
7FC
330
A
100
AcDbEntity
  8
INDUSA
  6
Continuous
100
AcDbPolyline
 90
        7
 70
   128
 43
0.0
 10
133.123718997215
 20
246.6367865917577
 10
133.121869189993
 20
246.6375755710015
 10
133.1218645747487
 20
246.6375776030811
 10
133.1209642627749
 20
246.6379800872428
 10
133.1209614923404
 20
246.6379813444659
 10
133.1208038007572
 20
246.6380530944506
 10
133.120785671857
 20
246.6380613670224
  0
LWPOLYLINE
  5
805
330
A
100
AcDbEntity
  8
INDUSA
  6
Continuous
100
AcDbPolyline
 90
        4
 70
   128
 43
0.0
 10
133.1256932911865
 20
246.636002371161
 10
133.1253290325206
 20
246.6361396902076
 10
133.1245484236947
 20
246.6364473271044
 10
133.123718997215
 20
246.6367865917577
  0
LINE
  5
80B
330
A
100
AcDbEntity
  8
INDUSA
  6
Continuous
100
AcDbLine
 10
133.1658623509545
 20
246.674456773847
 30
0.0
 11
133.151707379327
 21
246.6525126567379
 31
0.0
  0
LINE
  5
81F
330
A
100
AcDbEntity
  8
INDUSA
  6
Continuous
100
AcDbLine
 10
133.1511923191881
 20
246.6511413871518
 30
0.0
 11
133.1390166041858
 21
246.6429863263781
 31
0.0
  0
LWPOLYLINE
  5
820
330
A
100
AcDbEntity
  8
INDUSA
  6
Continuous
100
AcDbPolyline
 90
        5
 70
   128
 43
0.0
 10
133.1293876034984
 20
246.6390320147525
 10
133.1305565022438
 20
246.6394870184851
 10
133.1338532725478
 20
246.6408172179306
 10
133.1371172355285
 20
246.6421786911656
 10
133.1390166041858
 20
246.6429863263781
  0
LINE
  5
832
330
A
100
AcDbEntity
  8
INDUSA
  6
Continuous
100
AcDbLine
 10
133.1512821403202
 20
246.651198671003
 30
0.0
 11
133.1511923191881
 21
246.6511413871518
 31
0.0
  0
LWPOLYLINE
  5
843
330
A
100
AcDbEntity
  8
INDUSA
  6
Continuous
100
AcDbPolyline
 90
        4
 70
   128
 43
0.0
 10
133.151707379327
 20
246.6525126567379
 10
133.1517035203003
 20
246.6525023979523
 10
133.1514886968956
 20
246.6518839428252
 10
133.1512821403203
 20
246.651198671003
  0
LWPOLYLINE
  5
861
330
A
100
AcDbEntity
  8
INDUSA
  6
Continuous
100
AcDbPolyline
 90
        3
 70
   128
 43
0.0
 10
133.2762922746337
 20
246.6567397226941
 10
133.2712613110442
 20
246.6515984985439
 10
133.2670200442181
 20
246.6457886407285
  0
LWPOLYLINE
  5
886
330
A
100
AcDbEntity
  8
INDUSA
  6
Continuous
100
AcDbPolyline
 90
        6
 70
   128
 43
0.0
 10
133.1293876034984
 20
246.6390320147525
 10
133.1293664055147
 20
246.6390208609865
 10
133.129033579832
 20
246.6388471418051
 10
133.1289421042437
 20
246.6387998789328
 10
133.1276921317194
 20
246.638178684583
 10
133.1248474324066
 20
246.6370071516418
  0
LINE
  5
88F
330
A
100
AcDbEntity
  8
INDUSA
  6
Continuous
100
AcDbLine
 10
133.1390166041858
 20
246.6359363104782
 30
0.0
 11
133.1260507176853
 21
246.6359363104782
 31
0.0
  0
LINE
  5
896
330
A
100
AcDbEntity
  8
INDUSA
  6
Continuous
100
AcDbLine
 10
133.124496636439
 20
246.6368489389801
 30
0.0
 11
133.1243713227551
 21
246.6367668376074
 31
0.0
  0
LWPOLYLINE
  5
897
330
A
100
AcDbEntity
  8
INDUSA
  6
Continuous
100
AcDbPolyline
 90
        5
 70
   128
 43
0.0
 10
133.1248474324066
 20
246.6370071516418
 10
133.1247679501214
 20
246.6369789550002
 10
133.1246644654867
 20
246.6369377822166
 10
133.1245648040876
 20
246.6368905586806
 10
133.124496636439
 20
246.6368489389801
  0
LINE
  5
89E
330
A
100
AcDbEntity
  8
INDUSA
  6
Continuous
100
AcDbLine
 10
133.1658623509545
 20
246.6359363104782
 30
0.0
 11
133.1390166041858
 21
246.6359363104782
 31
0.0
  0
LINE
  5
8A0
330
A
100
AcDbEntity
  8
INDUSA
  6
Continuous
100
AcDbLine
 10
133.2525486363319
 20
246.6359363104782
 30
0.0
 11
133.1658623509545
 21
246.6359363104782
 31
0.0
  0
LWPOLYLINE
  5
8D5
330
A
100
AcDbEntity
  8
INDUSA
  6
Continuous
100
AcDbPolyline
 90
        9
 70
   128
 43
0.0
 10
133.1243713227551
 20
246.6367668376074
 10
133.124290456179
 20
246.6367436891933
 10
133.1242081633853
 20
246.6367277598553
 10
133.1241250582303
 20
246.6367191684171
 10
133.1240417606303
 20
246.6367179789658
 10
133.123958891937
 20
246.6367242003739
 10
133.1238770703026
 20
246.6367377862335
 10
133.1237969060691
 20
246.6367586352018
 10
133.123718997215
 20
246.6367865917577
  0
LINE
  5
8E0
330
A
100
AcDbEntity
  8
INDUSA
  6
Continuous
100
AcDbLine
 10
133.2518623509545
 20
246.6359363104782
 30
0.0
 11
133.2458240405591
 21
246.6359363104782
 31
0.0
  0
LINE
  5
916
330
A
100
AcDbEntity
  8
INDUSA
  6
Continuous
100
AcDbLine
 10
133.0626958963917
 20
246.65961558602
 30
0.0
 11
133.0618480391712
 21
246.675164481111
 31
0.0
  0
LINE
  5
959
330
A
100
AcDbEntity
  8
INDUSA
  6
Continuous
100
AcDbLine
 10
133.0633407843316
 20
246.6565880594709
 30
0.0
 11
133.0626958963917
 21
246.65961558602
 31
0.0
  0
LWPOLYLINE
  5
965
330
A
100
AcDbEntity
  8
INDUSA
  6
Continuous
100
AcDbPolyline
 90
        3
 70
   128
 43
0.0
 10
133.0649186627885
 20
246.6538556864339
 10
133.063775960723
 20
246.655610428892
 10
133.0633407843316
 20
246.6565880594709
  0
LINE
  5
96A
330
A
100
AcDbEntity
  8
INDUSA
  6
Continuous
100
AcDbLine
 10
133.0664775191284
 20
246.6519363104782
 30
0.0
 11
133.0649186627885
 21
246.6538556864338
 31
0.0
  0
LINE
  5
96B
330
A
100
AcDbEntity
  8
INDUSA
  6
Continuous
100
AcDbLine
 10
133.0708623509545
 20
246.7669363104782
 30
0.0
 11
133.0708623509545
 21
246.7669363104782
 31
0.0
  0
LINE
  5
96C
330
A
100
AcDbEntity
  8
INDUSA
  6
Continuous
100
AcDbLine
 10
133.0708623509545
 20
246.7669363104782
 30
0.0
 11
133.0708623509545
 21
246.7669363104782
 31
0.0
  0
LINE
  5
96D
330
A
100
AcDbEntity
  8
INDUSA
  6
Continuous
100
AcDbLine
 10
132.9658623509545
 20
246.7789363104782
 30
0.0
 11
132.9658623509545
 21
246.7752997591585
 31
0.0
  0
LINE
  5
976
330
A
100
AcDbEntity
  8
INDUSA
  6
Continuous
100
AcDbLine
 10
133.0358623509545
 20
246.6519363104782
 30
0.0
 11
133.0989640379684
 21
246.6519363104782
 31
0.0
  0
LINE
  5
977
330
A
100
AcDbEntity
  8
INDUSA
  6
Continuous
100
AcDbLine
 10
133.0358623509545
 20
245.9718451457343
 30
0.0
 11
133.0358623509545
 21
246.6519363104782
 31
0.0
  0
LINE
  5
983
330
A
100
AcDbEntity
  8
INDUSA
  6
Continuous
100
AcDbLine
 10
133.1736109462299
 20
245.9669363104782
 30
0.0
 11
133.0358623509545
 21
245.9669363104782
 31
0.0
  0
LINE
  5
984
330
A
100
AcDbEntity
  8
INDUSA
  6
Continuous
100
AcDbLine
 10
133.0358623509545
 20
245.9669363104782
 30
0.0
 11
133.0358623509545
 21
245.9718451457343
 31
0.0
  0
LINE
  5
985
330
A
100
AcDbEntity
  8
INDUSA
  6
Continuous
100
AcDbLine
 10
133.1736109462299
 20
245.9669363104782
 30
0.0
 11
133.2338574553665
 21
245.9669363104782
 31
0.0
  0
LWPOLYLINE
  5
9C9
330
A
100
AcDbEntity
  8
INDUSA
  6
Continuous
100
AcDbPolyline
 90
        3
 70
   128
 43
0.0
 10
131.4723881318856
 20
246.4556846816783
 10
131.4724514019926
 20
246.455662618214
 10
131.4724410212021
 20
246.4556698488924
  0
LWPOLYLINE
  5
9DA
330
A
100
AcDbEntity
  8
INDUSA
  6
Continuous
100
AcDbPolyline
 90
        9
 70
   128
 43
0.0
 10
131.236702817524
 20
246.5740717364514
 10
131.2368685192017
 20
246.5741281679667
 10
131.2370365311658
 20
246.5741772957429
 10
131.2372065316556
 20
246.574219025695
 10
131.2373781951024
 20
246.574253277906
 10
131.2375511927526
 20
246.5742799867789
 10
131.2377251932974
 20
246.5742991011638
 10
131.2378998635074
 20
246.5743105844544
 10
131.238074868871
 20
246.5743144146591
  0
LWPOLYLINE
  5
9F3
330
A
100
AcDbEntity
  8
INDUSA
  6
Continuous
100
AcDbPolyline
 90
        4
 70
   128
 43
0.0
 10
131.2797653238092
 20
246.5523564106158
 10
131.289628147666
 20
246.5540788182515
 10
131.299684992959
 20
246.5549423440204
 10
131.3060300027921
 20
246.5550875206998
  0
LWPOLYLINE
  5
9F9
330
A
100
AcDbEntity
  8
INDUSA
  6
Continuous
100
AcDbPolyline
 90
        7
 70
   128
 43
0.0
 10
131.2797653238092
 20
246.5523564106158
 10
131.273348903127
 20
246.5511371057275
 10
131.2669984534449
 20
246.5495076562233
 10
131.2612293033554
 20
246.5475236682669
 10
131.2556515549755
 20
246.5448828624281
 10
131.2532621606507
 20
246.5433834866971
 10
131.2510236620797
 20
246.5416124302795
  0
LWPOLYLINE
  5
A02
330
A
100
AcDbEntity
  8
INDUSA
  6
Continuous
100
AcDbPolyline
 90
        4
 70
   128
 43
0.0
 10
131.6394467815038
 20
246.5523564106158
 10
131.629583957647
 20
246.5540788182515
 10
131.6195271123539
 20
246.5549423440204
 10
131.6131821025209
 20
246.5550875206998
  0
LWPOLYLINE
  5
A16
330
A
100
AcDbEntity
  8
INDUSA
  6
Continuous
100
AcDbPolyline
 90
        7
 70
   128
 43
0.0
 10
131.6394467815038
 20
246.5523564106158
 10
131.645863202186
 20
246.5511371057275
 10
131.6522136518681
 20
246.5495076562233
 10
131.6579828019576
 20
246.5475236682669
 10
131.6635605503374
 20
246.5448828624281
 10
131.6659499446623
 20
246.5433834866971
 10
131.6681884432333
 20
246.5416124302795
  0
ARC
  5
A20
330
A
100
AcDbEntity
  8
INDUSA
  6
Continuous
100
AcDbCircle
 10
131.2382466164447
 20
246.5693144146591
 30
0.0
 40
0.005
100
AcDbArc
 50
90.0
 51
138.6225226977039
  0
LINE
  5
A22
330
A
100
AcDbEntity
  8
INDUSA
  6
Continuous
100
AcDbLine
 10
131.2382466164447
 20
246.5743144146591
 30
0.0
 11
131.6809654888682
 21
246.5743144146591
 31
0.0
  0
ARC
  5
A25
330
A
100
AcDbEntity
  8
INDUSA
  6
Continuous
100
AcDbCircle
 10
131.6809654888682
 20
246.5693144146591
 30
0.0
 40
0.0050000000000001
100
AcDbArc
 50
41.37747730229497
 51
90.0
  0
ARC
  5
A28
330
A
100
AcDbEntity
  8
INDUSA
  6
Continuous
100
AcDbCircle
 10
131.4596060526565
 20
246.3743144146591
 30
0.0
 40
0.2999999999999999
100
AcDbArc
 50
138.6225226977045
 51
41.37747730229549
  0
LINE
  5
A2B
330
A
100
AcDbEntity
  8
INDUSA
  6
Continuous
100
AcDbLine
 10
131.306030002792
 20
246.5550875206998
 30
0.0
 11
131.6131821025209
 21
246.5550875206998
 31
0.0
  0
ARC
  5
A2C
330
A
100
AcDbEntity
  8
INDUSA
  6
Continuous
100
AcDbCircle
 10
131.4596060526565
 20
246.3743144146591
 30
0.0
 40
0.2673859377178863
100
AcDbArc
 50
141.2678898473073
 51
38.73211015269266
  0
ARC
  5
A87
330
A
100
AcDbEntity
  8
INDUSA
  6
Continuous
100
AcDbCircle
 10
131.4596060526565
 20
246.3743144146591
 30
0.0
 40
0.0800720996948617
100
AcDbArc
 50
113.7637455477776
 51
66.23625445222234
  0
LWPOLYLINE
  5
A93
330
A
100
AcDbEntity
  8
INDUSA
  6
Continuous
100
AcDbPolyline
 90
       10
 70
   128
 43
0.0
 10
131.6475002425123
 20
246.5384962339835
 10
131.6534299855013
 20
246.5308436299981
 10
131.6590489882232
 20
246.5229594992074
 10
131.6643482422425
 20
246.5148564815207
 10
131.6693192517475
 20
246.5065475677685
 10
131.6739540471713
 20
246.4980460788759
 10
131.6782451979684
 20
246.4893656445062
 10
131.6821858245271
 20
246.4805201812094
 10
131.6857696091998
 20
246.4715238701117
 10
131.6889908064307
 20
246.4623911341797
  0
LWPOLYLINE
  5
AAA
330
A
100
AcDbEntity
  8
INDUSA
  6
Continuous
100
AcDbPolyline
 90
       10
 70
   128
 43
0.0
 10
131.2717118628007
 20
246.5384962339835
 10
131.2657821198116
 20
246.5308436299981
 10
131.2601631170897
 20
246.5229594992074
 10
131.2548638630705
 20
246.5148564815207
 10
131.2498928535654
 20
246.5065475677685
 10
131.2452580581416
 20
246.4980460788759
 10
131.2409669073446
 20
246.4893656445062
 10
131.2370262807859
 20
246.4805201812094
 10
131.2334424961132
 20
246.4715238701117
 10
131.2302212988823
 20
246.4623911341797
  0
LWPOLYLINE
  5
AD7
330
A
100
AcDbEntity
  8
INDUSA
  6
Continuous
100
AcDbPolyline
 90
        4
 70
   128
 43
0.0
 10
131.6131821025209
 20
246.5462096217075
 10
131.6253026112803
 20
246.5456229367802
 10
131.6313817731512
 20
246.5448433201763
 10
131.6374231200396
 20
246.5436844076045
  0
LWPOLYLINE
  5
ADE
330
A
100
AcDbEntity
  8
INDUSA
  6
Continuous
100
AcDbPolyline
 90
        4
 70
   128
 43
0.0
 10
131.3060300027921
 20
246.5462096217075
 10
131.2939094940327
 20
246.5456229367802
 10
131.2878303321618
 20
246.5448433201763
 10
131.2817889852734
 20
246.5436844076045
  0
LWPOLYLINE
  5
AF0
330
A
100
AcDbEntity
  8
INDUSA
  6
Continuous
100
AcDbPolyline
 90
        6
 70
   128
 43
0.0
 10
131.6374231200396
 20
246.5436844076045
 10
131.6377520248673
 20
246.5436077905432
 10
131.6410950284407
 20
246.5426063742252
 10
131.6443196856292
 20
246.5411088424048
 10
131.6460040067867
 20
246.5399635632387
 10
131.6475002425123
 20
246.5384962339835
  0
LWPOLYLINE
  5
AF8
330
A
100
AcDbEntity
  8
INDUSA
  6
Continuous
100
AcDbPolyline
 90
        6
 70
   128
 43
0.0
 10
131.2817889852734
 20
246.5436844076045
 10
131.2814600804457
 20
246.5436077905432
 10
131.2781170768722
 20
246.5426063742252
 10
131.2748924196837
 20
246.5411088424048
 10
131.2732080985263
 20
246.5399635632387
 10
131.2717118628007
 20
246.5384962339835
  0
LINE
  5
B00
330
A
100
AcDbEntity
  8
INDUSA
  6
Continuous
100
AcDbLine
 10
131.6131821025209
 20
246.5462096217075
 30
0.0
 11
131.306030002792
 21
246.5462096217075
 31
0.0
  0
LWPOLYLINE
  5
B02
330
A
100
AcDbEntity
  8
INDUSA
  6
Continuous
100
AcDbPolyline
 90
       46
 70
   128
 43
0.0
 10
131.4596060526565
 20
246.4965817183124
 10
131.4570313502887
 20
246.4967616493646
 10
131.4545067615739
 20
246.4972979403684
 10
131.4520814247596
 20
246.4981801530292
 10
131.4498025462682
 20
246.499391116081
 10
131.4477144818773
 20
246.5009072595056
 10
131.4458578733852
 20
246.5026990732958
 10
131.4442688575642
 20
246.5047316818343
 10
131.4429783628
 20
246.5069655227079
 10
131.442011507105
 20
246.5093571167451
 10
131.4413871092258
 20
246.5118599142882
 10
131.4411173223566
 20
246.51442520123
 10
131.4412073975922
 20
246.5170030471782
 10
131.4416555817204
 20
246.5195432772936
 10
131.442453151347
 20
246.5219964488864
 10
131.4435845826865
 20
246.5243148137621
 10
131.4450278537148
 20
246.5264532475855
 10
131.446754872803
 20
246.5283701281746
 10
131.4487320254891
 20
246.5300281456292
 10
131.450920828745
 20
246.5313950285255
 10
131.453278680005
 20
246.5324441720427
 10
131.4557596863764
 20
246.5331551557956
 10
131.4583155578922
 20
246.5335141412943
 10
131.4608965474208
 20
246.5335141412943
 10
131.4634524189366
 20
246.5331551557956
 10
131.465933425308
 20
246.5324441720427
 10
131.468291276568
 20
246.5313950285255
 10
131.4704800798239
 20
246.5300281456292
 10
131.47245723251
 20
246.5283701281746
 10
131.4741842515982
 20
246.5264532475855
 10
131.4756275226265
 20
246.5243148137621
 10
131.476758953966
 20
246.5219964488864
 10
131.4775565235926
 20
246.5195432772936
 10
131.4780047077208
 20
246.5170030471782
 10
131.4780947829563
 20
246.51442520123
 10
131.4778249960872
 20
246.5118599142882
 10
131.477200598208
 20
246.5093571167451
 10
131.476233742513
 20
246.5069655227079
 10
131.4749432477488
 20
246.5047316818343
 10
131.4733542319278
 20
246.5026990732958
 10
131.4714976234357
 20
246.5009072595056
 10
131.4694095590448
 20
246.499391116081
 10
131.4671306805534
 20
246.4981801530292
 10
131.4647053437391
 20
246.4972979403684
 10
131.4621807550242
 20
246.4967616493646
 10
131.4596060526565
 20
246.4965817183124
  0
LWPOLYLINE
  5
B3D
330
A
100
AcDbEntity
  8
INDUSA
  6
Continuous
100
AcDbPolyline
 90
       11
 70
   128
 43
0.0
 10
131.6889908064307
 20
246.4623911341797
 10
131.6892949367882
 20
246.4620182056913
 10
131.6894841052177
 20
246.4615751981732
 10
131.6894982157856
 20
246.4612315172955
 10
131.6894004756688
 20
246.4609079127753
 10
131.6890913608256
 20
246.460476911858
 10
131.6882520333912
 20
246.4598624800831
 10
131.6865472488973
 20
246.4591422917207
 10
131.6847379361393
 20
246.4586676313296
 10
131.6793866740775
 20
246.4578595551408
 10
131.6739451325333
 20
246.4575846581728
  0
LWPOLYLINE
  5
B4A
330
A
100
AcDbEntity
  8
INDUSA
  6
Continuous
100
AcDbPolyline
 90
       11
 70
   128
 43
0.0
 10
131.2302212988823
 20
246.4623911341797
 10
131.2299171685248
 20
246.4620182056913
 10
131.2297280000953
 20
246.4615751981732
 10
131.2297138895274
 20
246.4612315172955
 10
131.2298116296442
 20
246.4609079127753
 10
131.2301207444874
 20
246.460476911858
 10
131.2309600719218
 20
246.4598624800831
 10
131.2326648564157
 20
246.4591422917207
 10
131.2344741691737
 20
246.4586676313296
 10
131.2398254312355
 20
246.4578595551408
 10
131.2452669727797
 20
246.4575846581728
  0
LINE
  5
BAD
330
A
100
AcDbEntity
  8
INDUSA
  6
Continuous
100
AcDbLine
 10
131.6739451325333
 20
246.4575846581728
 30
0.0
 11
131.2452669727797
 21
246.4575846581728
 31
0.0
  0
LWPOLYLINE
  5
BAE
330
A
100
AcDbEntity
  8
INDUSA
  6
Continuous
100
AcDbPolyline
 90
        9
 70
   128
 43
0.0
 10
131.4596060526565
 20
246.4541789278011
 10
131.4573840256877
 20
246.4541949751259
 10
131.4552226098222
 20
246.4542426793714
 10
131.4531807628505
 20
246.45432073929
 10
131.4513141810352
 20
246.4544270256106
 10
131.4496737798624
 20
246.4545586391194
 10
131.4483043052
 20
246.4547119897431
 10
131.4472431127466
 20
246.4548828944764
 10
131.4465782523278
 20
246.4550470627892
  0
LWPOLYLINE
  5
BB9
330
A
100
AcDbEntity
  8
INDUSA
  6
Continuous
100
AcDbPolyline
 90
       19
 70
   128
 43
0.0
 10
131.4462768973476
 20
246.4555421254355
 10
131.4465191490663
 20
246.4556443691727
 10
131.4472431127466
 20
246.4558281661799
 10
131.4483043052
 20
246.4559990709132
 10
131.4496737798624
 20
246.4561524215369
 10
131.4513141810352
 20
246.4562840350458
 10
131.4531807628505
 20
246.4563903213663
 10
131.4552226098222
 20
246.4564683812849
 10
131.4573840256877
 20
246.4565160855304
 10
131.4596060526565
 20
246.4565321328552
 10
131.4618280796253
 20
246.4565160855304
 10
131.4639894954908
 20
246.4564683812849
 10
131.4660313424625
 20
246.4563903213663
 10
131.4678979242778
 20
246.4562840350458
 10
131.4695383254506
 20
246.4561524215369
 10
131.470907800113
 20
246.4559990709132
 10
131.4719689925663
 20
246.4558281661799
 10
131.4726929562467
 20
246.4556443691727
 10
131.4727601008182
 20
246.4556201885673
  0
LWPOLYLINE
  5
BCE
330
A
100
AcDbEntity
  8
INDUSA
  6
Continuous
100
AcDbPolyline
 90
        9
 70
   128
 43
0.0
 10
131.4722343359665
 20
246.4549395822451
 10
131.4719689925663
 20
246.4548828944764
 10
131.470907800113
 20
246.4547119897431
 10
131.4695383254506
 20
246.4545586391194
 10
131.4678979242778
 20
246.4544270256106
 10
131.4660313424625
 20
246.45432073929
 10
131.4639894954908
 20
246.4542426793714
 10
131.4618280796253
 20
246.4541949751259
 10
131.4596060526565
 20
246.4541789278011
  0
LWPOLYLINE
  5
BD9
330
A
100
AcDbEntity
  8
INDUSA
  6
Continuous
100
AcDbPolyline
 90
        4
 70
   128
 43
0.0
 10
131.4215474887748
 20
246.4480190321711
 10
131.4238444592535
 20
246.4479540070751
 10
131.4287849264795
 20
246.4478776309512
 10
131.4338899441385
 20
246.4478549699633
  0
LWPOLYLINE
  5
BDF
330
A
100
AcDbEntity
  8
INDUSA
  6
Continuous
100
AcDbPolyline
 90
        9
 70
   128
 43
0.0
 10
131.2452669727797
 20
246.4575846581728
 10
131.2968458631039
 20
246.4544899102677
 10
131.3228466992035
 20
246.4529680742655
 10
131.3491002704709
 20
246.4514797460287
 10
131.3665903302955
 20
246.450528366056
 10
131.3843493036913
 20
246.4496159489706
 10
131.3964747123966
 20
246.4490350332376
 10
131.4088525512207
 20
246.4484956685078
 10
131.4215474887748
 20
246.4480190321711
  0
LWPOLYLINE
  5
BEA
330
A
100
AcDbEntity
  8
INDUSA
  6
Continuous
100
AcDbPolyline
 90
        9
 70
   128
 43
0.0
 10
131.6739451325333
 20
246.4575846581728
 10
131.622366242209
 20
246.4544899102677
 10
131.5963654061095
 20
246.4529680742655
 10
131.5701118348421
 20
246.4514797460287
 10
131.5526217750175
 20
246.450528366056
 10
131.5348628016217
 20
246.4496159489706
 10
131.5227373929164
 20
246.4490350332376
 10
131.5103595540923
 20
246.4484956685078
 10
131.4976646165382
 20
246.4480190321711
  0
LWPOLYLINE
  5
BF5
330
A
100
AcDbEntity
  8
INDUSA
  6
Continuous
100
AcDbPolyline
 90
        4
 70
   128
 43
0.0
 10
131.4976646165382
 20
246.4480190321711
 10
131.4953676460595
 20
246.4479540070751
 10
131.4904271788335
 20
246.4478776309512
 10
131.4853221611745
 20
246.4478549699633
  0
LWPOLYLINE
  5
BFB
330
A
100
AcDbEntity
  8
INDUSA
  6
Continuous
100
AcDbPolyline
 90
        3
 70
   128
 43
0.0
 10
131.4338899441385
 20
246.4478549699633
 10
131.4596060526565
 20
246.4478473167495
 10
131.4853221611745
 20
246.4478549699633
  0
CIRCLE
  5
C45
330
A
100
AcDbEntity
  8
INDUSA
  6
Continuous
100
AcDbCircle
 10
131.4596060526565
 20
246.3743144146591
 30
0.0
 40
0.0249999999999997
  0
LWPOLYLINE
  5
C46
330
A
100
AcDbEntity
  8
INDUSA
  6
Continuous
100
AcDbPolyline
 90
        5
 70
   128
 43
0.0
 10
131.4465782523278
 20
246.4550470627892
 10
131.4465191490663
 20
246.4550666914836
 10
131.4461521620009
 20
246.4552583672616
 10
131.4461521620009
 20
246.4554526933947
 10
131.4462768973476
 20
246.4555421254355
  0
LWPOLYLINE
  5
C4D
330
A
100
AcDbEntity
  8
INDUSA
  6
Continuous
100
AcDbPolyline
 90
        5
 70
   128
 43
0.0
 10
131.4727601008182
 20
246.4556201885673
 10
131.4730599433121
 20
246.4554526933947
 10
131.4730599433121
 20
246.4552583672616
 10
131.4726929562467
 20
246.4550666914836
 10
131.4722343359665
 20
246.4549395822451
  0
LINE
  5
CFA
330
A
100
AcDbEntity
  8
INDUSA
  6
Continuous
100
AcDbLine
 10
133.9940077591739
 20
246.6519363104782
 30
0.0
 11
133.9944052000352
 21
246.6515388696169
 31
0.0
  0
LINE
  5
D00
330
A
100
AcDbEntity
  8
INDUSA
  6
Continuous
100
AcDbLine
 10
134.0138483505969
 20
246.6429863263781
 30
0.0
 11
134.015599793377
 21
246.6457886348264
 31
0.0
  0
LINE
  5
D01
330
A
100
AcDbEntity
  8
INDUSA
  6
Continuous
100
AcDbLine
 10
134.0248720233708
 20
246.6567397124921
 30
0.0
 11
134.1477396325615
 21
246.7654302898531
 31
0.0
  0
LINE
  5
D02
330
A
100
AcDbEntity
  8
INDUSA
  6
Continuous
100
AcDbLine
 10
134.2144420906594
 20
246.7709363104782
 30
0.0
 11
134.2144420906594
 21
246.8019363104782
 31
0.0
  0
ARC
  5
D03
330
A
100
AcDbEntity
  8
INDUSA
  6
Continuous
100
AcDbCircle
 10
134.2104420906594
 20
246.7709363104782
 30
0.0
 40
0.0040000000000001
100
AcDbArc
 50
270.0000000000008
 51
0.0
  0
ARC
  5
D04
330
A
100
AcDbEntity
  8
INDUSA
  6
Continuous
100
AcDbCircle
 10
134.2094420906594
 20
246.8019363104782
 30
0.0
 40
0.005
100
AcDbArc
 50
0.0
 51
90.0
  0
ARC
  5
D06
330
A
100
AcDbEntity
  8
INDUSA
  6
Continuous
100
AcDbCircle
 10
133.8804420906594
 20
246.6229363104782
 30
0.0
 40
0.0010000000000001
100
AcDbArc
 50
215.8691500802809
 51
270.0000000000008
  0
ARC
  5
D0F
330
A
100
AcDbEntity
  8
INDUSA
  6
Continuous
100
AcDbCircle
 10
134.0011283760368
 20
246.6509363104782
 30
0.0
 40
0.015
100
AcDbArc
 50
270.0000000000008
 51
327.9946167919168
  0
ARC
  5
D1E
330
A
100
AcDbEntity
  8
INDUSA
  6
Continuous
100
AcDbCircle
 10
133.9824929244828
 20
245.9719363104782
 30
0.0
 40
0.005
100
AcDbArc
 50
269.9999987848006
 51
359.567675428183
  0
LINE
  5
D1F
330
A
100
AcDbEntity
  8
INDUSA
  6
Continuous
100
AcDbLine
 10
133.9874926538529
 20
245.9718842801437
 30
0.0
 11
133.9944420906592
 21
246.6519363104782
 31
0.0
  0
LINE
  5
D20
330
A
100
AcDbEntity
  8
INDUSA
  6
Continuous
100
AcDbLine
 10
133.9574420906594
 20
245.9749363104782
 30
0.0
 11
133.9574420906594
 21
245.9899363104782
 31
0.0
  0
LWPOLYLINE
  5
D27
330
A
100
AcDbEntity
  8
INDUSA
  6
Continuous
100
AcDbPolyline
 90
        4
 70
   128
 43
0.0
 10
133.8209552379781
 20
246.6775740918327
 10
133.8202584233873
 20
246.6926341114804
 10
133.8197976311844
 20
246.7078581684311
 10
133.8195896786873
 20
246.723092087586
  0
LWPOLYLINE
  5
D40
330
A
100
AcDbEntity
  8
INDUSA
  6
Continuous
100
AcDbPolyline
 90
        7
 70
   128
 43
0.0
 10
133.8351143665584
 20
246.6519363104782
 10
133.8321655203864
 20
246.6539870938487
 10
133.8294456753014
 20
246.6564125819503
 10
133.8262333054606
 20
246.6602602633838
 10
133.8236644353127
 20
246.6647459700835
 10
133.8220210548476
 20
246.6693254353505
 10
133.8211756532552
 20
246.6742709191362
  0
LINE
  5
D4A
330
A
100
AcDbEntity
  8
INDUSA
  6
Continuous
100
AcDbLine
 10
134.0248648299229
 20
246.6567390952182
 30
0.0
 11
134.0248720233708
 21
246.6567397124921
 31
0.0
  0
LINE
  5
D4B
330
A
100
AcDbEntity
  8
INDUSA
  6
Continuous
100
AcDbLine
 10
134.015599793377
 20
246.6457886348264
 30
0.0
 11
134.0155938260386
 21
246.6457894714592
 31
0.0
  0
LWPOLYLINE
  5
D4C
330
A
100
AcDbEntity
  8
INDUSA
  6
Continuous
100
AcDbPolyline
 90
        5
 70
   128
 43
0.0
 10
134.0155754514551
 20
246.6457912206617
 10
134.0173111613711
 20
246.6483839429896
 10
134.0192129782259
 20
246.6508728218379
 10
134.0219347812414
 20
246.6539457230381
 10
134.0248462553143
 20
246.6567379533553
  0
LINE
  5
D53
330
A
100
AcDbEntity
  8
INDUSA
  6
Continuous
100
AcDbLine
 10
134.0138219347639
 20
246.6429863263781
 30
0.0
 11
134.0155759268965
 21
246.6457919809607
 31
0.0
  0
LWPOLYLINE
  5
D54
330
A
100
AcDbEntity
  8
INDUSA
  6
Continuous
100
AcDbPolyline
 90
        4
 70
   128
 43
0.0
 10
133.9416753367042
 20
246.6592188136106
 10
133.9433575811249
 20
246.660389963322
 10
133.9454570896034
 20
246.6622221273239
 10
133.9473375347888
 20
246.6643397918723
  0
LWPOLYLINE
  5
D5A
330
A
100
AcDbEntity
  8
INDUSA
  6
Continuous
100
AcDbPolyline
 90
        5
 70
   128
 43
0.0
 10
133.9473375347888
 20
246.6643397918723
 10
133.9479513720615
 20
246.6649961796949
 10
133.9488014399859
 20
246.6656085805649
 10
133.9503838932713
 20
246.6661878077545
 10
133.9512060394389
 20
246.6662701430916
  0
LINE
  5
D61
330
A
100
AcDbEntity
  8
INDUSA
  6
Continuous
100
AcDbLine
 10
133.9512060394388
 20
246.6662701430916
 30
0.0
 11
133.9831609062843
 21
246.6668273387201
 31
0.0
  0
LWPOLYLINE
  5
D62
330
A
100
AcDbEntity
  8
INDUSA
  6
Continuous
100
AcDbPolyline
 90
        5
 70
   128
 43
0.0
 10
133.9944813938112
 20
246.6705778179514
 10
133.9920443573136
 20
246.6690805150879
 10
133.9889793643745
 20
246.6677980313276
 10
133.9856488382347
 20
246.6670263353913
 10
133.9831609062844
 20
246.6668273387201
  0
LWPOLYLINE
  5
D69
330
A
100
AcDbEntity
  8
INDUSA
  6
Continuous
100
AcDbPolyline
 90
        3
 70
   128
 43
0.0
 10
133.9944813938112
 20
246.6705778179514
 10
134.002487806403
 20
246.6763238711977
 10
134.1818182088689
 20
246.8050595478141
  0
LWPOLYLINE
  5
D6E
330
A
100
AcDbEntity
  8
INDUSA
  6
Continuous
100
AcDbPolyline
 90
        5
 70
   128
 43
0.0
 10
134.1818182088689
 20
246.8050595478141
 10
134.1822093778458
 20
246.8053265705199
 10
134.1840829765376
 20
246.8062783542125
 10
134.1873765738547
 20
246.8069325586368
 10
134.1876504863129
 20
246.8069363104782
  0
LINE
  5
D75
330
A
100
AcDbEntity
  8
INDUSA
  6
Continuous
100
AcDbLine
 10
134.1876504863129
 20
246.8069363104782
 30
0.0
 11
134.2094331903548
 21
246.8069363104782
 31
0.0
  0
LWPOLYLINE
  5
D76
330
A
100
AcDbEntity
  8
INDUSA
  6
Continuous
100
AcDbPolyline
 90
        7
 70
   128
 43
0.0
 10
134.2094331903548
 20
246.8069363104782
 10
134.2096200213688
 20
246.8069328188867
 10
134.2112634582243
 20
246.8065893009587
 10
134.2127005392551
 20
246.8057211576709
 10
134.2137692174702
 20
246.8044262877641
 10
134.2143490121053
 20
246.802850712335
 10
134.2144333386976
 20
246.8019363104782
  0
LINE
  5
D7F
330
A
100
AcDbEntity
  8
INDUSA
  6
Continuous
100
AcDbLine
 10
134.2144333386975
 20
246.8019363104782
 30
0.0
 11
134.2144333386975
 21
246.7709363104782
 31
0.0
  0
LINE
  5
D89
330
A
100
AcDbEntity
  8
INDUSA
  6
Continuous
100
AcDbLine
 10
134.1517040100712
 20
246.7669363104782
 30
0.0
 11
134.2104332204242
 21
246.7669363104782
 31
0.0
  0
LWPOLYLINE
  5
D8A
330
A
100
AcDbEntity
  8
INDUSA
  6
Continuous
100
AcDbPolyline
 90
        5
 70
   128
 43
0.0
 10
134.1477283782055
 20
246.7654302898531
 10
134.1480813806327
 20
246.7657193846973
 10
134.1491609353967
 20
246.7663707728205
 10
134.1511033018257
 20
246.7669061667031
 10
134.1517040100712
 20
246.7669363104782
  0
LINE
  5
D9F
330
A
100
AcDbEntity
  8
INDUSA
  6
Continuous
100
AcDbLine
 10
134.0004115555843
 20
246.6359363104782
 30
0.0
 11
134.0010980827893
 21
246.6359363104782
 31
0.0
  0
LWPOLYLINE
  5
DA0
330
A
100
AcDbEntity
  8
INDUSA
  6
Continuous
100
AcDbPolyline
 90
        7
 70
   128
 43
0.0
 10
134.0004115555843
 20
246.6359363104782
 10
134.0003811826606
 20
246.6359367715141
 10
134.0000518176918
 20
246.6360032076353
 10
133.9997630184287
 20
246.6361749298579
 10
133.9996180174334
 20
246.6363274193145
 10
133.9994611588133
 20
246.6366242296483
 10
133.9994111962183
 20
246.6369363104782
  0
LINE
  5
DA9
330
A
100
AcDbEntity
  8
INDUSA
  6
Continuous
100
AcDbLine
 10
133.9994111962183
 20
246.6469363104782
 30
0.0
 11
133.9994111962183
 21
246.6369363104782
 31
0.0
  0
LWPOLYLINE
  5
DAA
330
A
100
AcDbEntity
  8
INDUSA
  6
Continuous
100
AcDbPolyline
 90
        7
 70
   128
 43
0.0
 10
133.9944092645465
 20
246.6519363104782
 10
133.9947285067331
 20
246.6519261168586
 10
133.9963635068743
 20
246.6515389179692
 10
133.9977779875969
 20
246.6506323407833
 10
133.9988121836166
 20
246.6493089419102
 10
133.9993496369567
 20
246.6477183475118
 10
133.9994111962183
 20
246.6469363104782
  0
LINE
  5
DB3
330
A
100
AcDbEntity
  8
INDUSA
  6
Continuous
100
AcDbLine
 10
133.9944092645464
 20
246.6519363104782
 30
0.0
 11
133.9593837072245
 21
246.6519363104782
 31
0.0
  0
LWPOLYLINE
  5
DB4
330
A
100
AcDbEntity
  8
INDUSA
  6
Continuous
100
AcDbPolyline
 90
        7
 70
   128
 43
0.0
 10
133.9493669943741
 20
246.6419363104782
 10
133.9495034429874
 20
246.6435808775798
 10
133.9506045155779
 20
246.6467502499666
 10
133.9526921066531
 20
246.6493766629485
 10
133.9555342596168
 20
246.6511679824861
 10
133.9588141303543
 20
246.6519201190811
 10
133.9593837072245
 20
246.6519363104782
  0
LINE
  5
DBD
330
A
100
AcDbEntity
  8
INDUSA
  6
Continuous
100
AcDbLine
 10
133.9493669943741
 20
246.6419363104782
 30
0.0
 11
133.9493669943741
 21
246.6229363104782
 31
0.0
  0
LWPOLYLINE
  5
DBE
330
A
100
AcDbEntity
  8
INDUSA
  6
Continuous
100
AcDbPolyline
 90
        7
 70
   128
 43
0.0
 10
133.9493669943741
 20
246.6229363104782
 10
133.9493638073198
 20
246.6228566216011
 10
133.9492813599397
 20
246.6225318370575
 10
133.9490960841256
 20
246.622252516946
 10
133.9488285215108
 20
246.6220497958265
 10
133.9485083350998
 20
246.6219466209552
 10
133.9483647806984
 20
246.6219363104782
  0
LINE
  5
DC7
330
A
100
AcDbEntity
  8
INDUSA
  6
Continuous
100
AcDbLine
 10
133.9483647806984
 20
246.6219363104782
 30
0.0
 11
133.9403409110858
 21
246.6219363104782
 31
0.0
  0
LWPOLYLINE
  5
DC8
330
A
100
AcDbEntity
  8
INDUSA
  6
Continuous
100
AcDbPolyline
 90
        7
 70
   128
 43
0.0
 10
133.9403409110858
 20
246.6219363104782
 10
133.9402521521092
 20
246.6219402265211
 10
133.939924939129
 20
246.6220261823563
 10
133.939644807913
 20
246.6222156805379
 10
133.939507538975
 20
246.622378579612
 10
133.9393694234467
 20
246.6226836715823
 10
133.939336847125
 20
246.6229363104782
  0
LINE
  5
DD1
330
A
100
AcDbEntity
  8
INDUSA
  6
Continuous
100
AcDbLine
 10
133.939336847125
 20
246.6229363104782
 30
0.0
 11
133.939336847125
 21
246.6309363104782
 31
0.0
  0
LWPOLYLINE
  5
DD2
330
A
100
AcDbEntity
  8
INDUSA
  6
Continuous
100
AcDbPolyline
 90
        8
 70
   128
 43
0.0
 10
133.939336847125
 20
246.6309363104782
 10
133.9393369220281
 20
246.6309485239974
 10
133.9393612031539
 20
246.6311552144638
 10
133.9394888598569
 20
246.6314653080414
 10
133.9397118677617
 20
246.6317157039098
 10
133.9400057938081
 20
246.6318789557555
 10
133.9403384064015
 20
246.6319363073658
 10
133.9403409110858
 20
246.6319363104782
  0
LINE
  5
DDC
330
A
100
AcDbEntity
  8
INDUSA
  6
Continuous
100
AcDbLine
 10
133.9403409110858
 20
246.6319363104782
 30
0.0
 11
133.9413446723102
 21
246.6319363104782
 31
0.0
  0
LWPOLYLINE
  5
DDD
330
A
100
AcDbEntity
  8
INDUSA
  6
Continuous
100
AcDbPolyline
 90
        6
 70
   128
 43
0.0
 10
133.9423481634659
 20
246.6329363104782
 10
133.9423134153535
 20
246.6326754207056
 10
133.9421728984455
 20
246.6323716548436
 10
133.9419395800709
 20
246.6321309662689
 10
133.9416390030806
 20
246.6319802839586
 10
133.9413446723103
 20
246.6319363104782
  0
LINE
  5
DE5
330
A
100
AcDbEntity
  8
INDUSA
  6
Continuous
100
AcDbLine
 10
133.9423481634659
 20
246.6329363104782
 30
0.0
 11
133.9423481634659
 21
246.6479363104782
 31
0.0
  0
LWPOLYLINE
  5
DE6
330
A
100
AcDbEntity
  8
INDUSA
  6
Continuous
100
AcDbPolyline
 90
        7
 70
   128
 43
0.0
 10
133.9413446723103
 20
246.6489363104782
 10
133.9413477526598
 20
246.6489363057681
 10
133.9416808945587
 20
246.6488785200639
 10
133.9419760004667
 20
246.6487136330558
 10
133.9421991249478
 20
246.6484607233608
 10
133.942325180812
 20
246.6481491163218
 10
133.9423481634659
 20
246.6479363104782
  0
LINE
  5
DEF
330
A
100
AcDbEntity
  8
INDUSA
  6
Continuous
100
AcDbLine
 10
133.9413446723102
 20
246.6489363104782
 30
0.0
 11
133.9403409110858
 21
246.6489363104782
 31
0.0
  0
LWPOLYLINE
  5
DF0
330
A
100
AcDbEntity
  8
INDUSA
  6
Continuous
100
AcDbPolyline
 90
        7
 70
   128
 43
0.0
 10
133.9403409110858
 20
246.6489363104782
 10
133.9402521521092
 20
246.6489402265211
 10
133.939924939129
 20
246.6490261823563
 10
133.939644807913
 20
246.6492156805379
 10
133.939507538975
 20
246.6493785796121
 10
133.9393694234467
 20
246.6496836715823
 10
133.939336847125
 20
246.6499363104782
  0
LINE
  5
DF9
330
A
100
AcDbEntity
  8
INDUSA
  6
Continuous
100
AcDbLine
 10
133.939336847125
 20
246.6499363104782
 30
0.0
 11
133.939336847125
 21
246.6549917160754
 31
0.0
  0
LWPOLYLINE
  5
DFA
330
A
100
AcDbEntity
  8
INDUSA
  6
Continuous
100
AcDbPolyline
 90
        5
 70
   128
 43
0.0
 10
133.939336847125
 20
246.6549917160754
 10
133.939494841718
 20
246.6562361366528
 10
133.9398569054224
 20
246.6572077712881
 10
133.9408472235164
 20
246.6585667179651
 10
133.9416753367042
 20
246.6592188136106
  0
LWPOLYLINE
  5
E02
330
A
100
AcDbEntity
  8
INDUSA
  6
Continuous
100
AcDbPolyline
 90
        3
 70
   128
 43
0.0
 10
133.8194420924291
 20
246.7470007264479
 10
133.8194420924291
 20
246.7470007264479
 10
133.8194420906594
 20
246.7470007265168
  0
LWPOLYLINE
  5
E07
330
A
100
AcDbEntity
  8
INDUSA
  6
Continuous
100
AcDbPolyline
 90
        3
 70
   128
 43
0.0
 10
133.8195896786868
 20
246.723092087586
 10
133.8195397091999
 20
246.7367607562257
 10
133.8195047017732
 20
246.7471951673895
  0
LWPOLYLINE
  5
E17
330
A
100
AcDbEntity
  8
INDUSA
  6
Continuous
100
AcDbPolyline
 90
        4
 70
   128
 43
0.0
 10
133.8211756532552
 20
246.6742709191362
 10
133.8211197855911
 20
246.6748280102447
 10
133.8210743203956
 20
246.6753749113689
 10
133.82104214618
 20
246.6759230479193
  0
LWPOLYLINE
  5
E1E
330
A
100
AcDbEntity
  8
INDUSA
  6
Continuous
100
AcDbPolyline
 90
        4
 70
   128
 43
0.0
 10
133.82104214618
 20
246.6759230479193
 10
133.8210125904761
 20
246.676481507532
 10
133.8209838336568
 20
246.6770277954296
 10
133.8209552379781
 20
246.6775740918327
  0
LWPOLYLINE
  5
E2F
330
A
100
AcDbEntity
  8
INDUSA
  6
Continuous
100
AcDbPolyline
 90
        6
 70
   128
 43
0.0
 10
133.820527769363
 20
246.7728948956854
 10
133.8201978999149
 20
246.7729219522435
 10
133.8198955744706
 20
246.7730564939821
 10
133.8196524969843
 20
246.7732840327728
 10
133.8194944883647
 20
246.7735829026431
 10
133.8194420906594
 20
246.7739072128544
  0
LINE
  5
E37
330
A
100
AcDbEntity
  8
INDUSA
  6
Continuous
100
AcDbLine
 10
133.8194420906594
 20
246.7669363104782
 30
0.0
 11
133.8194420906594
 21
246.773963334883
 31
0.0
  0
LINE
  5
E38
330
A
100
AcDbEntity
  8
INDUSA
  6
Continuous
100
AcDbLine
 10
133.8205277693629
 20
246.7728948956854
 30
0.0
 11
133.8313337964979
 21
246.7738403005574
 31
0.0
  0
LINE
  5
E39
330
A
100
AcDbEntity
  8
INDUSA
  6
Continuous
100
AcDbLine
 10
133.8334757640867
 20
246.7493574989863
 30
0.0
 11
133.8204238466171
 21
246.7482156041704
 31
0.0
  0
LWPOLYLINE
  5
E3A
330
A
100
AcDbEntity
  8
INDUSA
  6
Continuous
100
AcDbPolyline
 90
        6
 70
   128
 43
0.0
 10
133.8506966613396
 20
246.6667405799243
 10
133.8473969410799
 20
246.6673619373728
 10
133.8444889028171
 20
246.6690404939674
 10
133.8423004054204
 20
246.6715870053881
 10
133.8410781853454
 20
246.6747143722918
 10
133.8409091254214
 20
246.6758675033914
  0
LWPOLYLINE
  5
E42
330
A
100
AcDbEntity
  8
INDUSA
  6
Continuous
100
AcDbPolyline
 90
        3
 70
   128
 43
0.0
 10
133.8506966613396
 20
246.6667405799243
 10
133.8589282097473
 20
246.6665970041969
 10
133.87767814188
 20
246.6662701430916
  0
LINE
  5
E47
330
A
100
AcDbEntity
  8
INDUSA
  6
Continuous
100
AcDbLine
 10
133.7194420906594
 20
246.8069363104782
 30
0.0
 11
133.7244420906594
 21
246.8069363104782
 31
0.0
  0
ARC
  5
E48
330
A
100
AcDbEntity
  8
INDUSA
  6
Continuous
100
AcDbCircle
 10
133.7244420906594
 20
246.7969363104782
 30
0.0
 40
0.01
100
AcDbArc
 50
22.67752486779322
 51
90.0
  0
ARC
  5
E49
330
A
100
AcDbEntity
  8
INDUSA
  6
Continuous
100
AcDbCircle
 10
133.742895878578
 20
246.8046471931419
 30
0.0
 40
0.0100000000000001
100
AcDbArc
 50
202.6775248677946
 51
268.0000000000005
  0
LINE
  5
E4A
330
A
100
AcDbEntity
  8
INDUSA
  6
Continuous
100
AcDbLine
 10
133.7553397098414
 20
246.7942065495358
 30
0.0
 11
133.742546883611
 21
246.7946532848718
 31
0.0
  0
LWPOLYLINE
  5
E4B
330
A
100
AcDbEntity
  8
INDUSA
  6
Continuous
100
AcDbPolyline
 90
        7
 70
   128
 43
0.0
 10
133.7553397098414
 20
246.7942065495358
 10
133.7553555851038
 20
246.7942058707798
 10
133.7556880601855
 20
246.7941318442033
 10
133.7559773910825
 20
246.7939516529733
 10
133.7561892711914
 20
246.7936865645125
 10
133.7562997035586
 20
246.7933684779424
 10
133.7563124060901
 20
246.79317197269
  0
LINE
  5
E54
330
A
100
AcDbEntity
  8
INDUSA
  6
Continuous
100
AcDbLine
 10
133.7560585229741
 20
246.7859017114764
 30
0.0
 11
133.7563124060901
 21
246.79317197269
 31
0.0
  0
LWPOLYLINE
  5
E55
330
A
100
AcDbEntity
  8
INDUSA
  6
Continuous
100
AcDbPolyline
 90
        6
 70
   128
 43
0.0
 10
133.7560585229741
 20
246.7859017114764
 10
133.7559909165626
 20
246.7855748190717
 10
133.7558190616394
 20
246.7852887057931
 10
133.7555615483037
 20
246.7850741251329
 10
133.7552452732537
 20
246.784955082627
 10
133.7550509067296
 20
246.7849363104782
  0
LINE
  5
E5D
330
A
100
AcDbEntity
  8
INDUSA
  6
Continuous
100
AcDbLine
 10
133.7544420906594
 20
246.7849363104782
 30
0.0
 11
133.7550509067296
 21
246.7849363104782
 31
0.0
  0
ARC
  5
E5E
330
A
100
AcDbEntity
  8
INDUSA
  6
Continuous
100
AcDbCircle
 10
133.7544420906594
 20
246.7799363104782
 30
0.0
 40
0.005
100
AcDbArc
 50
90.0
 51
180.0000000000004
  0
LINE
  5
E5F
330
A
100
AcDbEntity
  8
INDUSA
  6
Continuous
100
AcDbLine
 10
133.7494420906594
 20
246.7359363104782
 30
0.0
 11
133.7494420906594
 21
246.7799363104782
 31
0.0
  0
ARC
  5
E60
330
A
100
AcDbEntity
  8
INDUSA
  6
Continuous
100
AcDbCircle
 10
133.7454420906594
 20
246.7359363104782
 30
0.0
 40
0.0040000000000001
100
AcDbArc
 50
270.0000000000008
 51
0.0
  0
LINE
  5
E61
330
A
100
AcDbEntity
  8
INDUSA
  6
Continuous
100
AcDbLine
 10
133.7454420906594
 20
246.7319363104782
 30
0.0
 11
133.7204420906594
 21
246.7319363104782
 31
0.0
  0
ARC
  5
E62
330
A
100
AcDbEntity
  8
INDUSA
  6
Continuous
100
AcDbCircle
 10
133.7204420906594
 20
246.7359363104782
 30
0.0
 40
0.0040000000000001
100
AcDbArc
 50
180.0000000000004
 51
270.0000000000008
  0
LINE
  5
E63
330
A
100
AcDbEntity
  8
INDUSA
  6
Continuous
100
AcDbLine
 10
133.7164420906594
 20
246.7359363104782
 30
0.0
 11
133.7164420906594
 21
246.7761078833534
 31
0.0
  0
ARC
  5
E64
330
A
100
AcDbEntity
  8
INDUSA
  6
Continuous
100
AcDbCircle
 10
133.7154420906594
 20
246.7761078833534
 30
0.0
 40
0.001
100
AcDbArc
 50
0.0
 51
70.52877936551119
  0
ARC
  5
E65
330
A
100
AcDbEntity
  8
INDUSA
  6
Continuous
100
AcDbCircle
 10
133.7164420906594
 20
246.7789363104782
 30
0.0
 40
0.0020000000000002
100
AcDbArc
 50
180.0000000000004
 51
250.528779365513
  0
LINE
  5
E66
330
A
100
AcDbEntity
  8
INDUSA
  6
Continuous
100
AcDbLine
 10
133.7144420906594
 20
246.7789363104782
 30
0.0
 11
133.7144420906594
 21
246.8019363104782
 31
0.0
  0
ARC
  5
E67
330
A
100
AcDbEntity
  8
INDUSA
  6
Continuous
100
AcDbCircle
 10
133.7194420906594
 20
246.8019363104782
 30
0.0
 40
0.005
100
AcDbArc
 50
90.0
 51
180.0000000000004
  0
LINE
  5
E73
330
A
100
AcDbEntity
  8
INDUSA
  6
Continuous
100
AcDbLine
 10
133.7434950672287
 20
246.8069363104782
 30
0.0
 11
134.1876600962082
 21
246.8069363104782
 31
0.0
  0
LINE
  5
E98
330
A
100
AcDbEntity
  8
INDUSA
  6
Continuous
100
AcDbLine
 10
133.7909899083292
 20
246.7919610076278
 30
0.0
 11
133.7907807294925
 21
246.78597090948
 31
0.0
  0
LWPOLYLINE
  5
E99
330
A
100
AcDbEntity
  8
INDUSA
  6
Continuous
100
AcDbPolyline
 90
        4
 70
   128
 43
0.0
 10
133.8767949755141
 20
246.6239866256537
 10
133.8781009369939
 20
246.6236510713098
 10
133.8792221884363
 20
246.6229020660736
 10
133.8797083245258
 20
246.6223488801939
  0
LWPOLYLINE
  5
E9F
330
A
100
AcDbEntity
  8
INDUSA
  6
Continuous
100
AcDbPolyline
 90
        8
 70
   128
 43
0.0
 10
133.7909899083292
 20
246.7919610076278
 10
133.7909899327006
 20
246.7919616986253
 10
133.7910186194458
 20
246.7921657291256
 10
133.791152978122
 20
246.7924724108546
 10
133.7913810863949
 20
246.7927174106523
 10
133.7916786939132
 20
246.7928746602176
 10
133.7920140729979
 20
246.7929256869171
 10
133.7920324035713
 20
246.792925212436
  0
LINE
  5
EA9
330
A
100
AcDbEntity
  8
INDUSA
  6
Continuous
100
AcDbLine
 10
133.7551973264065
 20
246.7942115216749
 30
0.0
 11
133.7921747870062
 21
246.7929202402969
 31
0.0
  0
LWPOLYLINE
  5
EAA
330
A
100
AcDbEntity
  8
INDUSA
  6
Continuous
100
AcDbPolyline
 90
        6
 70
   128
 43
0.0
 10
133.7917883457371
 20
246.7849363104782
 10
133.7914526290487
 20
246.7849934120875
 10
133.7911547566301
 20
246.7851585261592
 10
133.7909295474849
 20
246.7854125334707
 10
133.7908029694258
 20
246.7857246941734
 10
133.7907807294925
 20
246.78597090948
  0
LINE
  5
EB2
330
A
100
AcDbEntity
  8
INDUSA
  6
Continuous
100
AcDbLine
 10
133.791788345737
 20
246.7849363104782
 30
0.0
 11
133.7549208625978
 21
246.7849363104782
 31
0.0
  0
LWPOLYLINE
  5
EB3
330
A
100
AcDbEntity
  8
INDUSA
  6
Continuous
100
AcDbPolyline
 90
        6
 70
   128
 43
0.0
 10
133.8195047017732
 20
246.7471951673895
 10
133.8195570298816
 20
246.747522875377
 10
133.8197195888358
 20
246.7478284846036
 10
133.8199740495154
 20
246.7480617123433
 10
133.8202879086271
 20
246.7481940686873
 10
133.8204238466171
 20
246.7482156041704
  0
LWPOLYLINE
  5
EBB
330
A
100
AcDbEntity
  8
INDUSA
  6
Continuous
100
AcDbPolyline
 90
        7
 70
   128
 43
0.0
 10
133.8334757640867
 20
246.7493574989863
 10
133.8336348339702
 20
246.7493584994729
 10
133.8339553744539
 20
246.749279146041
 10
133.8342336187413
 20
246.7490981161268
 10
133.8344404720724
 20
246.748832570534
 10
133.834550918105
 20
246.7485090577213
 10
133.8345605031266
 20
246.7484325882709
  0
LINE
  5
EC4
330
A
100
AcDbEntity
  8
INDUSA
  6
Continuous
100
AcDbLine
 10
133.8409091254213
 20
246.6758675033914
 30
0.0
 11
133.8345605031266
 21
246.7484325882709
 31
0.0
  0
LWPOLYLINE
  5
EC5
330
A
100
AcDbEntity
  8
INDUSA
  6
Continuous
100
AcDbPolyline
 90
        5
 70
   128
 43
0.0
 10
133.87767814188
 20
246.6662701430916
 10
133.8791124312289
 20
246.666034691899
 10
133.8800827413329
 20
246.6656085805649
 10
133.8813813894803
 20
246.6645408314989
 10
133.88154664653
 20
246.6643397918723
  0
LWPOLYLINE
  5
ECC
330
A
100
AcDbEntity
  8
INDUSA
  6
Continuous
100
AcDbPolyline
 90
        3
 70
   128
 43
0.0
 10
133.88154664653
 20
246.6643397918723
 10
133.8833124018712
 20
246.6623365460437
 10
133.8872088446146
 20
246.6592188136106
  0
LWPOLYLINE
  5
ED1
330
A
100
AcDbEntity
  8
INDUSA
  6
Continuous
100
AcDbPolyline
 90
        5
 70
   128
 43
0.0
 10
133.8872088446146
 20
246.6592188136106
 10
133.8884565025598
 20
246.6581036252554
 10
133.8890272758964
 20
246.6572077712881
 10
133.8895093634896
 20
246.6556054597629
 10
133.8895473341938
 20
246.6549917160754
  0
LINE
  5
ED8
330
A
100
AcDbEntity
  8
INDUSA
  6
Continuous
100
AcDbLine
 10
133.8895473341938
 20
246.6549917160754
 30
0.0
 11
133.8895473341938
 21
246.6499363104782
 31
0.0
  0
LWPOLYLINE
  5
ED9
330
A
100
AcDbEntity
  8
INDUSA
  6
Continuous
100
AcDbPolyline
 90
        7
 70
   128
 43
0.0
 10
133.8895473341938
 20
246.6499363104782
 10
133.8895008929727
 20
246.6496357219637
 10
133.8893479680347
 20
246.6493382707989
 10
133.8891048827514
 20
246.6491073983506
 10
133.8889197835385
 20
246.6490092964316
 10
133.8885892319083
 20
246.6489373590465
 10
133.888543270233
 20
246.6489363104782
  0
LINE
  5
EE2
330
A
100
AcDbEntity
  8
INDUSA
  6
Continuous
100
AcDbLine
 10
133.888543270233
 20
246.6489363104782
 30
0.0
 11
133.8875395090086
 21
246.6489363104782
 31
0.0
  0
LWPOLYLINE
  5
EE3
330
A
100
AcDbEntity
  8
INDUSA
  6
Continuous
100
AcDbPolyline
 90
        7
 70
   128
 43
0.0
 10
133.8865360178529
 20
246.6479363104782
 10
133.8865481236833
 20
246.6480911808677
 10
133.8866017392891
 20
246.6482922747975
 10
133.886772653024
 20
246.6485813308367
 10
133.8870295303879
 20
246.6487975657152
 10
133.8873441368964
 20
246.6489171788261
 10
133.8875395090086
 20
246.6489363104782
  0
LINE
  5
EEC
330
A
100
AcDbEntity
  8
INDUSA
  6
Continuous
100
AcDbLine
 10
133.8865360178529
 20
246.6479363104782
 30
0.0
 11
133.8865360178529
 21
246.6429363104782
 31
0.0
  0
LWPOLYLINE
  5
EED
330
A
100
AcDbEntity
  8
INDUSA
  6
Continuous
100
AcDbPolyline
 90
        7
 70
   128
 43
0.0
 10
133.8865360178529
 20
246.6429363104782
 10
133.8865325133779
 20
246.6428528045381
 10
133.8864488906743
 20
246.6425287185675
 10
133.8862627503576
 20
246.6422503516414
 10
133.8859945073227
 20
246.6420485323125
 10
133.885798706486
 20
246.6419720891744
 10
133.8855327686424
 20
246.6419363104782
  0
LINE
  5
EF6
330
A
100
AcDbEntity
  8
INDUSA
  6
Continuous
100
AcDbLine
 10
133.8795171869447
 20
246.6419363104782
 30
0.0
 11
133.8855327686424
 21
246.6419363104782
 31
0.0
  0
LINE
  5
EF7
330
A
100
AcDbEntity
  8
INDUSA
  6
Continuous
100
AcDbLine
 10
133.8795171869447
 20
246.6419363104782
 30
0.0
 11
133.8795171869447
 21
246.6519363104782
 31
0.0
  0
LINE
  5
EF8
330
A
100
AcDbEntity
  8
INDUSA
  6
Continuous
100
AcDbLine
 10
133.8795171869447
 20
246.6519363104782
 30
0.0
 11
133.8351143665584
 21
246.6519363104782
 31
0.0
  0
LWPOLYLINE
  5
EF9
330
A
100
AcDbEntity
  8
INDUSA
  6
Continuous
100
AcDbPolyline
 90
        5
 70
   128
 43
0.0
 10
133.8805194006204
 20
246.6219363104782
 10
133.8803970563505
 20
246.6219437886252
 10
133.8800739357513
 20
246.6220405142832
 10
133.8798948528658
 20
246.6221542107083
 10
133.8797083245258
 20
246.6223488801939
  0
LINE
  5
F00
330
A
100
AcDbEntity
  8
INDUSA
  6
Continuous
100
AcDbLine
 10
133.8376697695987
 20
246.6349806613451
 30
0.0
 11
133.8795171869447
 21
246.6317116242389
 31
0.0
  0
LINE
  5
F01
330
A
100
AcDbEntity
  8
INDUSA
  6
Continuous
100
AcDbLine
 10
133.8795171869447
 20
246.6317116242389
 30
0.0
 11
133.8795171869447
 21
246.6319363104782
 31
0.0
  0
LINE
  5
F02
330
A
100
AcDbEntity
  8
INDUSA
  6
Continuous
100
AcDbLine
 10
133.8795171869447
 20
246.6319363104782
 30
0.0
 11
133.888543270233
 21
246.6319363104782
 31
0.0
  0
LWPOLYLINE
  5
F03
330
A
100
AcDbEntity
  8
INDUSA
  6
Continuous
100
AcDbPolyline
 90
        7
 70
   128
 43
0.0
 10
133.888543270233
 20
246.6319363104782
 10
133.8887145747224
 20
246.6319216450552
 10
133.8889197835385
 20
246.6318633245248
 10
133.8892068700906
 20
246.6316867404682
 10
133.8894192636417
 20
246.6314249855657
 10
133.8895323407025
 20
246.6311084671034
 10
133.8895473341938
 20
246.6309363104782
  0
LINE
  5
F0C
330
A
100
AcDbEntity
  8
INDUSA
  6
Continuous
100
AcDbLine
 10
133.8895473341938
 20
246.6309363104782
 30
0.0
 11
133.8895473341938
 21
246.6229363104782
 31
0.0
  0
LWPOLYLINE
  5
F0D
330
A
100
AcDbEntity
  8
INDUSA
  6
Continuous
100
AcDbPolyline
 90
        7
 70
   128
 43
0.0
 10
133.8895473341938
 20
246.6229363104782
 10
133.8895008929727
 20
246.6226357219637
 10
133.8893479680347
 20
246.6223382707989
 10
133.8891048827514
 20
246.6221073983506
 10
133.8889197835385
 20
246.6220092964316
 10
133.8885892319083
 20
246.6219373590465
 10
133.888543270233
 20
246.6219363104782
  0
LINE
  5
F16
330
A
100
AcDbEntity
  8
INDUSA
  6
Continuous
100
AcDbLine
 10
133.888543270233
 20
246.6219363104782
 30
0.0
 11
133.8805194006204
 21
246.6219363104782
 31
0.0
  0
LINE
  5
F17
330
A
100
AcDbEntity
  8
INDUSA
  6
Continuous
100
AcDbLine
 10
133.8767949755141
 20
246.6239866256537
 30
0.0
 11
133.8391812733473
 21
246.6271103611252
 31
0.0
  0
ARC
  5
F18
330
A
100
AcDbEntity
  8
INDUSA
  6
Continuous
100
AcDbCircle
 10
133.840008902267
 20
246.6370760537941
 30
0.0
 40
0.0100000000000001
100
AcDbArc
 50
219.0824098967733
 51
265.2526053327397
  0
LINE
  5
F19
330
A
100
AcDbEntity
  8
INDUSA
  6
Continuous
100
AcDbLine
 10
133.8322465023544
 20
246.6307716785199
 30
0.0
 11
133.8134984024934
 21
246.6538556864338
 31
0.0
  0
ARC
  5
F1A
330
A
100
AcDbEntity
  8
INDUSA
  6
Continuous
100
AcDbCircle
 10
133.8212608024059
 20
246.660160061708
 30
0.0
 40
0.0100000000000002
100
AcDbArc
 50
183.1211593268527
 51
219.0824098967742
  0
LINE
  5
F1B
330
A
100
AcDbEntity
  8
INDUSA
  6
Continuous
100
AcDbLine
 10
133.8112756360966
 20
246.65961558602
 30
0.0
 11
133.8046998882236
 21
246.7802085483222
 31
0.0
  0
ARC
  5
F1C
330
A
100
AcDbEntity
  8
INDUSA
  6
Continuous
100
AcDbCircle
 10
133.7997073050689
 20
246.7799363104782
 30
0.0
 40
0.005
100
AcDbArc
 50
3.121159326858398
 51
90.0
  0
ARC
  5
F1D
330
A
100
AcDbEntity
  8
INDUSA
  6
Continuous
100
AcDbCircle
 10
133.8261908736553
 20
246.7867293246545
 30
0.0
 40
0.0049999999999999
100
AcDbArc
 50
5.000000000023128
 51
87.99999999999959
  0
LINE
  5
F1E
330
A
100
AcDbEntity
  8
INDUSA
  6
Continuous
100
AcDbLine
 10
133.8322414468541
 20
246.7749395227584
 30
0.0
 11
133.8311718471457
 21
246.7871651033683
 31
0.0
  0
LWPOLYLINE
  5
F1F
330
A
100
AcDbEntity
  8
INDUSA
  6
Continuous
100
AcDbPolyline
 90
        7
 70
   128
 43
0.0
 10
133.8322414468541
 20
246.7749395227584
 10
133.832223717556
 20
246.7746397528256
 10
133.8320970968355
 20
246.7743180923969
 10
133.8318716417239
 20
246.7740589175491
 10
133.8316893735106
 20
246.7739410569162
 10
133.8313730652217
 20
246.7738445325621
 10
133.8313337964979
 20
246.7738403005574
  0
LINE
  5
F28
330
A
100
AcDbEntity
  8
INDUSA
  6
Continuous
100
AcDbLine
 10
133.8124420906594
 20
246.7849363104782
 30
0.0
 11
133.8194420906594
 21
246.7849363104782
 31
0.0
  0
LINE
  5
F29
330
A
100
AcDbEntity
  8
INDUSA
  6
Continuous
100
AcDbLine
 10
133.8124420906594
 20
246.7849363104782
 30
0.0
 11
133.8189698844069
 21
246.6591111025298
 31
0.0
  0
LINE
  5
F2A
330
A
100
AcDbEntity
  8
INDUSA
  6
Continuous
100
AcDbLine
 10
133.8189698844069
 20
246.6591111025298
 30
0.0
 11
133.8376697695987
 21
246.6349806613451
 31
0.0
  0
LINE
  5
F2B
330
A
100
AcDbEntity
  8
INDUSA
  6
Continuous
100
AcDbLine
 10
133.791788345737
 20
246.7849363104782
 30
0.0
 11
133.7997073050689
 21
246.7849363104782
 31
0.0
  0
LINE
  5
F2C
330
A
100
AcDbEntity
  8
INDUSA
  6
Continuous
100
AcDbLine
 10
133.8263653711388
 20
246.7917262787896
 30
0.0
 11
133.7920324035713
 21
246.792925212436
 31
0.0
  0
LINE
  5
F2D
330
A
100
AcDbEntity
  8
INDUSA
  6
Continuous
100
AcDbLine
 10
133.8194420906594
 20
246.7739072128544
 30
0.0
 11
133.8194420906594
 21
246.7849363104782
 31
0.0
  0
LINE
  5
F35
330
A
100
AcDbEntity
  8
INDUSA
  6
Continuous
100
AcDbLine
 10
133.8322243724633
 20
246.7751346839389
 30
0.0
 11
133.8345775775175
 21
246.7482374270904
 31
0.0
  0
LINE
  5
F41
330
A
100
AcDbEntity
  8
INDUSA
  6
Continuous
100
AcDbLine
 10
133.9404420906594
 20
246.6489363104782
 30
0.0
 11
133.8884420906594
 21
246.6489363104782
 31
0.0
  0
LINE
  5
F42
330
A
100
AcDbEntity
  8
INDUSA
  6
Continuous
100
AcDbLine
 10
133.8794420906594
 20
246.6419363104782
 30
0.0
 11
133.8795171869447
 21
246.6419363104782
 31
0.0
  0
LWPOLYLINE
  5
F43
330
A
100
AcDbEntity
  8
INDUSA
  6
Continuous
100
AcDbPolyline
 90
        6
 70
   128
 43
0.0
 10
133.8806190216088
 20
246.6419363104782
 10
133.8807115997487
 20
246.6418763795614
 10
133.8807966150831
 20
246.641702414943
 10
133.880861451316
 20
246.6414361169637
 10
133.8808961106169
 20
246.641118046879
 10
133.8809010709969
 20
246.6409363104782
  0
LINE
  5
F4B
330
A
100
AcDbEntity
  8
INDUSA
  6
Continuous
100
AcDbLine
 10
133.8809010709969
 20
246.6409363104782
 30
0.0
 11
133.8809010709969
 21
246.6329363104782
 31
0.0
  0
LWPOLYLINE
  5
F4C
330
A
100
AcDbEntity
  8
INDUSA
  6
Continuous
100
AcDbPolyline
 90
        6
 70
   128
 43
0.0
 10
133.8809010709969
 20
246.6329363104782
 10
133.8808853394638
 20
246.6326153200736
 10
133.8808408407146
 20
246.632330637222
 10
133.8807729353886
 20
246.6321076193853
 10
133.880688055161
 20
246.6319695129493
 10
133.8806190216088
 20
246.6319363104782
  0
LINE
  5
F54
330
A
100
AcDbEntity
  8
INDUSA
  6
Continuous
100
AcDbLine
 10
133.8795171869447
 20
246.6319363104782
 30
0.0
 11
133.8794420906594
 21
246.6319363104782
 31
0.0
  0
LINE
  5
F5E
330
A
100
AcDbEntity
  8
INDUSA
  6
Continuous
100
AcDbLine
 10
133.8884420906594
 20
246.6319363104782
 30
0.0
 11
133.9404420906594
 21
246.6319363104782
 31
0.0
  0
LINE
  5
F5F
330
A
100
AcDbEntity
  8
INDUSA
  6
Continuous
100
AcDbLine
 10
133.9404420906594
 20
246.6219363104782
 30
0.0
 11
133.8884420906594
 21
246.6219363104782
 31
0.0
  0
LINE
  5
F6B
330
A
100
AcDbEntity
  8
INDUSA
  6
Continuous
100
AcDbLine
 10
133.8868739931552
 20
246.6419363104782
 30
0.0
 11
133.8854420906594
 21
246.6419363104782
 31
0.0
  0
LINE
  5
F6C
330
A
100
AcDbEntity
  8
INDUSA
  6
Continuous
100
AcDbLine
 10
134.0004420906594
 20
246.6359363104782
 30
0.0
 11
133.994369836954
 21
246.6359363104782
 31
0.0
  0
LWPOLYLINE
  5
F6D
330
A
100
AcDbEntity
  8
INDUSA
  6
Continuous
100
AcDbPolyline
 90
       13
 70
   128
 43
0.0
 10
133.8194420906594
 20
246.7669363104782
 10
133.8194420912991
 20
246.7669362575624
 10
133.8194687610325
 20
246.7648355332461
 10
133.8194984733478
 20
246.7626137825578
 10
133.8195290132642
 20
246.7603336836169
 10
133.819558030234
 20
246.7580593366176
 10
133.8195830623116
 20
246.7558555770431
 10
133.8196015884843
 20
246.7537837638784
 10
133.8196109160944
 20
246.7519068154046
 10
133.8196087003204
 20
246.7502734165534
 10
133.8195926294683
 20
246.748936409115
 10
133.8195616602485
 20
246.7479270628016
 10
133.8195198564428
 20
246.7473702559813
  0
LWPOLYLINE
  5
F7F
330
A
100
AcDbEntity
  8
INDUSA
  6
Continuous
100
AcDbPolyline
 90
        7
 70
   128
 43
0.0
 10
133.8876092749294
 20
246.6409363104782
 10
133.8875769338263
 20
246.6412149767558
 10
133.8875681523268
 20
246.6412498526973
 10
133.8874537473209
 20
246.6415277516162
 10
133.8872804131801
 20
246.6417506171074
 10
133.8870627820156
 20
246.6418964639569
 10
133.8868739931552
 20
246.6419363104782
  0
LINE
  5
F8A
330
A
100
AcDbEntity
  8
INDUSA
  6
Continuous
100
AcDbLine
 10
133.8876092749294
 20
246.6329363104782
 30
0.0
 11
133.8876092749294
 21
246.6319363104782
 31
0.0
  0
LINE
  5
F8C
330
A
100
AcDbEntity
  8
INDUSA
  6
Continuous
100
AcDbLine
 10
133.8876092749294
 20
246.6409363104782
 30
0.0
 11
133.8876092749294
 21
246.6329363104782
 31
0.0
  0
LINE
  5
F92
330
A
100
AcDbEntity
  8
INDUSA
  6
Continuous
100
AcDbLine
 10
133.8194420906594
 20
246.7669363104782
 30
0.0
 11
133.8194420906594
 21
246.7669363104782
 31
0.0
  0
LINE
  5
FB2
330
A
100
AcDbEntity
  8
INDUSA
  6
Continuous
100
AcDbLine
 10
133.7144420906594
 20
246.7789363104782
 30
0.0
 11
133.7144420906594
 21
246.7752997591585
 31
0.0
  0
LINE
  5
FED
330
A
100
AcDbEntity
  8
INDUSA
  6
Continuous
100
AcDbLine
 10
133.7144420906594
 20
246.7752997591585
 30
0.0
 11
133.7144420906594
 21
246.7359363104782
 31
0.0
  0
LINE
  5
1004
330
A
100
AcDbEntity
  8
INDUSA
  6
Continuous
100
AcDbLine
 10
133.7184420906594
 20
246.7319363104782
 30
0.0
 11
133.7189629997502
 21
246.7319363104782
 31
0.0
  0
LWPOLYLINE
  5
1010
330
A
100
AcDbEntity
  8
INDUSA
  6
Continuous
100
AcDbPolyline
 90
        9
 70
   128
 43
0.0
 10
133.7184420906594
 20
246.7319363104782
 10
133.7177063985607
 20
246.732004547879
 10
133.7169958073205
 20
246.7322069319102
 10
133.7163345613881
 20
246.7325365574914
 10
133.7157452216156
 20
246.7329821782264
 10
133.7152478955101
 20
246.7335285901147
 10
133.7148595511921
 20
246.7341571502929
 10
133.7145934384649
 20
246.7348464131044
 10
133.7144586367489
 20
246.7355728617978
  0
LINE
  5
1026
330
A
100
AcDbEntity
  8
INDUSA
  6
Continuous
100
AcDbLine
 10
133.7184420906594
 20
246.7204793345664
 30
0.0
 11
133.7184420906594
 21
246.7319363104782
 31
0.0
  0
LWPOLYLINE
  5
1027
330
A
100
AcDbEntity
  8
INDUSA
  6
Continuous
100
AcDbPolyline
 90
        7
 70
   128
 43
0.0
 10
133.7184420906594
 20
246.7204793345664
 10
133.7184283966289
 20
246.7204783873513
 10
133.7170164065835
 20
246.7206236271521
 10
133.7157726195869
 20
246.7212432294061
 10
133.7148939980011
 20
246.7222372053791
 10
133.7144811041389
 20
246.7234114277556
 10
133.7144420906594
 20
246.7239289072883
  0
LINE
  5
1030
330
A
100
AcDbEntity
  8
INDUSA
  6
Continuous
100
AcDbLine
 10
133.7144420906594
 20
246.7359363104782
 30
0.0
 11
133.7144420906594
 21
246.7239289072883
 31
0.0
  0
LINE
  5
1036
330
A
100
AcDbEntity
  8
INDUSA
  6
Continuous
100
AcDbLine
 10
133.7184420906594
 20
246.6646288647671
 30
0.0
 11
133.7184420906594
 21
246.6839149434013
 31
0.0
  0
LINE
  5
1037
330
A
100
AcDbEntity
  8
INDUSA
  6
Continuous
100
AcDbLine
 10
133.7184420906594
 20
246.6839149434013
 30
0.0
 11
133.7189724060622
 21
246.684442817295
 31
0.0
  0
LWPOLYLINE
  5
1038
330
A
100
AcDbEntity
  8
INDUSA
  6
Continuous
100
AcDbPolyline
 90
        3
 70
   128
 43
0.0
 10
133.7189724060622
 20
246.684442817295
 10
133.7198663834584
 20
246.6856336087534
 10
133.7204420906594
 20
246.6878528434765
  0
LINE
  5
103D
330
A
100
AcDbEntity
  8
INDUSA
  6
Continuous
100
AcDbLine
 10
133.7204420906594
 20
246.6878528434765
 30
0.0
 11
133.7204420906594
 21
246.7189515407689
 31
0.0
  0
LWPOLYLINE
  5
103E
330
A
100
AcDbEntity
  8
INDUSA
  6
Continuous
100
AcDbPolyline
 90
        4
 70
   128
 43
0.0
 10
133.7204420906594
 20
246.7189515407689
 10
133.720415740117
 20
246.7191497079427
 10
133.7199611041334
 20
246.7197677372086
 10
133.7189724060622
 20
246.7202866525416
  0
LINE
  5
1044
330
A
100
AcDbEntity
  8
INDUSA
  6
Continuous
100
AcDbLine
 10
133.7189724060622
 20
246.7202866525416
 30
0.0
 11
133.7184420906594
 21
246.7204793345664
 31
0.0
  0
LINE
  5
1045
330
A
100
AcDbEntity
  8
INDUSA
  6
Continuous
100
AcDbLine
 10
133.7454420906594
 20
246.7319363104782
 30
0.0
 11
133.7454420906594
 21
246.6683098674647
 31
0.0
  0
LINE
  5
1051
330
A
100
AcDbEntity
  8
INDUSA
  6
Continuous
100
AcDbLine
 10
133.7494420906594
 20
246.6708555487672
 30
0.0
 11
133.7494420906594
 21
246.7359363104782
 31
0.0
  0
LINE
  5
105E
330
A
100
AcDbEntity
  8
INDUSA
  6
Continuous
100
AcDbLine
 10
133.7144420906594
 20
246.7639363104782
 30
0.0
 11
133.7144420906594
 21
246.7539363104782
 31
0.0
  0
LINE
  5
1068
330
A
100
AcDbEntity
  8
INDUSA
  6
Continuous
100
AcDbLine
 10
133.7434950672287
 20
246.8069363104782
 30
0.0
 11
133.7244565138769
 21
246.8069363104782
 31
0.0
  0
LINE
  5
1074
330
A
100
AcDbEntity
  8
INDUSA
  6
Continuous
100
AcDbLine
 10
133.7144420906594
 20
246.7539363104782
 30
0.0
 11
133.7144420906594
 21
246.7501535606568
 31
0.0
  0
LINE
  5
108C
330
A
100
AcDbEntity
  8
INDUSA
  6
Continuous
100
AcDbLine
 10
133.7144420906594
 20
246.7501535606568
 30
0.0
 11
133.7144420906594
 21
246.6876627490377
 31
0.0
  0
LWPOLYLINE
  5
10AA
330
A
100
AcDbEntity
  8
INDUSA
  6
Continuous
100
AcDbPolyline
 90
        5
 70
   128
 43
0.0
 10
133.7184420906594
 20
246.6839149434013
 10
133.718427350679
 20
246.6839164911206
 10
133.7170495071951
 20
246.6842408339294
 10
133.7158369713851
 20
246.684885212127
 10
133.7150380544642
 20
246.6856471637812
  0
LWPOLYLINE
  5
10BC
330
A
100
AcDbEntity
  8
INDUSA
  6
Continuous
100
AcDbPolyline
 90
        4
 70
   128
 43
0.0
 10
133.7144420906594
 20
246.6876627490377
 10
133.7145552508954
 20
246.6866778903781
 10
133.7148021359753
 20
246.686015382593
 10
133.7150380544642
 20
246.6856471637812
  0
LINE
  5
10C2
330
A
100
AcDbEntity
  8
INDUSA
  6
Continuous
100
AcDbLine
 10
133.7144420906594
 20
246.6876627490377
 30
0.0
 11
133.7144420906594
 21
246.6670904088652
 31
0.0
  0
LWPOLYLINE
  5
10ED
330
A
100
AcDbEntity
  8
INDUSA
  6
Continuous
100
AcDbPolyline
 90
        9
 70
   128
 43
0.0
 10
133.7454420906594
 20
246.6683098674647
 10
133.7455192969278
 20
246.6679956238725
 10
133.7455955925034
 20
246.6677151147571
 10
133.7456700774355
 20
246.6674716488866
 10
133.745741873131
 20
246.6672680980825
 10
133.745810132718
 20
246.667106863345
 10
133.7458740510349
 20
246.6669898465314
 10
133.7459328741281
 20
246.6669184279231
 10
133.7459859081449
 20
246.6668934499441
  0
LWPOLYLINE
  5
10FD
330
A
100
AcDbEntity
  8
INDUSA
  6
Continuous
100
AcDbPolyline
 90
        9
 70
   128
 43
0.0
 10
133.7184420906594
 20
246.6646288647671
 10
133.7185199269702
 20
246.6642973405699
 10
133.7185967882727
 20
246.6640008034459
 10
133.718671711772
 20
246.663742967936
 10
133.7187437589469
 20
246.6635270637892
 10
133.7188120273059
 20
246.6633557955058
 10
133.718875661693
 20
246.66323130846
 10
133.7189338649984
 20
246.6631551620253
 10
133.7189859081449
 20
246.663128310042
  0
LWPOLYLINE
  5
1108
330
A
100
AcDbEntity
  8
INDUSA
  6
Continuous
100
AcDbPolyline
 90
        9
 70
   128
 43
0.0
 10
133.7494420906594
 20
246.6708555487672
 10
133.7493779640003
 20
246.6701423128571
 10
133.7491876401373
 20
246.6694519456649
 10
133.748877221487
 20
246.6688065826616
 10
133.7484566611049
 20
246.6682269163337
 10
133.7479394435573
 20
246.6677315327138
 10
133.7473421525607
 20
246.6673363154502
 10
133.7466839392531
 20
246.6670539365241
 10
133.7459859081449
 20
246.6668934499441
  0
LWPOLYLINE
  5
112B
330
A
100
AcDbEntity
  8
INDUSA
  6
Continuous
100
AcDbPolyline
 90
        9
 70
   128
 43
0.0
 10
133.7515641729654
 20
246.7503289263364
 10
133.7511572518515
 20
246.7503281340106
 10
133.7507621417406
 20
246.7503234372629
 10
133.7503952260978
 20
246.7503150308466
 10
133.7500717192885
 20
246.7503032633386
 10
133.7498050357065
 20
246.7502886226853
 10
133.7496062335378
 20
246.7502717159696
 10
133.7494835562273
 20
246.7502532442381
 10
133.7494420906594
 20
246.7502339734318
  0
LWPOLYLINE
  5
1142
330
A
100
AcDbEntity
  8
INDUSA
  6
Continuous
100
AcDbPolyline
 90
        3
 70
   128
 43
0.0
 10
133.8104277788761
 20
246.6751644811111
 10
133.7673726821122
 20
246.6693001200881
 10
133.7189859081449
 20
246.6627089797235
  0
LINE
  5
1147
330
A
100
AcDbEntity
  8
INDUSA
  6
Continuous
100
AcDbLine
 10
133.7189859081449
 20
246.6627089797235
 30
0.0
 11
133.7189859081449
 21
246.663128310042
 31
0.0
  0
LWPOLYLINE
  5
116C
330
A
100
AcDbEntity
  8
INDUSA
  6
Continuous
100
AcDbPolyline
 90
        9
 70
   128
 43
0.0
 10
133.7189859081449
 20
246.6627089797235
 10
133.7181343154984
 20
246.6626837032522
 10
133.7172966852487
 20
246.6628393163491
 10
133.7165110169727
 20
246.6631687595369
 10
133.7158129529625
 20
246.6636570874363
 10
133.7152341612928
 20
246.6642821467719
 10
133.7148008991794
 20
246.6650155813684
 10
133.7145328218071
 20
246.6658241185442
 10
133.7144420906594
 20
246.6666710785466
  0
LINE
  5
1177
330
A
100
AcDbEntity
  8
INDUSA
  6
Continuous
100
AcDbLine
 10
133.7144420906594
 20
246.6670904088652
 30
0.0
 11
133.7144420906594
 21
246.6666710785466
 31
0.0
  0
LWPOLYLINE
  5
118E
330
A
100
AcDbEntity
  8
INDUSA
  6
Continuous
100
AcDbPolyline
 90
        6
 70
   128
 43
0.0
 10
133.984353951693
 20
246.6469874242708
 10
133.9846526393606
 20
246.6486388427795
 10
133.9854810749807
 20
246.6500983086842
 10
133.9867460814978
 20
246.6512017403636
 10
133.9883057025419
 20
246.6518248178812
 10
133.9893561989643
 20
246.6519363104782
  0
LWPOLYLINE
  5
1196
330
A
100
AcDbEntity
  8
INDUSA
  6
Continuous
100
AcDbPolyline
 90
        6
 70
   128
 43
0.0
 10
133.9843529060286
 20
246.6468851966844
 10
133.9840542266754
 20
246.6452338049334
 10
133.9832258038762
 20
246.6437743621105
 10
133.9819608401493
 20
246.6426709735688
 10
133.9804012606881
 20
246.6420478774781
 10
133.9793502718153
 20
246.6419363104782
  0
LWPOLYLINE
  5
119E
330
A
100
AcDbEntity
  8
INDUSA
  6
Continuous
100
AcDbPolyline
 90
        6
 70
   128
 43
0.0
 10
133.9874538069642
 20
245.9718851951805
 10
133.9871551329146
 20
245.9702338506544
 10
133.9863267334292
 20
245.9687744501953
 10
133.9850617952664
 20
245.9676710645455
 10
133.9835021922588
 20
245.9670479188623
 10
133.9824509624042
 20
245.9669363104782
  0
LINE
  5
11AD
330
A
100
AcDbEntity
  8
INDUSA
  6
Continuous
100
AcDbLine
 10
133.9843529060285
 20
246.6468851966844
 30
0.0
 11
133.984353951693
 21
246.6469874242708
 31
0.0
  0
LWPOLYLINE
  5
11B6
330
A
100
AcDbEntity
  8
INDUSA
  6
Continuous
100
AcDbPolyline
 90
        5
 70
   128
 43
0.0
 10
133.9778151390238
 20
246.0078545132017
 10
133.9789564550993
 20
246.1193913440076
 10
133.9801331008029
 20
246.2343909996885
 10
133.9819405517138
 20
246.4110603859208
 10
133.9837123978717
 20
246.5842680196037
  0
LINE
  5
11BE
330
A
100
AcDbEntity
  8
INDUSA
  6
Continuous
100
AcDbLine
 10
133.977478278368
 20
245.9749363104782
 30
0.0
 11
133.9776317785376
 21
245.9899363104782
 31
0.0
  0
LINE
  5
11BF
330
A
100
AcDbEntity
  8
INDUSA
  6
Continuous
100
AcDbLine
 10
133.9473920563361
 20
245.9899363104782
 30
0.0
 11
133.9473920563361
 21
245.9799363104782
 31
0.0
  0
LWPOLYLINE
  5
11C0
330
A
100
AcDbEntity
  8
INDUSA
  6
Continuous
100
AcDbPolyline
 90
        7
 70
   128
 43
0.0
 10
133.9473920563361
 20
245.9899363104782
 10
133.9475177905372
 20
245.9915163465926
 10
133.9485976594057
 20
245.9946943379714
 10
133.9506683746272
 20
245.9973358085943
 10
133.9534979320204
 20
245.9991447396546
 10
133.9567691699631
 20
245.9999164161154
 10
133.9574000677278
 20
245.9999363104782
  0
LINE
  5
11C9
330
A
100
AcDbEntity
  8
INDUSA
  6
Continuous
100
AcDbLine
 10
133.9574000677278
 20
245.9999363104782
 30
0.0
 11
133.9698083710853
 21
245.9999363104782
 31
0.0
  0
LWPOLYLINE
  5
11CA
330
A
100
AcDbEntity
  8
INDUSA
  6
Continuous
100
AcDbPolyline
 90
        6
 70
   128
 43
0.0
 10
133.9778151390238
 20
246.0078545132017
 10
133.9773373133067
 20
246.0052127881148
 10
133.9760120840317
 20
246.0028781288511
 10
133.9739884398333
 20
246.0011127793037
 10
133.9714929241257
 20
246.000115313625
 10
133.9698083710853
 20
245.9999363104782
  0
LWPOLYLINE
  5
11D2
330
A
100
AcDbEntity
  8
INDUSA
  6
Continuous
100
AcDbPolyline
 90
        4
 70
   128
 43
0.0
 10
133.9810324017683
 20
246.5944725228784
 10
133.9824487635613
 20
246.5914697102205
 10
133.9833667901503
 20
246.5881790132922
 10
133.9837123978717
 20
246.5842680196037
  0
LWPOLYLINE
  5
11D8
330
A
100
AcDbEntity
  8
INDUSA
  6
Continuous
100
AcDbPolyline
 90
        3
 70
   128
 43
0.0
 10
133.9620664840901
 20
246.6272952943268
 10
133.9630353500398
 20
246.6256190699201
 10
133.9810324017683
 20
246.5944725228784
  0
LWPOLYLINE
  5
11DD
330
A
100
AcDbEntity
  8
INDUSA
  6
Continuous
100
AcDbPolyline
 90
        4
 70
   128
 43
0.0
 10
133.9620664840901
 20
246.6272952943268
 10
133.961259311949
 20
246.6288441636945
 10
133.9598904402366
 20
246.6328245901731
 10
133.9593894430146
 20
246.6368166491953
  0
LWPOLYLINE
  5
11E3
330
A
100
AcDbEntity
  8
INDUSA
  6
Continuous
100
AcDbPolyline
 90
        7
 70
   128
 43
0.0
 10
133.9593894430146
 20
246.6368166491953
 10
133.9593945960934
 20
246.6371927116351
 10
133.9595577562069
 20
246.6382272551335
 10
133.9602578211667
 20
246.6397527627167
 10
133.9614232214825
 20
246.6409606179972
 10
133.962923761867
 20
246.6417157987877
 10
133.964393852832
 20
246.6419363104782
  0
LINE
  5
11EC
330
A
100
AcDbEntity
  8
INDUSA
  6
Continuous
100
AcDbLine
 10
133.8678684802619
 20
245.9669363104782
 30
0.0
 11
133.8678684802619
 21
245.9749363104782
 31
0.0
  0
LWPOLYLINE
  5
11ED
330
A
100
AcDbEntity
  8
INDUSA
  6
Continuous
100
AcDbPolyline
 90
        7
 70
   128
 43
0.0
 10
133.9473920563361
 20
245.9799363104782
 10
133.9473891820828
 20
245.9797668793924
 10
133.9470516497471
 20
245.9781238132805
 10
133.9461893889347
 20
245.9766849484724
 10
133.9448989941201
 20
245.9756116428276
 10
133.9433247853271
 20
245.9750248788038
 10
133.9423867837186
 20
245.9749363104782
  0
LINE
  5
11F6
330
A
100
AcDbEntity
  8
INDUSA
  6
Continuous
100
AcDbLine
 10
133.9574000677278
 20
245.9899363104782
 30
0.0
 11
133.9776317785376
 21
245.9899363104782
 31
0.0
  0
LINE
  5
11F7
330
A
100
AcDbEntity
  8
INDUSA
  6
Continuous
100
AcDbLine
 10
133.9574000677278
 20
245.9749363104782
 30
0.0
 11
133.9574000677278
 21
245.9899363104782
 31
0.0
  0
LINE
  5
11F8
330
A
100
AcDbEntity
  8
INDUSA
  6
Continuous
100
AcDbLine
 10
133.977478278368
 20
245.9749363104782
 30
0.0
 11
133.9574000677278
 21
245.9749363104782
 31
0.0
  0
LINE
  5
11F9
330
A
100
AcDbEntity
  8
INDUSA
  6
Continuous
100
AcDbLine
 10
133.9423867837186
 20
245.9749363104782
 30
0.0
 11
133.8678684802619
 21
245.9749363104782
 31
0.0
  0
LINE
  5
11FA
330
A
100
AcDbEntity
  8
INDUSA
  6
Continuous
100
AcDbLine
 10
133.8678684802619
 20
245.9669363104782
 30
0.0
 11
133.9824509624042
 21
245.9669363104782
 31
0.0
  0
LINE
  5
11FB
330
A
100
AcDbEntity
  8
INDUSA
  6
Continuous
100
AcDbLine
 10
133.9643938528319
 20
246.6419363104782
 30
0.0
 11
133.9793502718153
 21
246.6419363104782
 31
0.0
  0
LINE
  5
11FC
330
A
100
AcDbEntity
  8
INDUSA
  6
Continuous
100
AcDbLine
 10
133.9893561989643
 20
246.6519363104782
 30
0.0
 11
133.9944092645464
 21
246.6519363104782
 31
0.0
  0
LINE
  5
11FE
330
A
100
AcDbEntity
  8
INDUSA
  6
Continuous
100
AcDbLine
 10
133.8678684802619
 20
245.9749363104782
 30
0.0
 11
133.8335418548814
 21
245.9749363104782
 31
0.0
  0
LINE
  5
11FF
330
A
100
AcDbEntity
  8
INDUSA
  6
Continuous
100
AcDbLine
 10
133.8678684802619
 20
245.9669363104782
 30
0.0
 11
133.8335418548814
 21
245.9669363104782
 31
0.0
  0
LINE
  5
129E
330
A
100
AcDbEntity
  8
INDUSA
  6
Continuous
100
AcDbLine
 10
133.7844420906594
 20
245.9749363104782
 30
0.0
 11
133.7844420906594
 21
245.9669363104782
 31
0.0
  0
LINE
  5
129F
330
A
100
AcDbEntity
  8
INDUSA
  6
Continuous
100
AcDbLine
 10
133.8335418548814
 20
245.9749363104782
 30
0.0
 11
133.7844420906594
 21
245.9749363104782
 31
0.0
  0
LINE
  5
12A0
330
A
100
AcDbEntity
  8
INDUSA
  6
Continuous
100
AcDbLine
 10
133.8335418548814
 20
245.9669363104782
 30
0.0
 11
133.7844420906594
 21
245.9669363104782
 31
0.0
  0
LINE
  5
12BA
330
A
100
AcDbEntity
  8
INDUSA
  6
Continuous
100
AcDbLine
 10
133.7844420906594
 20
245.9749363104782
 30
0.0
 11
133.7844420906594
 21
245.9799363104782
 31
0.0
  0
LINE
  5
12D0
330
A
100
AcDbEntity
  8
INDUSA
  6
Continuous
100
AcDbLine
 10
133.7844420906594
 20
246.2596260272678
 30
0.0
 11
133.7844420906594
 21
246.346856236929
 31
0.0
  0
LINE
  5
12D1
330
A
100
AcDbEntity
  8
INDUSA
  6
Continuous
100
AcDbLine
 10
133.7844420906594
 20
246.1246260426845
 30
0.0
 11
133.7844420906594
 21
246.2118562177612
 31
0.0
  0
LINE
  5
12D2
330
A
100
AcDbEntity
  8
INDUSA
  6
Continuous
100
AcDbLine
 10
133.7844420906594
 20
245.9799363104782
 30
0.0
 11
133.7844420906594
 21
246.0768562009079
 31
0.0
  0
LINE
  5
12EC
330
A
100
AcDbEntity
  8
INDUSA
  6
Continuous
100
AcDbLine
 10
133.7844420906594
 20
246.5283207845125
 30
0.0
 11
133.7844420906594
 21
246.6369363104782
 31
0.0
  0
LINE
  5
12F1
330
A
100
AcDbEntity
  8
INDUSA
  6
Continuous
100
AcDbLine
 10
133.7844420906594
 20
246.5205533025113
 30
0.0
 11
133.7844420906594
 21
246.4883193184451
 31
0.0
  0
LINE
  5
131E
330
A
100
AcDbEntity
  8
INDUSA
  6
Continuous
100
AcDbLine
 10
133.7844420906594
 20
246.4857498857985
 30
0.0
 11
133.7844420906594
 21
246.4883193184451
 31
0.0
  0
LINE
  5
1343
330
A
100
AcDbEntity
  8
INDUSA
  6
Continuous
100
AcDbLine
 10
133.7844420906594
 20
246.5205533025113
 30
0.0
 11
133.7844420906594
 21
246.5231227351579
 31
0.0
  0
LINE
  5
1363
330
A
100
AcDbEntity
  8
INDUSA
  6
Continuous
100
AcDbLine
 10
133.7844420906594
 20
246.3946260097436
 30
0.0
 11
133.7844420906594
 21
246.4805518364439
 31
0.0
  0
LINE
  5
13DF
330
A
100
AcDbEntity
  8
INDUSA
  6
Continuous
100
AcDbLine
 10
133.7844420906594
 20
246.3869115993731
 30
0.0
 11
133.7844420906594
 21
246.3546783873228
 31
0.0
  0
LINE
  5
13E1
330
A
100
AcDbEntity
  8
INDUSA
  6
Continuous
100
AcDbLine
 10
133.7844420906594
 20
246.3920157221084
 30
0.0
 11
133.7844420906594
 21
246.3946260097436
 31
0.0
  0
LINE
  5
1404
330
A
100
AcDbEntity
  8
INDUSA
  6
Continuous
100
AcDbLine
 10
133.7844420906594
 20
246.346856236929
 30
0.0
 11
133.7844420906594
 21
246.3493891509846
 31
0.0
  0
LINE
  5
1478
330
A
100
AcDbEntity
  8
INDUSA
  6
Continuous
100
AcDbLine
 10
133.7844420906594
 20
246.2519116131839
 30
0.0
 11
133.7844420906594
 21
246.2196783738441
 31
0.0
  0
LINE
  5
147A
330
A
100
AcDbEntity
  8
INDUSA
  6
Continuous
100
AcDbLine
 10
133.7844420906594
 20
246.2118562177612
 30
0.0
 11
133.7844420906594
 21
246.2143891574732
 31
0.0
  0
LINE
  5
147C
330
A
100
AcDbEntity
  8
INDUSA
  6
Continuous
100
AcDbLine
 10
133.7844420906594
 20
246.2570157172247
 30
0.0
 11
133.7844420906594
 21
246.2596260272678
 31
0.0
  0
LINE
  5
14E6
330
A
100
AcDbEntity
  8
INDUSA
  6
Continuous
100
AcDbLine
 10
133.7844420906594
 20
246.0768562009079
 30
0.0
 11
133.7844420906594
 21
246.0793891632758
 31
0.0
  0
LINE
  5
14E8
330
A
100
AcDbEntity
  8
INDUSA
  6
Continuous
100
AcDbLine
 10
133.7844420906594
 20
246.1220157128256
 30
0.0
 11
133.7844420906594
 21
246.1246260426845
 31
0.0
  0
LINE
  5
14EB
330
A
100
AcDbEntity
  8
INDUSA
  6
Continuous
100
AcDbLine
 10
133.7844420906594
 20
246.1169116251922
 30
0.0
 11
133.7844420906594
 21
246.0846783621245
 31
0.0
  0
LINE
  5
14EC
330
A
100
AcDbEntity
  8
INDUSA
  6
Continuous
100
AcDbLine
 10
133.7844420906594
 20
246.6369363104782
 30
0.0
 11
133.7844420906594
 21
246.6419363104782
 31
0.0
  0
LINE
  5
14EF
330
A
100
AcDbEntity
  8
INDUSA
  6
Continuous
100
AcDbLine
 10
133.7844420906594
 20
246.4805518364439
 30
0.0
 11
133.7844420906594
 21
246.4831229379886
 31
0.0
  0
LINE
  5
14F1
330
A
100
AcDbEntity
  8
INDUSA
  6
Continuous
100
AcDbLine
 10
133.7844420906594
 20
246.5257496829677
 30
0.0
 11
133.7844420906594
 21
246.5283207845125
 31
0.0
  0
LINE
  5
14F3
330
A
100
AcDbEntity
  8
INDUSA
  6
Continuous
100
AcDbLine
 10
133.7844420906594
 20
246.3521472564246
 30
0.0
 11
133.7844420906594
 21
246.3546783873228
 31
0.0
  0
LINE
  5
14F4
330
A
100
AcDbEntity
  8
INDUSA
  6
Continuous
100
AcDbLine
 10
133.7844420906594
 20
246.3521472564246
 30
0.0
 11
133.7844420906594
 21
246.3493891509846
 31
0.0
  0
LINE
  5
14F6
330
A
100
AcDbEntity
  8
INDUSA
  6
Continuous
100
AcDbLine
 10
133.7844420906594
 20
246.2171472645945
 30
0.0
 11
133.7844420906594
 21
246.2196783738441
 31
0.0
  0
LINE
  5
14F7
330
A
100
AcDbEntity
  8
INDUSA
  6
Continuous
100
AcDbLine
 10
133.7844420906594
 20
246.2171472645945
 30
0.0
 11
133.7844420906594
 21
246.2143891574732
 31
0.0
  0
LINE
  5
14F9
330
A
100
AcDbEntity
  8
INDUSA
  6
Continuous
100
AcDbLine
 10
133.7844420906594
 20
246.0821472716983
 30
0.0
 11
133.7844420906594
 21
246.0793891632758
 31
0.0
  0
LINE
  5
14FA
330
A
100
AcDbEntity
  8
INDUSA
  6
Continuous
100
AcDbLine
 10
133.7844420906594
 20
246.0821472716983
 30
0.0
 11
133.7844420906594
 21
246.0846783621245
 31
0.0
  0
LINE
  5
14FB
330
A
100
AcDbEntity
  8
INDUSA
  6
Continuous
100
AcDbLine
 10
133.7844420906594
 20
246.4857498857985
 30
0.0
 11
133.7844420906594
 21
246.4831229379886
 31
0.0
  0
LINE
  5
14FC
330
A
100
AcDbEntity
  8
INDUSA
  6
Continuous
100
AcDbLine
 10
133.7844420906594
 20
246.5257496829677
 30
0.0
 11
133.7844420906594
 21
246.5231227351579
 31
0.0
  0
LINE
  5
14FE
330
A
100
AcDbEntity
  8
INDUSA
  6
Continuous
100
AcDbLine
 10
133.7844420906594
 20
246.3869115993731
 30
0.0
 11
133.7844420906594
 21
246.3895202572439
 31
0.0
  0
LINE
  5
14FF
330
A
100
AcDbEntity
  8
INDUSA
  6
Continuous
100
AcDbLine
 10
133.7844420906594
 20
246.3920157221084
 30
0.0
 11
133.7844420906594
 21
246.3895202572439
 31
0.0
  0
LINE
  5
1501
330
A
100
AcDbEntity
  8
INDUSA
  6
Continuous
100
AcDbLine
 10
133.7844420906594
 20
246.2519116131839
 30
0.0
 11
133.7844420906594
 21
246.254520249221
 31
0.0
  0
LINE
  5
1502
330
A
100
AcDbEntity
  8
INDUSA
  6
Continuous
100
AcDbLine
 10
133.7844420906594
 20
246.2570157172247
 30
0.0
 11
133.7844420906594
 21
246.254520249221
 31
0.0
  0
LINE
  5
1504
330
A
100
AcDbEntity
  8
INDUSA
  6
Continuous
100
AcDbLine
 10
133.7844420906594
 20
246.1220157128256
 30
0.0
 11
133.7844420906594
 21
246.1195202422452
 31
0.0
  0
LINE
  5
1505
330
A
100
AcDbEntity
  8
INDUSA
  6
Continuous
100
AcDbLine
 10
133.7844420906594
 20
246.1169116251922
 30
0.0
 11
133.7844420906594
 21
246.1195202422452
 31
0.0
  0
LINE
  5
1512
330
A
100
AcDbEntity
  8
INDUSA
  6
Continuous
100
AcDbLine
 10
133.7844420906594
 20
246.6419363104782
 30
0.0
 11
133.7844420906594
 21
246.6470274664349
 31
0.0
  0
LINE
  5
1513
330
A
100
AcDbEntity
  8
INDUSA
  6
Continuous
100
AcDbLine
 10
133.7844420906594
 20
246.6470274664349
 30
0.0
 11
133.7844420906594
 21
246.6519363104782
 31
0.0
  0
LINE
  5
1514
330
A
100
AcDbEntity
  8
INDUSA
  6
Continuous
100
AcDbLine
 10
133.7844420906594
 20
246.6519363104782
 30
0.0
 11
133.8150572588333
 21
246.6519363104782
 31
0.0
  0
LINE
  5
1515
330
A
100
AcDbEntity
  8
INDUSA
  6
Continuous
100
AcDbLine
 10
134.0248456902959
 20
246.6567374528356
 30
0.0
 11
134.0248648299229
 21
246.6567390952182
 31
0.0
  0
LINE
  5
1516
330
A
100
AcDbEntity
  8
INDUSA
  6
Continuous
100
AcDbLine
 10
134.0155938260386
 20
246.6457894714592
 30
0.0
 11
134.0155759267192
 21
246.6457919809798
 31
0.0
  0
LINE
  5
1517
330
A
100
AcDbEntity
  8
INDUSA
  6
Continuous
100
AcDbLine
 10
134.0138219347639
 20
246.6429863263781
 30
0.0
 11
134.0138483505969
 21
246.6429863263781
 31
0.0
  0
LINE
  5
1518
330
A
100
AcDbEntity
  8
INDUSA
  6
Continuous
100
AcDbLine
 10
134.1477396325615
 20
246.7654302898531
 30
0.0
 11
134.1477283782055
 21
246.7654302898531
 31
0.0
  0
LINE
  5
152B
330
A
100
AcDbEntity
  8
INDUSA
  6
Continuous
100
AcDbLine
 10
133.8776067946734
 20
246.6662701430916
 30
0.0
 11
133.9512773866454
 21
246.6662701430916
 31
0.0
  0
LINE
  5
152C
330
A
100
AcDbEntity
  8
INDUSA
  6
Continuous
100
AcDbLine
 10
134.2144333386975
 20
246.7709363104782
 30
0.0
 11
134.2144420906594
 21
246.7709363104782
 31
0.0
  0
LINE
  5
152D
330
A
100
AcDbEntity
  8
INDUSA
  6
Continuous
100
AcDbLine
 10
134.2144420906594
 20
246.8019363104782
 30
0.0
 11
134.2144333386975
 21
246.8019363104782
 31
0.0
  0
LINE
  5
1532
330
A
100
AcDbEntity
  8
INDUSA
  6
Continuous
100
AcDbLine
 10
133.8797083245258
 20
246.6223488801939
 30
0.0
 11
133.8796317334144
 21
246.6223503743593
 31
0.0
  0
LINE
  5
155D
330
A
100
AcDbEntity
  8
INDUSA
  6
Continuous
100
AcDbLine
 10
133.7515641729654
 20
246.7503289263364
 30
0.0
 11
133.8063291778353
 21
246.7503289263364
 31
0.0
  0
LINE
  5
1577
330
A
100
AcDbEntity
  8
INDUSA
  6
Continuous
100
AcDbLine
 10
133.9874538069641
 20
245.9718851951805
 30
0.0
 11
133.9874059064219
 21
245.971885166735
 31
0.0
  0
LINE
  5
15A6
330
A
100
AcDbEntity
  8
INDUSA
  6
Continuous
100
AcDbLine
 10
132.0684016132343
 20
246.6847640441394
 30
0.0
 11
132.0684983200414
 21
246.6842283015725
 31
0.0
  0
LINE
  5
15A7
330
A
100
AcDbEntity
  8
INDUSA
  6
Continuous
100
AcDbLine
 10
132.0684983200414
 20
246.6842283015725
 30
0.0
 11
132.0688158345216
 21
246.6829008400623
 31
0.0
  0
ARC
  5
15A8
330
A
100
AcDbEntity
  8
INDUSA
  6
Continuous
100
AcDbCircle
 10
132.0820678417943
 20
246.6706459532972
 30
0.0
 40
0.0079764825390884
100
AcDbArc
 50
200.7216175012585
 51
271.3986689923055
  0
LINE
  5
15A9
330
A
100
AcDbEntity
  8
INDUSA
  6
Continuous
100
AcDbLine
 10
132.3864440566821
 20
246.6368489389801
 30
0.0
 11
132.3869978596002
 21
246.6371408606482
 31
0.0
  0
LINE
  5
15AA
330
A
100
AcDbEntity
  8
INDUSA
  6
Continuous
100
AcDbLine
 10
133.0758649087239
 20
246.6773986368455
 30
0.0
 11
133.078900932088
 21
246.6787905198028
 31
0.0
  0
LINE
  5
15AB
330
A
100
AcDbEntity
  8
INDUSA
  6
Continuous
100
AcDbLine
 10
133.0871507775114
 20
246.6632581064443
 30
0.0
 11
133.0881175341536
 21
246.6622638874715
 31
0.0
  0
ARC
  5
15AC
330
A
100
AcDbEntity
  8
INDUSA
  6
Continuous
100
AcDbCircle
 10
133.0699645000333
 20
246.670874458086
 30
0.0
 40
0.0058415722362071
100
AcDbArc
 50
61.00162474255771
 51
73.98954572925487
  0
LINE
  5
15AD
330
A
100
AcDbEntity
  8
INDUSA
  6
Continuous
100
AcDbLine
 10
133.1256932911865
 20
246.636002371161
 30
0.0
 11
133.1260507176853
 21
246.6359363104782
 31
0.0
  0
LINE
  5
15AE
330
A
100
AcDbEntity
  8
INDUSA
  6
Continuous
100
AcDbLine
 10
133.7189629997502
 20
246.7319363104782
 30
0.0
 11
133.7204420906594
 21
246.7319363104782
 31
0.0
  0
LINE
  5
15AF
330
A
100
AcDbEntity
  8
INDUSA
  6
Continuous
100
AcDbLine
 10
133.7244420906594
 20
246.7752997591585
 30
0.0
 11
133.7244420906594
 21
246.7419363104782
 31
0.0
  0
LINE
  5
15B0
330
A
100
AcDbEntity
  8
INDUSA
  6
Continuous
100
AcDbLine
 10
133.7394420906594
 20
246.7419363104782
 30
0.0
 11
133.7394420906594
 21
246.7799363104782
 31
0.0
  0
LINE
  5
15B1
330
A
100
AcDbEntity
  8
INDUSA
  6
Continuous
100
AcDbLine
 10
133.7394420906594
 20
246.7419363104782
 30
0.0
 11
133.7244420906594
 21
246.7419363104782
 31
0.0
  0
LINE
  5
15B2
330
A
100
AcDbEntity
  8
INDUSA
  6
Continuous
100
AcDbLine
 10
133.7244420906594
 20
246.7789363104782
 30
0.0
 11
133.7244420906594
 21
246.7969363104782
 31
0.0
  0
ARC
  5
15B3
330
A
100
AcDbEntity
  8
INDUSA
  6
Continuous
100
AcDbCircle
 10
133.742895878578
 20
246.8046471931419
 30
0.0
 40
0.0200000000000001
100
AcDbArc
 50
202.6775248677946
 51
262.42655978667
  0
LINE
  5
15BC
330
A
100
AcDbEntity
  8
INDUSA
  6
Continuous
100
AcDbLine
 10
133.7244420906594
 20
246.7789363104782
 30
0.0
 11
133.7244420906594
 21
246.7752997591585
 31
0.0
  0
ARC
  5
15BD
330
A
100
AcDbEntity
  8
INDUSA
  6
Continuous
100
AcDbCircle
 10
133.7544420906594
 20
246.7799363104782
 30
0.0
 40
0.015
100
AcDbArc
 50
160.9926251259267
 51
180.0000000000004
  0
LINE
  5
15BF
330
A
100
AcDbEntity
  8
INDUSA
  6
Continuous
100
AcDbLine
 10
133.8195198564428
 20
246.7473702559813
 30
0.0
 11
133.8195047017732
 21
246.7471951673895
 31
0.0
  0
LINE
  5
15C7
330
A
100
AcDbEntity
  8
INDUSA
  6
Continuous
100
AcDbLine
 10
133.9709342339491
 20
246.6319363104782
 30
0.0
 11
133.9793502718153
 21
246.6319363104782
 31
0.0
  0
LWPOLYLINE
  5
15C8
330
A
100
AcDbEntity
  8
INDUSA
  6
Continuous
100
AcDbPolyline
 90
        3
 70
   128
 43
0.0
 10
133.9709342339491
 20
246.6319363104782
 10
133.9716934984206
 20
246.6306227153017
 10
133.984006013063
 20
246.609314096407
  0
LINE
  5
15CB
330
A
100
AcDbEntity
  8
INDUSA
  6
Continuous
100
AcDbLine
 10
133.9793502718153
 20
246.6319363104782
 30
0.0
 11
133.9804058838819
 21
246.6319921824035
 31
0.0
  0
LWPOLYLINE
  5
15CC
330
A
100
AcDbEntity
  8
INDUSA
  6
Continuous
100
AcDbPolyline
 90
        3
 70
   128
 43
0.0
 10
133.9842461728813
 20
246.6328154500518
 10
133.9828295358688
 20
246.6322494635109
 10
133.9804058838819
 20
246.6319921824035
  0
LINE
  5
15CD
330
A
100
AcDbEntity
  8
INDUSA
  6
Continuous
100
AcDbLine
 10
133.984006013063
 20
246.609314096407
 30
0.0
 11
133.9842461728813
 21
246.6328154500518
 31
0.0
  0
LINE
  5
15CE
330
A
100
AcDbEntity
  8
INDUSA
  6
Continuous
100
AcDbLine
 10
133.9643938528319
 20
246.6419363104782
 30
0.0
 11
133.9493669943741
 21
246.6419363104782
 31
0.0
  0
LINE
  5
15CF
330
A
100
AcDbEntity
  8
INDUSA
  6
Continuous
100
AcDbLine
 10
133.823178942005
 20
246.6419363104782
 30
0.0
 11
133.7844420906594
 21
246.6419363104782
 31
0.0
  0
ENDSEC
  0
SECTION
  2
OBJECTS
  0
DICTIONARY
  5
19
330
0
100
AcDbDictionary
281
     1
  3
ACAD_COLOR
350
15F2
  3
ACAD_GROUP
350
1A
  3
ACAD_LAYOUT
350
1595
  3
ACAD_MATERIAL
350
15F1
  3
ACAD_MLINESTYLE
350
1B
  3
ACAD_PLOTSETTINGS
350
1596
  3
ACAD_PLOTSTYLENAME
350
1593
  3
ACAD_TABLESTYLE
350
15F3
  3
ACDBHEADERROUNDTRIPXREC
350
1603
  3
AcDbVariableDictionary
350
15BA
  3
ASE_INDEX_DICTIONARY
350
15B6
  0
DICTIONARY
  5
15F2
102
{ACAD_REACTORS
330
19
102
}
330
19
100
AcDbDictionary
281
     1
  0
DICTIONARY
  5
1A
102
{ACAD_REACTORS
330
19
102
}
330
19
100
AcDbDictionary
281
     1
  0
DICTIONARY
  5
1595
102
{ACAD_REACTORS
330
19
102
}
330
19
100
AcDbDictionary
281
     1
  3
Layout1
350
1598
  3
Model
350
1597
  0
DICTIONARY
  5
15F1
102
{ACAD_REACTORS
330
19
102
}
330
19
100
AcDbDictionary
281
     1
  0
DICTIONARY
  5
1B
102
{ACAD_REACTORS
330
19
102
}
330
19
100
AcDbDictionary
281
     1
  3
STANDARD
350
1C
  0
DICTIONARY
  5
1596
102
{ACAD_REACTORS
330
19
102
}
330
19
100
AcDbDictionary
281
     1
  0
ACDBDICTIONARYWDFLT
  5
1593
102
{ACAD_REACTORS
330
19
102
}
330
19
100
AcDbDictionary
281
     1
  3
Normal
350
1594
100
AcDbDictionaryWithDefault
340
1594
  0
DICTIONARY
  5
15F3
102
{ACAD_REACTORS
330
19
102
}
330
19
100
AcDbDictionary
281
     1
  3
Standard
350
15F4
  0
DICTIONARY
  5
1603
102
{ACAD_REACTORS
330
19
102
}
330
19
100
AcDbDictionary
281
     1
  0
DICTIONARY
  5
15BA
102
{ACAD_REACTORS
330
19
102
}
330
19
100
AcDbDictionary
281
     1
  3
CTABLESTYLE
350
15FD
  3
DIMASSOC
350
15BB
  3
PROJECTNAME
350
15FE
  0
DICTIONARY
  5
15B6
102
{ACAD_REACTORS
330
19
102
}
330
19
100
AcDbDictionary
281
     1
  3
ASEBlockHierarchyIndexRecord
350
15B8
1001
DCO15
1040
1470029183.125
  0
LAYOUT
  5
1598
102
{ACAD_XDICTIONARY
360
1606
102
}
102
{ACAD_REACTORS
330
1595
102
}
330
1595
100
AcDbPlotSettings
  1

  2
PLOTER 500
  4

  6

 40
0.0
 41
0.0
 42
0.0
 43
0.0
 44
0.0
 45
0.0
 46
0.0
 47
0.0
 48
0.0
 49
0.0
140
0.0
141
0.0
142
1.0
143
1.0
 70
   688
 72
     0
 73
     0
 74
     5
  7
monochrome.ctb
 75
    16
147
1.0
148
0.0
149
0.0
100
AcDbLayout
  1
Layout1
 70
     1
 71
     1
 10
0.0
 20
0.0
 11
12.0
 21
9.0
 12
0.0
 22
0.0
 32
0.0
 14
1.000000000000000E+20
 24
1.000000000000000E+20
 34
1.000000000000000E+20
 15
-1.000000000000000E+20
 25
-1.000000000000000E+20
 35
-1.000000000000000E+20
146
0.0
 13
0.0
 23
0.0
 33
0.0
 16
1.0
 26
0.0
 36
0.0
 17
0.0
 27
1.0
 37
0.0
 76
     0
330
B
  0
LAYOUT
  5
1597
102
{ACAD_XDICTIONARY
360
1604
102
}
102
{ACAD_REACTORS
330
1595
102
}
330
1595
100
AcDbPlotSettings
  1

  2
PLOTER 500
  4

  6

 40
0.0
 41
0.0
 42
0.0
 43
0.0
 44
0.0
 45
0.0
 46
0.0
 47
0.0
 48
0.0
 49
0.0
140
0.0
141
0.0
142
1.0
143
1.0
 70
  1712
 72
     0
 73
     0
 74
     0
  7
monochrome.ctb
 75
     0
147
1.0
148
0.0
149
0.0
100
AcDbLayout
  1
Model
 70
     1
 71
     0
 10
0.0
 20
0.0
 11
12.0
 21
9.0
 12
0.0
 22
0.0
 32
0.0
 14
0.0
 24
0.0
 34
0.0
 15
0.0
 25
0.0
 35
0.0
146
0.0
 13
0.0
 23
0.0
 33
0.0
 16
1.0
 26
0.0
 36
0.0
 17
0.0
 27
1.0
 37
0.0
 76
     0
330
A
  0
MLINESTYLE
  5
1C
102
{ACAD_REACTORS
330
1B
102
}
330
1B
100
AcDbMlineStyle
  2
STANDARD
 70
     0
  3

 62
     0
 51
90.0
 52
90.0
 71
     2
 49
0.5
 62
   256
  6
BYLAYER
 49
-0.5
 62
   256
  6
BYLAYER
  0
ACDBPLACEHOLDER
  5
1594
102
{ACAD_REACTORS
330
1593
102
}
330
1593
  0
TABLESTYLE
  5
15F4
102
{ACAD_REACTORS
330
15F3
102
}
330
15F3
100
AcDbTableStyle
  3
Standard
 70
     0
 71
     0
 40
0.06
 41
0.06
280
     0
281
     0
  7
STANDARD
140
0.18
170
     2
 62
     0
 63
     7
283
     0
274
    -2
284
     1
 64
     0
275
    -2
285
     1
 65
     0
276
    -2
286
     1
 66
     0
277
    -2
287
     1
 67
     0
278
    -2
288
     1
 68
     0
279
    -2
289
     1
 69
     0
  7
STANDARD
140
0.25
170
     5
 62
     0
 63
     7
283
     0
274
    -2
284
     1
 64
     0
275
    -2
285
     1
 65
     0
276
    -2
286
     1
 66
     0
277
    -2
287
     1
 67
     0
278
    -2
288
     1
 68
     0
279
    -2
289
     1
 69
     0
  7
STANDARD
140
0.18
170
     5
 62
     0
 63
     7
283
     0
274
    -2
284
     1
 64
     0
275
    -2
285
     1
 65
     0
276
    -2
286
     1
 66
     0
277
    -2
287
     1
 67
     0
278
    -2
288
     1
 68
     0
279
    -2
289
     1
 69
     0
  0
DICTIONARYVAR
  5
15FD
102
{ACAD_REACTORS
330
15BA
102
}
330
15BA
100
DictionaryVariables
280
     0
  1
STANDARD
  0
DICTIONARYVAR
  5
15BB
102
{ACAD_REACTORS
330
15BA
102
}
330
15BA
100
DictionaryVariables
280
     0
  1
1
  0
DICTIONARYVAR
  5
15FE
102
{ACAD_REACTORS
330
15BA
102
}
330
15BA
100
DictionaryVariables
280
     0
  1

  0
XRECORD
  5
15B8
102
{ACAD_REACTORS
330
15B6
102
}
330
15B6
100
AcDbXrecord
280
     1
330
8F
330
93
330
98
330
9C
330
A0
330
A4
330
A8
330
AC
330
B0
330
B4
330
B8
330
BC
330
C0
330
C5
330
C9
  0
DICTIONARY
  5
1606
330
1598
100
AcDbDictionary
280
     1
281
     1
  3
ACAD_XREC_ROUNDTRIP
360
1607
  0
DICTIONARY
  5
1604
330
1597
100
AcDbDictionary
280
     1
281
     1
  3
ACAD_XREC_ROUNDTRIP
360
1605
  0
XRECORD
  5
1607
102
{ACAD_REACTORS
330
1606
102
}
330
1606
100
AcDbXrecord
280
     1
102
SHADEPLOT
 70
     0
102
SHADEPLOTRESLEVEL
 70
     2
102
SHADEPLOTCUSTOMDPI
 70
   300
  0
XRECORD
  5
1605
102
{ACAD_REACTORS
330
1604
102
}
330
1604
100
AcDbXrecord
280
     1
102
SHADEPLOT
 70
     0
102
SHADEPLOTRESLEVEL
 70
     2
102
SHADEPLOTCUSTOMDPI
 70
   300
  0
ENDSEC
  0
EOF
