  0
SECTION
  2
HEADER
  9
$ACADVER
  1
AC1015
  9
$ACADMAINTVER
 70
    20
  9
$DWGCODEPAGE
  3
ANSI_1252
  9
$INSBASE
 10
0.0
 20
0.0
 30
0.0
  9
$EXTMIN
 10
1766.93440674531
 20
347.745434314486
 30
-0.0015258207003583
  9
$EXTMAX
 10
1770.053657033036
 20
348.2648813041673
 30
0.0000000349246037
  9
$LIMMIN
 10
0.0
 20
0.0
  9
$LIMMAX
 10
420.0
 20
297.0
  9
$ORTHOMODE
 70
     1
  9
$REGENMODE
 70
     1
  9
$FILLMODE
 70
     1
  9
$QTEXTMODE
 70
     0
  9
$MIRRTEXT
 70
     1
  9
$LTSCALE
 40
1.0
  9
$ATTMODE
 70
     1
  9
$TEXTSIZE
 40
2.5
  9
$TRACEWID
 40
1.0
  9
$TEXTSTYLE
  7
SANINDUSA
  9
$CLAYER
  8
0
  9
$CELTYPE
  6
ByLayer
  9
$CECOLOR
 62
   256
  9
$CELTSCALE
 40
1.0
  9
$DISPSILH
 70
     0
  9
$DIMSCALE
 40
1.0
  9
$DIMASZ
 40
2.0
  9
$DIMEXO
 40
1.0
  9
$DIMDLI
 40
1.0
  9
$DIMRND
 40
0.0
  9
$DIMDLE
 40
0.0
  9
$DIMEXE
 40
1.0
  9
$DIMTP
 40
0.0
  9
$DIMTM
 40
0.0
  9
$DIMTXT
 40
2.0
  9
$DIMCEN
 40
0.0
  9
$DIMTSZ
 40
0.0
  9
$DIMTOL
 70
     0
  9
$DIMLIM
 70
     0
  9
$DIMTIH
 70
     0
  9
$DIMTOH
 70
     0
  9
$DIMSE1
 70
     0
  9
$DIMSE2
 70
     0
  9
$DIMTAD
 70
     1
  9
$DIMZIN
 70
     8
  9
$DIMBLK
  1

  9
$DIMASO
 70
     1
  9
$DIMSHO
 70
     1
  9
$DIMPOST
  1

  9
$DIMAPOST
  1

  9
$DIMALT
 70
     0
  9
$DIMALTD
 70
     3
  9
$DIMALTF
 40
0.03937007874016
  9
$DIMLFAC
 40
1.0
  9
$DIMTOFL
 70
     1
  9
$DIMTVP
 40
0.0
  9
$DIMTIX
 70
     0
  9
$DIMSOXD
 70
     0
  9
$DIMSAH
 70
     0
  9
$DIMBLK1
  1

  9
$DIMBLK2
  1

  9
$DIMSTYLE
  2
SANINDUSA
  9
$DIMCLRD
 70
   256
  9
$DIMCLRE
 70
   256
  9
$DIMCLRT
 70
   256
  9
$DIMTFAC
 40
1.0
  9
$DIMGAP
 40
1.0
  9
$DIMJUST
 70
     0
  9
$DIMSD1
 70
     0
  9
$DIMSD2
 70
     0
  9
$DIMTOLJ
 70
     0
  9
$DIMTZIN
 70
     8
  9
$DIMALTZ
 70
     0
  9
$DIMALTTZ
 70
     0
  9
$DIMUPT
 70
     0
  9
$DIMDEC
 70
     1
  9
$DIMTDEC
 70
     1
  9
$DIMALTU
 70
     2
  9
$DIMALTTD
 70
     3
  9
$DIMTXSTY
  7
SANINDUSA
  9
$DIMAUNIT
 70
     0
  9
$DIMADEC
 70
     1
  9
$DIMALTRND
 40
0.0
  9
$DIMAZIN
 70
     0
  9
$DIMDSEP
 70
    44
  9
$DIMATFIT
 70
     3
  9
$DIMFRAC
 70
     0
  9
$DIMLDRBLK
  1

  9
$DIMLUNIT
 70
     2
  9
$DIMLWD
 70
    -1
  9
$DIMLWE
 70
    -1
  9
$DIMTMOVE
 70
     0
  9
$LUNITS
 70
     2
  9
$LUPREC
 70
     4
  9
$SKETCHINC
 40
1.0
  9
$FILLETRAD
 40
0.0
  9
$AUNITS
 70
     0
  9
$AUPREC
 70
     0
  9
$MENU
  1
.
  9
$ELEVATION
 40
0.0
  9
$PELEVATION
 40
0.0
  9
$THICKNESS
 40
0.0
  9
$LIMCHECK
 70
     0
  9
$CHAMFERA
 40
10.0
  9
$CHAMFERB
 40
10.0
  9
$CHAMFERC
 40
20.0
  9
$CHAMFERD
 40
0.0
  9
$SKPOLY
 70
     0
  9
$TDCREATE
 40
2453480.647740336
  9
$TDUCREATE
 40
2453480.606073669
  9
$TDUPDATE
 40
2456148.595770208
  9
$TDUUPDATE
 40
2456148.554103542
  9
$TDINDWG
 40
0.0095742940
  9
$TDUSRTIMER
 40
0.0095742940
  9
$USRTIMER
 70
     1
  9
$ANGBASE
 50
0.0
  9
$ANGDIR
 70
     0
  9
$PDMODE
 70
     0
  9
$PDSIZE
 40
0.0
  9
$PLINEWID
 40
0.0
  9
$SPLFRAME
 70
     0
  9
$SPLINETYPE
 70
     6
  9
$SPLINESEGS
 70
     8
  9
$HANDSEED
  5
16C8
  9
$SURFTAB1
 70
     6
  9
$SURFTAB2
 70
     6
  9
$SURFTYPE
 70
     6
  9
$SURFU
 70
     6
  9
$SURFV
 70
     6
  9
$UCSBASE
  2

  9
$UCSNAME
  2

  9
$UCSORG
 10
0.0
 20
0.0
 30
0.0
  9
$UCSXDIR
 10
1.0
 20
0.0
 30
0.0
  9
$UCSYDIR
 10
0.0
 20
1.0
 30
0.0
  9
$UCSORTHOREF
  2

  9
$UCSORTHOVIEW
 70
     0
  9
$UCSORGTOP
 10
0.0
 20
0.0
 30
0.0
  9
$UCSORGBOTTOM
 10
0.0
 20
0.0
 30
0.0
  9
$UCSORGLEFT
 10
0.0
 20
0.0
 30
0.0
  9
$UCSORGRIGHT
 10
0.0
 20
0.0
 30
0.0
  9
$UCSORGFRONT
 10
0.0
 20
0.0
 30
0.0
  9
$UCSORGBACK
 10
0.0
 20
0.0
 30
0.0
  9
$PUCSBASE
  2

  9
$PUCSNAME
  2

  9
$PUCSORG
 10
0.0
 20
0.0
 30
0.0
  9
$PUCSXDIR
 10
1.0
 20
0.0
 30
0.0
  9
$PUCSYDIR
 10
0.0
 20
1.0
 30
0.0
  9
$PUCSORTHOREF
  2

  9
$PUCSORTHOVIEW
 70
     0
  9
$PUCSORGTOP
 10
0.0
 20
0.0
 30
0.0
  9
$PUCSORGBOTTOM
 10
0.0
 20
0.0
 30
0.0
  9
$PUCSORGLEFT
 10
0.0
 20
0.0
 30
0.0
  9
$PUCSORGRIGHT
 10
0.0
 20
0.0
 30
0.0
  9
$PUCSORGFRONT
 10
0.0
 20
0.0
 30
0.0
  9
$PUCSORGBACK
 10
0.0
 20
0.0
 30
0.0
  9
$USERI1
 70
     0
  9
$USERI2
 70
     0
  9
$USERI3
 70
     0
  9
$USERI4
 70
     0
  9
$USERI5
 70
     0
  9
$USERR1
 40
0.0
  9
$USERR2
 40
0.0
  9
$USERR3
 40
0.0
  9
$USERR4
 40
0.0
  9
$USERR5
 40
0.0
  9
$WORLDVIEW
 70
     1
  9
$SHADEDGE
 70
     3
  9
$SHADEDIF
 70
    70
  9
$TILEMODE
 70
     1
  9
$MAXACTVP
 70
    64
  9
$PINSBASE
 10
0.0
 20
0.0
 30
0.0
  9
$PLIMCHECK
 70
     0
  9
$PEXTMIN
 10
1.000000000000000E+20
 20
1.000000000000000E+20
 30
1.000000000000000E+20
  9
$PEXTMAX
 10
-1.000000000000000E+20
 20
-1.000000000000000E+20
 30
-1.000000000000000E+20
  9
$PLIMMIN
 10
0.0
 20
0.0
  9
$PLIMMAX
 10
420.0
 20
297.0
  9
$UNITMODE
 70
     0
  9
$VISRETAIN
 70
     1
  9
$PLINEGEN
 70
     0
  9
$PSLTSCALE
 70
     1
  9
$TREEDEPTH
 70
  3020
  9
$CMLSTYLE
  2
Standard
  9
$CMLJUST
 70
     0
  9
$CMLSCALE
 40
20.0
  9
$PROXYGRAPHICS
 70
     1
  9
$MEASUREMENT
 70
     1
  9
$CELWEIGHT
370
    -1
  9
$ENDCAPS
280
     0
  9
$JOINSTYLE
280
     0
  9
$LWDISPLAY
290
     0
  9
$INSUNITS
 70
     4
  9
$HYPERLINKBASE
  1

  9
$STYLESHEET
  1
monochrome.ctb
  9
$XEDIT
290
     1
  9
$CEPSNTYPE
380
     0
  9
$PSTYLEMODE
290
     1
  9
$FINGERPRINTGUID
  2
{B98A73AA-52AA-4C10-B469-C0E7150AC31F}
  9
$VERSIONGUID
  2
{BF8C6701-C0FC-4A24-8D0D-2A673C13D645}
  9
$EXTNAMES
290
     1
  9
$PSVPSCALE
 40
0.0
  9
$OLESTARTUP
290
     0
  0
ENDSEC
  0
SECTION
  2
CLASSES
  0
CLASS
  1
ACDBDICTIONARYWDFLT
  2
AcDbDictionaryWithDefault
  3
ObjectDBX Classes
 90
        0
280
     0
281
     0
  0
CLASS
  1
ACDBPLACEHOLDER
  2
AcDbPlaceHolder
  3
ObjectDBX Classes
 90
        0
280
     0
281
     0
  0
CLASS
  1
LAYOUT
  2
AcDbLayout
  3
ObjectDBX Classes
 90
        0
280
     0
281
     0
  0
CLASS
  1
DICTIONARYVAR
  2
AcDbDictionaryVar
  3
ObjectDBX Classes
 90
        0
280
     0
281
     0
  0
CLASS
  1
DIMASSOC
  2
AcDbDimAssoc
  3
"AcDbDimAssoc|Product Desc:     AcDim ARX App For Dimension|Company:          Autodesk, Inc.|WEB Address:      www.autodesk.com"
 90
        0
280
     0
281
     0
  0
CLASS
  1
MATERIAL
  2
AcDbMaterial
  3
ObjectDBX Classes
 90
     1153
280
     0
281
     0
  0
CLASS
  1
VISUALSTYLE
  2
AcDbVisualStyle
  3
ObjectDBX Classes
 90
     4095
280
     0
281
     0
  0
CLASS
  1
TABLESTYLE
  2
AcDbTableStyle
  3
ObjectDBX Classes
 90
     4095
280
     0
281
     0
  0
CLASS
  1
SCALE
  2
AcDbScale
  3
ObjectDBX Classes
 90
     1153
280
     0
281
     0
  0
CLASS
  1
MLEADERSTYLE
  2
AcDbMLeaderStyle
  3
ACDB_MLEADERSTYLE_CLASS
 90
     4095
280
     0
281
     0
  0
CLASS
  1
CELLSTYLEMAP
  2
AcDbCellStyleMap
  3
ObjectDBX Classes
 90
     1152
280
     0
281
     0
  0
ENDSEC
  0
SECTION
  2
TABLES
  0
TABLE
  2
VPORT
  5
8
330
0
100
AcDbSymbolTable
 70
     1
  0
VPORT
  5
15CC
330
8
100
AcDbSymbolTableRecord
100
AcDbViewportTableRecord
  2
*Active
 70
     0
 10
0.0
 20
0.0
 11
1.0
 21
1.0
 12
1768.494031889173
 22
348.0051578093267
 13
0.0
 23
0.0
 14
10.0
 24
10.0
 15
10.0
 25
10.0
 16
0.0
 26
0.0
 36
1.0
 17
0.0
 27
0.0
 37
0.0
 40
1.902866396903225
 41
1.645464025026068
 42
50.0
 43
0.0
 44
0.0
 50
0.0
 51
0.0
 71
     0
 72
   100
 73
     1
 74
     2
 75
     0
 76
     0
 77
     0
 78
     0
281
     0
 65
     1
110
0.0
120
0.0
130
0.0
111
1.0
121
0.0
131
0.0
112
0.0
122
1.0
132
0.0
 79
     0
146
0.0
  0
ENDTAB
  0
TABLE
  2
LTYPE
  5
5
330
0
100
AcDbSymbolTable
 70
     3
  0
LTYPE
  5
14
330
5
100
AcDbSymbolTableRecord
100
AcDbLinetypeTableRecord
  2
ByBlock
 70
     0
  3

 72
    65
 73
     0
 40
0.0
  0
LTYPE
  5
15
330
5
100
AcDbSymbolTableRecord
100
AcDbLinetypeTableRecord
  2
ByLayer
 70
     0
  3

 72
    65
 73
     0
 40
0.0
  0
LTYPE
  5
16
330
5
100
AcDbSymbolTableRecord
100
AcDbLinetypeTableRecord
  2
Continuous
 70
     0
  3
Solid line
 72
    65
 73
     0
 40
0.0
  0
LTYPE
  5
2D
330
5
100
AcDbSymbolTableRecord
100
AcDbLinetypeTableRecord
  2
DASHDOT
 70
     0
  3
Dash dot __ . __ . __ . __ . __ . __ . __ . __
 72
    65
 73
     4
 40
25.4
 49
12.7
 74
     0
 49
-6.349999999999999
 74
     0
 49
0.0
 74
     0
 49
-6.349999999999999
 74
     0
  0
LTYPE
  5
2E
330
5
100
AcDbSymbolTableRecord
100
AcDbLinetypeTableRecord
  2
HIDDEN
 70
     0
  3
Hidden __ __ __ __ __ __ __ __ __ __ __ __ __ _
 72
    65
 73
     2
 40
9.524999999999998
 49
6.349999999999999
 74
     0
 49
-3.174999999999999
 74
     0
  0
ENDTAB
  0
TABLE
  2
LAYER
  5
2
330
0
100
AcDbSymbolTable
 70
    16
  0
LAYER
  5
10
102
{ACAD_XDICTIONARY
360
162E
102
}
330
2
100
AcDbSymbolTableRecord
100
AcDbLayerTableRecord
  2
0
 70
     0
 62
     7
  6
Continuous
370
    -3
390
F
  0
LAYER
  5
2F
102
{ACAD_XDICTIONARY
360
1630
102
}
330
2
100
AcDbSymbolTableRecord
100
AcDbLayerTableRecord
  2
1
 70
     0
 62
     1
  6
Continuous
370
    -3
390
F
  0
LAYER
  5
30
102
{ACAD_XDICTIONARY
360
1632
102
}
330
2
100
AcDbSymbolTableRecord
100
AcDbLayerTableRecord
  2
2
 70
     0
 62
     2
  6
Continuous
370
    -3
390
F
  0
LAYER
  5
31
102
{ACAD_XDICTIONARY
360
1634
102
}
330
2
100
AcDbSymbolTableRecord
100
AcDbLayerTableRecord
  2
3
 70
     0
 62
     3
  6
Continuous
370
    -3
390
F
  0
LAYER
  5
32
102
{ACAD_XDICTIONARY
360
1636
102
}
330
2
100
AcDbSymbolTableRecord
100
AcDbLayerTableRecord
  2
4
 70
     0
 62
     4
  6
Continuous
370
    -3
390
F
  0
LAYER
  5
33
102
{ACAD_XDICTIONARY
360
1638
102
}
330
2
100
AcDbSymbolTableRecord
100
AcDbLayerTableRecord
  2
5
 70
     0
 62
     5
  6
Continuous
370
    -3
390
F
  0
LAYER
  5
34
102
{ACAD_XDICTIONARY
360
163A
102
}
330
2
100
AcDbSymbolTableRecord
100
AcDbLayerTableRecord
  2
6
 70
     0
 62
     6
  6
Continuous
370
    -3
390
F
  0
LAYER
  5
35
102
{ACAD_XDICTIONARY
360
163C
102
}
330
2
100
AcDbSymbolTableRecord
100
AcDbLayerTableRecord
  2
7
 70
     0
 62
     7
  6
Continuous
370
    -3
390
F
  0
LAYER
  5
36
102
{ACAD_XDICTIONARY
360
163E
102
}
330
2
100
AcDbSymbolTableRecord
100
AcDbLayerTableRecord
  2
cen
 70
     0
 62
     7
  6
DASHDOT
370
    -3
390
F
  0
LAYER
  5
37
102
{ACAD_XDICTIONARY
360
1640
102
}
330
2
100
AcDbSymbolTableRecord
100
AcDbLayerTableRecord
  2
hid
 70
     0
 62
     7
  6
HIDDEN
370
    -3
390
F
  0
LAYER
  5
5D6
102
{ACAD_XDICTIONARY
360
1642
102
}
330
2
100
AcDbSymbolTableRecord
100
AcDbLayerTableRecord
  2
hatch
 70
     0
 62
     9
  6
Continuous
370
    -3
390
F
  0
LAYER
  5
8AF
102
{ACAD_XDICTIONARY
360
1644
102
}
330
2
100
AcDbSymbolTableRecord
100
AcDbLayerTableRecord
  2
9
 70
     0
 62
     9
  6
Continuous
370
    -3
390
F
  0
LAYER
  5
8F8
102
{ACAD_XDICTIONARY
360
1646
102
}
330
2
100
AcDbSymbolTableRecord
100
AcDbLayerTableRecord
  2
leg fin
 70
     0
 62
     9
  6
Continuous
370
    -3
390
F
  0
LAYER
  5
91D
102
{ACAD_XDICTIONARY
360
1648
102
}
330
2
100
AcDbSymbolTableRecord
100
AcDbLayerTableRecord
  2
cotas
 70
     0
 62
     1
  6
Continuous
370
    -3
390
F
  0
LAYER
  5
92F
330
2
100
AcDbSymbolTableRecord
100
AcDbLayerTableRecord
  2
Defpoints
 70
     0
 62
     7
  6
Continuous
290
     0
370
    -3
390
F
  0
LAYER
  5
13AF
102
{ACAD_XDICTIONARY
360
164A
102
}
330
2
100
AcDbSymbolTableRecord
100
AcDbLayerTableRecord
  2
SANINDUSA
 70
     0
 62
     3
  6
Continuous
370
    -3
390
F
  0
ENDTAB
  0
TABLE
  2
STYLE
  5
3
330
0
100
AcDbSymbolTable
 70
     3
  0
STYLE
  5
11
330
3
100
AcDbSymbolTableRecord
100
AcDbTextStyleTableRecord
  2
Standard
 70
     0
 40
0.0
 41
1.0
 50
0.0
 71
     0
 42
2.5
  3
Avgardn.ttf
  4

1001
ACAD
1000
AvantGarde Bk BT
1071
       34
  0
STYLE
  5
2C
330
3
100
AcDbSymbolTableRecord
100
AcDbTextStyleTableRecord
  2

 70
     1
 40
0.0
 41
1.0
 50
0.0
 71
     0
 42
2.5
  3
ltypeshp.shx
  4

  0
STYLE
  5
91F
330
3
100
AcDbSymbolTableRecord
100
AcDbTextStyleTableRecord
  2
SANINDUSA
 70
     0
 40
0.0
 41
1.0
 50
0.0
 71
     0
 42
2.5
  3
verdana.TTF
  4

1001
ACAD
1000
Verdana
1071
       34
  0
ENDTAB
  0
TABLE
  2
VIEW
  5
6
330
0
100
AcDbSymbolTable
 70
     0
  0
ENDTAB
  0
TABLE
  2
UCS
  5
7
330
0
100
AcDbSymbolTable
 70
     0
  0
ENDTAB
  0
TABLE
  2
APPID
  5
9
330
0
100
AcDbSymbolTable
 70
     4
  0
APPID
  5
12
330
9
100
AcDbSymbolTableRecord
100
AcDbRegAppTableRecord
  2
ACAD
 70
     0
  0
APPID
  5
3A
330
9
100
AcDbSymbolTableRecord
100
AcDbRegAppTableRecord
  2
DCO15
 70
     0
  0
APPID
  5
1616
330
9
100
AcDbSymbolTableRecord
100
AcDbRegAppTableRecord
  2
ACAD_DSTYLE_DIMRADIAL_EXTENSION
 70
     0
  0
APPID
  5
16C5
330
9
100
AcDbSymbolTableRecord
100
AcDbRegAppTableRecord
  2
ACAD_MLEADERVER
 70
     0
  0
ENDTAB
  0
TABLE
  2
DIMSTYLE
  5
A
330
0
100
AcDbSymbolTable
 70
     2
100
AcDbDimStyleTable
 71
     1
340
921
  0
DIMSTYLE
105
45
330
A
100
AcDbSymbolTableRecord
100
AcDbDimStyleTableRecord
  2
STANDARD
 70
     0
289
     0
340
11
  0
DIMSTYLE
105
921
330
A
100
AcDbSymbolTableRecord
100
AcDbDimStyleTableRecord
  2
SANINDUSA
 70
     0
 41
2.0
 42
1.0
 43
1.0
 44
1.0
 73
     0
 74
     0
 77
     1
 78
     8
140
2.0
141
0.0
143
0.03937007874016
147
1.0
171
     3
172
     1
176
   256
177
   256
178
   256
179
     1
271
     1
272
     1
274
     3
278
    44
283
     0
284
     8
340
91F
371
    -1
372
    -1
  0
ENDTAB
  0
TABLE
  2
BLOCK_RECORD
  5
1
330
0
100
AcDbSymbolTable
 70
     5
  0
BLOCK_RECORD
  5
1F
330
1
100
AcDbSymbolTableRecord
100
AcDbBlockTableRecord
  2
*Model_Space
340
22
  0
BLOCK_RECORD
  5
1B
330
1
100
AcDbSymbolTableRecord
100
AcDbBlockTableRecord
  2
*Paper_Space
340
1E
  0
BLOCK_RECORD
  5
23
330
1
100
AcDbSymbolTableRecord
100
AcDbBlockTableRecord
  2
*Paper_Space0
340
26
  0
BLOCK_RECORD
  5
919
330
1
100
AcDbSymbolTableRecord
100
AcDbBlockTableRecord
  2
_DotSmall
340
0
  0
BLOCK_RECORD
  5
922
330
1
100
AcDbSymbolTableRecord
100
AcDbBlockTableRecord
  2
base para cotas
340
0
310
2800000020000000200000000100080000000000000400000000000000000000000000000000000000000000000080000080000000808000800000008000800080800000C0C0C000C0DCC000F0CAA6000020400000206000002080000020A0000020C0000020E00000400000004020000040400000406000004080000040A0
310
000040C0000040E00000600000006020000060400000606000006080000060A0000060C0000060E00000800000008020000080400000806000008080000080A0000080C0000080E00000A0000000A0200000A0400000A0600000A0800000A0A00000A0C00000A0E00000C0000000C0200000C0400000C0600000C0800000C0
310
A00000C0C00000C0E00000E0000000E0200000E0400000E0600000E0800000E0A00000E0C00000E0E00040000000400020004000400040006000400080004000A0004000C0004000E00040200000402020004020400040206000402080004020A0004020C0004020E000404000004040200040404000404060004040800040
310
40A0004040C0004040E00040600000406020004060400040606000406080004060A0004060C0004060E00040800000408020004080400040806000408080004080A0004080C0004080E00040A0000040A0200040A0400040A0600040A0800040A0A00040A0C00040A0E00040C0000040C0200040C0400040C0600040C08000
310
40C0A00040C0C00040C0E00040E0000040E0200040E0400040E0600040E0800040E0A00040E0C00040E0E00080000000800020008000400080006000800080008000A0008000C0008000E00080200000802020008020400080206000802080008020A0008020C0008020E00080400000804020008040400080406000804080
310
008040A0008040C0008040E00080600000806020008060400080606000806080008060A0008060C0008060E00080800000808020008080400080806000808080008080A0008080C0008080E00080A0000080A0200080A0400080A0600080A0800080A0A00080A0C00080A0E00080C0000080C0200080C0400080C0600080C0
310
800080C0A00080C0C00080C0E00080E0000080E0200080E0400080E0600080E0800080E0A00080E0C00080E0E000C0000000C0002000C0004000C0006000C0008000C000A000C000C000C000E000C0200000C0202000C0204000C0206000C0208000C020A000C020C000C020E000C0400000C0402000C0404000C0406000C0
310
408000C040A000C040C000C040E000C0600000C0602000C0604000C0606000C0608000C060A000C060C000C060E000C0800000C0802000C0804000C0806000C0808000C080A000C080C000C080E000C0A00000C0A02000C0A04000C0A06000C0A08000C0A0A000C0A0C000C0A0E000C0C00000C0C02000C0C04000C0C06000
310
C0C08000C0C0A000F0FBFF00A4A0A000808080000000FF0000FF000000FFFF00FF000000FF00FF00FFFF0000FFFFFF00A4A4A4A4A4A4A4A4A4A4A4A4A4A4A4A4A4A4A4A4A4A4A4A4A4A4A4A4A4A4A4A4A4A4A4A4A4A4A4A4A4A4A4A4A4A4A4A4A4A4A4A4A4A4A4A4A4A4A4A4A4A4A4A4A4A4A4A4A4A4A4A4A4A4A4A4A4A4A4
310
A4A4A4A4A4A4A4A4A4A4A4A4A4A4A4A4A4A4A4A4A4A4A4A4A4A4A4A4A4A4A4A4A4A4A4A4A4A4A4A4A4A4A4A4A4A4A4A4A4A4A4A4A4A4A4A4A4A4A4A4A4A4A4A4A4A4A4A4A4A4A4A4A4A4A4A4A4A4A4A4A4A4A4A4A4A4A4A4A4A4A4A4A4A4A4A4A4A4A4A4A4A4A4A4A4A4A4A4A4A4A4A4A4A4A4A4A4A4A4A4A4A4A4A4A4A4A4
310
A4A4A4A4A4A4A4A4A4A4A4A4A4A4A4A4A4A4A4A4A4A4A4A4A4A4A4A4A4A4A4A4A4A4A4A4A4A4A4A4A4A4A4A4A4A4A4A4A4A4A4A4A4A4A4A4A4A4A4A4A4A4A4A4A4A4A4A4A4A4A4A4A4A4A4A4A4A4A4A4A4A4A4A4A4A4A4A4A4A4A4A4A4A4A4A4A4A4A4A4A4A4A4A4A4A4A4A4A4A4A4A4A4A4A4A4A4A4A4A4A4A4A4A4A4A4A4
310
A4A4A4A4A4A4A4A4A4A4A4A4A4A4A4A4A4A4A4A4A4A4A4A4A4A4A4A4A4A4A4A4A4A4A4A4A4A4A4A4A4A4A4A4A4A4A4A4A4A4A4A4A4A4A4A4A4A4A4A4A4A4A4A4A4A4A4A4A4A4A4A4A4A4A4A4A4A4A4A4A4A4A4A4A4A4A4A4A4A4A4A4A4A4A4A4A4A4A4A4A4A4A4A4A4A4A4A4A4A4A4A4A4A4A4A4F9F9F9F9F9F9F9F9F9F9F9
310
F9F9F9F9F9F9F9F9F9F9F9F9F9F9F9F9F9F9F9A4A4F9F9F9F9F9F9F9F9F9F9F9F9F9F9F9F9F9F9F9F9F9F9F9F9F9F9F9F9F9F9A4A4F9F9F9F9F9F9F9F9F9F9F9F9F9F9F9F9F9F9F9F9F9F9F9F9F9F9F9F9F9F9A4A4F9A4A4A4A4A4A4A4A4A4A4A4A4A4A4A4A4A4A4A4A4A4A4A4A4A4A4A4A4F9A4A4A4A4A4A4A4A4A4A4A4A4
310
A4A4A4A4A4A4A4A4A4A4A4A4A4A4A4A4A4A4A4A4A4A4A4A4A4A4A4A4A4A4A4A4A4A4A4A4A4A4A4A4A4A4A4A4A4A4A4A4A4A4A4A4A4A4A4A4A4A4A4A4A4A4A4A4A4A4A4A4A4A4A4A4A4A4A4A4A4A4A4A4A4A4A4A4A4A4A4A4A4A4A4A4A4A4A4A4A4A4A4A4A4A4A4A4A4A4A4A4A4A4A4A4A4A4A4A4A4A4A4A4A4A4A4A4A4A4A4
310
A4A4A4A4A4A4A4A4A4A4A4A4A4A4A4A4A4A4A4A4A4A4A4A4A4A4A4A4A4A4A4A4A4A4A4A4A4A4A4A4A4A4A4A4A4A4A4A4A4A4A4A4A4A4A4A4A4A4A4A4A4A4A4A4A4A4A4A4A4A4A4A4A4A4A4A4A4A4A4A4A4A4A4A4A4A4A4A4A4A4A4A4A4A4A4A4A4A4A4A4A4A4A4A4A4A4A4A4A4A4A4A4A4A4A4A4A4A4A4A4A4A4A4A4A4A4A4
310
A4A4A4A4A4A4A4A4A4A4A4A4A4A4A4A4A4A4A4A4A4A4A4A4A4A4A4A4A4A4A4A4A4A4A4A4A4A4A4A4A4A4A4A4A4A4A4A4A4A4A4A4A4A4A4A4A4A4A4A4A4A4A4A4A4A4A4A4A4A4A4A4A4A4A4A4A4A4A4A4A4A4A4A4A4A4A4A4A4A4A4A4A4A4A4A4A4A4A4A4A4A4A4A4A4A4A4A4A4A4A4A4A4A4A4A4A4A4A4A4A4A4A4A4A4A4A4
310
A4A4A4A4A4A4A4A4A4A4A4A4A4A4A4A4A4A4A4A4A4A4A4A4A4A4A4A4A4A4A4A4A4A4A4A4A4A4A4A4A4A4A4A4A4A4A4A4A4A4A4A4A4A4A4A4
1001
ACAD
1000
DesignCenter Data
1002
{
1070
     1
1070
     4
1002
}
  0
BLOCK_RECORD
  5
AA8
330
1
100
AcDbSymbolTableRecord
100
AcDbBlockTableRecord
  2
_CLOSED
340
0
  0
BLOCK_RECORD
  5
1619
330
1
100
AcDbSymbolTableRecord
100
AcDbBlockTableRecord
  2
*D4
340
0
  0
ENDTAB
  0
ENDSEC
  0
SECTION
  2
BLOCKS
  0
BLOCK
  5
20
330
1F
100
AcDbEntity
  8
0
100
AcDbBlockBegin
  2
*Model_Space
 70
     0
 10
0.0
 20
0.0
 30
0.0
  3
*Model_Space
  1

  0
ENDBLK
  5
21
330
1F
100
AcDbEntity
  8
0
100
AcDbBlockEnd
  0
BLOCK
  5
1C
330
1B
100
AcDbEntity
 67
     1
  8
0
100
AcDbBlockBegin
  2
*Paper_Space
 70
     0
 10
0.0
 20
0.0
 30
0.0
  3
*Paper_Space
  1

  0
ENDBLK
  5
1D
330
1B
100
AcDbEntity
 67
     1
  8
0
100
AcDbBlockEnd
  0
BLOCK
  5
24
330
23
100
AcDbEntity
 67
     1
  8
0
100
AcDbBlockBegin
  2
*Paper_Space0
 70
     0
 10
0.0
 20
0.0
 30
0.0
  3
*Paper_Space0
  1

  0
ENDBLK
  5
25
330
23
100
AcDbEntity
 67
     1
  8
0
100
AcDbBlockEnd
  0
BLOCK
  5
91B
330
919
100
AcDbEntity
  8
0
100
AcDbBlockBegin
  2
_DotSmall
 70
     0
 10
0.0
 20
0.0
 30
0.0
  3
_DotSmall
  1

  0
LWPOLYLINE
  5
91A
330
919
100
AcDbEntity
  8
0
  6
ByBlock
 62
     0
100
AcDbPolyline
 90
        2
 70
     1
 43
0.5
 10
-0.0625
 20
0.0
 42
1.0
 10
0.0625
 20
0.0
 42
1.0
  0
ENDBLK
  5
91C
330
919
100
AcDbEntity
  8
0
100
AcDbBlockEnd
  0
BLOCK
  5
92A
330
922
100
AcDbEntity
  8
0
100
AcDbBlockBegin
  2
base para cotas
 70
     0
 10
0.0
 20
0.0
 30
0.0
  3
base para cotas
  1

  0
LINE
  5
B36
330
922
100
AcDbEntity
  8
cotas
100
AcDbLine
 10
0.0
 20
-30.0
 30
0.0
 11
327.1260136525398
 21
-30.0
 31
0.0
  0
LINE
  5
B37
330
922
100
AcDbEntity
  8
cotas
100
AcDbLine
 10
0.0
 20
-25.0
 30
0.0
 11
327.1260136525398
 21
-25.0
 31
0.0
  0
LINE
  5
B38
330
922
100
AcDbEntity
  8
cotas
100
AcDbLine
 10
0.0
 20
-20.0
 30
0.0
 11
327.1260136525398
 21
-20.0
 31
0.0
  0
LINE
  5
B39
330
922
100
AcDbEntity
  8
cotas
100
AcDbLine
 10
0.0
 20
-15.0
 30
0.0
 11
327.1260136525398
 21
-15.0
 31
0.0
  0
LINE
  5
B3A
330
922
100
AcDbEntity
  8
cotas
100
AcDbLine
 10
0.0
 20
-10.0
 30
0.0
 11
327.1260136525398
 21
-10.0
 31
0.0
  0
LINE
  5
B3B
330
922
100
AcDbEntity
  8
cotas
100
AcDbLine
 10
0.0
 20
0.0
 30
0.0
 11
0.0
 21
-30.0
 31
0.0
  0
LINE
  5
B3C
330
922
100
AcDbEntity
  8
cotas
100
AcDbLine
 10
327.1260136525398
 20
-30.0
 30
0.0
 11
327.1260136525398
 21
0.0
 31
0.0
  0
ENDBLK
  5
92B
330
922
100
AcDbEntity
  8
0
100
AcDbBlockEnd
  0
BLOCK
  5
AAD
330
AA8
100
AcDbEntity
  8
0
100
AcDbBlockBegin
  2
_CLOSED
 70
     0
 10
0.0
 20
0.0
 30
0.0
  3
_CLOSED
  1

  0
LINE
  5
AA9
330
AA8
100
AcDbEntity
  8
0
100
AcDbLine
 10
-1.0
 20
0.166667
 30
0.0
 11
0.0
 21
0.0
 31
0.0
  0
LINE
  5
AAA
330
AA8
100
AcDbEntity
  8
0
100
AcDbLine
 10
0.0
 20
0.0
 30
0.0
 11
-1.0
 21
-0.166667
 31
0.0
  0
LINE
  5
AAB
330
AA8
100
AcDbEntity
  8
0
100
AcDbLine
 10
-1.0
 20
0.166667
 30
0.0
 11
-1.0
 21
-0.166667
 31
0.0
  0
LINE
  5
AAC
330
AA8
100
AcDbEntity
  8
0
100
AcDbLine
 10
0.0
 20
0.0
 30
0.0
 11
-1.0
 21
0.0
 31
0.0
  0
ENDBLK
  5
AAE
330
AA8
100
AcDbEntity
  8
0
100
AcDbBlockEnd
  0
BLOCK
  5
161A
330
1619
100
AcDbEntity
  8
0
100
AcDbBlockBegin
  2
*D4
 70
     1
 10
0.0
 20
0.0
 30
0.0
  3
*D4
  1

  0
LINE
  5
1625
330
1619
100
AcDbEntity
  8
0
100
AcDbLine
 10
1777.594106418417
 20
355.3514702451798
 30
0.0
 11
1769.132250245917
 21
349.3743443889294
 31
0.0
  0
LINE
  5
1626
330
1619
100
AcDbEntity
  8
0
100
AcDbLine
 10
1765.37504567779
 20
346.7204013162082
 30
0.0
 11
1763.741478474257
 21
345.5665130237205
 31
0.0
  0
MTEXT
  5
1627
102
{ACAD_XDICTIONARY
360
16C6
102
}
330
1619
100
AcDbEntity
  8
0
100
AcDbMText
 10
1772.835437966528
 20
354.8433028388057
 30
0.0
 40
2.0
 41
0.0
 71
     5
 72
     1
  1
\U+22050,6
  7
SANINDUSA
 11
0.8167836017667145
 21
0.576944146243805
 31
0.0
 73
     1
 44
1.0
1001
ACAD
1000
MTEXTBEGIN
1070
    73
1070
     1
1070
    44
1040
1.0
1070
    74
1070
     0
1000
MTEXTEND
  0
LINE
  5
1628
330
1619
100
AcDbEntity
  8
0
100
AcDbLine
 10
1767.008612881323
 20
347.8742896086958
 30
0.0
 11
1767.498683042383
 21
348.2204560964418
 31
0.0
  0
SOLID
  5
1629
330
1619
100
AcDbEntity
  8
0
100
AcDbTrace
 10
1765.182730962375
 20
346.9926625167971
 30
0.0
 11
1765.567360393205
 21
346.4481401156192
 31
0.0
 12
1767.008612881323
 22
347.8742896086958
 32
0.0
 13
1767.008612881323
 23
347.8742896086958
 33
0.0
  0
SOLID
  5
162A
330
1619
100
AcDbEntity
  8
0
100
AcDbTrace
 10
1768.939935530502
 20
349.6466055895183
 30
0.0
 11
1769.324564961331
 21
349.1020831883405
 31
0.0
 12
1767.498683042383
 22
348.2204560964418
 32
0.0
 13
1767.498683042383
 23
348.2204560964418
 33
0.0
  0
POINT
  5
162B
330
1619
100
AcDbEntity
  8
Defpoints
 62
     0
100
AcDbPoint
 10
1767.498683042383
 20
348.2204560964418
 30
0.0
  0
POINT
  5
162C
330
1619
100
AcDbEntity
  8
Defpoints
 62
     0
100
AcDbPoint
 10
1767.008612881323
 20
347.8742896086958
 30
0.0
  0
ENDBLK
  5
161B
330
1619
100
AcDbEntity
  8
0
100
AcDbBlockEnd
  0
ENDSEC
  0
SECTION
  2
ENTITIES
  0
LINE
  5
FAE
330
1F
100
AcDbEntity
  8
SANINDUSA
100
AcDbLine
 10
1768.247650548019
 20
348.0708348082639
 30
0.0
 11
1768.242434634153
 21
347.7917414457227
 31
0.0
  0
LINE
  5
FB1
330
1F
100
AcDbEntity
  8
SANINDUSA
100
AcDbLine
 10
1768.072965670786
 20
348.0708348082639
 30
0.0
 11
1768.078181584653
 21
347.7917414457227
 31
0.0
  0
CIRCLE
  5
FB2
330
1F
100
AcDbEntity
  8
SANINDUSA
100
AcDbCircle
 10
1767.253647961854
 20
348.0473728525689
 30
0.0
 40
0.0329751625468082
  0
CIRCLE
  5
FB3
330
1F
100
AcDbEntity
  8
SANINDUSA
100
AcDbCircle
 10
1767.253647961854
 20
348.0473728525689
 30
0.0
 40
0.025
  0
ARC
  5
FB7
330
1F
100
AcDbEntity
  8
SANINDUSA
100
AcDbCircle
 10
1767.253647961854
 20
348.0473728525689
 30
0.0
 40
0.2673859377178866
100
AcDbArc
 50
141.267889847308
 51
38.73211015269199
  0
ARC
  5
FB8
330
1F
100
AcDbEntity
  8
SANINDUSA
100
AcDbCircle
 10
1767.253647961854
 20
348.0473728525689
 30
0.0
 40
0.0800720996948614
100
AcDbArc
 50
120.8399777426416
 51
59.16002225735842
  0
ARC
  5
FB9
330
1F
100
AcDbEntity
  8
SANINDUSA
100
AcDbCircle
 10
1767.253647961854
 20
348.0473728525689
 30
0.0
 40
0.2999999999999999
100
AcDbArc
 50
138.6225226977011
 51
41.37747730229889
  0
LINE
  5
FBF
330
1F
100
AcDbEntity
  8
SANINDUSA
100
AcDbLine
 10
1768.229875263443
 20
347.7868348082639
 30
0.0
 11
1768.090740955363
 21
347.7868348082639
 31
0.0
  0
ARC
  5
FC1
330
1F
100
AcDbEntity
  8
SANINDUSA
100
AcDbCircle
 10
1768.08318194854
 20
347.7918360670825
 30
0.0
 40
0.0050012590619221
100
AcDbArc
 50
181.0840726288067
 51
270.0178684900063
  0
LINE
  5
FC2
330
1F
100
AcDbEntity
  8
SANINDUSA
100
AcDbLine
 10
1768.090740955363
 20
347.7868348082639
 30
0.0
 11
1768.083183508252
 21
347.7868348082639
 31
0.0
  0
ARC
  5
FC5
330
1F
100
AcDbEntity
  8
SANINDUSA
100
AcDbCircle
 10
1768.237434270266
 20
347.7918360670825
 30
0.0
 40
0.0050012590619224
100
AcDbArc
 50
269.9821315099937
 51
358.9159273711306
  0
LINE
  5
FC7
330
1F
100
AcDbEntity
  8
SANINDUSA
100
AcDbLine
 10
1768.229875263443
 20
347.7868348082639
 30
0.0
 11
1768.237432710553
 21
347.7868348082639
 31
0.0
  0
LWPOLYLINE
  5
FCA
330
1F
100
AcDbEntity
  8
SANINDUSA
100
AcDbPolyline
 90
        6
 70
   128
 43
0.0
 10
1768.075045021566
 20
348.030866893856
 10
1768.074973397727
 20
348.0309586034167
 10
1768.074888620219
 20
348.0317187067008
 10
1768.074806659479
 20
348.0330533179002
 10
1768.07473674724
 20
348.0348121957479
 10
1768.074686003942
 20
348.0368385289024
  0
LWPOLYLINE
  5
FCB
330
1F
100
AcDbEntity
  8
SANINDUSA
100
AcDbPolyline
 90
       12
 70
   128
 43
0.0
 10
1768.074823312525
 20
348.0427700008564
 10
1768.074828550896
 20
348.0427779141133
 10
1768.074912281842
 20
348.0422179771605
 10
1768.074996164604
 20
348.0410492668616
 10
1768.075070748787
 20
348.0394033601053
 10
1768.075127629806
 20
348.0374655886388
 10
1768.075151209262
 20
348.0362043381161
 10
1768.075166852796
 20
348.0342629414046
 10
1768.075153959626
 20
348.0326094028031
 10
1768.075113987237
 20
348.0314303354363
 10
1768.075051449697
 20
348.0308586630615
 10
1768.075045021566
 20
348.030866893856
  0
LWPOLYLINE
  5
FCC
330
1F
100
AcDbEntity
  8
SANINDUSA
100
AcDbPolyline
 90
        6
 70
   128
 43
0.0
 10
1768.074686003942
 20
348.0368385289024
 10
1768.074662384046
 20
348.0387846334438
 10
1768.074666350346
 20
348.0405500998636
 10
1768.074698227007
 20
348.041894382631
 10
1768.074754410179
 20
348.0426659146957
 10
1768.074823312525
 20
348.0427700008564
  0
LWPOLYLINE
  5
FCD
330
1F
100
AcDbEntity
  8
SANINDUSA
100
AcDbPolyline
 90
        6
 70
   128
 43
0.0
 10
1768.245571502197
 20
348.0308672843332
 10
1768.245642821078
 20
348.0309586034167
 10
1768.245727598587
 20
348.0317187067008
 10
1768.245809559326
 20
348.0330533179002
 10
1768.245879471566
 20
348.0348121957479
 10
1768.245930214863
 20
348.0368385289024
  0
LWPOLYLINE
  5
FCE
330
1F
100
AcDbEntity
  8
SANINDUSA
100
AcDbPolyline
 90
       12
 70
   128
 43
0.0
 10
1768.245792632814
 20
348.0427704139633
 10
1768.245787667909
 20
348.0427779141133
 10
1768.245703936964
 20
348.0422179771605
 10
1768.245620054201
 20
348.0410492668616
 10
1768.245545470018
 20
348.0394033601053
 10
1768.245488589
 20
348.0374655886388
 10
1768.245465009544
 20
348.0362043381161
 10
1768.24544936601
 20
348.0342629414046
 10
1768.245462259179
 20
348.0326094028031
 10
1768.245502231569
 20
348.0314303354363
 10
1768.245564769108
 20
348.0308586630615
 10
1768.245571502197
 20
348.0308672843332
  0
LWPOLYLINE
  5
FCF
330
1F
100
AcDbEntity
  8
SANINDUSA
100
AcDbPolyline
 90
        6
 70
   128
 43
0.0
 10
1768.245930214863
 20
348.0368385289024
 10
1768.24595383476
 20
348.0387846334438
 10
1768.24594986846
 20
348.0405500998636
 10
1768.245917991799
 20
348.041894382631
 10
1768.245861808627
 20
348.0426659146957
 10
1768.245792632814
 20
348.0427704139633
  0
LWPOLYLINE
  5
FD5
330
1F
100
AcDbEntity
  8
SANINDUSA
100
AcDbPolyline
 90
        7
 70
   128
 43
0.0
 10
1767.073807233006
 20
348.2254148485255
 10
1767.067390812324
 20
348.2241955436372
 10
1767.061040362642
 20
348.222566094133
 10
1767.055271212553
 20
348.2205821061766
 10
1767.049693464173
 20
348.2179413003378
 10
1767.047304069848
 20
348.2164419246068
 10
1767.045065571277
 20
348.2146708681893
  0
ARC
  5
FD7
330
1F
100
AcDbEntity
  8
SANINDUSA
100
AcDbCircle
 10
1767.254027107196
 20
348.0595504903969
 30
0.0
 40
0.2419754531745994
100
AcDbArc
 50
141.0840139089204
 51
161.7197972475555
  0
LWPOLYLINE
  5
FD8
330
1F
100
AcDbEntity
  8
SANINDUSA
100
AcDbPolyline
 90
        9
 70
   128
 43
0.0
 10
1767.039308881977
 20
348.1306430960825
 10
1767.090887772301
 20
348.1275483481774
 10
1767.1168886084
 20
348.1260265121753
 10
1767.143142179668
 20
348.1245381839384
 10
1767.160632239493
 20
348.1235868039657
 10
1767.178391212888
 20
348.1226743868803
 10
1767.190516621594
 20
348.1220934711473
 10
1767.202894460418
 20
348.1215541064175
 10
1767.215589397972
 20
348.1210774700808
  0
LINE
  5
FDA
330
1F
100
AcDbEntity
  8
SANINDUSA
100
AcDbLine
 10
1767.467987041731
 20
348.1306430960825
 30
0.0
 11
1767.039308881977
 21
348.1306430960825
 31
0.0
  0
LWPOLYLINE
  5
FDF
330
1F
100
AcDbEntity
  8
SANINDUSA
100
AcDbPolyline
 90
       11
 70
   128
 43
0.0
 10
1767.024263208079
 20
348.1354495720895
 10
1767.023959077722
 20
348.1350766436011
 10
1767.023769909292
 20
348.1346336360829
 10
1767.023755798724
 20
348.1342899552052
 10
1767.023853538841
 20
348.133966350685
 10
1767.024162653684
 20
348.1335353497677
 10
1767.025001981119
 20
348.1329209179928
 10
1767.026706765613
 20
348.1322007296304
 10
1767.028516078371
 20
348.1317260692393
 10
1767.033867340433
 20
348.1309179930505
 10
1767.039308881977
 20
348.1306430960825
  0
ARC
  5
FE1
330
1F
100
AcDbEntity
  8
SANINDUSA
100
AcDbCircle
 10
1767.253268816511
 20
348.0595504903969
 30
0.0
 40
0.2419754531745989
100
AcDbArc
 50
18.28020275244451
 51
38.91598609107958
  0
LWPOLYLINE
  5
FE3
330
1F
100
AcDbEntity
  8
SANINDUSA
100
AcDbPolyline
 90
        4
 70
   128
 43
0.0
 10
1767.291706525735
 20
348.1210774700808
 10
1767.289409555257
 20
348.1210124449848
 10
1767.28446908803
 20
348.1209360688609
 10
1767.279364070371
 20
348.120913407873
  0
LWPOLYLINE
  5
FEA
330
1F
100
AcDbEntity
  8
SANINDUSA
100
AcDbPolyline
 90
        3
 70
   128
 43
0.0
 10
1767.227931853336
 20
348.120913407873
 10
1767.253647961854
 20
348.1209057546593
 10
1767.279364070371
 20
348.120913407873
  0
LWPOLYLINE
  5
FEB
330
1F
100
AcDbEntity
  8
SANINDUSA
100
AcDbPolyline
 90
        4
 70
   128
 43
0.0
 10
1767.215589397972
 20
348.1210774700808
 10
1767.217886368451
 20
348.1210124449848
 10
1767.222826835677
 20
348.1209360688609
 10
1767.227931853336
 20
348.120913407873
  0
LWPOLYLINE
  5
FEC
330
1F
100
AcDbEntity
  8
SANINDUSA
100
AcDbPolyline
 90
       19
 70
   128
 43
0.0
 10
1767.240318806545
 20
348.1286005633452
 10
1767.240561058263
 20
348.1287028070824
 10
1767.241285021944
 20
348.1288866040896
 10
1767.242346214397
 20
348.1290575088229
 10
1767.243715689059
 20
348.1292108594467
 10
1767.245356090232
 20
348.1293424729555
 10
1767.247222672047
 20
348.129448759276
 10
1767.249264519019
 20
348.1295268191946
 10
1767.251425934885
 20
348.1295745234401
 10
1767.253647961854
 20
348.129590570765
 10
1767.255869988822
 20
348.1295745234401
 10
1767.258031404688
 20
348.1295268191946
 10
1767.26007325166
 20
348.129448759276
 10
1767.261939833475
 20
348.1293424729555
 10
1767.263580234648
 20
348.1292108594467
 10
1767.26494970931
 20
348.1290575088229
 10
1767.266010901764
 20
348.1288866040896
 10
1767.266734865444
 20
348.1287028070824
 10
1767.266802010015
 20
348.128678626477
  0
LWPOLYLINE
  5
FEE
330
1F
100
AcDbEntity
  8
SANINDUSA
100
AcDbPolyline
 90
        9
 70
   128
 43
0.0
 10
1767.266276245164
 20
348.1279980201548
 10
1767.266010901764
 20
348.1279413323861
 10
1767.26494970931
 20
348.1277704276528
 10
1767.263580234648
 20
348.1276170770291
 10
1767.261939833475
 20
348.1274854635203
 10
1767.26007325166
 20
348.1273791771997
 10
1767.258031404688
 20
348.1273011172811
 10
1767.255869988822
 20
348.1272534130356
 10
1767.253647961854
 20
348.1272373657108
  0
LWPOLYLINE
  5
FEF
330
1F
100
AcDbEntity
  8
SANINDUSA
100
AcDbPolyline
 90
        5
 70
   128
 43
0.0
 10
1767.240620161525
 20
348.128105500699
 10
1767.240561058263
 20
348.1281251293933
 10
1767.240194071198
 20
348.1283168051713
 10
1767.240194071198
 20
348.1285111313044
 10
1767.240318806545
 20
348.1286005633452
  0
LWPOLYLINE
  5
FF0
330
1F
100
AcDbEntity
  8
SANINDUSA
100
AcDbPolyline
 90
        9
 70
   128
 43
0.0
 10
1767.253647961854
 20
348.1272373657108
 10
1767.251425934885
 20
348.1272534130356
 10
1767.249264519019
 20
348.1273011172811
 10
1767.247222672047
 20
348.1273791771997
 10
1767.245356090232
 20
348.1274854635203
 10
1767.243715689059
 20
348.1276170770291
 10
1767.242346214397
 20
348.1277704276528
 10
1767.241285021944
 20
348.1279413323861
 10
1767.240620161525
 20
348.128105500699
  0
LWPOLYLINE
  5
FF2
330
1F
100
AcDbEntity
  8
SANINDUSA
100
AcDbPolyline
 90
        5
 70
   128
 43
0.0
 10
1767.266802010015
 20
348.128678626477
 10
1767.267101852509
 20
348.1285111313044
 10
1767.267101852509
 20
348.1283168051713
 10
1767.266734865444
 20
348.1281251293933
 10
1767.266276245164
 20
348.1279980201548
  0
LWPOLYLINE
  5
FF4
330
1F
100
AcDbEntity
  8
SANINDUSA
100
AcDbPolyline
 90
        9
 70
   128
 43
0.0
 10
1767.467987041731
 20
348.1306430960825
 10
1767.416408151406
 20
348.1275483481774
 10
1767.390407315307
 20
348.1260265121753
 10
1767.364153744039
 20
348.1245381839384
 10
1767.346663684215
 20
348.1235868039657
 10
1767.328904710819
 20
348.1226743868803
 10
1767.316779302113
 20
348.1220934711473
 10
1767.304401463289
 20
348.1215541064175
 10
1767.291706525735
 20
348.1210774700808
  0
LWPOLYLINE
  5
FF6
330
1F
100
AcDbEntity
  8
SANINDUSA
100
AcDbPolyline
 90
        9
 70
   128
 43
0.0
 10
1767.291706525735
 20
348.1210774700808
 10
1767.292144132063
 20
348.1209074577202
 10
1767.292575382272
 20
348.1205952200595
 10
1767.292994012566
 20
348.1201452922696
 10
1767.293393942449
 20
348.1195642094342
 10
1767.293769363045
 20
348.1188604116303
 10
1767.294114821465
 20
348.1180441213377
 10
1767.294425300018
 20
348.1171271949602
 10
1767.294696289082
 20
348.1161229506148
  0
LWPOLYLINE
  5
FFA
330
1F
100
AcDbEntity
  8
SANINDUSA
100
AcDbPolyline
 90
       11
 70
   128
 43
0.0
 10
1767.483032715628
 20
348.1354495720895
 10
1767.483336845985
 20
348.1350766436011
 10
1767.483526014415
 20
348.1346336360829
 10
1767.483540124983
 20
348.1342899552052
 10
1767.483442384866
 20
348.133966350685
 10
1767.483133270023
 20
348.1335353497677
 10
1767.482293942588
 20
348.1329209179928
 10
1767.480589158094
 20
348.1322007296304
 10
1767.478779845336
 20
348.1317260692393
 10
1767.473428583275
 20
348.1309179930505
 10
1767.467987041731
 20
348.1306430960825
  0
LINE
  5
FFB
330
1F
100
AcDbEntity
  8
SANINDUSA
100
AcDbLine
 10
1767.407224011718
 20
348.2192680596173
 30
0.0
 11
1767.100071911989
 21
348.2192680596173
 31
0.0
  0
LINE
  5
FFC
330
1F
100
AcDbEntity
  8
SANINDUSA
100
AcDbLine
 10
1767.100071911989
 20
348.2281459586096
 30
0.0
 11
1767.407224011718
 21
348.2281459586096
 31
0.0
  0
LWPOLYLINE
  5
FFF
330
1F
100
AcDbEntity
  8
SANINDUSA
100
AcDbPolyline
 90
       45
 70
   128
 43
0.0
 10
1767.253647961854
 20
348.1706744465458
 10
1767.256138471523
 20
348.1708524628041
 10
1767.258578281598
 20
348.1713828876813
 10
1767.260917724581
 20
348.1722549232565
 10
1767.263109176159
 20
348.1734508174002
 10
1767.265108024698
 20
348.1749462251563
 10
1767.266873579405
 20
348.1767107043352
 10
1767.268369898678
 20
348.1787083352293
 10
1767.269566521773
 20
348.1808984518341
 10
1767.270439088892
 20
348.1832364696915
 10
1767.270969837086
 20
348.1856747935
 10
1767.271147961854
 20
348.1881637860186
 10
1767.270969837086
 20
348.1906527785372
 10
1767.270439088892
 20
348.1930911023458
 10
1767.269566521773
 20
348.1954291202031
 10
1767.268369898678
 20
348.197619236808
 10
1767.266873579405
 20
348.199616867702
 10
1767.265108024698
 20
348.201381346881
 10
1767.263109176159
 20
348.2028767546371
 10
1767.260917724581
 20
348.2040726487807
 10
1767.258578281598
 20
348.2049446843559
 10
1767.256138471523
 20
348.2054751092331
 10
1767.253647961854
 20
348.2056531254914
 10
1767.251157452184
 20
348.2054751092331
 10
1767.248717642109
 20
348.2049446843559
 10
1767.246378199126
 20
348.2040726487807
 10
1767.244186747548
 20
348.2028767546371
 10
1767.242187899009
 20
348.201381346881
 10
1767.240422344302
 20
348.199616867702
 10
1767.238926025029
 20
348.197619236808
 10
1767.237729401935
 20
348.1954291202031
 10
1767.236856834815
 20
348.1930911023458
 10
1767.236326086621
 20
348.1906527785372
 10
1767.236147961854
 20
348.1881637860186
 10
1767.236326086621
 20
348.1856747935
 10
1767.236856834815
 20
348.1832364696915
 10
1767.237729401935
 20
348.1808984518341
 10
1767.238926025029
 20
348.1787083352293
 10
1767.240422344302
 20
348.1767107043352
 10
1767.242187899009
 20
348.1749462251563
 10
1767.244186747548
 20
348.1734508174002
 10
1767.246378199126
 20
348.1722549232565
 10
1767.248717642109
 20
348.1713828876813
 10
1767.251157452184
 20
348.1708524628041
 10
1767.253647961854
 20
348.1706744465458
  0
LWPOLYLINE
  5
1004
330
1F
100
AcDbEntity
  8
SANINDUSA
100
AcDbPolyline
 90
        4
 70
   128
 43
0.0
 10
1767.100071911989
 20
348.2192680596173
 10
1767.08795140323
 20
348.2186813746899
 10
1767.081872241359
 20
348.217901758086
 10
1767.07583089447
 20
348.2167428455142
  0
LWPOLYLINE
  5
1005
330
1F
100
AcDbEntity
  8
SANINDUSA
100
AcDbPolyline
 90
        6
 70
   128
 43
0.0
 10
1767.07583089447
 20
348.2167428455142
 10
1767.075501989643
 20
348.2166662284529
 10
1767.07215898607
 20
348.215664812135
 10
1767.068934328881
 20
348.2141672803145
 10
1767.067250007723
 20
348.2130220011484
 10
1767.065753771998
 20
348.2115546718932
  0
LWPOLYLINE
  5
1007
330
1F
100
AcDbEntity
  8
SANINDUSA
100
AcDbPolyline
 90
        4
 70
   128
 43
0.0
 10
1767.073807233006
 20
348.2254148485255
 10
1767.083670056863
 20
348.2271372561612
 10
1767.093726902156
 20
348.2280007819301
 10
1767.100071911989
 20
348.2281459586095
  0
LWPOLYLINE
  5
1008
330
1F
100
AcDbEntity
  8
SANINDUSA
100
AcDbPolyline
 90
        4
 70
   128
 43
0.0
 10
1767.433488690701
 20
348.2254148485255
 10
1767.423625866844
 20
348.2271372561612
 10
1767.413569021551
 20
348.2280007819301
 10
1767.407224011718
 20
348.2281459586095
  0
LWPOLYLINE
  5
1009
330
1F
100
AcDbEntity
  8
SANINDUSA
100
AcDbPolyline
 90
        4
 70
   128
 43
0.0
 10
1767.407224011718
 20
348.2192680596173
 10
1767.419344520477
 20
348.2186813746899
 10
1767.425423682348
 20
348.217901758086
 10
1767.431465029237
 20
348.2167428455142
  0
LWPOLYLINE
  5
100C
330
1F
100
AcDbEntity
  8
SANINDUSA
100
AcDbPolyline
 90
        7
 70
   128
 43
0.0
 10
1767.433488690701
 20
348.2254148485255
 10
1767.439905111383
 20
348.2241955436372
 10
1767.446255561065
 20
348.222566094133
 10
1767.452024711155
 20
348.2205821061766
 10
1767.457602459534
 20
348.2179413003378
 10
1767.45999185386
 20
348.2164419246068
 10
1767.46223035243
 20
348.2146708681893
  0
LWPOLYLINE
  5
100E
330
1F
100
AcDbEntity
  8
SANINDUSA
100
AcDbPolyline
 90
        6
 70
   128
 43
0.0
 10
1767.431465029237
 20
348.2167428455142
 10
1767.431793934064
 20
348.2166662284529
 10
1767.435136937638
 20
348.215664812135
 10
1767.438361594826
 20
348.2141672803145
 10
1767.440045915984
 20
348.2130220011484
 10
1767.44154215171
 20
348.2115546718932
  0
LINE
  5
1012
330
1F
100
AcDbEntity
  8
SANINDUSA
100
AcDbLine
 10
1767.032288525642
 20
348.2473728525688
 30
0.0
 11
1767.475007398066
 21
348.2473728525688
 31
0.0
  0
ARC
  5
1015
330
1F
100
AcDbEntity
  8
SANINDUSA
100
AcDbCircle
 10
1767.032288525642
 20
348.2423728525688
 30
0.0
 40
0.005
100
AcDbArc
 50
90.0
 51
138.6225226977005
  0
ARC
  5
1019
330
1F
100
AcDbEntity
  8
SANINDUSA
100
AcDbCircle
 10
1767.475007398066
 20
348.2423728525688
 30
0.0
 40
0.005
100
AcDbArc
 50
41.3774773022995
 51
90.0
  0
LINE
  5
101E
330
1F
100
AcDbEntity
  8
SANINDUSA
100
AcDbLine
 10
1768.460308109403
 20
348.2058348082639
 30
0.0
 11
1768.460308109403
 21
348.2368348082639
 31
0.0
  0
LINE
  5
101F
330
1F
100
AcDbEntity
  8
SANINDUSA
100
AcDbLine
 10
1767.860308109403
 20
348.2368348082639
 30
0.0
 11
1767.860308109403
 21
348.2058348082639
 31
0.0
  0
LWPOLYLINE
  5
1020
330
1F
100
AcDbEntity
  8
SANINDUSA
100
AcDbPolyline
 90
        7
 70
   128
 43
0.0
 10
1767.988561465677
 20
348.1057331289333
 10
1767.98927945113
 20
348.1054352478521
 10
1767.997446149806
 20
348.1017949497486
 10
1768.001521080866
 20
348.099883533198
 10
1768.003551957955
 20
348.0989151012495
 10
1768.005578197907
 20
348.0979408768126
 10
1768.005950798063
 20
348.0977609997696
  0
LWPOLYLINE
  5
1021
330
1F
100
AcDbEntity
  8
SANINDUSA
100
AcDbPolyline
 90
        8
 70
   128
 43
0.0
 10
1767.940622073767
 20
348.2003287876388
 10
1767.953536512931
 20
348.1853196505713
 10
1767.967117036912
 20
348.1703159736848
 10
1767.981398223647
 20
348.1553203791571
 10
1767.992811573335
 20
348.1438643069706
 10
1768.004694518443
 20
348.1323827446473
 10
1768.017042308814
 20
348.1208787226978
 10
1768.02985019429
 20
348.1093552716326
  0
LINE
  5
1024
330
1F
100
AcDbEntity
  8
SANINDUSA
100
AcDbLine
 10
1768.456308109403
 20
348.2018348082639
 30
0.0
 11
1767.864308109403
 21
348.2018348082639
 31
0.0
  0
LWPOLYLINE
  5
1027
330
1F
100
AcDbEntity
  8
SANINDUSA
100
AcDbPolyline
 90
       31
 70
   128
 43
0.0
 10
1767.922111698562
 20
348.1981693147265
 10
1767.922666952298
 20
348.1961910350551
 10
1767.923531211821
 20
348.1930501995579
 10
1767.924280044182
 20
348.1902790386542
 10
1767.924901091627
 20
348.1879445497743
 10
1767.925385700152
 20
348.1861001505111
 10
1767.92572816913
 20
348.1847857419751
 10
1767.926126412695
 20
348.1832448662533
 10
1767.926550063654
 20
348.1815835889384
 10
1767.927121505544
 20
348.1793056488779
 10
1767.927745231367
 20
348.1767761472367
 10
1767.928411835692
 20
348.1740293539455
 10
1767.929115728226
 20
348.1710731778962
 10
1767.929824739629
 20
348.1680312038038
 10
1767.930414827424
 20
348.1654469000139
 10
1767.930869009825
 20
348.1634234138411
 10
1767.931260746061
 20
348.1616529496762
 10
1767.931805579203
 20
348.1591498051986
 10
1767.932460976371
 20
348.1560721743151
 10
1767.933030511222
 20
348.1533347799779
 10
1767.933480222172
 20
348.151129156384
 10
1767.93392774341
 20
348.1488932422241
 10
1767.934433186042
 20
348.1463157297558
 10
1767.935214279592
 20
348.1422149301031
 10
1767.935859351833
 20
348.138710583951
 10
1767.936054059668
 20
348.1376301738344
 10
1767.936240208427
 20
348.1365868844088
 10
1767.936460948739
 20
348.1353361994725
 10
1767.936811220903
 20
348.1333202748942
 10
1767.937292142098
 20
348.1304859310171
 10
1767.937899526516
 20
348.126786670369
  0
LWPOLYLINE
  5
102D
330
1F
100
AcDbEntity
  8
SANINDUSA
100
AcDbPolyline
 90
        5
 70
   128
 43
0.0
 10
1767.94581926918
 20
348.1017207537201
 10
1767.946055485898
 20
348.1011856209109
 10
1767.947890114372
 20
348.0992307959661
 10
1767.950256461064
 20
348.0979953755175
 10
1767.952907518517
 20
348.0976074775092
  0
LWPOLYLINE
  5
102E
330
1F
100
AcDbEntity
  8
SANINDUSA
100
AcDbPolyline
 90
        8
 70
   128
 43
0.0
 10
1767.94741176077
 20
348.1116752592552
 10
1767.945980903854
 20
348.1117651473909
 10
1767.944591169217
 20
348.1121076185012
 10
1767.94328736276
 20
348.1126916311059
 10
1767.942111520009
 20
348.1134983562782
 10
1767.94110155086
 20
348.1145017847008
 10
1767.940290017342
 20
348.1156695652216
 10
1767.939816375551
 20
348.1166590030018
  0
LWPOLYLINE
  5
102F
330
1F
100
AcDbEntity
  8
SANINDUSA
100
AcDbPolyline
 90
        3
 70
   128
 43
0.0
 10
1767.939814923095
 20
348.1166589099429
 10
1767.940990276488
 20
348.113681258555
 10
1767.945253060339
 20
348.1027221501459
  0
LINE
  5
1030
330
1F
100
AcDbEntity
  8
SANINDUSA
100
AcDbLine
 10
1767.945253060339
 20
348.1027221501459
 30
0.0
 11
1767.94581926918
 21
348.1017207537201
 31
0.0
  0
ARC
  5
1032
330
1F
100
AcDbEntity
  8
SANINDUSA
100
AcDbCircle
 10
1768.115308109403
 20
347.9918348082639
 30
0.0
 40
0.1750000000000002
100
AcDbArc
 50
138.5932528391797
 51
140.4745928557731
  0
LWPOLYLINE
  5
1036
330
1F
100
AcDbEntity
  8
SANINDUSA
100
AcDbPolyline
 90
       16
 70
   128
 43
0.0
 10
1767.964257799741
 20
348.1118396497557
 10
1767.964679440999
 20
348.1118487899905
 10
1767.965714791456
 20
348.1118474728658
 10
1767.966660334035
 20
348.1118119393515
 10
1767.967515765993
 20
348.1117425860258
 10
1767.967907765981
 20
348.1116977479353
 10
1767.969171589933
 20
348.1115147833372
 10
1767.970514499505
 20
348.1113076462253
 10
1767.972906611567
 20
348.1108625597008
 10
1767.977104042012
 20
348.1098287928939
 10
1767.979184937893
 20
348.1092117364909
 10
1767.981222814246
 20
348.108548109108
 10
1767.98324665865
 20
348.1078356698507
 10
1767.9852694504
 20
348.1070745185045
 10
1767.987986369261
 20
348.1059811094183
 10
1767.988560976064
 20
348.1057320119642
  0
LWPOLYLINE
  5
103C
330
1F
100
AcDbEntity
  8
SANINDUSA
100
AcDbPolyline
 90
        9
 70
   128
 43
0.0
 10
1767.977368580076
 20
348.0995273625528
 10
1767.977077967765
 20
348.0991958383556
 10
1767.976751501268
 20
348.0988993012316
 10
1767.97639327003
 20
348.0986414657217
 10
1767.9760077614
 20
348.0984255615748
 10
1767.975599804409
 20
348.0982542932915
 10
1767.975174509288
 20
348.0981298062456
 10
1767.97473720345
 20
348.098053659811
 10
1767.974293364761
 20
348.0980268078277
  0
LINE
  5
1045
330
1F
100
AcDbEntity
  8
SANINDUSA
100
AcDbLine
 10
1767.952907518517
 20
348.0976074775092
 30
0.0
 11
1767.974293364761
 21
348.0980268078277
 31
0.0
  0
LWPOLYLINE
  5
1049
330
1F
100
AcDbEntity
  8
SANINDUSA
100
AcDbPolyline
 90
        3
 70
   128
 43
0.0
 10
1767.98032318134
 20
348.1032083652504
 10
1767.978833469614
 20
348.1013778258163
 10
1767.977368580076
 20
348.0995273625528
  0
LWPOLYLINE
  5
104E
330
1F
100
AcDbEntity
  8
SANINDUSA
100
AcDbPolyline
 90
        8
 70
   128
 43
0.0
 10
1767.960453646446
 20
348.1118348082639
 10
1767.960408292482
 20
348.1118339904867
 10
1767.959762051997
 20
348.1118226400258
 10
1767.959318842236
 20
348.1118151650077
 10
1767.958579262332
 20
348.1118032085232
 10
1767.956443439918
 20
348.1117718603631
 10
1767.950297795889
 20
348.1117012211738
 10
1767.94741176077
 20
348.1116752592552
  0
LWPOLYLINE
  5
104F
330
1F
100
AcDbEntity
  8
SANINDUSA
100
AcDbPolyline
 90
        5
 70
   128
 43
0.0
 10
1767.960453646446
 20
348.1118348082639
 10
1767.960495579641
 20
348.1118354530219
 10
1767.96100366717
 20
348.1118423566931
 10
1767.963057896625
 20
348.1118514503399
 10
1767.964257799741
 20
348.1118396497557
  0
LINE
  5
1052
330
1F
100
AcDbEntity
  8
SANINDUSA
100
AcDbLine
 10
1767.939058430366
 20
348.1195946549712
 30
0.0
 11
1767.939814923095
 21
348.1166589099429
 31
0.0
  0
LINE
  5
1053
330
1F
100
AcDbEntity
  8
SANINDUSA
100
AcDbLine
 10
1767.939036210521
 20
348.1197304288789
 30
0.0
 11
1767.937899526516
 21
348.126786670369
 31
0.0
  0
ARC
  5
1054
330
1F
100
AcDbEntity
  8
SANINDUSA
100
AcDbCircle
 10
1767.864308109403
 20
348.2058348082639
 30
0.0
 40
0.004
100
AcDbArc
 50
180.0
 51
270.0
  0
LWPOLYLINE
  5
1057
330
1F
100
AcDbEntity
  8
SANINDUSA
100
AcDbPolyline
 90
        9
 70
   128
 43
0.0
 10
1767.92211290016
 20
348.1981735103172
 10
1767.921834077565
 20
348.1989326195255
 10
1767.921436526366
 20
348.1996368509281
 10
1767.920930646327
 20
348.2002677821459
 10
1767.920329671041
 20
348.2008089083001
 10
1767.919649321755
 20
348.2012460737721
 10
1767.918907396102
 20
348.2015678425085
 10
1767.918123302525
 20
348.2017657971826
 10
1767.917317552563
 20
348.2018347593887
  0
LWPOLYLINE
  5
105B
330
1F
100
AcDbEntity
  8
SANINDUSA
100
AcDbPolyline
 90
        9
 70
   128
 43
0.0
 10
1767.936878573643
 20
348.2018348082639
 10
1767.937389371016
 20
348.2018102373307
 10
1767.9378959848
 20
348.201736725775
 10
1767.938394265669
 20
348.2016148756792
 10
1767.93888013255
 20
348.2014456850336
 10
1767.93934960604
 20
348.201230539562
 10
1767.939798841007
 20
348.2009712013728
 10
1767.940224158075
 20
348.2006697945264
 10
1767.940622073767
 20
348.2003287876388
  0
LWPOLYLINE
  5
1061
330
1F
100
AcDbEntity
  8
SANINDUSA
100
AcDbPolyline
 90
       27
 70
   128
 43
0.0
 10
1768.382716692289
 20
348.126786670369
 10
1768.383324076707
 20
348.1304859310171
 10
1768.383804997903
 20
348.1333202748942
 10
1768.384155270067
 20
348.1353361994725
 10
1768.384756866973
 20
348.138710583951
 10
1768.385401939214
 20
348.1422149301031
 10
1768.386183032763
 20
348.1463157297558
 10
1768.386919505024
 20
348.1500527688954
 10
1768.387585707584
 20
348.1533347799779
 10
1768.388485636804
 20
348.1576330154669
 10
1768.389355472744
 20
348.1616529496762
 10
1768.38977320395
 20
348.1635400613914
 10
1768.390272286436
 20
348.1657600095112
 10
1768.390925487383
 20
348.168611323976
 10
1768.391691665533
 20
348.1718821349054
 10
1768.392430882981
 20
348.1749680572258
 10
1768.393126477032
 20
348.1778170063695
 10
1768.39361305376
 20
348.17978074262
 10
1768.394066155152
 20
348.1815835889384
 10
1768.39448980611
 20
348.1832448662533
 10
1768.394888049676
 20
348.1847857419751
 10
1768.395230518654
 20
348.1861001505111
 10
1768.395715127178
 20
348.1879445497743
 10
1768.396336174623
 20
348.1902790386542
 10
1768.397085006984
 20
348.1930501995579
 10
1768.397949266508
 20
348.1961910350551
 10
1768.398504520244
 20
348.1981693147265
  0
LWPOLYLINE
  5
1063
330
1F
100
AcDbEntity
  8
SANINDUSA
100
AcDbPolyline
 90
        8
 70
   128
 43
0.0
 10
1768.379994145038
 20
348.2003287876388
 10
1768.367079705874
 20
348.1853196505713
 10
1768.353499181893
 20
348.1703159736848
 10
1768.339217995158
 20
348.1553203791571
 10
1768.327804645471
 20
348.1438643069706
 10
1768.315921700362
 20
348.1323827446473
 10
1768.303573909991
 20
348.1208787226978
 10
1768.290766024516
 20
348.1093552716326
  0
LWPOLYLINE
  5
1066
330
1F
100
AcDbEntity
  8
SANINDUSA
100
AcDbPolyline
 90
       24
 70
   128
 43
0.0
 10
1768.265118968567
 20
348.0874111540552
 10
1768.263993871333
 20
348.0878064494312
 10
1768.262317156005
 20
348.0881528130417
 10
1768.26181870711
 20
348.0882354413741
 10
1768.261303846091
 20
348.0883147132759
 10
1768.260776535835
 20
348.088390628747
 10
1768.260240577916
 20
348.0884631877876
 10
1768.259699611207
 20
348.0885323903975
 10
1768.259157111053
 20
348.0885982365768
 10
1768.25477187471
 20
348.0890404559505
 10
1768.24953326907
 20
348.0894442698288
 10
1768.247238630499
 20
348.0895950418414
 10
1768.244846745886
 20
348.0897396689747
 10
1768.242368350216
 20
348.0898781512288
 10
1768.23981390673
 20
348.0900104886037
 10
1768.237193580859
 20
348.0901366810993
 10
1768.228829188796
 20
348.090484814219
 10
1768.21981428915
 20
348.0907871067752
 10
1768.210304965222
 20
348.0910435587678
 10
1768.200451917369
 20
348.0912541701968
 10
1768.190398091176
 20
348.0914189410623
 10
1768.180276768988
 20
348.0915378713644
 10
1768.170210109423
 20
348.0916109611028
 10
1768.160308109403
 20
348.0916382102777
  0
LINE
  5
1069
330
1F
100
AcDbEntity
  8
SANINDUSA
100
AcDbLine
 10
1768.24699439478
 20
348.0708348082639
 30
0.0
 11
1768.073621824025
 21
348.0708348082639
 31
0.0
  0
LINE
  5
106B
330
1F
100
AcDbEntity
  8
SANINDUSA
100
AcDbLine
 10
1768.054656587544
 20
348.0874111545236
 30
0.0
 11
1768.02985019429
 21
348.1093552716326
 31
0.0
  0
LWPOLYLINE
  5
106D
330
1F
100
AcDbEntity
  8
SANINDUSA
100
AcDbPolyline
 90
        6
 70
   128
 43
0.0
 10
1768.005950798063
 20
348.0977609997696
 10
1768.013504333946
 20
348.0940806111239
 10
1768.027651972386
 20
348.0872264425664
 10
1768.041510161351
 20
348.0808149835137
 10
1768.052397727161
 20
348.0761385837394
 10
1768.063076649004
 20
348.0719003631452
  0
LWPOLYLINE
  5
106E
330
1F
100
AcDbEntity
  8
SANINDUSA
100
AcDbPolyline
 90
       24
 70
   128
 43
0.0
 10
1768.055497250239
 20
348.0874111540552
 10
1768.056622347472
 20
348.0878064494312
 10
1768.0582990628
 20
348.0881528130417
 10
1768.058797511696
 20
348.0882354413741
 10
1768.059312372715
 20
348.0883147132759
 10
1768.059839682971
 20
348.088390628747
 10
1768.06037564089
 20
348.0884631877876
 10
1768.060916607599
 20
348.0885323903975
 10
1768.061459107753
 20
348.0885982365768
 10
1768.065844344096
 20
348.0890404559505
 10
1768.071082949736
 20
348.0894442698288
 10
1768.073377588307
 20
348.0895950418414
 10
1768.07576947292
 20
348.0897396689747
 10
1768.078247868589
 20
348.0898781512288
 10
1768.080802312076
 20
348.0900104886037
 10
1768.083422637946
 20
348.0901366810993
 10
1768.091787030009
 20
348.090484814219
 10
1768.100801929656
 20
348.0907871067752
 10
1768.110311253583
 20
348.0910435587678
 10
1768.120164301436
 20
348.0912541701968
 10
1768.130218127629
 20
348.0914189410623
 10
1768.140339449818
 20
348.0915378713644
 10
1768.150406109382
 20
348.0916109611028
 10
1768.160308109403
 20
348.0916382102777
  0
ARC
  5
1070
330
1F
100
AcDbEntity
  8
SANINDUSA
100
AcDbCircle
 10
1768.073621824025
 20
348.0858348082639
 30
0.0
 40
0.0150000000000001
100
AcDbArc
 50
212.0053832080818
 51
270.0
  0
LWPOLYLINE
  5
1071
330
1F
100
AcDbEntity
  8
SANINDUSA
100
AcDbPolyline
 90
        5
 70
   128
 43
0.0
 10
1768.063518075206
 20
348.0717203930765
 10
1768.063949287003
 20
348.0716622482912
 10
1768.065763521742
 20
348.0713998357172
 10
1768.068014814003
 20
348.0710672515325
 10
1768.069423220816
 20
348.0709188960923
  0
LINE
  5
1073
330
1F
100
AcDbEntity
  8
SANINDUSA
100
AcDbLine
 10
1768.060901849465
 20
348.0778848241639
 30
0.0
 11
1768.055769134075
 21
348.0860971687887
 31
0.0
  0
LINE
  5
107A
330
1F
100
AcDbEntity
  8
SANINDUSA
100
AcDbLine
 10
1768.063341102478
 20
348.0717599272354
 30
0.0
 11
1768.063076649004
 21
348.0719003631452
 31
0.0
  0
LWPOLYLINE
  5
107B
330
1F
100
AcDbEntity
  8
SANINDUSA
100
AcDbPolyline
 90
        9
 70
   128
 43
0.0
 10
1768.063518075206
 20
348.0717203930765
 10
1768.063495500841
 20
348.0717230910688
 10
1768.063473026619
 20
348.0717264355708
 10
1768.063450667253
 20
348.0717304243928
 10
1768.063428437383
 20
348.0717350549231
 10
1768.063406351563
 20
348.0717403241301
 10
1768.063384424253
 20
348.0717462285639
 10
1768.063362669811
 20
348.0717527643587
 10
1768.063341102478
 20
348.0717599272354
  0
LWPOLYLINE
  5
1085
330
1F
100
AcDbEntity
  8
SANINDUSA
100
AcDbPolyline
 90
        9
 70
   128
 43
0.0
 10
1768.054298272299
 20
348.0873983157439
 10
1768.054524342147
 20
348.0872796235685
 10
1768.054739775284
 20
348.087147321398
 10
1768.054943806654
 20
348.0870018790706
 10
1768.055135711691
 20
348.0868438130887
 10
1768.055314808891
 20
348.0866736847847
 10
1768.055480462234
 20
348.086492098327
 10
1768.055632083443
 20
348.086299698575
 10
1768.055769134075
 20
348.0860971687886
  0
LWPOLYLINE
  5
1087
330
1F
100
AcDbEntity
  8
SANINDUSA
100
AcDbPolyline
 90
        4
 70
   128
 43
0.0
 10
1768.069423220816
 20
348.0709188960923
 10
1768.069583431913
 20
348.070902020153
 10
1768.071040204019
 20
348.0708359121463
 10
1768.071246320869
 20
348.0708348082639
  0
LINE
  5
1088
330
1F
100
AcDbEntity
  8
SANINDUSA
100
AcDbLine
 10
1768.073621824025
 20
348.0708348082639
 30
0.0
 11
1768.071246320869
 21
348.0708348082639
 31
0.0
  0
LINE
  5
108C
330
1F
100
AcDbEntity
  8
SANINDUSA
100
AcDbLine
 10
1768.265959631262
 20
348.0874111545236
 30
0.0
 11
1768.290766024516
 21
348.1093552716326
 31
0.0
  0
LWPOLYLINE
  5
108F
330
1F
100
AcDbEntity
  8
SANINDUSA
100
AcDbPolyline
 90
        6
 70
   128
 43
0.0
 10
1768.314665420742
 20
348.0977609997696
 10
1768.30711188486
 20
348.0940806111239
 10
1768.292964246419
 20
348.0872264425664
 10
1768.279106057455
 20
348.0808149835137
 10
1768.268218491644
 20
348.0761385837394
 10
1768.257272300654
 20
348.0718409281944
  0
ARC
  5
1090
330
1F
100
AcDbEntity
  8
SANINDUSA
100
AcDbCircle
 10
1768.24699439478
 20
348.0858348082639
 30
0.0
 40
0.0150000000000001
100
AcDbArc
 50
270.0
 51
327.9946167919194
  0
LINE
  5
1091
330
1F
100
AcDbEntity
  8
SANINDUSA
100
AcDbLine
 10
1768.259714369341
 20
348.0778848241639
 30
0.0
 11
1768.264847084731
 21
348.0860971687887
 31
0.0
  0
LWPOLYLINE
  5
109C
330
1F
100
AcDbEntity
  8
SANINDUSA
100
AcDbPolyline
 90
        4
 70
   128
 43
0.0
 10
1768.257272300654
 20
348.0718409281944
 10
1768.25522644367
 20
348.0715021631433
 10
1768.252378477897
 20
348.0710503576823
 10
1768.249369897937
 20
348.0708348082639
  0
LINE
  5
10A0
330
1F
100
AcDbEntity
  8
SANINDUSA
100
AcDbLine
 10
1768.24699439478
 20
348.0708348082639
 30
0.0
 11
1768.249369897937
 21
348.0708348082639
 31
0.0
  0
ARC
  5
10A4
330
1F
100
AcDbEntity
  8
SANINDUSA
100
AcDbCircle
 10
1768.269935074555
 20
348.0829171751486
 30
0.0
 40
0.0060000000000001
100
AcDbArc
 50
131.4964683552182
 51
147.9946167919171
  0
LWPOLYLINE
  5
10AA
330
1F
100
AcDbEntity
  8
SANINDUSA
100
AcDbPolyline
 90
        8
 70
   128
 43
0.0
 10
1768.360162572359
 20
348.1118348082639
 10
1768.360207926323
 20
348.1118339904867
 10
1768.360854166809
 20
348.1118226400258
 10
1768.361297376569
 20
348.1118151650077
 10
1768.362036956474
 20
348.1118032085232
 10
1768.364172778887
 20
348.1117718603631
 10
1768.370318422916
 20
348.1117012211738
 10
1768.373204458035
 20
348.1116752592552
  0
LINE
  5
10AC
330
1F
100
AcDbEntity
  8
SANINDUSA
100
AcDbLine
 10
1768.367708700289
 20
348.0976074775092
 30
0.0
 11
1768.346322854045
 21
348.0980268078277
 31
0.0
  0
ARC
  5
10B2
330
1F
100
AcDbEntity
  8
SANINDUSA
100
AcDbCircle
 10
1768.205308109403
 20
347.9918348082639
 30
0.0
 40
0.1750000000000002
100
AcDbArc
 50
39.52540714422689
 51
41.4067471608203
  0
LWPOLYLINE
  5
10B3
330
1F
100
AcDbEntity
  8
SANINDUSA
100
AcDbPolyline
 90
       18
 70
   128
 43
0.0
 10
1768.332055242741
 20
348.1057320119642
 10
1768.332629849545
 20
348.1059811094183
 10
1768.335346768406
 20
348.1070745185045
 10
1768.337369560155
 20
348.1078356698507
 10
1768.339393404559
 20
348.108548109108
 10
1768.341431280913
 20
348.1092117364909
 10
1768.343512176793
 20
348.1098287928939
 10
1768.345678669553
 20
348.1103999457196
 10
1768.34794608887
 20
348.110911505268
 10
1768.350184993214
 20
348.1113211922238
 10
1768.351657228277
 20
348.1115463255018
 10
1768.352342126428
 20
348.1116485758973
 10
1768.352708452824
 20
348.1116977479353
 10
1768.353100452812
 20
348.1117425860258
 10
1768.35395588477
 20
348.1118119393515
 10
1768.354901427349
 20
348.1118474728658
 10
1768.355936777806
 20
348.1118487899905
 10
1768.356358419065
 20
348.1118396497557
  0
LWPOLYLINE
  5
10B4
330
1F
100
AcDbEntity
  8
SANINDUSA
100
AcDbPolyline
 90
        7
 70
   128
 43
0.0
 10
1768.332054753128
 20
348.1057331289333
 10
1768.331336767675
 20
348.1054352478521
 10
1768.323170069
 20
348.1017949497486
 10
1768.31909513794
 20
348.099883533198
 10
1768.31706426085
 20
348.0989151012495
 10
1768.315038020899
 20
348.0979408768126
 10
1768.314665420742
 20
348.0977609997696
  0
LWPOLYLINE
  5
10BE
330
1F
100
AcDbEntity
  8
SANINDUSA
100
AcDbPolyline
 90
        3
 70
   128
 43
0.0
 10
1768.340293037466
 20
348.1032083652504
 10
1768.341782749192
 20
348.1013778258163
 10
1768.343247638729
 20
348.0995273625528
  0
LWPOLYLINE
  5
10C3
330
1F
100
AcDbEntity
  8
SANINDUSA
100
AcDbPolyline
 90
        9
 70
   128
 43
0.0
 10
1768.343247638729
 20
348.0995273625528
 10
1768.34353825104
 20
348.0991958383556
 10
1768.343864717538
 20
348.0988993012316
 10
1768.344222948775
 20
348.0986414657217
 10
1768.344608457405
 20
348.0984255615748
 10
1768.345016414396
 20
348.0982542932915
 10
1768.345441709517
 20
348.0981298062456
 10
1768.345879015355
 20
348.098053659811
 10
1768.346322854044
 20
348.0980268078277
  0
LWPOLYLINE
  5
10C5
330
1F
100
AcDbEntity
  8
SANINDUSA
100
AcDbPolyline
 90
        5
 70
   128
 43
0.0
 10
1768.360162572359
 20
348.1118348082639
 10
1768.360120639165
 20
348.1118354530219
 10
1768.359612551637
 20
348.1118423566931
 10
1768.357558322181
 20
348.1118514503399
 10
1768.356358419065
 20
348.1118396497557
  0
LWPOLYLINE
  5
10CB
330
1F
100
AcDbEntity
  8
SANINDUSA
100
AcDbPolyline
 90
        3
 70
   128
 43
0.0
 10
1768.374801621463
 20
348.101731337449
 10
1768.376137826523
 20
348.1047454962863
 10
1768.380805513553
 20
348.1166586025387
  0
LWPOLYLINE
  5
10CF
330
1F
100
AcDbEntity
  8
SANINDUSA
100
AcDbPolyline
 90
        5
 70
   128
 43
0.0
 10
1768.374801621463
 20
348.101731337449
 10
1768.374560732907
 20
348.1011856209109
 10
1768.372726104433
 20
348.0992307959661
 10
1768.370359757742
 20
348.0979953755175
 10
1768.367708700289
 20
348.0976074775092
  0
LWPOLYLINE
  5
10D2
330
1F
100
AcDbEntity
  8
SANINDUSA
100
AcDbPolyline
 90
        8
 70
   128
 43
0.0
 10
1768.373204458035
 20
348.1116752592552
 10
1768.374635314951
 20
348.1117651473909
 10
1768.376025049589
 20
348.1121076185012
 10
1768.377328856046
 20
348.1126916311059
 10
1768.378504698796
 20
348.1134983562782
 10
1768.379514667945
 20
348.1145017847008
 10
1768.380326201463
 20
348.1156695652216
 10
1768.380799843254
 20
348.1166590030018
  0
LINE
  5
10D5
330
1F
100
AcDbEntity
  8
SANINDUSA
100
AcDbLine
 10
1768.380805513553
 20
348.1166586025387
 30
0.0
 11
1768.382716692289
 21
348.126786670369
 31
0.0
  0
LWPOLYLINE
  5
10D8
330
1F
100
AcDbEntity
  8
SANINDUSA
100
AcDbPolyline
 90
        9
 70
   128
 43
0.0
 10
1768.403298666243
 20
348.2018347593887
 10
1768.402493635265
 20
348.2017659178382
 10
1768.401710202997
 20
348.2015683123767
 10
1768.400968826864
 20
348.2012471029896
 10
1768.400288866097
 20
348.2008106772772
 10
1768.399688076214
 20
348.2002704314337
 10
1768.399182145378
 20
348.1996404726627
 10
1768.398784284742
 20
348.1989372508025
 10
1768.398504883467
 20
348.1981791287786
  0
LWPOLYLINE
  5
10DF
330
1F
100
AcDbEntity
  8
SANINDUSA
100
AcDbPolyline
 90
        9
 70
   128
 43
0.0
 10
1768.383737645162
 20
348.2018348082639
 10
1768.383226847789
 20
348.2018102373307
 10
1768.382720234006
 20
348.201736725775
 10
1768.382221953136
 20
348.2016148756792
 10
1768.381736086256
 20
348.2014456850336
 10
1768.381266612766
 20
348.201230539562
 10
1768.380817377799
 20
348.2009712013728
 10
1768.38039206073
 20
348.2006697945264
 10
1768.379994145038
 20
348.2003287876388
  0
ARC
  5
10E2
330
1F
100
AcDbEntity
  8
SANINDUSA
100
AcDbCircle
 10
1768.456308109403
 20
348.2058348082639
 30
0.0
 40
0.0039999999999999
100
AcDbArc
 50
270.0
 51
0.0
  0
LINE
  5
10E3
330
1F
100
AcDbEntity
  8
SANINDUSA
100
AcDbLine
 10
1767.865308109403
 20
348.2418348082639
 30
0.0
 11
1768.455308109403
 21
348.2418348082639
 31
0.0
  0
ARC
  5
10E5
330
1F
100
AcDbEntity
  8
SANINDUSA
100
AcDbCircle
 10
1767.865308109403
 20
348.2368348082639
 30
0.0
 40
0.005
100
AcDbArc
 50
90.0
 51
180.0
  0
ARC
  5
10E6
330
1F
100
AcDbEntity
  8
SANINDUSA
100
AcDbCircle
 10
1768.455308109403
 20
348.2368348082639
 30
0.0
 40
0.005
100
AcDbArc
 50
0.0
 51
90.0
  0
LINE
  5
10E7
330
1F
100
AcDbEntity
  8
SANINDUSA
100
AcDbLine
 10
1769.082575595151
 20
347.7917414716096
 30
0.0
 11
1769.08766853925
 21
348.0708348082639
 31
0.0
  0
LINE
  5
10E9
330
1F
100
AcDbEntity
  8
SANINDUSA
100
AcDbLine
 10
1768.807960510053
 20
347.7917507819768
 30
0.0
 11
1768.807960510053
 21
348.0863348082639
 31
0.0
  0
LINE
  5
10EB
330
1F
100
AcDbEntity
  8
SANINDUSA
100
AcDbLine
 10
1769.76980348569
 20
348.0618640133853
 30
0.0
 11
1769.780659984439
 21
348.0320360282166
 31
0.0
  0
LINE
  5
10EE
330
1F
100
AcDbEntity
  8
SANINDUSA
100
AcDbLine
 10
1769.792984973756
 20
348.0863256856951
 30
0.0
 11
1769.787609387932
 21
347.7917435825756
 31
0.0
  0
LINE
  5
10F0
330
1F
100
AcDbEntity
  8
SANINDUSA
100
AcDbLine
 10
1769.512994264313
 20
348.0718348082639
 30
0.0
 11
1769.512994264313
 21
348.0132082055171
 31
0.0
  0
LINE
  5
10F4
330
1F
100
AcDbEntity
  8
SANINDUSA
100
AcDbLine
 10
1769.010566235675
 20
347.7868348082639
 30
0.0
 11
1768.808460510053
 21
347.7868348082639
 31
0.0
  0
LINE
  5
10F6
330
1F
100
AcDbEntity
  8
SANINDUSA
100
AcDbLine
 10
1768.807960510053
 20
347.7873348082639
 30
0.0
 11
1768.807960510053
 21
347.7917507819768
 31
0.0
  0
ARC
  5
10F7
330
1F
100
AcDbEntity
  8
SANINDUSA
100
AcDbCircle
 10
1768.808460510053
 20
347.7873348082639
 30
0.0
 40
0.0004999999999998
100
AcDbArc
 50
180.0
 51
270.0
  0
ARC
  5
10F9
330
1F
100
AcDbEntity
  8
SANINDUSA
100
AcDbCircle
 10
1769.07757646595
 20
347.7918348082638
 30
0.0
 40
0.005
100
AcDbArc
 50
269.9999989330956
 51
359.1689341234789
  0
LINE
  5
10FC
330
1F
100
AcDbEntity
  8
SANINDUSA
100
AcDbLine
 10
1769.077468510973
 20
347.7868348082639
 30
0.0
 11
1769.010566235675
 21
347.7868348082639
 31
0.0
  0
LWPOLYLINE
  5
10FE
330
1F
100
AcDbEntity
  8
SANINDUSA
100
AcDbPolyline
 90
       21
 70
   128
 43
0.0
 10
1768.838059733213
 20
348.0368534186333
 10
1768.838059694343
 20
348.0368190103612
 10
1768.838345229882
 20
348.0351647078823
 10
1768.839161724453
 20
348.0336990738101
 10
1768.840417107108
 20
348.0325868951643
 10
1768.841969885256
 20
348.0319534724871
 10
1768.843645195114
 20
348.0318701853253
 10
1768.845254292963
 20
348.0323465755779
 10
1768.846615708013
 20
348.0333291288458
 10
1768.847575732526
 20
348.0347070756554
 10
1768.848026030744
 20
348.0363249052982
 10
1768.848023622474
 20
348.037375947405
 10
1768.847565995769
 20
348.0389907579245
 10
1768.846600055779
 20
348.040362348924
 10
1768.845234767377
 20
348.0413362770511
 10
1768.843623925742
 20
348.0418028945744
 10
1768.841948939508
 20
348.0417095652579
 10
1768.840398567632
 20
348.0410666251398
 10
1768.839147716587
 20
348.0399463921383
 10
1768.838337613988
 20
348.0384751718308
 10
1768.838059733213
 20
348.0368534186333
  0
LINE
  5
1101
330
1F
100
AcDbEntity
  8
SANINDUSA
100
AcDbLine
 10
1769.734733247994
 20
347.8918150357677
 30
0.0
 11
1769.734733247994
 21
347.859029023481
 31
0.0
  0
LINE
  5
1102
330
1F
100
AcDbEntity
  8
SANINDUSA
100
AcDbLine
 10
1769.778265323417
 20
347.8276888471626
 30
0.0
 11
1769.781862802896
 21
348.0248307225969
 31
0.0
  0
LINE
  5
1106
330
1F
100
AcDbEntity
  8
SANINDUSA
100
AcDbLine
 10
1769.512994264313
 20
347.8918150357677
 30
0.0
 11
1769.512994264313
 21
347.859029023481
 31
0.0
  0
LINE
  5
1108
330
1F
100
AcDbEntity
  8
SANINDUSA
100
AcDbLine
 10
1769.563760083984
 20
347.7868348082639
 30
0.0
 11
1769.701619456235
 21
347.7868348082639
 31
0.0
  0
LINE
  5
110A
330
1F
100
AcDbEntity
  8
SANINDUSA
100
AcDbLine
 10
1769.701619456235
 20
347.7948348082639
 30
0.0
 11
1769.563760083984
 21
347.7948348082639
 31
0.0
  0
LWPOLYLINE
  5
110D
330
1F
100
AcDbEntity
  8
SANINDUSA
100
AcDbPolyline
 90
       21
 70
   128
 43
0.0
 10
1769.734733247994
 20
347.859029023481
 10
1769.73449860968
 20
347.8589228496795
 10
1769.733794860081
 20
347.8588167506964
 10
1769.732622495117
 20
347.8587108012974
 10
1769.730982340927
 20
347.8586050761429
 10
1769.728875553293
 20
347.8584996497352
 10
1769.726303616825
 20
347.8583945963659
 10
1769.723268343911
 20
347.8582899900641
 10
1769.719771873444
 20
347.8581859045435
 10
1769.715816669314
 20
347.8580824131511
 10
1769.71140551867
 20
347.8579795888149
 10
1769.706541529955
 20
347.8578775039933
 10
1769.701228130721
 20
347.8577762306231
 10
1769.695469065207
 20
347.8576758400696
 10
1769.689268391706
 20
347.857576403076
 10
1769.682630479701
 20
347.8574779897133
 10
1769.67556000679
 20
347.8573806693313
 10
1769.668061955384
 20
347.8572845105098
 10
1769.660141609203
 20
347.8571895810097
 10
1769.651804549547
 20
347.857095947726
 10
1769.643056651367
 20
347.8570036766399
  0
LINE
  5
1110
330
1F
100
AcDbEntity
  8
SANINDUSA
100
AcDbLine
 10
1769.512994264313
 20
347.8514898813713
 30
0.0
 11
1769.512994264313
 21
347.7998348082639
 31
0.0
  0
LINE
  5
1112
330
1F
100
AcDbEntity
  8
SANINDUSA
100
AcDbLine
 10
1769.542494264313
 20
347.7868348082639
 30
0.0
 11
1769.563760083984
 21
347.7868348082639
 31
0.0
  0
LINE
  5
1114
330
1F
100
AcDbEntity
  8
SANINDUSA
100
AcDbLine
 10
1769.563760083984
 20
347.7948348082639
 30
0.0
 11
1769.542494264313
 21
347.7948348082639
 31
0.0
  0
LINE
  5
1115
330
1F
100
AcDbEntity
  8
SANINDUSA
100
AcDbLine
 10
1769.542994264313
 20
347.7873348082639
 30
0.0
 11
1769.542994264313
 21
347.7943348082638
 31
0.0
  0
LINE
  5
1117
330
1F
100
AcDbEntity
  8
SANINDUSA
100
AcDbLine
 10
1769.512994264313
 20
347.7943348082638
 30
0.0
 11
1769.512994264313
 21
347.7873348082639
 31
0.0
  0
LINE
  5
1118
330
1F
100
AcDbEntity
  8
SANINDUSA
100
AcDbLine
 10
1769.513494264313
 20
347.7868348082639
 30
0.0
 11
1769.542494264313
 21
347.7868348082639
 31
0.0
  0
ARC
  5
1119
330
1F
100
AcDbEntity
  8
SANINDUSA
100
AcDbCircle
 10
1769.513494264313
 20
347.7873348082639
 30
0.0
 40
0.0005000000000027
100
AcDbArc
 50
180.0
 51
269.9999999999739
  0
ARC
  5
111A
330
1F
100
AcDbEntity
  8
SANINDUSA
100
AcDbCircle
 10
1769.542494264313
 20
347.7873348082639
 30
0.0
 40
0.0005000000000001
100
AcDbArc
 50
270.0
 51
0.0
  0
LINE
  5
111B
330
1F
100
AcDbEntity
  8
SANINDUSA
100
AcDbLine
 10
1769.542494264313
 20
347.7948348082639
 30
0.0
 11
1769.513494264313
 21
347.7948348082639
 31
0.0
  0
ARC
  5
111C
330
1F
100
AcDbEntity
  8
SANINDUSA
100
AcDbCircle
 10
1769.513494264313
 20
347.7943348082638
 30
0.0
 40
0.0005000000000001
100
AcDbArc
 50
90.0
 51
180.0
  0
ARC
  5
1120
330
1F
100
AcDbEntity
  8
SANINDUSA
100
AcDbCircle
 10
1769.542494264313
 20
347.7943348082638
 30
0.0
 40
0.0005000000000001
100
AcDbArc
 50
0.0
 51
90.0
  0
LINE
  5
1125
330
1F
100
AcDbEntity
  8
SANINDUSA
100
AcDbLine
 10
1769.513472069503
 20
347.8570036766399
 30
0.0
 11
1769.643056651367
 21
347.8570036766399
 31
0.0
  0
LINE
  5
112C
330
1F
100
AcDbEntity
  8
SANINDUSA
100
AcDbLine
 10
1769.512994264313
 20
347.8537690591978
 30
0.0
 11
1769.512994264313
 21
347.8514898813713
 31
0.0
  0
LWPOLYLINE
  5
112D
330
1F
100
AcDbEntity
  8
SANINDUSA
100
AcDbPolyline
 90
        9
 70
   128
 43
0.0
 10
1769.512994264313
 20
347.8567505082847
 10
1769.513003337803
 20
347.8567985673822
 10
1769.513030228959
 20
347.8568448822248
 10
1769.513073961795
 20
347.8568877718636
 10
1769.513132949073
 20
347.8569256796637
 10
1769.513205049912
 20
347.8569572298009
 10
1769.513287647486
 20
347.8569812771961
 10
1769.513377744003
 20
347.8569969490739
 10
1769.513472069503
 20
347.8570036766399
  0
LINE
  5
112E
330
1F
100
AcDbEntity
  8
SANINDUSA
100
AcDbLine
 10
1769.512994264313
 20
347.8567505082847
 30
0.0
 11
1769.512994264313
 21
347.8537690591978
 31
0.0
  0
LINE
  5
1130
330
1F
100
AcDbEntity
  8
SANINDUSA
100
AcDbLine
 10
1769.512994264313
 20
347.859029023481
 30
0.0
 11
1769.512994264313
 21
347.8567505082847
 31
0.0
  0
ARC
  5
1133
330
1F
100
AcDbEntity
  8
SANINDUSA
100
AcDbCircle
 10
1769.760494264313
 20
347.8098348082639
 30
0.0
 40
0.01
100
AcDbArc
 50
90.0
 51
180.0
  0
LWPOLYLINE
  5
1134
330
1F
100
AcDbEntity
  8
SANINDUSA
100
AcDbPolyline
 90
        9
 70
   128
 43
0.0
 10
1769.710203241132
 20
347.8098348082639
 10
1769.710291667653
 20
347.8103170838813
 10
1769.710557113538
 20
347.8108033105248
 10
1769.711931226027
 20
347.8120163295409
 10
1769.714631356772
 20
347.8134681035787
 10
1769.717472446768
 20
347.8146061937114
 10
1769.724039225395
 20
347.8167730330919
 10
1769.730682988479
 20
347.8184284795245
 10
1769.736580803763
 20
347.8194400032872
  0
LINE
  5
1137
330
1F
100
AcDbEntity
  8
SANINDUSA
100
AcDbLine
 10
1769.735293280707
 20
347.7943348082638
 30
0.0
 11
1769.735293280707
 21
347.7873348082639
 31
0.0
  0
ARC
  5
1139
330
1F
100
AcDbEntity
  8
SANINDUSA
100
AcDbCircle
 10
1769.782610220214
 20
347.7918348082638
 30
0.0
 40
0.0050000000000001
100
AcDbArc
 50
270.0
 51
358.9545726084614
  0
LINE
  5
113B
330
1F
100
AcDbEntity
  8
SANINDUSA
100
AcDbLine
 10
1769.735793280707
 20
347.7868348082639
 30
0.0
 11
1769.782610220214
 21
347.7868348082639
 31
0.0
  0
LINE
  5
113D
330
1F
100
AcDbEntity
  8
SANINDUSA
100
AcDbLine
 10
1769.735793280707
 20
347.7868348082639
 30
0.0
 11
1769.701619456235
 21
347.7868348082639
 31
0.0
  0
ARC
  5
113F
330
1F
100
AcDbEntity
  8
SANINDUSA
100
AcDbCircle
 10
1769.735793280707
 20
347.7873348082639
 30
0.0
 40
0.0005
100
AcDbArc
 50
180.0
 51
270.0
  0
LINE
  5
1140
330
1F
100
AcDbEntity
  8
SANINDUSA
100
AcDbLine
 10
1769.745494264313
 20
347.7948348082639
 30
0.0
 11
1769.735793280707
 21
347.7948348082639
 31
0.0
  0
LINE
  5
1143
330
1F
100
AcDbEntity
  8
SANINDUSA
100
AcDbLine
 10
1769.710203241132
 20
347.7998348082639
 30
0.0
 11
1769.710203241132
 21
347.8098348082639
 31
0.0
  0
LWPOLYLINE
  5
1145
330
1F
100
AcDbEntity
  8
SANINDUSA
100
AcDbPolyline
 90
        9
 70
   128
 43
0.0
 10
1769.708706808365
 20
347.7948348082638
 10
1769.708998747915
 20
347.7949308818618
 10
1769.709279468393
 20
347.7952154106013
 10
1769.709538181867
 20
347.7956774602024
 10
1769.709764946122
 20
347.7962992743579
 10
1769.709951046738
 20
347.7970569570987
 10
1769.710089331971
 20
347.797921391102
 10
1769.710174487596
 20
347.7988593566538
 10
1769.710203241132
 20
347.7998348082638
  0
LINE
  5
1148
330
1F
100
AcDbEntity
  8
SANINDUSA
100
AcDbLine
 10
1769.701619456235
 20
347.7948348082639
 30
0.0
 11
1769.735793280707
 21
347.7948348082639
 31
0.0
  0
ARC
  5
114B
330
1F
100
AcDbEntity
  8
SANINDUSA
100
AcDbCircle
 10
1769.735793280707
 20
347.7943348082638
 30
0.0
 40
0.0005
100
AcDbArc
 50
90.0
 51
180.0
  0
LINE
  5
114D
330
1F
100
AcDbEntity
  8
SANINDUSA
100
AcDbLine
 10
1769.760494264313
 20
347.7953348082639
 30
0.0
 11
1769.760494264313
 21
347.8093348082639
 31
0.0
  0
LINE
  5
114E
330
1F
100
AcDbEntity
  8
SANINDUSA
100
AcDbLine
 10
1769.777674754777
 20
347.7953256856951
 30
0.0
 11
1769.77793022923
 21
347.8093256856951
 31
0.0
  0
LINE
  5
1150
330
1F
100
AcDbEntity
  8
SANINDUSA
100
AcDbLine
 10
1769.750494264313
 20
347.8098348082639
 30
0.0
 11
1769.750494264313
 21
347.7998348082639
 31
0.0
  0
LINE
  5
1152
330
1F
100
AcDbEntity
  8
SANINDUSA
100
AcDbLine
 10
1769.777174838006
 20
347.7948348082639
 30
0.0
 11
1769.760994264314
 21
347.7948348082639
 31
0.0
  0
ARC
  5
1154
330
1F
100
AcDbEntity
  8
SANINDUSA
100
AcDbCircle
 10
1769.760994264314
 20
347.7953348082639
 30
0.0
 40
0.0005000000000001
100
AcDbArc
 50
180.0
 51
270.0000000000652
  0
ARC
  5
1157
330
1F
100
AcDbEntity
  8
SANINDUSA
100
AcDbCircle
 10
1769.745494264313
 20
347.7998348082639
 30
0.0
 40
0.005
100
AcDbArc
 50
270.0
 51
0.0000000000008142
  0
ARC
  5
1158
330
1F
100
AcDbEntity
  8
SANINDUSA
100
AcDbCircle
 10
1769.777174838006
 20
347.7953348082639
 30
0.0
 40
0.0005000000000008
100
AcDbArc
 50
269.9999999999349
 51
358.9545726006965
  0
LINE
  5
1159
330
1F
100
AcDbEntity
  8
SANINDUSA
100
AcDbLine
 10
1769.760994264314
 20
347.8098348082639
 30
0.0
 11
1769.777430312458
 21
347.8098348082639
 31
0.0
  0
ARC
  5
115B
330
1F
100
AcDbEntity
  8
SANINDUSA
100
AcDbCircle
 10
1769.760994264314
 20
347.8093348082639
 30
0.0
 40
0.0005000000000001
100
AcDbArc
 50
90.0
 51
180.0
  0
ARC
  5
115E
330
1F
100
AcDbEntity
  8
SANINDUSA
100
AcDbCircle
 10
1769.777430312458
 20
347.8093348082639
 30
0.0
 40
0.0005
100
AcDbArc
 50
358.9545726078368
 51
90.00000000006513
  0
LWPOLYLINE
  5
1161
330
1F
100
AcDbEntity
  8
SANINDUSA
100
AcDbPolyline
 90
        4
 70
   128
 43
0.0
 10
1769.736580803763
 20
347.8194400032872
 10
1769.738361304891
 20
347.8196273753987
 10
1769.740118083392
 20
347.8197484520411
 10
1769.743554243912
 20
347.8198348082639
  0
ARC
  5
1163
330
1F
100
AcDbEntity
  8
SANINDUSA
100
AcDbCircle
 10
1769.770266655068
 20
347.8278348082639
 30
0.0
 40
0.0080000000000002
100
AcDbArc
 50
270.0
 51
358.9545726089362
  0
LINE
  5
1166
330
1F
100
AcDbEntity
  8
SANINDUSA
100
AcDbLine
 10
1769.760494264313
 20
347.8198348082639
 30
0.0
 11
1769.770266655068
 21
347.8198348082639
 31
0.0
  0
LINE
  5
1167
330
1F
100
AcDbEntity
  8
SANINDUSA
100
AcDbLine
 10
1769.743554243912
 20
347.8198348082639
 30
0.0
 11
1769.760494264313
 21
347.8198348082639
 31
0.0
  0
LINE
  5
116C
330
1F
100
AcDbEntity
  8
SANINDUSA
100
AcDbLine
 10
1769.512994264313
 20
347.9654614110107
 30
0.0
 11
1769.512994264313
 21
347.899237197666
 31
0.0
  0
LWPOLYLINE
  5
116E
330
1F
100
AcDbEntity
  8
SANINDUSA
100
AcDbPolyline
 90
       21
 70
   128
 43
0.0
 10
1769.636867141332
 20
347.8939024079604
 10
1769.646191474851
 20
347.8938079676439
 10
1769.655080745741
 20
347.8937120256873
 10
1769.663528256091
 20
347.8936146543814
 10
1769.671527640846
 20
347.8935159270936
 10
1769.679072872605
 20
347.8934159182134
 10
1769.686158266167
 20
347.8933147030957
 10
1769.692778482809
 20
347.8932123580043
 10
1769.69892853431
 20
347.8931089600544
 10
1769.704603786713
 20
347.8930045871549
 10
1769.709799963811
 20
347.8928993179488
 10
1769.714513150375
 20
347.8927932317546
 10
1769.718739795098
 20
347.8926864085064
 10
1769.722476713277
 20
347.8925789286939
 10
1769.725721089209
 20
347.8924708733011
 10
1769.728470478309
 20
347.8923623237459
 10
1769.730722808963
 20
347.8922533618186
 10
1769.732476384076
 20
347.8921440696202
 10
1769.73372988236
 20
347.8920345295004
 10
1769.734482359325
 20
347.8919248239958
 10
1769.734733247994
 20
347.8918150357677
  0
LINE
  5
1171
330
1F
100
AcDbEntity
  8
SANINDUSA
100
AcDbLine
 10
1769.636867141332
 20
347.8939024079604
 30
0.0
 11
1769.513472308721
 21
347.8939024079604
 31
0.0
  0
LINE
  5
1174
330
1F
100
AcDbEntity
  8
SANINDUSA
100
AcDbLine
 10
1769.512994264313
 20
347.8968883154832
 30
0.0
 11
1769.512994264313
 21
347.8941633294845
 31
0.0
  0
LWPOLYLINE
  5
1176
330
1F
100
AcDbEntity
  8
SANINDUSA
100
AcDbPolyline
 90
        9
 70
   128
 43
0.0
 10
1769.512994264313
 20
347.8941633294845
 10
1769.51300334348
 20
347.8941137842958
 10
1769.513030251255
 20
347.8940660384233
 10
1769.513074010439
 20
347.894021825838
 10
1769.513133031842
 20
347.8939827521934
 10
1769.513205172005
 20
347.8939502365144
 10
1769.513287811037
 20
347.8939254596617
 10
1769.513377947764
 20
347.8939093214484
 10
1769.513472308721
 20
347.8939024079604
  0
LINE
  5
1178
330
1F
100
AcDbEntity
  8
SANINDUSA
100
AcDbLine
 10
1769.512994264313
 20
347.8941633294845
 30
0.0
 11
1769.512994264313
 21
347.8918150357677
 31
0.0
  0
LINE
  5
117C
330
1F
100
AcDbEntity
  8
SANINDUSA
100
AcDbLine
 10
1769.512994264313
 20
347.899237197666
 30
0.0
 11
1769.512994264313
 21
347.8968883154832
 31
0.0
  0
LWPOLYLINE
  5
1183
330
1F
100
AcDbEntity
  8
SANINDUSA
100
AcDbPolyline
 90
       21
 70
   128
 43
0.0
 10
1769.737753356534
 20
347.9732181642999
 10
1769.737480147374
 20
347.97308322106
 10
1769.73666071893
 20
347.972948376129
 10
1769.735295668172
 20
347.972813727744
 10
1769.733385989568
 20
347.972679373999
 10
1769.730933074356
 20
347.9725454127734
 10
1769.727938709533
 20
347.9724119416606
 10
1769.724405076553
 20
347.972279057897
 10
1769.720334749738
 20
347.972146858291
 10
1769.715730694402
 20
347.9720154391527
 10
1769.71059626469
 20
347.9718848962234
 10
1769.704935201135
 20
347.9717553246064
 10
1769.698751627935
 20
347.971626818697
 10
1769.692050049945
 20
347.9714994721144
 10
1769.684835349398
 20
347.9713733776331
 10
1769.677112782346
 20
347.9712486271154
 10
1769.668887974831
 20
347.9711253114446
 10
1769.660166918789
 20
347.9710035204585
 10
1769.650955967683
 20
347.9708833428844
 10
1769.641261831871
 20
347.9707648662738
 10
1769.631091573725
 20
347.9706481769395
  0
LWPOLYLINE
  5
1184
330
1F
100
AcDbEntity
  8
SANINDUSA
100
AcDbPolyline
 90
       21
 70
   128
 43
0.0
 10
1769.631091573725
 20
348.0080214395882
 10
1769.641261831871
 20
348.0079047502539
 10
1769.650955967683
 20
348.0077862736434
 10
1769.660166918789
 20
348.0076660960691
 10
1769.668887974831
 20
348.0075443050831
 10
1769.677112782346
 20
348.0074209894123
 10
1769.684835349398
 20
348.0072962388946
 10
1769.692050049945
 20
348.0071701444133
 10
1769.698751627935
 20
348.0070427978307
 10
1769.704935201135
 20
348.0069142919214
 10
1769.71059626469
 20
348.0067847203043
 10
1769.715730694402
 20
348.006654177375
 10
1769.720334749738
 20
348.0065227582366
 10
1769.724405076553
 20
348.0063905586306
 10
1769.727938709533
 20
348.0062576748671
 10
1769.730933074356
 20
348.0061242037543
 10
1769.733385989568
 20
348.0059902425287
 10
1769.735295668172
 20
348.0058558887837
 10
1769.73666071893
 20
348.0057212403987
 10
1769.737480147374
 20
348.0055863954676
 10
1769.737753356534
 20
348.0054514522278
  0
LINE
  5
1188
330
1F
100
AcDbEntity
  8
SANINDUSA
100
AcDbLine
 10
1769.512994264313
 20
348.0054514522278
 30
0.0
 11
1769.512994264313
 21
347.9732181643
 31
0.0
  0
LINE
  5
118A
330
1F
100
AcDbEntity
  8
SANINDUSA
100
AcDbLine
 10
1769.513472264089
 20
347.9706481769395
 30
0.0
 11
1769.631091573726
 21
347.9706481769395
 31
0.0
  0
LINE
  5
1191
330
1F
100
AcDbEntity
  8
SANINDUSA
100
AcDbLine
 10
1769.512994264313
 20
347.9677750012801
 30
0.0
 11
1769.512994264313
 21
347.9654614110107
 31
0.0
  0
LWPOLYLINE
  5
1192
330
1F
100
AcDbEntity
  8
SANINDUSA
100
AcDbPolyline
 90
        9
 70
   128
 43
0.0
 10
1769.512994264313
 20
347.9703911782034
 10
1769.513003342421
 20
347.9704399758828
 10
1769.513030247095
 20
347.9704870015997
 10
1769.513074001362
 20
347.9705305477363
 10
1769.513133016398
 20
347.9705690330265
 10
1769.513205149224
 20
347.9706010599759
 10
1769.513287780521
 20
347.9706254656082
 10
1769.513377909747
 20
347.9706413636954
 10
1769.513472264089
 20
347.9706481769395
  0
LINE
  5
1193
330
1F
100
AcDbEntity
  8
SANINDUSA
100
AcDbLine
 10
1769.512994264313
 20
347.9703911782034
 30
0.0
 11
1769.512994264313
 21
347.9677750012801
 31
0.0
  0
LINE
  5
1195
330
1F
100
AcDbEntity
  8
SANINDUSA
100
AcDbLine
 10
1769.512994264313
 20
347.9732181643
 30
0.0
 11
1769.512994264313
 21
347.9703911782034
 31
0.0
  0
LINE
  5
1198
330
1F
100
AcDbEntity
  8
SANINDUSA
100
AcDbLine
 10
1769.631091573726
 20
348.0080214395882
 30
0.0
 11
1769.513472264089
 21
348.0080214395882
 31
0.0
  0
LINE
  5
119B
330
1F
100
AcDbEntity
  8
SANINDUSA
100
AcDbLine
 10
1769.512994264313
 20
348.0132082055171
 30
0.0
 11
1769.512994264313
 21
348.0108946152476
 31
0.0
  0
LWPOLYLINE
  5
119F
330
1F
100
AcDbEntity
  8
SANINDUSA
100
AcDbPolyline
 90
        9
 70
   128
 43
0.0
 10
1769.512994264313
 20
348.0082784383243
 10
1769.513003342421
 20
348.008229640645
 10
1769.513030247095
 20
348.008182614928
 10
1769.513074001362
 20
348.0081390687914
 10
1769.513133016398
 20
348.0081005835012
 10
1769.513205149224
 20
348.0080685565518
 10
1769.513287780521
 20
348.0080441509195
 10
1769.513377909747
 20
348.0080282528323
 10
1769.513472264089
 20
348.0080214395882
  0
LINE
  5
11A0
330
1F
100
AcDbEntity
  8
SANINDUSA
100
AcDbLine
 10
1769.512994264313
 20
348.0108946152476
 30
0.0
 11
1769.512994264313
 21
348.0082784383243
 31
0.0
  0
LINE
  5
11A2
330
1F
100
AcDbEntity
  8
SANINDUSA
100
AcDbLine
 10
1769.512994264313
 20
348.0082784383243
 30
0.0
 11
1769.512994264313
 21
348.0054514522278
 31
0.0
  0
LWPOLYLINE
  5
11A4
330
1F
100
AcDbEntity
  8
SANINDUSA
100
AcDbPolyline
 90
       24
 70
   128
 43
0.0
 10
1769.542255042697
 20
348.0368348082639
 10
1769.542440322416
 20
348.0381837921196
 10
1769.542982420227
 20
348.0394327280141
 10
1769.543841131214
 20
348.0404889880853
 10
1769.544952768711
 20
348.0412742343558
 10
1769.546234887651
 20
348.0417302287023
 10
1769.547592399137
 20
348.0418231521098
 10
1769.548924622753
 20
348.0415461128745
 10
1769.550132753567
 20
348.0409196577289
 10
1769.551127190044
 20
348.0399902479855
 10
1769.551834179379
 20
348.0388268137131
 10
1769.552201287409
 20
348.0375156415093
 10
1769.552201287409
 20
348.0361539750183
 10
1769.551834179379
 20
348.0348428028146
 10
1769.551127190044
 20
348.0336793685422
 10
1769.550132753567
 20
348.0327499587988
 10
1769.548924622753
 20
348.0321235036533
 10
1769.547592399137
 20
348.0318464644179
 10
1769.546234887651
 20
348.0319393878255
 10
1769.544952768711
 20
348.0323953821718
 10
1769.543841131214
 20
348.0331806284425
 10
1769.542982420227
 20
348.0342368885136
 10
1769.542440322416
 20
348.035485824408
 10
1769.542255042697
 20
348.0368348082639
  0
LINE
  5
11AA
330
1F
100
AcDbEntity
  8
SANINDUSA
100
AcDbLine
 10
1769.737753356535
 20
348.0054514522278
 30
0.0
 11
1769.737753356535
 21
347.9732181643
 31
0.0
  0
ARC
  5
11B2
330
1F
100
AcDbEntity
  8
SANINDUSA
100
AcDbCircle
 10
1769.761866132023
 20
348.02519562535
 30
0.0
 40
0.0200000000000003
100
AcDbArc
 50
358.9545726089036
 51
19.99999999999905
  0
LINE
  5
11B5
330
1F
100
AcDbEntity
  8
SANINDUSA
100
AcDbLine
 10
1768.807960510053
 20
348.2060117185223
 30
0.0
 11
1768.807960510053
 21
348.2368348082639
 31
0.0
  0
LINE
  5
11B6
330
1F
100
AcDbEntity
  8
SANINDUSA
100
AcDbLine
 10
1769.307960510053
 20
348.2058348082639
 30
0.0
 11
1769.307960510053
 21
348.2368348082639
 31
0.0
  0
LWPOLYLINE
  5
11B7
330
1F
100
AcDbEntity
  8
SANINDUSA
100
AcDbPolyline
 90
        7
 70
   128
 43
0.0
 10
1768.965321539262
 20
348.0718915020566
 10
1768.955646130781
 20
348.0766609450557
 10
1768.948993031111
 20
348.0808032547075
 10
1768.940296277586
 20
348.0874173155293
 10
1768.932616960722
 20
348.0945926491251
 10
1768.932527578481
 20
348.0946883022079
 10
1768.932428768299
 20
348.0947940446734
  0
LWPOLYLINE
  5
11BB
330
1F
100
AcDbEntity
  8
SANINDUSA
100
AcDbPolyline
 90
        7
 70
   128
 43
0.0
 10
1769.069307989669
 20
348.1955668786735
 10
1769.049014767344
 20
348.1840914941622
 10
1769.008403751335
 20
348.1611768669674
 10
1768.964954613643
 20
348.1368869465419
 10
1768.950418905841
 20
348.1288578486598
 10
1768.935799425469
 20
348.1210267390658
 10
1768.917993897543
 20
348.1122324013592
  0
LINE
  5
11BC
330
1F
100
AcDbEntity
  8
SANINDUSA
100
AcDbLine
 10
1769.303960510053
 20
348.2018348082639
 30
0.0
 11
1768.816793802142
 21
348.2018348082639
 31
0.0
  0
LINE
  5
11C0
330
1F
100
AcDbEntity
  8
SANINDUSA
100
AcDbLine
 10
1768.807960510053
 20
348.1054266626168
 30
0.0
 11
1768.807960510053
 21
348.1979353612661
 31
0.0
  0
LINE
  5
11C6
330
1F
100
AcDbEntity
  8
SANINDUSA
100
AcDbLine
 10
1768.808460510053
 20
348.0868348082639
 30
0.0
 11
1768.941062209779
 21
348.0868348082639
 31
0.0
  0
ARC
  5
11C8
330
1F
100
AcDbEntity
  8
SANINDUSA
100
AcDbCircle
 10
1768.808460510053
 20
348.0863348082639
 30
0.0
 40
0.0005000000000001
100
AcDbArc
 50
90.0
 51
180.0
  0
LWPOLYLINE
  5
11D8
330
1F
100
AcDbEntity
  8
SANINDUSA
100
AcDbPolyline
 90
        3
 70
   128
 43
0.0
 10
1768.915783274223
 20
348.1116752592552
 10
1768.860891101506
 20
348.1041986178738
 10
1768.812504327539
 20
348.0976074775092
  0
LINE
  5
11DB
330
1F
100
AcDbEntity
  8
SANINDUSA
100
AcDbLine
 10
1768.807960510053
 20
348.1015695763324
 30
0.0
 11
1768.807960510053
 21
348.1054266626168
 31
0.0
  0
LWPOLYLINE
  5
11DD
330
1F
100
AcDbEntity
  8
SANINDUSA
100
AcDbPolyline
 90
        9
 70
   128
 43
0.0
 10
1768.812504327539
 20
348.0976074775092
 10
1768.811652734892
 20
348.0975822010378
 10
1768.810815104642
 20
348.0977378141347
 10
1768.810029436366
 20
348.0980672573226
 10
1768.809331372356
 20
348.098555585222
 10
1768.808752580687
 20
348.0991806445576
 10
1768.808319318573
 20
348.099914079154
 10
1768.8080512412
 20
348.1007226163299
 10
1768.807960510053
 20
348.1015695763324
  0
LWPOLYLINE
  5
11E4
330
1F
100
AcDbEntity
  8
SANINDUSA
100
AcDbPolyline
 90
        8
 70
   128
 43
0.0
 10
1768.914894564667
 20
348.1108821903768
 10
1768.916645388795
 20
348.1098755026466
 10
1768.918376709395
 20
348.1086982368962
 10
1768.92058743136
 20
348.1069444910828
 10
1768.92294249173
 20
348.1047680455239
 10
1768.925617716268
 20
348.1020520150992
 10
1768.929208429872
 20
348.0982004424005
 10
1768.92924893661
 20
348.09815660423
  0
LWPOLYLINE
  5
11E6
330
1F
100
AcDbEntity
  8
SANINDUSA
100
AcDbPolyline
 90
        3
 70
   128
 43
0.0
 10
1768.929287598305
 20
348.0981507748648
 10
1768.931274116525
 20
348.0959738164695
 10
1768.932729336109
 20
348.094486937862
  0
LWPOLYLINE
  5
11F7
330
1F
100
AcDbEntity
  8
SANINDUSA
100
AcDbPolyline
 90
        3
 70
   128
 43
0.0
 10
1768.913673839202
 20
348.1113879416215
 10
1768.91446746414
 20
348.1111275544624
 10
1768.914894564667
 20
348.1108821903768
  0
ARC
  5
11FE
330
1F
100
AcDbEntity
  8
SANINDUSA
100
AcDbCircle
 10
1768.91341751606
 20
348.1256943743282
 30
0.0
 40
0.0142185788214173
100
AcDbArc
 50
279.5449803675774
 51
288.7754033371427
  0
LINE
  5
1209
330
1F
100
AcDbEntity
  8
SANINDUSA
100
AcDbLine
 10
1768.811133953009
 20
348.2022444128841
 30
0.0
 11
1768.816793802142
 21
348.2018348082639
 31
0.0
  0
LINE
  5
120E
330
1F
100
AcDbEntity
  8
SANINDUSA
100
AcDbLine
 10
1768.807960510053
 20
348.2028845638278
 30
0.0
 11
1768.807960510053
 21
348.2060117185223
 31
0.0
  0
LWPOLYLINE
  5
1210
330
1F
100
AcDbEntity
  8
SANINDUSA
100
AcDbPolyline
 90
        6
 70
   128
 43
0.0
 10
1768.808232479269
 20
348.2058348082639
 10
1768.808380969848
 20
348.2047563087924
 10
1768.808915786198
 20
348.2036797001108
 10
1768.809545696171
 20
348.2030149845231
 10
1768.810707107597
 20
348.2023700671283
 10
1768.811133953009
 20
348.202244412884
  0
LWPOLYLINE
  5
1219
330
1F
100
AcDbEntity
  8
SANINDUSA
100
AcDbPolyline
 90
        9
 70
   128
 43
0.0
 10
1769.005950344598
 20
348.1096287455475
 10
1769.013735201302
 20
348.1208731039667
 10
1769.022239086156
 20
348.1320928769252
 10
1769.031446430067
 20
348.14337710893
 10
1769.041212521683
 20
348.154650373903
 10
1769.051634480203
 20
348.1661086012787
 10
1769.062487052034
 20
348.1775698241129
 10
1769.073752997136
 20
348.189079908812
 10
1769.085351140753
 20
348.2005997562061
  0
LINE
  5
121B
330
1F
100
AcDbEntity
  8
SANINDUSA
100
AcDbLine
 10
1769.118390442764
 20
348.0916382102778
 30
0.0
 11
1769.241258051955
 21
348.2003287876388
 31
0.0
  0
LWPOLYLINE
  5
121E
330
1F
100
AcDbEntity
  8
SANINDUSA
100
AcDbPolyline
 90
        3
 70
   128
 43
0.0
 10
1768.991710148864
 20
348.0873429347233
 10
1768.996304668708
 20
348.0946756536373
 10
1769.005950344598
 20
348.1096287455475
  0
LWPOLYLINE
  5
121F
330
1F
100
AcDbEntity
  8
SANINDUSA
100
AcDbPolyline
 90
       24
 70
   128
 43
0.0
 10
1769.021261929547
 20
348.0874111540552
 10
1769.030457806978
 20
348.0878064494312
 10
1769.038526130308
 20
348.0881528130417
 10
1769.040450563765
 20
348.0882354413741
 10
1769.0422967368
 20
348.0883147132759
 10
1769.044064897021
 20
348.088390628747
 10
1769.045755395097
 20
348.0884631877876
 10
1769.047368671514
 20
348.0885323903975
 10
1769.048905243854
 20
348.0885982365768
 10
1769.059257833316
 20
348.0890404559505
 10
1769.068722635107
 20
348.0894442698288
 10
1769.07224951377
 20
348.0895950418414
 10
1769.075625794103
 20
348.0897396689747
 10
1769.078850676528
 20
348.0898781512288
 10
1769.08192397717
 20
348.0900104886037
 10
1769.084846088167
 20
348.0901366810993
 10
1769.092892047202
 20
348.090484814219
 10
1769.099842049265
 20
348.0907871067752
 10
1769.105669624573
 20
348.0910435587678
 10
1769.110369253809
 20
348.0912541701968
 10
1769.113954283643
 20
348.0914189410623
 10
1769.116454676511
 20
348.0915378713644
 10
1769.11791467389
 20
348.0916109611028
 10
1769.118390442764
 20
348.0916382102777
  0
LINE
  5
1221
330
1F
100
AcDbEntity
  8
SANINDUSA
100
AcDbLine
 10
1769.094646795431
 20
348.0708348082639
 30
0.0
 11
1769.007960510053
 21
348.0708348082639
 31
0.0
  0
LWPOLYLINE
  5
1224
330
1F
100
AcDbEntity
  8
SANINDUSA
100
AcDbPolyline
 90
        3
 70
   128
 43
0.0
 10
1768.971485762597
 20
348.0739305125382
 10
1768.975860386278
 20
348.076747843788
 10
1768.991710148864
 20
348.0873429347233
  0
LINE
  5
1227
330
1F
100
AcDbEntity
  8
SANINDUSA
100
AcDbLine
 10
1769.007960510053
 20
348.0708348082639
 30
0.0
 11
1768.981114763284
 21
348.0708348082639
 31
0.0
  0
LINE
  5
122A
330
1F
100
AcDbEntity
  8
SANINDUSA
100
AcDbLine
 10
1768.981114763284
 20
348.0708348082639
 30
0.0
 11
1768.968334723229
 21
348.0708348082639
 31
0.0
  0
LWPOLYLINE
  5
122E
330
1F
100
AcDbEntity
  8
SANINDUSA
100
AcDbPolyline
 90
        3
 70
   128
 43
0.0
 10
1768.966945591505
 20
348.0719056494274
 10
1768.966905468229
 20
348.0718917326925
 10
1768.96677356161
 20
348.0718409281944
  0
LINE
  5
1231
330
1F
100
AcDbEntity
  8
SANINDUSA
100
AcDbLine
 10
1768.96677356161
 20
348.0718409281944
 30
0.0
 11
1768.966279970692
 21
348.0717203930766
 31
0.0
  0
LWPOLYLINE
  5
1234
330
1F
100
AcDbEntity
  8
SANINDUSA
100
AcDbPolyline
 90
        4
 70
   128
 43
0.0
 10
1768.967615776819
 20
348.0709685014087
 10
1768.967117018007
 20
348.0711591832085
 10
1768.966114592842
 20
348.0715608674072
 10
1768.965321539262
 20
348.0718915020566
  0
LWPOLYLINE
  5
1236
330
1F
100
AcDbEntity
  8
SANINDUSA
100
AcDbPolyline
 90
        6
 70
   128
 43
0.0
 10
1768.966279970692
 20
348.0717203930765
 10
1768.966124350028
 20
348.071713077639
 10
1768.965969292531
 20
348.0717210728059
 10
1768.965737846258
 20
348.0717579515336
 10
1768.965395724012
 20
348.0718616828389
 10
1768.965321539262
 20
348.0718915020566
  0
LWPOLYLINE
  5
123C
330
1F
100
AcDbEntity
  8
SANINDUSA
100
AcDbPolyline
 90
        6
 70
   128
 43
0.0
 10
1768.971485762597
 20
348.0739305125382
 10
1768.971464564613
 20
348.0739193587722
 10
1768.97113173893
 20
348.0737456395908
 10
1768.971040263342
 20
348.0736983767185
 10
1768.969790290818
 20
348.0730771823687
 10
1768.966945591505
 20
348.0719056494274
  0
LWPOLYLINE
  5
1244
330
1F
100
AcDbEntity
  8
SANINDUSA
100
AcDbPolyline
 90
        4
 70
   128
 43
0.0
 10
1768.993805538426
 20
348.0874111545236
 10
1768.993789779271
 20
348.0874127039792
 10
1768.992912407438
 20
348.0874515761108
 10
1768.992068659194
 20
348.0873983157439
  0
LINE
  5
1246
330
1F
100
AcDbEntity
  8
SANINDUSA
100
AcDbLine
 10
1768.993805538426
 20
348.0874111545236
 30
0.0
 11
1769.007960510053
 21
348.0874111545236
 31
0.0
  0
LINE
  5
1248
330
1F
100
AcDbEntity
  8
SANINDUSA
100
AcDbLine
 10
1769.007960510053
 20
348.0874111545236
 30
0.0
 11
1769.021261940421
 21
348.0874111545236
 31
0.0
  0
ARC
  5
124A
330
1F
100
AcDbEntity
  8
SANINDUSA
100
AcDbCircle
 10
1769.094646795431
 20
348.0858348082639
 30
0.0
 40
0.0150000000000003
100
AcDbArc
 50
270.0
 51
327.9946167919194
  0
LWPOLYLINE
  5
124B
330
1F
100
AcDbEntity
  8
SANINDUSA
100
AcDbPolyline
 90
        3
 70
   128
 43
0.0
 10
1769.118390433732
 20
348.0916382204798
 10
1769.113359470143
 20
348.0864969963294
 10
1769.109118203317
 20
348.0806871385142
  0
LINE
  5
124C
330
1F
100
AcDbEntity
  8
SANINDUSA
100
AcDbLine
 10
1769.107366769991
 20
348.0778848241639
 30
0.0
 11
1769.109118212771
 21
348.0806871326121
 31
0.0
  0
LWPOLYLINE
  5
1252
330
1F
100
AcDbEntity
  8
SANINDUSA
100
AcDbPolyline
 90
        5
 70
   128
 43
0.0
 10
1769.076178841899
 20
348.2006247763218
 10
1769.074695799472
 20
348.1991218721877
 10
1769.072472894559
 20
348.1974902809295
 10
1769.069943034932
 20
348.1959304856627
 10
1769.069307989669
 20
348.1955668786735
  0
LWPOLYLINE
  5
1255
330
1F
100
AcDbEntity
  8
SANINDUSA
100
AcDbPolyline
 90
        6
 70
   128
 43
0.0
 10
1769.077348556396
 20
348.2018348082639
 10
1769.077336778939
 20
348.2018346894944
 10
1769.076768532502
 20
348.2015442558283
 10
1769.076468871601
 20
348.2011596884407
 10
1769.076178719071
 20
348.2006248424127
 10
1769.076178703263
 20
348.2006248087242
  0
LWPOLYLINE
  5
1257
330
1F
100
AcDbEntity
  8
SANINDUSA
100
AcDbPolyline
 90
        3
 70
   128
 43
0.0
 10
1769.0878210889
 20
348.2018348082639
 10
1769.086517194271
 20
348.2015176635169
 10
1769.085351140753
 20
348.2005997562061
  0
ARC
  5
125B
330
1F
100
AcDbEntity
  8
SANINDUSA
100
AcDbCircle
 10
1769.303960510053
 20
348.2058348082639
 30
0.0
 40
0.0040000000000001
100
AcDbArc
 50
270.0
 51
0.0
  0
LINE
  5
125C
330
1F
100
AcDbEntity
  8
SANINDUSA
100
AcDbLine
 10
1768.812960510053
 20
348.2418348082639
 30
0.0
 11
1769.302960510053
 21
348.2418348082639
 31
0.0
  0
ARC
  5
125F
330
1F
100
AcDbEntity
  8
SANINDUSA
100
AcDbCircle
 10
1768.812960510053
 20
348.2368348082639
 30
0.0
 40
0.005
100
AcDbArc
 50
90.0
 51
180.0
  0
ARC
  5
1262
330
1F
100
AcDbEntity
  8
SANINDUSA
100
AcDbCircle
 10
1769.302960510053
 20
348.2368348082639
 30
0.0
 40
0.005
100
AcDbArc
 50
0.0
 51
90.0
  0
LINE
  5
1289
330
1F
100
AcDbEntity
  8
SANINDUSA
100
AcDbLine
 10
1769.613609432487
 20
348.0868348082639
 30
0.0
 11
1769.513494264313
 21
348.0868348082639
 31
0.0
  0
LINE
  5
128C
330
1F
100
AcDbEntity
  8
SANINDUSA
100
AcDbLine
 10
1769.621731115659
 20
348.0768348082639
 30
0.0
 11
1769.513494264313
 21
348.0768348082639
 31
0.0
  0
LINE
  5
128F
330
1F
100
AcDbEntity
  8
SANINDUSA
100
AcDbLine
 10
1769.512994264313
 20
348.0863348082639
 30
0.0
 11
1769.512994264313
 21
348.0819188294366
 31
0.0
  0
ARC
  5
1290
330
1F
100
AcDbEntity
  8
SANINDUSA
100
AcDbCircle
 10
1769.513494264313
 20
348.0763348082639
 30
0.0
 40
0.0005000000000001
100
AcDbArc
 50
90.0
 51
180.0
  0
LINE
  5
1298
330
1F
100
AcDbEntity
  8
SANINDUSA
100
AcDbLine
 10
1769.512994264313
 20
348.0817321157179
 30
0.0
 11
1769.512994264313
 21
348.0814747927139
 31
0.0
  0
LINE
  5
1299
330
1F
100
AcDbEntity
  8
SANINDUSA
100
AcDbLine
 10
1769.512994264313
 20
348.0819188294366
 30
0.0
 11
1769.512994264313
 21
348.0817321157179
 31
0.0
  0
LINE
  5
129F
330
1F
100
AcDbEntity
  8
SANINDUSA
100
AcDbLine
 10
1769.512994264313
 20
348.0763348082639
 30
0.0
 11
1769.512994264313
 21
348.0718348082639
 31
0.0
  0
ARC
  5
12A0
330
1F
100
AcDbEntity
  8
SANINDUSA
100
AcDbCircle
 10
1769.513494264313
 20
348.0863348082639
 30
0.0
 40
0.0005000000000001
100
AcDbArc
 50
90.0
 51
180.0
  0
ARC
  5
12E4
330
1F
100
AcDbEntity
  8
SANINDUSA
100
AcDbCircle
 10
1769.797994264314
 20
348.0721246176851
 30
0.0
 40
0.0300000000000002
100
AcDbArc
 50
180.6642091450375
 51
199.999999999999
  0
LINE
  5
12FD
330
1F
100
AcDbEntity
  8
SANINDUSA
100
AcDbLine
 10
1769.782618345411
 20
348.0663256856951
 30
0.0
 11
1769.78248617843
 21
348.0590829351387
 31
0.0
  0
LINE
  5
12FE
330
1F
100
AcDbEntity
  8
SANINDUSA
100
AcDbLine
 10
1769.779200411897
 20
348.0652842148186
 30
0.0
 11
1769.781516415348
 21
348.0589210476359
 31
0.0
  0
ARC
  5
1303
330
1F
100
AcDbEntity
  8
SANINDUSA
100
AcDbCircle
 10
1769.781986261658
 20
348.0590920577075
 30
0.0
 40
0.0005000000000003
100
AcDbArc
 50
200.0000000000137
 51
358.9545726074305
  0
ARC
  5
1307
330
1F
100
AcDbEntity
  8
SANINDUSA
100
AcDbCircle
 10
1769.782118428639
 20
348.0663348082639
 30
0.0
 40
0.0005000000000004
100
AcDbArc
 50
358.9545726069443
 51
90.0
  0
ARC
  5
1308
330
1F
100
AcDbEntity
  8
SANINDUSA
100
AcDbCircle
 10
1769.779373627727
 20
348.0663348082639
 30
0.0
 40
0.0005000000000004
100
AcDbArc
 50
90.0
 51
197.272302960677
  0
ARC
  5
1309
330
1F
100
AcDbEntity
  8
SANINDUSA
100
AcDbCircle
 10
1769.797994264314
 20
348.0721246176851
 30
0.0
 40
0.0200000000000002
100
AcDbArc
 50
197.2723029605815
 51
200.0000000000008
  0
LINE
  5
130A
330
1F
100
AcDbEntity
  8
SANINDUSA
100
AcDbLine
 10
1769.779373627727
 20
348.0668348082639
 30
0.0
 11
1769.782118428639
 21
348.0668348082639
 31
0.0
  0
ARC
  5
1322
330
1F
100
AcDbEntity
  8
SANINDUSA
100
AcDbCircle
 10
1769.787903855858
 20
348.0818348082639
 30
0.0
 40
0.005
100
AcDbArc
 50
90.0
 51
178.9545726087285
  0
ARC
  5
1326
330
1F
100
AcDbEntity
  8
SANINDUSA
100
AcDbCircle
 10
1769.77299594416
 20
348.0718348082639
 30
0.0
 40
0.005
100
AcDbArc
 50
90.0
 51
180.6642091451938
  0
LINE
  5
132B
330
1F
100
AcDbEntity
  8
SANINDUSA
100
AcDbLine
 10
1769.77299594416
 20
348.0768348082639
 30
0.0
 11
1769.777902190843
 21
348.0768348082639
 31
0.0
  0
ARC
  5
132C
330
1F
100
AcDbEntity
  8
SANINDUSA
100
AcDbCircle
 10
1769.777902191027
 20
348.0818348082643
 30
0.0
 40
0.0050000000004408
100
AcDbArc
 50
269.9999999964435
 51
358.9545726039866
  0
ARC
  5
1331
330
1F
100
AcDbEntity
  8
SANINDUSA
100
AcDbCircle
 10
1769.792485056984
 20
348.0863348082639
 30
0.0
 40
0.0005000000000004
100
AcDbArc
 50
358.9545726089501
 51
90.0
  0
LINE
  5
1332
330
1F
100
AcDbEntity
  8
SANINDUSA
100
AcDbLine
 10
1769.787903855858
 20
348.0868348082639
 30
0.0
 11
1769.792485056984
 21
348.0868348082639
 31
0.0
  0
ARC
  5
13B3
330
1F
100
AcDbEntity
  8
SANINDUSA
100
AcDbCircle
 10
1768.968259792517
 20
348.0724318066183
 30
0.0
 40
0.001598755252025
100
AcDbArc
 50
246.2452109416803
 51
272.6863316880363
  0
LINE
  5
13B4
330
1F
100
AcDbEntity
  8
SANINDUSA
100
AcDbLine
 10
1769.512994264313
 20
348.0763348082639
 30
0.0
 11
1769.512994264313
 21
348.0814747927139
 31
0.0
  0
LINE
  5
14C1
330
1F
100
AcDbEntity
  8
SANINDUSA
100
AcDbLine
 10
1769.639273459166
 20
348.0719569136171
 30
0.0
 11
1769.678494264313
 21
348.0686997117677
 31
0.0
  0
LINE
  5
14C2
330
1F
100
AcDbEntity
  8
SANINDUSA
100
AcDbLine
 10
1769.6737866613
 20
348.0912172539025
 30
0.0
 11
1769.649574261075
 21
348.0916398829206
 31
0.0
  0
LINE
  5
14C5
330
1F
100
AcDbEntity
  8
SANINDUSA
100
AcDbLine
 10
1769.542547240883
 20
348.2418348082639
 30
0.0
 11
1769.986712269862
 21
348.2418348082639
 31
0.0
  0
LINE
  5
14C8
330
1F
100
AcDbEntity
  8
SANINDUSA
100
AcDbLine
 10
1769.638233447001
 20
348.0620088589109
 30
0.0
 11
1769.675773658403
 21
348.0588912266862
 31
0.0
  0
LINE
  5
14C9
330
1F
100
AcDbEntity
  8
SANINDUSA
100
AcDbLine
 10
1769.67433926954
 20
348.1012091313703
 30
0.0
 11
1769.649748785139
 21
348.1016383598722
 31
0.0
  0
LINE
  5
14CA
330
1F
100
AcDbEntity
  8
SANINDUSA
100
AcDbLine
 10
1769.613801210319
 20
348.2144781503411
 30
0.0
 11
1769.620304140693
 21
348.0952205917256
 31
0.0
  0
LINE
  5
14CB
330
1F
100
AcDbEntity
  8
SANINDUSA
100
AcDbLine
 10
1769.62366780419
 20
348.1822643674486
 30
0.0
 11
1769.629999415242
 21
348.1098937219687
 31
0.0
  0
LINE
  5
14CD
330
1F
100
AcDbEntity
  8
SANINDUSA
100
AcDbLine
 10
1769.513494264313
 20
348.1144596809783
 30
0.0
 11
1769.513494264313
 21
348.1019889066508
 31
0.0
  0
LINE
  5
14D5
330
1F
100
AcDbEntity
  8
SANINDUSA
100
AcDbLine
 10
1769.633629751171
 20
348.1831359248761
 30
0.0
 11
1769.639961362223
 21
348.1107652793962
 31
0.0
  0
LINE
  5
14D6
330
1F
100
AcDbEntity
  8
SANINDUSA
100
AcDbLine
 10
1769.603986406486
 20
348.2108093888525
 30
0.0
 11
1769.610327809751
 21
348.0945140838057
 31
0.0
  0
LWPOLYLINE
  5
14D9
330
1F
100
AcDbEntity
  8
SANINDUSA
100
AcDbPolyline
 90
        3
 70
   128
 43
0.0
 10
1769.60947995253
 20
348.1100629788967
 10
1769.566424855766
 20
348.1041986178738
 10
1769.518038081798
 20
348.0976074775092
  0
LWPOLYLINE
  5
14DC
330
1F
100
AcDbEntity
  8
SANINDUSA
100
AcDbPolyline
 90
        9
 70
   128
 43
0.0
 10
1769.518038081798
 20
348.0976074775092
 10
1769.517186489152
 20
348.0975822010378
 10
1769.516348858903
 20
348.0977378141347
 10
1769.515563190626
 20
348.0980672573226
 10
1769.514865126616
 20
348.098555585222
 10
1769.514286334947
 20
348.0991806445576
 10
1769.513853072833
 20
348.099914079154
 10
1769.513584995461
 20
348.1007226163299
 10
1769.513494264313
 20
348.1015695763324
  0
LINE
  5
14E0
330
1F
100
AcDbEntity
  8
SANINDUSA
100
AcDbLine
 10
1769.513494264313
 20
348.1019889066508
 30
0.0
 11
1769.513494264313
 21
348.1015695763324
 31
0.0
  0
LINE
  5
14F2
330
1F
100
AcDbEntity
  8
SANINDUSA
100
AcDbLine
 10
1769.620415279012
 20
348.0949325967463
 30
0.0
 11
1769.638926720616
 21
348.0721399794869
 31
0.0
  0
LINE
  5
14F3
330
1F
100
AcDbEntity
  8
SANINDUSA
100
AcDbLine
 10
1769.612550576147
 20
348.0887541842196
 30
0.0
 11
1769.631298676008
 21
348.0656701763056
 31
0.0
  0
ARC
  5
14F4
330
1F
100
AcDbEntity
  8
SANINDUSA
100
AcDbCircle
 10
1769.620803399008
 20
348.09524781551
 30
0.0
 40
0.0005
100
AcDbArc
 50
183.1211593268551
 51
219.0824098967788
  0
ARC
  5
14F5
330
1F
100
AcDbEntity
  8
SANINDUSA
100
AcDbCircle
 10
1769.62031297606
 20
348.0950585594937
 30
0.0
 40
0.0100000000000002
100
AcDbArc
 50
183.1211593268422
 51
219.0824098967788
  0
ARC
  5
14F6
330
1F
100
AcDbEntity
  8
SANINDUSA
100
AcDbCircle
 10
1769.639314840611
 20
348.0724551982506
 30
0.0
 40
0.0005
100
AcDbArc
 50
219.0824098967788
 51
265.252605332726
  0
ARC
  5
14F7
330
1F
100
AcDbEntity
  8
SANINDUSA
100
AcDbCircle
 10
1769.639061075921
 20
348.0719745515798
 30
0.0
 40
0.01
100
AcDbArc
 50
219.0824098967788
 51
265.252605332752
  0
ARC
  5
14F8
330
1F
100
AcDbEntity
  8
SANINDUSA
100
AcDbCircle
 10
1769.649923309204
 20
348.1116368368237
 30
0.0
 40
0.02
100
AcDbArc
 50
185.0000000000006
 51
268.9999999999983
  0
ARC
  5
14FB
330
1F
100
AcDbEntity
  8
SANINDUSA
100
AcDbCircle
 10
1769.649923309204
 20
348.1116368368237
 30
0.0
 40
0.01
100
AcDbArc
 50
185.0000000000006
 51
268.9999999999983
  0
LINE
  5
14FE
330
1F
100
AcDbEntity
  8
SANINDUSA
100
AcDbLine
 10
1769.5538307061
 20
348.2171173295364
 30
0.0
 11
1769.5908081667
 21
348.2158260481583
 31
0.0
  0
LINE
  5
1501
330
1F
100
AcDbEntity
  8
SANINDUSA
100
AcDbLine
 10
1769.55424950006
 20
348.2291100194606
 30
0.0
 11
1769.59122696066
 21
348.2278187380826
 31
0.0
  0
LINE
  5
1504
330
1F
100
AcDbEntity
  8
SANINDUSA
100
AcDbLine
 10
1769.525494264313
 20
348.2110063811391
 30
0.0
 11
1769.525494264313
 21
348.1778348082638
 31
0.0
  0
LINE
  5
1505
330
1F
100
AcDbEntity
  8
SANINDUSA
100
AcDbLine
 10
1769.534494264313
 20
348.2122657136989
 30
0.0
 11
1769.534494264313
 21
348.1778348082638
 31
0.0
  0
LINE
  5
1506
330
1F
100
AcDbEntity
  8
SANINDUSA
100
AcDbLine
 10
1769.513494264313
 20
348.2101982569442
 30
0.0
 11
1769.513494264313
 21
348.1708348082638
 31
0.0
  0
LINE
  5
1509
330
1F
100
AcDbEntity
  8
SANINDUSA
100
AcDbLine
 10
1769.515494264313
 20
348.2110063811391
 30
0.0
 11
1769.515494264313
 21
348.1708348082638
 31
0.0
  0
LINE
  5
150B
330
1F
100
AcDbEntity
  8
SANINDUSA
100
AcDbLine
 10
1769.544494264313
 20
348.2122657136989
 30
0.0
 11
1769.544494264313
 21
348.1708348082638
 31
0.0
  0
ARC
  5
1514
330
1F
100
AcDbEntity
  8
SANINDUSA
100
AcDbCircle
 10
1769.519494264313
 20
348.1708348082638
 30
0.0
 40
0.0040000000000001
100
AcDbArc
 50
180.0
 51
270.0
  0
LINE
  5
1515
330
1F
100
AcDbEntity
  8
SANINDUSA
100
AcDbLine
 10
1769.513494264313
 20
348.155844184015
 30
0.0
 11
1769.513494264313
 21
348.1144596809783
 31
0.0
  0
LINE
  5
151D
330
1F
100
AcDbEntity
  8
SANINDUSA
100
AcDbLine
 10
1769.513494264313
 20
348.1708348082638
 30
0.0
 11
1769.513494264313
 21
348.155844184015
 31
0.0
  0
ARC
  5
1528
330
1F
100
AcDbEntity
  8
SANINDUSA
100
AcDbCircle
 10
1769.540494264313
 20
348.1708348082638
 30
0.0
 40
0.0040000000000001
100
AcDbArc
 50
270.0
 51
0.0
  0
ARC
  5
1529
330
1F
100
AcDbEntity
  8
SANINDUSA
100
AcDbCircle
 10
1769.533494264313
 20
348.1778348082638
 30
0.0
 40
0.001
100
AcDbArc
 50
270.0
 51
0.0
  0
ARC
  5
152A
330
1F
100
AcDbEntity
  8
SANINDUSA
100
AcDbCircle
 10
1769.526494264313
 20
348.1778348082638
 30
0.0
 40
0.001
100
AcDbArc
 50
180.0
 51
270.0
  0
LINE
  5
152B
330
1F
100
AcDbEntity
  8
SANINDUSA
100
AcDbLine
 10
1769.526494264313
 20
348.1768348082639
 30
0.0
 11
1769.533494264313
 21
348.1768348082639
 31
0.0
  0
LINE
  5
152F
330
1F
100
AcDbEntity
  8
SANINDUSA
100
AcDbLine
 10
1769.519494264313
 20
348.1668348082639
 30
0.0
 11
1769.540494264313
 21
348.1668348082639
 31
0.0
  0
ARC
  5
1531
330
1F
100
AcDbEntity
  8
SANINDUSA
100
AcDbCircle
 10
1769.518494264313
 20
348.2368348082639
 30
0.0
 40
0.005
100
AcDbArc
 50
90.0
 51
180.0
  0
LINE
  5
1532
330
1F
100
AcDbEntity
  8
SANINDUSA
100
AcDbLine
 10
1769.513494264313
 20
348.2368348082639
 30
0.0
 11
1769.513494264313
 21
348.2138348082639
 31
0.0
  0
LINE
  5
1537
330
1F
100
AcDbEntity
  8
SANINDUSA
100
AcDbLine
 10
1769.513494264313
 20
348.2138348082639
 30
0.0
 11
1769.513494264313
 21
348.2101982569442
 31
0.0
  0
ARC
  5
153B
330
1F
100
AcDbEntity
  8
SANINDUSA
100
AcDbCircle
 10
1769.515494264313
 20
348.2138348082639
 30
0.0
 40
0.0020000000000002
100
AcDbArc
 50
180.0
 51
250.5287793655265
  0
ARC
  5
153C
330
1F
100
AcDbEntity
  8
SANINDUSA
100
AcDbCircle
 10
1769.514494264313
 20
348.2110063811391
 30
0.0
 40
0.001
100
AcDbArc
 50
0.0
 51
70.52877936552654
  0
ARC
  5
153E
330
1F
100
AcDbEntity
  8
SANINDUSA
100
AcDbCircle
 10
1769.541948052232
 20
348.2395456909276
 30
0.0
 40
0.0100000000000001
100
AcDbArc
 50
202.6775248677954
 51
267.9999999999963
  0
LINE
  5
1540
330
1F
100
AcDbEntity
  8
SANINDUSA
100
AcDbLine
 10
1769.541599057265
 20
348.2295517826575
 30
0.0
 11
1769.55424950006
 21
348.2291100194606
 31
0.0
  0
ARC
  5
1541
330
1F
100
AcDbEntity
  8
SANINDUSA
100
AcDbCircle
 10
1769.535289420275
 20
348.2196293001788
 30
0.0
 40
0.001
100
AcDbArc
 50
332.5984272407234
 51
71.5137109545696
  0
ARC
  5
1542
330
1F
100
AcDbEntity
  8
SANINDUSA
100
AcDbCircle
 10
1769.524494264313
 20
348.2176396307198
 30
0.0
 40
0.001
100
AcDbArc
 50
180.0
 51
213.5573097619202
  0
ARC
  5
1543
330
1F
100
AcDbEntity
  8
SANINDUSA
100
AcDbCircle
 10
1769.524494264313
 20
348.2278681360769
 30
0.0
 40
0.001
100
AcDbArc
 50
33.78472392740934
 51
180.0
  0
ARC
  5
1544
330
1F
100
AcDbEntity
  8
SANINDUSA
100
AcDbCircle
 10
1769.549494264313
 20
348.2122657136989
 30
0.0
 40
0.015
100
AcDbArc
 50
152.5984272407292
 51
180.0
  0
ARC
  5
1545
330
1F
100
AcDbEntity
  8
SANINDUSA
100
AcDbCircle
 10
1769.541948052232
 20
348.2395456909276
 30
0.0
 40
0.0200000000000001
100
AcDbArc
 50
213.7847239274093
 51
251.5137109545696
  0
LINE
  5
1546
330
1F
100
AcDbEntity
  8
SANINDUSA
100
AcDbLine
 10
1769.523494264313
 20
348.2278681360769
 30
0.0
 11
1769.523494264313
 21
348.2176396307198
 31
0.0
  0
ARC
  5
1547
330
1F
100
AcDbEntity
  8
SANINDUSA
100
AcDbCircle
 10
1769.514494264313
 20
348.2110063811391
 30
0.0
 40
0.0110000000000001
100
AcDbArc
 50
0.0
 51
33.55730976193465
  0
ARC
  5
1548
330
1F
100
AcDbEntity
  8
SANINDUSA
100
AcDbCircle
 10
1769.549494264313
 20
348.2122657136989
 30
0.0
 40
0.005
100
AcDbArc
 50
87.99999999999627
 51
180.0
  0
ARC
  5
1549
330
1F
100
AcDbEntity
  8
SANINDUSA
100
AcDbCircle
 10
1769.553865605596
 20
348.2181167203634
 30
0.0
 40
0.001
100
AcDbArc
 50
267.9999999999963
 51
358.0000000000091
  0
LINE
  5
154A
330
1F
100
AcDbEntity
  8
SANINDUSA
100
AcDbLine
 10
1769.549668761797
 20
348.217262667834
 30
0.0
 11
1769.5538307061
 21
348.2171173295364
 31
0.0
  0
LINE
  5
154C
330
1F
100
AcDbEntity
  8
SANINDUSA
100
AcDbLine
 10
1769.555213991391
 20
348.2280757291369
 30
0.0
 11
1769.554864996424
 21
348.2180818208667
 31
0.0
  0
ARC
  5
154D
330
1F
100
AcDbEntity
  8
SANINDUSA
100
AcDbCircle
 10
1769.554214600564
 20
348.2281106286336
 30
0.0
 40
0.001
100
AcDbArc
 50
357.9999999997877
 51
88.00000000002231
  0
LINE
  5
1551
330
1F
100
AcDbEntity
  8
SANINDUSA
100
AcDbLine
 10
1769.542547240883
 20
348.2418348082639
 30
0.0
 11
1769.523858687531
 21
348.2418348082639
 31
0.0
  0
LINE
  5
1553
330
1F
100
AcDbEntity
  8
SANINDUSA
100
AcDbLine
 10
1769.523494264313
 20
348.2418348082639
 30
0.0
 11
1769.518494264313
 21
348.2418348082639
 31
0.0
  0
ARC
  5
1554
330
1F
100
AcDbEntity
  8
SANINDUSA
100
AcDbCircle
 10
1769.523494264313
 20
348.2318348082638
 30
0.0
 40
0.0100000000000001
100
AcDbArc
 50
22.67752486779545
 51
90.0
  0
LINE
  5
1557
330
1F
100
AcDbEntity
  8
SANINDUSA
100
AcDbLine
 10
1769.621314599136
 20
348.209161624297
 30
0.0
 11
1769.62366780419
 21
348.1822643674486
 31
0.0
  0
LINE
  5
1558
330
1F
100
AcDbEntity
  8
SANINDUSA
100
AcDbLine
 10
1769.631276546117
 20
348.2100331817246
 30
0.0
 11
1769.633629751171
 21
348.1831359248761
 31
0.0
  0
ARC
  5
155A
330
1F
100
AcDbEntity
  8
SANINDUSA
100
AcDbCircle
 10
1769.624663998889
 20
348.1823515231913
 30
0.0
 40
0.001
100
AcDbArc
 50
95.00000000000001
 51
185.0000000000006
  0
LINE
  5
155B
330
1F
100
AcDbEntity
  8
SANINDUSA
100
AcDbLine
 10
1769.624576843146
 20
348.1833477178895
 30
0.0
 11
1769.632546400731
 21
348.1840449638314
 31
0.0
  0
ARC
  5
155C
330
1F
100
AcDbEntity
  8
SANINDUSA
100
AcDbCircle
 10
1769.632633556473
 20
348.1830487691333
 30
0.0
 40
0.001
100
AcDbArc
 50
5.000000000000595
 51
95.00000000000001
  0
ARC
  5
155D
330
1F
100
AcDbEntity
  8
SANINDUSA
100
AcDbCircle
 10
1769.620363695886
 20
348.2142936415643
 30
0.0
 40
0.0005
100
AcDbArc
 50
5.000000000000595
 51
87.99999999999627
  0
LINE
  5
155E
330
1F
100
AcDbEntity
  8
SANINDUSA
100
AcDbLine
 10
1769.59122696066
 20
348.2278187380826
 30
0.0
 11
1769.625417544793
 21
348.2266247765753
 31
0.0
  0
LINE
  5
155F
330
1F
100
AcDbEntity
  8
SANINDUSA
100
AcDbLine
 10
1769.5908081667
 20
348.2158260481583
 30
0.0
 11
1769.599168320815
 21
348.2155341051436
 31
0.0
  0
ARC
  5
1560
330
1F
100
AcDbEntity
  8
SANINDUSA
100
AcDbCircle
 10
1769.590843066196
 20
348.2168254389854
 30
0.0
 40
0.001
100
AcDbArc
 50
178.0000000000221
 51
267.9999999999963
  0
ARC
  5
1561
330
1F
100
AcDbEntity
  8
SANINDUSA
100
AcDbCircle
 10
1769.591192061163
 20
348.2268193472556
 30
0.0
 40
0.0010000000000001
100
AcDbArc
 50
87.99999999999627
 51
177.9999999995273
  0
LINE
  5
1562
330
1F
100
AcDbEntity
  8
SANINDUSA
100
AcDbLine
 10
1769.589843675369
 20
348.2168603384821
 30
0.0
 11
1769.590192670337
 21
348.2268542467523
 31
0.0
  0
ARC
  5
1563
330
1F
100
AcDbEntity
  8
SANINDUSA
100
AcDbCircle
 10
1769.614300468634
 20
348.2145053741255
 30
0.0
 40
0.0005
100
AcDbArc
 50
87.99999999999627
 51
183.1211593268551
  0
LINE
  5
1564
330
1F
100
AcDbEntity
  8
SANINDUSA
100
AcDbLine
 10
1769.614317918383
 20
348.215005069539
 30
0.0
 11
1769.620381145634
 21
348.2147933369778
 31
0.0
  0
ARC
  5
1565
330
1F
100
AcDbEntity
  8
SANINDUSA
100
AcDbCircle
 10
1769.598993823331
 20
348.2105371510085
 30
0.0
 40
0.005
100
AcDbArc
 50
3.121159326855178
 51
87.99999999999627
  0
ARC
  5
1566
330
1F
100
AcDbEntity
  8
SANINDUSA
100
AcDbCircle
 10
1769.622310793834
 20
348.2092487800398
 30
0.0
 40
0.001
100
AcDbArc
 50
184.9999999999941
 51
275.0
  0
LINE
  5
1567
330
1F
100
AcDbEntity
  8
SANINDUSA
100
AcDbLine
 10
1769.622397949577
 20
348.2082525853417
 30
0.0
 11
1769.630367507162
 21
348.2089498312837
 31
0.0
  0
LINE
  5
1568
330
1F
100
AcDbEntity
  8
SANINDUSA
100
AcDbLine
 10
1769.620861793235
 20
348.2143372194357
 30
0.0
 11
1769.621314599136
 21
348.209161624297
 31
0.0
  0
ARC
  5
1569
330
1F
100
AcDbEntity
  8
SANINDUSA
100
AcDbCircle
 10
1769.625243047309
 20
348.2216278224402
 30
0.0
 40
0.0049999999999999
100
AcDbArc
 50
5.000000000026551
 51
87.99999999999627
  0
ARC
  5
156D
330
1F
100
AcDbEntity
  8
SANINDUSA
100
AcDbCircle
 10
1769.630280351419
 20
348.2099460259818
 30
0.0
 40
0.0010000000000001
100
AcDbArc
 50
275.0
 51
5.00000000028838
  0
LINE
  5
156E
330
1F
100
AcDbEntity
  8
SANINDUSA
100
AcDbLine
 10
1769.6302240208
 20
348.222063601154
 30
0.0
 11
1769.631276546117
 21
348.2100331817246
 31
0.0
  0
LINE
  5
1570
330
1F
100
AcDbEntity
  8
SANINDUSA
100
AcDbLine
 10
1769.980880202031
 20
348.2399580455998
 30
0.0
 11
1769.793566364008
 21
348.1054763157371
 31
0.0
  0
LINE
  5
1571
330
1F
100
AcDbEntity
  8
SANINDUSA
100
AcDbLine
 10
1769.823924197025
 20
348.0916382102778
 30
0.0
 11
1769.946791806215
 21
348.2003287876388
 31
0.0
  0
LWPOLYLINE
  5
1572
330
1F
100
AcDbEntity
  8
SANINDUSA
100
AcDbPolyline
 90
        7
 70
   128
 43
0.0
 10
1769.799398431839
 20
348.0973530784012
 10
1769.867775536837
 20
348.1464443332713
 42
-0.9504578566727767
 10
1769.869021317502
 20
348.1448830129752
 10
1769.817056845018
 20
348.098914441162
 42
0.0179049555604108
 10
1769.817004951795
 20
348.0988651136329
 10
1769.811239311266
 20
348.0929775292193
 10
1769.808314901796
 20
348.0889683995985
  0
LINE
  5
1574
330
1F
100
AcDbEntity
  8
SANINDUSA
100
AcDbLine
 10
1769.799494264313
 20
348.0708348082639
 30
0.0
 11
1769.79270229351
 21
348.0708348082639
 31
0.0
  0
LINE
  5
1576
330
1F
100
AcDbEntity
  8
SANINDUSA
100
AcDbLine
 10
1769.759198775146
 20
348.0868348082639
 30
0.0
 11
1769.793494264314
 21
348.0868348082639
 31
0.0
  0
LINE
  5
1577
330
1F
100
AcDbEntity
  8
SANINDUSA
100
AcDbLine
 10
1769.782251276475
 20
348.1017258365058
 30
0.0
 11
1769.752649259087
 21
348.1012091313703
 31
0.0
  0
LINE
  5
1578
330
1F
100
AcDbEntity
  8
SANINDUSA
100
AcDbLine
 10
1769.739494264313
 20
348.0568348082639
 30
0.0
 11
1769.687494264313
 21
348.0568348082639
 31
0.0
  0
LINE
  5
157D
330
1F
100
AcDbEntity
  8
SANINDUSA
100
AcDbLine
 10
1769.67433926954
 20
348.1012091313703
 30
0.0
 11
1769.752649259087
 21
348.1012091313703
 31
0.0
  0
LINE
  5
1585
330
1F
100
AcDbEntity
  8
SANINDUSA
100
AcDbLine
 10
1769.688494264313
 20
348.0578348082639
 30
0.0
 11
1769.688494264313
 21
348.0676997117677
 31
0.0
  0
LINE
  5
1586
330
1F
100
AcDbEntity
  8
SANINDUSA
100
AcDbLine
 10
1769.679494264313
 20
348.0568348082639
 30
0.0
 11
1769.687494264313
 21
348.0568348082639
 31
0.0
  0
ARC
  5
1587
330
1F
100
AcDbEntity
  8
SANINDUSA
100
AcDbCircle
 10
1769.675442606835
 20
348.0549049496186
 30
0.0
 40
0.004
100
AcDbArc
 50
35.8716679145386
 51
85.25260533275199
  0
ARC
  5
1588
330
1F
100
AcDbEntity
  8
SANINDUSA
100
AcDbCircle
 10
1769.679494264313
 20
348.0578348082639
 30
0.0
 40
0.0010000000000001
100
AcDbArc
 50
215.8716679145386
 51
270.0
  0
ARC
  5
1589
330
1F
100
AcDbEntity
  8
SANINDUSA
100
AcDbCircle
 10
1769.687494264313
 20
348.0578348082639
 30
0.0
 40
0.001
100
AcDbArc
 50
270.0
 51
0.0
  0
LINE
  5
158B
330
1F
100
AcDbEntity
  8
SANINDUSA
100
AcDbLine
 10
1769.687494264313
 20
348.0686997117677
 30
0.0
 11
1769.678494264313
 21
348.0686997117677
 31
0.0
  0
ARC
  5
158E
330
1F
100
AcDbEntity
  8
SANINDUSA
100
AcDbCircle
 10
1769.687494264313
 20
348.0676997117677
 30
0.0
 40
0.001
100
AcDbArc
 50
0.0
 51
90.0
  0
ARC
  5
158F
330
1F
100
AcDbEntity
  8
SANINDUSA
100
AcDbCircle
 10
1769.676416560238
 20
348.0876787600791
 30
0.0
 40
0.001
100
AcDbArc
 50
1.999999999997443
 51
49.3762587268349
  0
LINE
  5
1590
330
1F
100
AcDbEntity
  8
SANINDUSA
100
AcDbLine
 10
1769.677795848923
 20
348.0768348082639
 30
0.0
 11
1769.677415951064
 21
348.0877136595758
 31
0.0
  0
ARC
  5
1591
330
1F
100
AcDbEntity
  8
SANINDUSA
100
AcDbCircle
 10
1769.674164745475
 20
348.0912106544187
 30
0.0
 40
0.01
100
AcDbArc
 50
48.99999999999955
 51
88.99999999999824
  0
LINE
  5
1592
330
1F
100
AcDbEntity
  8
SANINDUSA
100
AcDbLine
 10
1769.686774559458
 20
348.0934992402907
 30
0.0
 11
1769.680725335765
 21
348.0987577502209
 31
0.0
  0
ARC
  5
1593
330
1F
100
AcDbEntity
  8
SANINDUSA
100
AcDbCircle
 10
1769.683494264313
 20
348.0897256923896
 30
0.0
 40
0.005
100
AcDbArc
 50
0.0
 51
48.99999999999955
  0
ARC
  5
1594
330
1F
100
AcDbEntity
  8
SANINDUSA
100
AcDbCircle
 10
1769.673769208894
 20
348.0902174062074
 30
0.0
 40
0.001
100
AcDbArc
 50
43.02537687812566
 51
88.99999999999824
  0
ARC
  5
1596
330
1F
100
AcDbEntity
  8
SANINDUSA
100
AcDbCircle
 10
1769.697972345595
 20
348.11280724619
 30
0.0
 40
0.0321072906861248
100
AcDbArc
 50
223.0253768781482
 51
229.3762587268349
  0
LINE
  5
159C
330
1F
100
AcDbEntity
  8
SANINDUSA
100
AcDbLine
 10
1769.687494264313
 20
348.0768348082639
 30
0.0
 11
1769.677795848923
 21
348.0768348082639
 31
0.0
  0
ARC
  5
159F
330
1F
100
AcDbEntity
  8
SANINDUSA
100
AcDbCircle
 10
1769.687494264313
 20
348.0778348082639
 30
0.0
 40
0.0010000000000001
100
AcDbArc
 50
270.0
 51
0.0
  0
LINE
  5
15A0
330
1F
100
AcDbEntity
  8
SANINDUSA
100
AcDbLine
 10
1769.688494264313
 20
348.0778348082639
 30
0.0
 11
1769.688494264313
 21
348.0897256923896
 31
0.0
  0
LINE
  5
15A1
330
1F
100
AcDbEntity
  8
SANINDUSA
100
AcDbLine
 10
1769.748527966365
 20
348.0577999087671
 30
0.0
 11
1769.749204866876
 21
348.0771838032309
 31
0.0
  0
LINE
  5
15A2
330
1F
100
AcDbEntity
  8
SANINDUSA
100
AcDbLine
 10
1769.738494264313
 20
348.0897256923896
 30
0.0
 11
1769.738494264313
 21
348.0578348082639
 31
0.0
  0
ARC
  5
15A3
330
1F
100
AcDbEntity
  8
SANINDUSA
100
AcDbCircle
 10
1769.747528575538
 20
348.0578348082639
 30
0.0
 40
0.001
100
AcDbArc
 50
270.0
 51
358.0000000000026
  0
ARC
  5
15A4
330
1F
100
AcDbEntity
  8
SANINDUSA
100
AcDbCircle
 10
1769.739494264313
 20
348.0578348082639
 30
0.0
 40
0.0010000000000002
100
AcDbArc
 50
180.0
 51
270.0
  0
LINE
  5
15A5
330
1F
100
AcDbEntity
  8
SANINDUSA
100
AcDbLine
 10
1769.739494264313
 20
348.0568348082639
 30
0.0
 11
1769.747494264313
 21
348.0568348082639
 31
0.0
  0
ARC
  5
15A6
330
1F
100
AcDbEntity
  8
SANINDUSA
100
AcDbCircle
 10
1769.759198775146
 20
348.0768348082639
 30
0.0
 40
0.01
100
AcDbArc
 50
90.0
 51
178.0000000000025
  0
ARC
  5
15A7
330
1F
100
AcDbEntity
  8
SANINDUSA
100
AcDbCircle
 10
1769.752823783151
 20
348.0912106544187
 30
0.0
 40
0.01
100
AcDbArc
 50
91.00000000000177
 51
131.0000000000004
  0
ARC
  5
15A8
330
1F
100
AcDbEntity
  8
SANINDUSA
100
AcDbCircle
 10
1769.743494264313
 20
348.0897256923896
 30
0.0
 40
0.005
100
AcDbArc
 50
131.0000000000004
 51
180.0
  0
LINE
  5
15A9
330
1F
100
AcDbEntity
  8
SANINDUSA
100
AcDbLine
 10
1769.740213969168
 20
348.0934992402907
 30
0.0
 11
1769.746263192861
 21
348.0987577502209
 31
0.0
  0
LINE
  5
15AA
330
1F
100
AcDbEntity
  8
SANINDUSA
100
AcDbLine
 10
1769.798494264313
 20
348.0718348082639
 30
0.0
 11
1769.798494264313
 21
348.0818348082639
 31
0.0
  0
ARC
  5
15AB
330
1F
100
AcDbEntity
  8
SANINDUSA
100
AcDbCircle
 10
1769.80018054969
 20
348.0858348082639
 30
0.0
 40
0.0150000000000002
100
AcDbArc
 50
270.0
 51
327.9946167919165
  0
ARC
  5
15AC
330
1F
100
AcDbEntity
  8
SANINDUSA
100
AcDbCircle
 10
1769.799494264313
 20
348.0718348082639
 30
0.0
 40
0.001
100
AcDbArc
 50
180.0
 51
270.0
  0
LINE
  5
15AD
330
1F
100
AcDbEntity
  8
SANINDUSA
100
AcDbLine
 10
1769.80018054969
 20
348.0708348082639
 30
0.0
 11
1769.799494264313
 21
348.0708348082639
 31
0.0
  0
ARC
  5
15AE
330
1F
100
AcDbEntity
  8
SANINDUSA
100
AcDbCircle
 10
1769.793494264314
 20
348.0818348082639
 30
0.0
 40
0.015
100
AcDbArc
 50
28.86069149606757
 51
66.35116974458364
  0
ARC
  5
15AF
330
1F
100
AcDbEntity
  8
SANINDUSA
100
AcDbCircle
 10
1769.79991234201
 20
348.0964911474616
 30
0.0
 40
0.001
100
AcDbArc
 50
125.5188953795365
 51
246.3511697445837
  0
ARC
  5
15B1
330
1F
100
AcDbEntity
  8
SANINDUSA
100
AcDbCircle
 10
1769.781902228346
 20
348.1217227904089
 30
0.0
 40
0.0200000000000003
100
AcDbArc
 50
270.9999999999757
 51
305.6764082218478
  0
ARC
  5
15B2
330
1F
100
AcDbEntity
  8
SANINDUSA
100
AcDbCircle
 10
1769.793494264314
 20
348.0818348082639
 30
0.0
 40
0.005
100
AcDbArc
 50
0.0
 51
90.0
  0
ARC
  5
15B3
330
1F
100
AcDbEntity
  8
SANINDUSA
100
AcDbCircle
 10
1769.807506998441
 20
348.0895577145984
 30
0.0
 40
0.001
100
AcDbArc
 50
208.8606914960676
 51
323.8915864289449
  0
LWPOLYLINE
  5
15B4
330
1F
100
AcDbEntity
  8
SANINDUSA
100
AcDbPolyline
 90
        3
 70
   128
 43
0.0
 10
1769.823924187996
 20
348.0916382204835
 10
1769.818891160441
 20
348.0864987438825
 10
1769.81465195758
 20
348.0806871385189
  0
LINE
  5
15B5
330
1F
100
AcDbEntity
  8
SANINDUSA
100
AcDbLine
 10
1769.814651967031
 20
348.0806871326121
 30
0.0
 11
1769.812900524251
 21
348.0778848241639
 31
0.0
  0
LINE
  5
15B6
330
1F
100
AcDbEntity
  8
SANINDUSA
100
AcDbLine
 10
1769.986450863634
 20
348.2316471319975
 30
0.0
 11
1769.961379435062
 21
348.2136471319975
 31
0.0
  0
LINE
  5
15B7
330
1F
100
AcDbEntity
  8
SANINDUSA
100
AcDbLine
 10
1770.002494264313
 20
348.2118348082638
 30
0.0
 11
1769.961962641845
 21
348.2118348082638
 31
0.0
  0
LINE
  5
15B8
330
1F
100
AcDbEntity
  8
SANINDUSA
100
AcDbLine
 10
1770.009494264313
 20
348.2018348082639
 30
0.0
 11
1769.950767249509
 21
348.2018348082639
 31
0.0
  0
ARC
  5
15B9
330
1F
100
AcDbEntity
  8
SANINDUSA
100
AcDbCircle
 10
1769.986712269862
 20
348.2318348082638
 30
0.0
 40
0.01
100
AcDbArc
 50
90.0
 51
125.6764082218479
  0
ARC
  5
15BA
330
1F
100
AcDbEntity
  8
SANINDUSA
100
AcDbCircle
 10
1769.950767249509
 20
348.1958348082639
 30
0.0
 40
0.0060000000000001
100
AcDbArc
 50
90.0
 51
131.4964683552163
  0
ARC
  5
15BB
330
1F
100
AcDbEntity
  8
SANINDUSA
100
AcDbCircle
 10
1769.961962641845
 20
348.2128348082639
 30
0.0
 40
0.001
100
AcDbArc
 50
125.676408221869
 51
270.0
  0
LINE
  5
15BC
330
1F
100
AcDbEntity
  8
SANINDUSA
100
AcDbLine
 10
1770.003494264313
 20
348.2128348082639
 30
0.0
 11
1770.003494264313
 21
348.2308348082639
 31
0.0
  0
LINE
  5
15BD
330
1F
100
AcDbEntity
  8
SANINDUSA
100
AcDbLine
 10
1770.013494264313
 20
348.2058348082639
 30
0.0
 11
1770.013494264313
 21
348.2368348082639
 31
0.0
  0
ARC
  5
15BE
330
1F
100
AcDbEntity
  8
SANINDUSA
100
AcDbCircle
 10
1770.009494264313
 20
348.2058348082639
 30
0.0
 40
0.0039999999999999
100
AcDbArc
 50
270.0
 51
0.0
  0
ARC
  5
15BF
330
1F
100
AcDbEntity
  8
SANINDUSA
100
AcDbCircle
 10
1770.002494264313
 20
348.2128348082639
 30
0.0
 40
0.001
100
AcDbArc
 50
270.0
 51
359.9999999999935
  0
ARC
  5
15C0
330
1F
100
AcDbEntity
  8
SANINDUSA
100
AcDbCircle
 10
1770.008494264313
 20
348.2368348082639
 30
0.0
 40
0.005
100
AcDbArc
 50
0.0
 51
90.0
  0
ARC
  5
15C1
330
1F
100
AcDbEntity
  8
SANINDUSA
100
AcDbCircle
 10
1769.987034070417
 20
348.2308348082639
 30
0.0
 40
0.001
100
AcDbArc
 50
90.0
 51
125.676408221869
  0
ARC
  5
15C2
330
1F
100
AcDbEntity
  8
SANINDUSA
100
AcDbCircle
 10
1770.002494264313
 20
348.2308348082639
 30
0.0
 40
0.001
100
AcDbArc
 50
359.9999999999935
 51
90.0
  0
LINE
  5
15C3
330
1F
100
AcDbEntity
  8
SANINDUSA
100
AcDbLine
 10
1770.002494264313
 20
348.2318348082638
 30
0.0
 11
1769.987034070417
 21
348.2318348082638
 31
0.0
  0
LINE
  5
15C4
330
1F
100
AcDbEntity
  8
SANINDUSA
100
AcDbLine
 10
1770.008494264313
 20
348.2418348082639
 30
0.0
 11
1769.986712269862
 21
348.2418348082639
 31
0.0
  0
ENDSEC
  0
SECTION
  2
OBJECTS
  0
DICTIONARY
  5
C
330
0
100
AcDbDictionary
281
     1
  3
ACAD_COLOR
350
15FB
  3
ACAD_GROUP
350
D
  3
ACAD_LAYOUT
350
1A
  3
ACAD_MATERIAL
350
15CE
  3
ACAD_MLEADERSTYLE
350
1610
  3
ACAD_MLINESTYLE
350
17
  3
ACAD_PLOTSETTINGS
350
19
  3
ACAD_PLOTSTYLENAME
350
E
  3
ACAD_SCALELIST
350
15FE
  3
ACAD_TABLESTYLE
350
15FC
  3
ACAD_VISUALSTYLE
350
15E7
  3
ACDB_RECOMPOSE_DATA
350
1693
  3
AcDbVariableDictionary
350
3D
  3
ASE_INDEX_DICTIONARY
350
13B0
  3
DWGPROPS
350
1694
  0
DICTIONARY
  5
162E
330
10
100
AcDbDictionary
280
     1
281
     1
  3
ADSK_XREC_LAYER_RECONCILED
360
162F
  0
DICTIONARY
  5
1630
330
2F
100
AcDbDictionary
280
     1
281
     1
  3
ADSK_XREC_LAYER_RECONCILED
360
1631
  0
DICTIONARY
  5
1632
330
30
100
AcDbDictionary
280
     1
281
     1
  3
ADSK_XREC_LAYER_RECONCILED
360
1633
  0
DICTIONARY
  5
1634
330
31
100
AcDbDictionary
280
     1
281
     1
  3
ADSK_XREC_LAYER_RECONCILED
360
1635
  0
DICTIONARY
  5
1636
330
32
100
AcDbDictionary
280
     1
281
     1
  3
ADSK_XREC_LAYER_RECONCILED
360
1637
  0
DICTIONARY
  5
1638
330
33
100
AcDbDictionary
280
     1
281
     1
  3
ADSK_XREC_LAYER_RECONCILED
360
1639
  0
DICTIONARY
  5
163A
330
34
100
AcDbDictionary
280
     1
281
     1
  3
ADSK_XREC_LAYER_RECONCILED
360
163B
  0
DICTIONARY
  5
163C
330
35
100
AcDbDictionary
280
     1
281
     1
  3
ADSK_XREC_LAYER_RECONCILED
360
163D
  0
DICTIONARY
  5
163E
330
36
100
AcDbDictionary
280
     1
281
     1
  3
ADSK_XREC_LAYER_RECONCILED
360
163F
  0
DICTIONARY
  5
1640
330
37
100
AcDbDictionary
280
     1
281
     1
  3
ADSK_XREC_LAYER_RECONCILED
360
1641
  0
DICTIONARY
  5
1642
330
5D6
100
AcDbDictionary
280
     1
281
     1
  3
ADSK_XREC_LAYER_RECONCILED
360
1643
  0
DICTIONARY
  5
1644
330
8AF
100
AcDbDictionary
280
     1
281
     1
  3
ADSK_XREC_LAYER_RECONCILED
360
1645
  0
DICTIONARY
  5
1646
330
8F8
100
AcDbDictionary
280
     1
281
     1
  3
ADSK_XREC_LAYER_RECONCILED
360
1647
  0
DICTIONARY
  5
1648
330
91D
100
AcDbDictionary
280
     1
281
     1
  3
ADSK_XREC_LAYER_RECONCILED
360
1649
  0
DICTIONARY
  5
164A
330
13AF
100
AcDbDictionary
280
     1
281
     1
  3
ADSK_XREC_LAYER_RECONCILED
360
164B
  0
DICTIONARY
  5
16C6
330
1627
100
AcDbDictionary
280
     1
281
     1
  3
ACAD_MTEXT_RT
360
16C7
  0
DICTIONARY
  5
15FB
102
{ACAD_REACTORS
330
C
102
}
330
C
100
AcDbDictionary
281
     1
  0
DICTIONARY
  5
D
102
{ACAD_REACTORS
330
C
102
}
330
C
100
AcDbDictionary
281
     1
  0
DICTIONARY
  5
1A
102
{ACAD_REACTORS
330
C
102
}
330
C
100
AcDbDictionary
281
     1
  3
Layout1
350
1E
  3
Layout2
350
26
  3
Model
350
22
  0
DICTIONARY
  5
15CE
102
{ACAD_REACTORS
330
C
102
}
330
C
100
AcDbDictionary
281
     1
  3
ByBlock
350
15D7
  3
ByLayer
350
15CF
  3
Global
350
15DF
  0
DICTIONARY
  5
1610
102
{ACAD_REACTORS
330
C
102
}
330
C
100
AcDbDictionary
281
     1
  3
Standard
350
1611
  0
DICTIONARY
  5
17
102
{ACAD_REACTORS
330
C
102
}
330
C
100
AcDbDictionary
281
     1
  3
Standard
350
18
  0
DICTIONARY
  5
19
102
{ACAD_REACTORS
330
C
102
}
330
C
100
AcDbDictionary
281
     1
  0
ACDBDICTIONARYWDFLT
  5
E
102
{ACAD_REACTORS
330
C
102
}
330
C
100
AcDbDictionary
281
     1
  3
Normal
350
F
100
AcDbDictionaryWithDefault
340
F
  0
DICTIONARY
  5
15FE
102
{ACAD_REACTORS
330
C
102
}
330
C
100
AcDbDictionary
281
     1
  3
A0
350
15FF
  3
A1
350
1600
  3
A2
350
1601
  3
A3
350
1602
  3
A4
350
1603
  3
A5
350
1604
  3
A6
350
1605
  3
A7
350
1606
  3
A8
350
1607
  3
A9
350
1608
  3
B0
350
1609
  3
B1
350
160A
  3
B2
350
160B
  3
B3
350
160C
  3
B4
350
160D
  3
B5
350
160E
  3
B6
350
160F
  0
DICTIONARY
  5
15FC
102
{ACAD_REACTORS
330
C
102
}
330
C
100
AcDbDictionary
281
     1
  3
Standard
350
15FD
  0
DICTIONARY
  5
15E7
102
{ACAD_REACTORS
330
C
102
}
330
C
100
AcDbDictionary
281
     1
  3
2dWireframe
350
15ED
  3
3D Hidden
350
15EF
  3
3dWireframe
350
15EE
  3
Basic
350
15EC
  3
Brighten
350
15F3
  3
ColorChange
350
15F7
  3
Conceptual
350
15F0
  3
Dim
350
15F2
  3
EdgeColorOff
350
15FA
  3
Facepattern
350
15F6
  3
Flat
350
15E8
  3
FlatWithEdges
350
15E9
  3
Gouraud
350
15EA
  3
GouraudWithEdges
350
15EB
  3
JitterOff
350
15F8
  3
Linepattern
350
15F5
  3
OverhangOff
350
15F9
  3
Realistic
350
15F1
  3
Thicken
350
15F4
  0
XRECORD
  5
1693
102
{ACAD_REACTORS
330
C
102
}
330
C
100
AcDbXrecord
280
     1
 90
        1
330
15FD
  0
DICTIONARY
  5
3D
102
{ACAD_REACTORS
330
C
102
}
330
C
100
AcDbDictionary
281
     1
  3
CANNOSCALE
350
168D
  3
CMLEADERSTYLE
350
168C
  3
CTABLESTYLE
350
168B
  3
DIMASSOC
350
3F
  3
HIDETEXT
350
3E
  3
INDEXCTL
350
168F
  3
SORTENTS
350
168E
  3
XCLIPFRAME
350
1690
  0
DICTIONARY
  5
13B0
102
{ACAD_REACTORS
330
C
102
}
330
C
100
AcDbDictionary
281
     1
  3
ASEBlockHierarchyIndexRecord
350
13B1
1001
DCO15
1040
1757841170.546
  0
XRECORD
  5
1694
102
{ACAD_REACTORS
330
C
102
}
330
C
100
AcDbXrecord
280
     1
  1
DWGPROPS COOKIE
  2

  3

  4

  6

  7

  8
Julio
  9

300
=
301
=
302
=
303
=
304
=
305
=
306
=
307
=
308
=
309
=
 40
0.0095741087962963
 41
2453480.647740336
 42
2456148.595770208
  1

 90
        0
  0
XRECORD
  5
162F
102
{ACAD_REACTORS
330
162E
102
}
330
162E
100
AcDbXrecord
280
     1
290
     1
  0
XRECORD
  5
1631
102
{ACAD_REACTORS
330
1630
102
}
330
1630
100
AcDbXrecord
280
     1
290
     1
  0
XRECORD
  5
1633
102
{ACAD_REACTORS
330
1632
102
}
330
1632
100
AcDbXrecord
280
     1
290
     1
  0
XRECORD
  5
1635
102
{ACAD_REACTORS
330
1634
102
}
330
1634
100
AcDbXrecord
280
     1
290
     1
  0
XRECORD
  5
1637
102
{ACAD_REACTORS
330
1636
102
}
330
1636
100
AcDbXrecord
280
     1
290
     1
  0
XRECORD
  5
1639
102
{ACAD_REACTORS
330
1638
102
}
330
1638
100
AcDbXrecord
280
     1
290
     1
  0
XRECORD
  5
163B
102
{ACAD_REACTORS
330
163A
102
}
330
163A
100
AcDbXrecord
280
     1
290
     1
  0
XRECORD
  5
163D
102
{ACAD_REACTORS
330
163C
102
}
330
163C
100
AcDbXrecord
280
     1
290
     1
  0
XRECORD
  5
163F
102
{ACAD_REACTORS
330
163E
102
}
330
163E
100
AcDbXrecord
280
     1
290
     1
  0
XRECORD
  5
1641
102
{ACAD_REACTORS
330
1640
102
}
330
1640
100
AcDbXrecord
280
     1
290
     1
  0
XRECORD
  5
1643
102
{ACAD_REACTORS
330
1642
102
}
330
1642
100
AcDbXrecord
280
     1
290
     1
  0
XRECORD
  5
1645
102
{ACAD_REACTORS
330
1644
102
}
330
1644
100
AcDbXrecord
280
     1
290
     1
  0
XRECORD
  5
1647
102
{ACAD_REACTORS
330
1646
102
}
330
1646
100
AcDbXrecord
280
     1
290
     1
  0
XRECORD
  5
1649
102
{ACAD_REACTORS
330
1648
102
}
330
1648
100
AcDbXrecord
280
     1
290
     1
  0
XRECORD
  5
164B
102
{ACAD_REACTORS
330
164A
102
}
330
164A
100
AcDbXrecord
280
     1
290
     1
  0
XRECORD
  5
16C7
102
{ACAD_REACTORS
330
16C6
102
}
330
16C6
100
AcDbXrecord
280
     1
 40
2820.0
  1
\U+22050,6
  0
LAYOUT
  5
1E
102
{ACAD_XDICTIONARY
360
1695
102
}
102
{ACAD_REACTORS
330
1A
102
}
330
1A
100
AcDbPlotSettings
  1

  2
Ploter HP500
  4

  6

 40
0.0
 41
0.0
 42
0.0
 43
0.0
 44
0.0
 45
0.0
 46
0.0
 47
0.0
 48
0.0
 49
0.0
140
0.0
141
0.0
142
1.0
143
1.0
 70
   688
 72
     0
 73
     0
 74
     5
  7
monochrome.ctb
 75
    16
147
1.0
148
0.0
149
0.0
100
AcDbLayout
  1
Layout1
 70
     1
 71
     1
 10
0.0
 20
0.0
 11
420.0
 21
297.0
 12
0.0
 22
0.0
 32
0.0
 14
1.000000000000000E+20
 24
1.000000000000000E+20
 34
1.000000000000000E+20
 15
-1.000000000000000E+20
 25
-1.000000000000000E+20
 35
-1.000000000000000E+20
146
0.0
 13
0.0
 23
0.0
 33
0.0
 16
1.0
 26
0.0
 36
0.0
 17
0.0
 27
1.0
 37
0.0
 76
     0
330
1B
  0
LAYOUT
  5
26
102
{ACAD_XDICTIONARY
360
1699
102
}
102
{ACAD_REACTORS
330
1A
102
}
330
1A
100
AcDbPlotSettings
  1

  2
Ploter HP500
  4

  6

 40
0.0
 41
0.0
 42
0.0
 43
0.0
 44
0.0
 45
0.0
 46
0.0
 47
0.0
 48
0.0
 49
0.0
140
0.0
141
0.0
142
1.0
143
1.0
 70
   688
 72
     0
 73
     0
 74
     5
  7
monochrome.ctb
 75
    16
147
1.0
148
0.0
149
0.0
100
AcDbLayout
  1
Layout2
 70
     1
 71
     2
 10
0.0
 20
0.0
 11
12.0
 21
9.0
 12
0.0
 22
0.0
 32
0.0
 14
0.0
 24
0.0
 34
0.0
 15
0.0
 25
0.0
 35
0.0
146
0.0
 13
0.0
 23
0.0
 33
0.0
 16
1.0
 26
0.0
 36
0.0
 17
0.0
 27
1.0
 37
0.0
 76
     0
330
23
  0
LAYOUT
  5
22
102
{ACAD_XDICTIONARY
360
1697
102
}
102
{ACAD_REACTORS
330
1A
102
}
330
1A
100
AcDbPlotSettings
  1

  2
Ploter HP500
  4
User268
  6

 40
4.995333194732666
 41
16.97565841674804
 42
4.995330810546875
 43
16.97567749023437
 44
209.9733276367187
 45
296.9259948730469
 46
0.0
 47
0.0
 48
0.0
 49
0.0
140
0.0
141
0.0
142
1.0
143
1.0
 70
 11952
 72
     1
 73
     1
 74
     0
  7

 75
     0
147
1.0
148
-427.5957866592534
149
7.362384574453926
100
AcDbLayout
  1
Model
 70
     1
 71
     0
 10
0.0
 20
0.0
 11
12.0
 21
9.0
 12
0.0
 22
0.0
 32
0.0
 14
0.0
 24
0.0
 34
0.0
 15
0.0
 25
0.0
 35
0.0
146
0.0
 13
0.0
 23
0.0
 33
0.0
 16
1.0
 26
0.0
 36
0.0
 17
0.0
 27
1.0
 37
0.0
 76
     0
330
1F
331
15CC
  0
MATERIAL
  5
15D7
102
{ACAD_XDICTIONARY
360
15D8
102
}
102
{ACAD_REACTORS
330
15CE
102
}
330
15CE
100
AcDbMaterial
  1
ByBlock
 72
     0
 43
0.0008202099737533
 43
0.0
 43
0.0
 43
0.0
 43
0.0
 43
0.0008202099737533
 43
0.0
 43
0.0
 43
0.0
 43
0.0
 43
1.0
 43
0.0
 43
0.0
 43
0.0
 43
0.0
 43
1.0
 77
     0
 47
0.0008202099737533
 47
0.0
 47
0.0
 47
0.0
 47
0.0
 47
0.0008202099737533
 47
0.0
 47
0.0
 47
0.0
 47
0.0
 47
1.0
 47
0.0
 47
0.0
 47
0.0
 47
0.0
 47
1.0
171
     0
 49
0.0008202099737533
 49
0.0
 49
0.0
 49
0.0
 49
0.0
 49
0.0008202099737533
 49
0.0
 49
0.0
 49
0.0
 49
0.0
 49
1.0
 49
0.0
 49
0.0
 49
0.0
 49
0.0
 49
1.0
175
     0
142
0.0008202099737533
142
0.0
142
0.0
142
0.0
142
0.0
142
0.0008202099737533
142
0.0
142
0.0
142
0.0
142
0.0
142
1.0
142
0.0
142
0.0
142
0.0
142
0.0
142
1.0
179
     0
144
0.0008202099737533
144
0.0
144
0.0
144
0.0
144
0.0
144
0.0008202099737533
144
0.0
144
0.0
144
0.0
144
0.0
144
1.0
144
0.0
144
0.0
144
0.0
144
0.0
144
1.0
147
0.0008202099737533
147
0.0
147
0.0
147
0.0
147
0.0
147
0.0008202099737533
147
0.0
147
0.0
147
0.0
147
0.0
147
1.0
147
0.0
147
0.0
147
0.0
147
0.0
147
1.0
  0
MATERIAL
  5
15CF
102
{ACAD_XDICTIONARY
360
15D0
102
}
102
{ACAD_REACTORS
330
15CE
102
}
330
15CE
100
AcDbMaterial
  1
ByLayer
 72
     0
 43
0.0008202099737533
 43
0.0
 43
0.0
 43
0.0
 43
0.0
 43
0.0008202099737533
 43
0.0
 43
0.0
 43
0.0
 43
0.0
 43
1.0
 43
0.0
 43
0.0
 43
0.0
 43
0.0
 43
1.0
 77
     0
 47
0.0008202099737533
 47
0.0
 47
0.0
 47
0.0
 47
0.0
 47
0.0008202099737533
 47
0.0
 47
0.0
 47
0.0
 47
0.0
 47
1.0
 47
0.0
 47
0.0
 47
0.0
 47
0.0
 47
1.0
171
     0
 49
0.0008202099737533
 49
0.0
 49
0.0
 49
0.0
 49
0.0
 49
0.0008202099737533
 49
0.0
 49
0.0
 49
0.0
 49
0.0
 49
1.0
 49
0.0
 49
0.0
 49
0.0
 49
0.0
 49
1.0
175
     0
142
0.0008202099737533
142
0.0
142
0.0
142
0.0
142
0.0
142
0.0008202099737533
142
0.0
142
0.0
142
0.0
142
0.0
142
1.0
142
0.0
142
0.0
142
0.0
142
0.0
142
1.0
179
     0
144
0.0008202099737533
144
0.0
144
0.0
144
0.0
144
0.0
144
0.0008202099737533
144
0.0
144
0.0
144
0.0
144
0.0
144
1.0
144
0.0
144
0.0
144
0.0
144
0.0
144
1.0
147
0.0008202099737533
147
0.0
147
0.0
147
0.0
147
0.0
147
0.0008202099737533
147
0.0
147
0.0
147
0.0
147
0.0
147
1.0
147
0.0
147
0.0
147
0.0
147
0.0
147
1.0
  0
MATERIAL
  5
15DF
102
{ACAD_XDICTIONARY
360
15E0
102
}
102
{ACAD_REACTORS
330
15CE
102
}
330
15CE
100
AcDbMaterial
  1
Global
 72
     0
 43
0.0008202099737533
 43
0.0
 43
0.0
 43
0.0
 43
0.0
 43
0.0008202099737533
 43
0.0
 43
0.0
 43
0.0
 43
0.0
 43
1.0
 43
0.0
 43
0.0
 43
0.0
 43
0.0
 43
1.0
 77
     0
 47
0.0008202099737533
 47
0.0
 47
0.0
 47
0.0
 47
0.0
 47
0.0008202099737533
 47
0.0
 47
0.0
 47
0.0
 47
0.0
 47
1.0
 47
0.0
 47
0.0
 47
0.0
 47
0.0
 47
1.0
171
     0
 49
0.0008202099737533
 49
0.0
 49
0.0
 49
0.0
 49
0.0
 49
0.0008202099737533
 49
0.0
 49
0.0
 49
0.0
 49
0.0
 49
1.0
 49
0.0
 49
0.0
 49
0.0
 49
0.0
 49
1.0
175
     0
142
0.0008202099737533
142
0.0
142
0.0
142
0.0
142
0.0
142
0.0008202099737533
142
0.0
142
0.0
142
0.0
142
0.0
142
1.0
142
0.0
142
0.0
142
0.0
142
0.0
142
1.0
179
     0
144
0.0008202099737533
144
0.0
144
0.0
144
0.0
144
0.0
144
0.0008202099737533
144
0.0
144
0.0
144
0.0
144
0.0
144
1.0
144
0.0
144
0.0
144
0.0
144
0.0
144
1.0
147
0.0008202099737533
147
0.0
147
0.0
147
0.0
147
0.0
147
0.0008202099737533
147
0.0
147
0.0
147
0.0
147
0.0
147
1.0
147
0.0
147
0.0
147
0.0
147
0.0
147
1.0
  0
MLEADERSTYLE
  5
1611
102
{ACAD_REACTORS
330
1610
102
}
330
1610
100
AcDbMLeaderStyle
170
     2
171
     1
172
     0
 90
        2
 40
0.0
 41
0.0
173
     1
 91
-1056964608
340
14
 92
       -2
290
     1
 42
2.0
291
     1
 43
0.36
  3
Standard
 44
4.0
300

342
11
174
     1
178
     6
175
     1
176
     0
 93
-1056964608
 45
4.0
292
     0
297
     0
 46
4.0
 94
-1056964608
 47
1.0
 49
1.0
140
1.0
293
     1
141
0.0
294
     1
177
     0
142
1.0
295
     0
296
     0
143
0.125
1001
ACAD_MLEADERVER
1070
     2
  0
MLINESTYLE
  5
18
102
{ACAD_REACTORS
330
17
102
}
330
17
100
AcDbMlineStyle
  2
STANDARD
 70
     0
  3

 62
   256
 51
90.0
 52
90.0
 71
     2
 49
0.5
 62
   256
  6
BYLAYER
 49
-0.5
 62
   256
  6
BYLAYER
  0
ACDBPLACEHOLDER
  5
F
102
{ACAD_REACTORS
330
E
102
}
330
E
  0
SCALE
  5
15FF
102
{ACAD_REACTORS
330
15FE
102
}
330
15FE
100
AcDbScale
 70
     0
300
1:1
140
1.0
141
1.0
290
     1
  0
SCALE
  5
1600
102
{ACAD_REACTORS
330
15FE
102
}
330
15FE
100
AcDbScale
 70
     0
300
1:2
140
1.0
141
2.0
290
     0
  0
SCALE
  5
1601
102
{ACAD_REACTORS
330
15FE
102
}
330
15FE
100
AcDbScale
 70
     0
300
1:4
140
1.0
141
4.0
290
     0
  0
SCALE
  5
1602
102
{ACAD_REACTORS
330
15FE
102
}
330
15FE
100
AcDbScale
 70
     0
300
1:5
140
1.0
141
5.0
290
     0
  0
SCALE
  5
1603
102
{ACAD_REACTORS
330
15FE
102
}
330
15FE
100
AcDbScale
 70
     0
300
1:8
140
1.0
141
8.0
290
     0
  0
SCALE
  5
1604
102
{ACAD_REACTORS
330
15FE
102
}
330
15FE
100
AcDbScale
 70
     0
300
1:10
140
1.0
141
10.0
290
     0
  0
SCALE
  5
1605
102
{ACAD_REACTORS
330
15FE
102
}
330
15FE
100
AcDbScale
 70
     0
300
1:16
140
1.0
141
16.0
290
     0
  0
SCALE
  5
1606
102
{ACAD_REACTORS
330
15FE
102
}
330
15FE
100
AcDbScale
 70
     0
300
1:20
140
1.0
141
20.0
290
     0
  0
SCALE
  5
1607
102
{ACAD_REACTORS
330
15FE
102
}
330
15FE
100
AcDbScale
 70
     0
300
1:30
140
1.0
141
30.0
290
     0
  0
SCALE
  5
1608
102
{ACAD_REACTORS
330
15FE
102
}
330
15FE
100
AcDbScale
 70
     0
300
1:40
140
1.0
141
40.0
290
     0
  0
SCALE
  5
1609
102
{ACAD_REACTORS
330
15FE
102
}
330
15FE
100
AcDbScale
 70
     0
300
1:50
140
1.0
141
50.0
290
     0
  0
SCALE
  5
160A
102
{ACAD_REACTORS
330
15FE
102
}
330
15FE
100
AcDbScale
 70
     0
300
1:100
140
1.0
141
100.0
290
     0
  0
SCALE
  5
160B
102
{ACAD_REACTORS
330
15FE
102
}
330
15FE
100
AcDbScale
 70
     0
300
2:1
140
2.0
141
1.0
290
     0
  0
SCALE
  5
160C
102
{ACAD_REACTORS
330
15FE
102
}
330
15FE
100
AcDbScale
 70
     0
300
4:1
140
4.0
141
1.0
290
     0
  0
SCALE
  5
160D
102
{ACAD_REACTORS
330
15FE
102
}
330
15FE
100
AcDbScale
 70
     0
300
8:1
140
8.0
141
1.0
290
     0
  0
SCALE
  5
160E
102
{ACAD_REACTORS
330
15FE
102
}
330
15FE
100
AcDbScale
 70
     0
300
10:1
140
10.0
141
1.0
290
     0
  0
SCALE
  5
160F
102
{ACAD_REACTORS
330
15FE
102
}
330
15FE
100
AcDbScale
 70
     0
300
100:1
140
100.0
141
1.0
290
     0
  0
TABLESTYLE
  5
15FD
102
{ACAD_XDICTIONARY
360
1691
102
}
102
{ACAD_REACTORS
330
15FC
102
}
330
15FC
100
AcDbTableStyle
  3
Standard
 70
     0
 71
     0
 40
1.5
 41
1.5
280
     0
281
     0
  7
Standard
140
4.5
170
     2
 62
     0
 63
     7
283
     0
274
    -2
284
     1
 64
     0
275
    -2
285
     1
 65
     0
276
    -2
286
     1
 66
     0
277
    -2
287
     1
 67
     0
278
    -2
288
     1
 68
     0
279
    -2
289
     1
 69
     0
  7
Standard
140
6.0
170
     5
 62
     0
 63
     7
283
     0
274
    -2
284
     1
 64
     0
275
    -2
285
     1
 65
     0
276
    -2
286
     1
 66
     0
277
    -2
287
     1
 67
     0
278
    -2
288
     1
 68
     0
279
    -2
289
     1
 69
     0
  7
Standard
140
4.5
170
     5
 62
     0
 63
     7
283
     0
274
    -2
284
     1
 64
     0
275
    -2
285
     1
 65
     0
276
    -2
286
     1
 66
     0
277
    -2
287
     1
 67
     0
278
    -2
288
     1
 68
     0
279
    -2
289
     1
 69
     0
  0
VISUALSTYLE
  5
15ED
102
{ACAD_XDICTIONARY
360
16A8
102
}
102
{ACAD_REACTORS
330
15E7
102
}
330
15E7
100
AcDbVisualStyle
  2
2dWireframe
 70
     4
 71
     0
 72
     2
 73
     0
 90
        0
 40
-0.6
 41
-30.0
 62
     5
 63
     7
 74
     1
 91
        4
 64
     7
 65
   257
 75
     1
175
     1
 42
1.0
 92
        0
 66
   257
 43
1.0
 76
     1
 77
     6
 78
     2
 67
     7
 79
     5
170
     0
171
     0
290
     0
174
     0
 93
        1
 44
0.0
173
     0
291
     0
 45
0.0
1001
ACAD
1000
AcDbSavedByObjectVersion
1070
     0
  0
VISUALSTYLE
  5
15EF
102
{ACAD_XDICTIONARY
360
16AC
102
}
102
{ACAD_REACTORS
330
15E7
102
}
330
15E7
100
AcDbVisualStyle
  2
3D Hidden
 70
     6
 71
     1
 72
     2
 73
     2
 90
        0
 40
-0.6
 41
-30.0
 62
     5
 63
     7
 74
     2
 91
        2
 64
     7
 65
   257
 75
     2
175
     1
 42
179.0
 92
        0
 66
   257
 43
1.0
 76
     1
 77
     6
 78
     2
 67
     7
 79
     3
170
     0
171
     0
290
     0
174
     0
 93
        1
 44
0.0
173
     0
291
     0
 45
0.0
1001
ACAD
1000
AcDbSavedByObjectVersion
1070
     0
  0
VISUALSTYLE
  5
15EE
102
{ACAD_XDICTIONARY
360
16AA
102
}
102
{ACAD_REACTORS
330
15E7
102
}
330
15E7
100
AcDbVisualStyle
  2
3dWireframe
 70
     5
 71
     0
 72
     2
 73
     0
 90
        0
 40
-0.6
 41
-30.0
 62
     5
 63
     7
 74
     1
 91
        4
 64
     7
 65
   257
 75
     1
175
     1
 42
1.0
 92
        0
 66
   257
 43
1.0
 76
     1
 77
     6
 78
     2
 67
     7
 79
     5
170
     0
171
     0
290
     0
174
     0
 93
        1
 44
0.0
173
     0
291
     0
 45
0.0
1001
ACAD
1000
AcDbSavedByObjectVersion
1070
     0
  0
VISUALSTYLE
  5
15EC
102
{ACAD_XDICTIONARY
360
16A6
102
}
102
{ACAD_REACTORS
330
15E7
102
}
330
15E7
100
AcDbVisualStyle
  2
Basic
 70
     7
 71
     1
 72
     0
 73
     1
 90
        0
 40
-0.6
 41
-30.0
 62
     5
 63
     7
 74
     0
 91
        4
 64
     7
 65
   257
 75
     1
175
     1
 42
1.0
 92
        8
 66
     7
 43
1.0
 76
     1
 77
     6
 78
     2
 67
     7
 79
     5
170
     0
171
     0
290
     0
174
     0
 93
        1
 44
0.0
173
     0
291
     1
 45
0.0
1001
ACAD
1000
AcDbSavedByObjectVersion
1070
     0
  0
VISUALSTYLE
  5
15F3
102
{ACAD_XDICTIONARY
360
16B4
102
}
102
{ACAD_REACTORS
330
15E7
102
}
330
15E7
100
AcDbVisualStyle
  2
Brighten
 70
    12
 71
     2
 72
     2
 73
     0
 90
        0
 40
-0.6
 41
-30.0
 62
     5
 63
     7
 74
     1
 91
        4
 64
     7
 65
   257
 75
     1
175
     1
 42
1.0
 92
        8
 66
     7
 43
1.0
 76
     1
 77
     6
 78
     2
 67
     7
 79
     5
170
     0
171
     0
290
     0
174
     0
 93
        1
 44
50.0
173
     0
291
     1
 45
0.0
1001
ACAD
1000
AcDbSavedByObjectVersion
1070
     0
  0
VISUALSTYLE
  5
15F7
102
{ACAD_XDICTIONARY
360
16BC
102
}
102
{ACAD_REACTORS
330
15E7
102
}
330
15E7
100
AcDbVisualStyle
  2
ColorChange
 70
    16
 71
     2
 72
     2
 73
     3
 90
        0
 40
-0.6
 41
-30.0
 62
     5
 63
     8
 74
     1
 91
        4
 64
     7
 65
   257
 75
     1
175
     1
 42
1.0
 92
        8
 66
     8
 43
1.0
 76
     1
 77
     6
 78
     2
 67
     7
 79
     5
170
     0
171
     0
290
     0
174
     0
 93
        1
 44
0.0
173
     0
291
     1
 45
0.0
1001
ACAD
1000
AcDbSavedByObjectVersion
1070
     0
  0
VISUALSTYLE
  5
15F0
102
{ACAD_XDICTIONARY
360
16AE
102
}
102
{ACAD_REACTORS
330
15E7
102
}
330
15E7
100
AcDbVisualStyle
  2
Conceptual
 70
     9
 71
     3
 72
     2
 73
     0
 90
        0
 40
-0.6
 41
-30.0
 62
     5
 63
     7
 74
     2
 91
        2
 64
     7
 65
   257
 75
     1
175
     1
 42
179.0
 92
        8
 66
     7
 43
1.0
 76
     1
 77
     6
 78
     2
 67
     7
 79
     3
170
     0
171
     0
290
     0
174
     0
 93
        1
 44
0.0
173
     0
291
     0
 45
0.0
1001
ACAD
1000
AcDbSavedByObjectVersion
1070
     0
  0
VISUALSTYLE
  5
15F2
102
{ACAD_XDICTIONARY
360
16B2
102
}
102
{ACAD_REACTORS
330
15E7
102
}
330
15E7
100
AcDbVisualStyle
  2
Dim
 70
    11
 71
     2
 72
     2
 73
     0
 90
        0
 40
-0.6
 41
-30.0
 62
     5
 63
     7
 74
     1
 91
        4
 64
     7
 65
   257
 75
     1
175
     1
 42
1.0
 92
        8
 66
     7
 43
1.0
 76
     1
 77
     6
 78
     2
 67
     7
 79
     5
170
     0
171
     0
290
     0
174
     0
 93
        1
 44
-50.0
173
     0
291
     1
 45
0.0
1001
ACAD
1000
AcDbSavedByObjectVersion
1070
     0
  0
VISUALSTYLE
  5
15FA
102
{ACAD_XDICTIONARY
360
16C2
102
}
102
{ACAD_REACTORS
330
15E7
102
}
330
15E7
100
AcDbVisualStyle
  2
EdgeColorOff
 70
    22
 71
     2
 72
     2
 73
     0
 90
        0
 40
-0.6
 41
-30.0
 62
     5
 63
     7
 74
     1
 91
        4
 64
     7
 65
   257
 75
     1
175
     1
 42
1.0
 92
        8
 66
     7
 43
1.0
 76
     1
 77
     6
 78
     2
 67
     7
 79
     5
170
     0
171
     0
290
     0
174
     0
 93
        1
 44
0.0
173
     0
291
     1
 45
0.0
1001
ACAD
1000
AcDbSavedByObjectVersion
1070
     0
  0
VISUALSTYLE
  5
15F6
102
{ACAD_XDICTIONARY
360
16BA
102
}
102
{ACAD_REACTORS
330
15E7
102
}
330
15E7
100
AcDbVisualStyle
  2
Facepattern
 70
    15
 71
     2
 72
     2
 73
     0
 90
        0
 40
-0.6
 41
-30.0
 62
     5
 63
     7
 74
     1
 91
        4
 64
     7
 65
   257
 75
     1
175
     1
 42
1.0
 92
        8
 66
     7
 43
1.0
 76
     1
 77
     6
 78
     2
 67
     7
 79
     5
170
     0
171
     0
290
     0
174
     0
 93
        1
 44
0.0
173
     0
291
     1
 45
0.0
1001
ACAD
1000
AcDbSavedByObjectVersion
1070
     0
  0
VISUALSTYLE
  5
15E8
102
{ACAD_XDICTIONARY
360
169E
102
}
102
{ACAD_REACTORS
330
15E7
102
}
330
15E7
100
AcDbVisualStyle
  2
Flat
 70
     0
 71
     2
 72
     1
 73
     1
 90
        2
 40
-0.6
 41
30.0
 62
     5
 63
     7
 74
     0
 91
        4
 64
     7
 65
   257
 75
     1
175
     1
 42
1.0
 92
        8
 66
     7
 43
1.0
 76
     1
 77
     6
 78
     2
 67
     7
 79
     5
170
     0
171
     0
290
     0
174
     0
 93
       13
 44
0.0
173
     0
291
     1
 45
0.0
1001
ACAD
1000
AcDbSavedByObjectVersion
1070
     0
  0
VISUALSTYLE
  5
15E9
102
{ACAD_XDICTIONARY
360
16A0
102
}
102
{ACAD_REACTORS
330
15E7
102
}
330
15E7
100
AcDbVisualStyle
  2
FlatWithEdges
 70
     1
 71
     2
 72
     1
 73
     1
 90
        2
 40
-0.6
 41
30.0
 62
     5
 63
     7
 74
     1
 91
        4
 64
     7
 65
   257
 75
     1
175
     1
 42
1.0
 92
        0
 66
   257
 43
1.0
 76
     1
 77
     6
 78
     2
 67
     7
 79
     5
170
     0
171
     0
290
     0
174
     0
 93
       13
 44
0.0
173
     0
291
     1
 45
0.0
1001
ACAD
1000
AcDbSavedByObjectVersion
1070
     0
  0
VISUALSTYLE
  5
15EA
102
{ACAD_XDICTIONARY
360
16A2
102
}
102
{ACAD_REACTORS
330
15E7
102
}
330
15E7
100
AcDbVisualStyle
  2
Gouraud
 70
     2
 71
     2
 72
     2
 73
     1
 90
        2
 40
-0.6
 41
30.0
 62
     5
 63
     7
 74
     0
 91
        4
 64
     7
 65
   257
 75
     1
175
     1
 42
1.0
 92
        0
 66
     7
 43
1.0
 76
     1
 77
     6
 78
     2
 67
     7
 79
     5
170
     0
171
     0
290
     0
174
     0
 93
       13
 44
0.0
173
     0
291
     1
 45
0.0
1001
ACAD
1000
AcDbSavedByObjectVersion
1070
     0
  0
VISUALSTYLE
  5
15EB
102
{ACAD_XDICTIONARY
360
16A4
102
}
102
{ACAD_REACTORS
330
15E7
102
}
330
15E7
100
AcDbVisualStyle
  2
GouraudWithEdges
 70
     3
 71
     2
 72
     2
 73
     1
 90
        2
 40
-0.6
 41
30.0
 62
     5
 63
     7
 74
     1
 91
        4
 64
     7
 65
   257
 75
     1
175
     1
 42
1.0
 92
        0
 66
   257
 43
1.0
 76
     1
 77
     6
 78
     2
 67
     7
 79
     5
170
     0
171
     0
290
     0
174
     0
 93
       13
 44
0.0
173
     0
291
     1
 45
0.0
1001
ACAD
1000
AcDbSavedByObjectVersion
1070
     0
  0
VISUALSTYLE
  5
15F8
102
{ACAD_XDICTIONARY
360
16BE
102
}
102
{ACAD_REACTORS
330
15E7
102
}
330
15E7
100
AcDbVisualStyle
  2
JitterOff
 70
    20
 71
     2
 72
     2
 73
     0
 90
        0
 40
-0.6
 41
-30.0
 62
     5
 63
     7
 74
     1
 91
        4
 64
     7
 65
   257
 75
     1
175
     1
 42
1.0
 92
       10
 66
     7
 43
1.0
 76
     1
 77
     6
 78
     2
 67
     7
 79
     5
170
     0
171
     0
290
     0
174
     0
 93
        1
 44
0.0
173
     0
291
     1
 45
0.0
1001
ACAD
1000
AcDbSavedByObjectVersion
1070
     0
  0
VISUALSTYLE
  5
15F5
102
{ACAD_XDICTIONARY
360
16B8
102
}
102
{ACAD_REACTORS
330
15E7
102
}
330
15E7
100
AcDbVisualStyle
  2
Linepattern
 70
    14
 71
     2
 72
     2
 73
     0
 90
        0
 40
-0.6
 41
-30.0
 62
     5
 63
     7
 74
     1
 91
        4
 64
     7
 65
   257
 75
     7
175
     7
 42
1.0
 92
        8
 66
     7
 43
1.0
 76
     1
 77
     6
 78
     2
 67
     7
 79
     5
170
     0
171
     0
290
     0
174
     0
 93
        1
 44
0.0
173
     0
291
     1
 45
0.0
1001
ACAD
1000
AcDbSavedByObjectVersion
1070
     0
  0
VISUALSTYLE
  5
15F9
102
{ACAD_XDICTIONARY
360
16C0
102
}
102
{ACAD_REACTORS
330
15E7
102
}
330
15E7
100
AcDbVisualStyle
  2
OverhangOff
 70
    21
 71
     2
 72
     2
 73
     0
 90
        0
 40
-0.6
 41
-30.0
 62
     5
 63
     7
 74
     1
 91
        4
 64
     7
 65
   257
 75
     1
175
     1
 42
1.0
 92
        9
 66
     7
 43
1.0
 76
     1
 77
     6
 78
     2
 67
     7
 79
     5
170
     0
171
     0
290
     0
174
     0
 93
        1
 44
0.0
173
     0
291
     1
 45
0.0
1001
ACAD
1000
AcDbSavedByObjectVersion
1070
     0
  0
VISUALSTYLE
  5
15F1
102
{ACAD_XDICTIONARY
360
16B0
102
}
102
{ACAD_REACTORS
330
15E7
102
}
330
15E7
100
AcDbVisualStyle
  2
Realistic
 70
     8
 71
     2
 72
     2
 73
     0
 90
        0
 40
-0.6
 41
-30.0
 62
     5
 63
     7
 74
     1
 91
        0
 64
     7
 65
   257
 75
     1
175
     1
 42
1.0
 92
        8
 66
     8
 43
1.0
 76
     1
 77
     6
 78
     2
 67
     7
 79
     5
170
     0
171
     0
290
     0
174
     0
 93
       13
 44
0.0
173
     0
291
     0
 45
0.0
1001
ACAD
1000
AcDbSavedByObjectVersion
1070
     0
  0
VISUALSTYLE
  5
15F4
102
{ACAD_XDICTIONARY
360
16B6
102
}
102
{ACAD_REACTORS
330
15E7
102
}
330
15E7
100
AcDbVisualStyle
  2
Thicken
 70
    13
 71
     2
 72
     2
 73
     0
 90
        0
 40
-0.6
 41
-30.0
 62
     5
 63
     7
 74
     1
 91
        4
 64
     7
 65
   257
 75
     1
175
     1
 42
1.0
 92
       12
 66
     7
 43
1.0
 76
     1
 77
     6
 78
     2
 67
     7
 79
     5
170
     0
171
     0
290
     0
174
     0
 93
        1
 44
0.0
173
     0
291
     1
 45
0.0
1001
ACAD
1000
AcDbSavedByObjectVersion
1070
     0
  0
DICTIONARYVAR
  5
168D
102
{ACAD_REACTORS
330
3D
102
}
330
3D
100
DictionaryVariables
280
     0
  1
1:1
  0
DICTIONARYVAR
  5
168C
102
{ACAD_REACTORS
330
3D
102
}
330
3D
100
DictionaryVariables
280
     0
  1
STANDARD
  0
DICTIONARYVAR
  5
168B
102
{ACAD_REACTORS
330
3D
102
}
330
3D
100
DictionaryVariables
280
     0
  1
STANDARD
  0
DICTIONARYVAR
  5
3F
102
{ACAD_REACTORS
330
3D
102
}
330
3D
100
DictionaryVariables
280
     0
  1
2
  0
DICTIONARYVAR
  5
3E
102
{ACAD_REACTORS
330
3D
102
}
330
3D
100
DictionaryVariables
280
     0
  1
1
  0
DICTIONARYVAR
  5
168F
102
{ACAD_REACTORS
330
3D
102
}
330
3D
100
DictionaryVariables
280
     0
  1
0
  0
DICTIONARYVAR
  5
168E
102
{ACAD_REACTORS
330
3D
102
}
330
3D
100
DictionaryVariables
280
     0
  1
127
  0
DICTIONARYVAR
  5
1690
102
{ACAD_REACTORS
330
3D
102
}
330
3D
100
DictionaryVariables
280
     0
  1
2
  0
XRECORD
  5
13B1
102
{ACAD_REACTORS
330
13B0
102
}
330
13B0
100
AcDbXrecord
280
     1
  0
DICTIONARY
  5
1695
330
1E
100
AcDbDictionary
280
     1
281
     1
  3
ACAD_XREC_ROUNDTRIP
360
1696
  0
DICTIONARY
  5
1699
330
26
100
AcDbDictionary
280
     1
281
     1
  3
ACAD_XREC_ROUNDTRIP
360
169A
  0
DICTIONARY
  5
1697
330
22
100
AcDbDictionary
280
     1
281
     1
  3
ACAD_XREC_ROUNDTRIP
360
1698
  0
DICTIONARY
  5
15D8
330
15D7
100
AcDbDictionary
280
     1
281
     1
  3
ACAD_XREC_ROUNDTRIP
360
169C
  3
BUMPTILE
360
15DA
  3
DIFFUSETILE
360
15D9
  3
OPACITYTILE
360
15DD
  3
REFLECTIONTILE
360
15DC
  3
REFRACTIONTILE
360
15DE
  3
SPECULARTILE
360
15DB
  0
DICTIONARY
  5
15D0
330
15CF
100
AcDbDictionary
280
     1
281
     1
  3
ACAD_XREC_ROUNDTRIP
360
169B
  3
BUMPTILE
360
15D2
  3
DIFFUSETILE
360
15D1
  3
OPACITYTILE
360
15D5
  3
REFLECTIONTILE
360
15D4
  3
REFRACTIONTILE
360
15D6
  3
SPECULARTILE
360
15D3
  0
DICTIONARY
  5
15E0
330
15DF
100
AcDbDictionary
280
     1
281
     1
  3
ACAD_XREC_ROUNDTRIP
360
169D
  3
BUMPTILE
360
15E2
  3
DIFFUSETILE
360
15E1
  3
OPACITYTILE
360
15E5
  3
REFLECTIONTILE
360
15E4
  3
REFRACTIONTILE
360
15E6
  3
SPECULARTILE
360
15E3
  0
DICTIONARY
  5
1691
330
15FD
100
AcDbDictionary
280
     1
281
     1
  3
ACAD_ROUNDTRIP_2008_TABLESTYLE_CELLSTYLEMAP
360
1692
  3
ACAD_XREC_ROUNDTRIP
360
16C4
  0
DICTIONARY
  5
16A8
330
15ED
100
AcDbDictionary
280
     1
281
     1
  3
ACAD_XREC_ROUNDTRIP
360
16A9
  0
DICTIONARY
  5
16AC
330
15EF
100
AcDbDictionary
280
     1
281
     1
  3
ACAD_XREC_ROUNDTRIP
360
16AD
  0
DICTIONARY
  5
16AA
330
15EE
100
AcDbDictionary
280
     1
281
     1
  3
ACAD_XREC_ROUNDTRIP
360
16AB
  0
DICTIONARY
  5
16A6
330
15EC
100
AcDbDictionary
280
     1
281
     1
  3
ACAD_XREC_ROUNDTRIP
360
16A7
  0
DICTIONARY
  5
16B4
330
15F3
100
AcDbDictionary
280
     1
281
     1
  3
ACAD_XREC_ROUNDTRIP
360
16B5
  0
DICTIONARY
  5
16BC
330
15F7
100
AcDbDictionary
280
     1
281
     1
  3
ACAD_XREC_ROUNDTRIP
360
16BD
  0
DICTIONARY
  5
16AE
330
15F0
100
AcDbDictionary
280
     1
281
     1
  3
ACAD_XREC_ROUNDTRIP
360
16AF
  0
DICTIONARY
  5
16B2
330
15F2
100
AcDbDictionary
280
     1
281
     1
  3
ACAD_XREC_ROUNDTRIP
360
16B3
  0
DICTIONARY
  5
16C2
330
15FA
100
AcDbDictionary
280
     1
281
     1
  3
ACAD_XREC_ROUNDTRIP
360
16C3
  0
DICTIONARY
  5
16BA
330
15F6
100
AcDbDictionary
280
     1
281
     1
  3
ACAD_XREC_ROUNDTRIP
360
16BB
  0
DICTIONARY
  5
169E
330
15E8
100
AcDbDictionary
280
     1
281
     1
  3
ACAD_XREC_ROUNDTRIP
360
169F
  0
DICTIONARY
  5
16A0
330
15E9
100
AcDbDictionary
280
     1
281
     1
  3
ACAD_XREC_ROUNDTRIP
360
16A1
  0
DICTIONARY
  5
16A2
330
15EA
100
AcDbDictionary
280
     1
281
     1
  3
ACAD_XREC_ROUNDTRIP
360
16A3
  0
DICTIONARY
  5
16A4
330
15EB
100
AcDbDictionary
280
     1
281
     1
  3
ACAD_XREC_ROUNDTRIP
360
16A5
  0
DICTIONARY
  5
16BE
330
15F8
100
AcDbDictionary
280
     1
281
     1
  3
ACAD_XREC_ROUNDTRIP
360
16BF
  0
DICTIONARY
  5
16B8
330
15F5
100
AcDbDictionary
280
     1
281
     1
  3
ACAD_XREC_ROUNDTRIP
360
16B9
  0
DICTIONARY
  5
16C0
330
15F9
100
AcDbDictionary
280
     1
281
     1
  3
ACAD_XREC_ROUNDTRIP
360
16C1
  0
DICTIONARY
  5
16B0
330
15F1
100
AcDbDictionary
280
     1
281
     1
  3
ACAD_XREC_ROUNDTRIP
360
16B1
  0
DICTIONARY
  5
16B6
330
15F4
100
AcDbDictionary
280
     1
281
     1
  3
ACAD_XREC_ROUNDTRIP
360
16B7
  0
XRECORD
  5
1696
102
{ACAD_REACTORS
330
1695
102
}
330
1695
100
AcDbXrecord
280
     1
102
SHADEPLOT
 70
     0
102
SHADEPLOTRESLEVEL
 70
     2
102
SHADEPLOTCUSTOMDPI
 70
   300
  0
XRECORD
  5
169A
102
{ACAD_REACTORS
330
1699
102
}
330
1699
100
AcDbXrecord
280
     1
102
SHADEPLOT
 70
     0
102
SHADEPLOTRESLEVEL
 70
     2
102
SHADEPLOTCUSTOMDPI
 70
   300
  0
XRECORD
  5
1698
102
{ACAD_REACTORS
330
1697
102
}
330
1697
100
AcDbXrecord
280
     1
102
SHADEPLOT
 70
     0
102
SHADEPLOTRESLEVEL
 70
     2
102
SHADEPLOTCUSTOMDPI
 70
   300
  0
XRECORD
  5
169C
102
{ACAD_REACTORS
330
15D8
102
}
330
15D8
100
AcDbXrecord
280
     1
102
MATERIAL
148
0.0
149
0.0
149
0.0
 93
        0
 94
      127
282
     0
 72
     0
 77
     0
171
     0
175
     0
179
     0
273
     0
  0
XRECORD
  5
15DA
102
{ACAD_REACTORS
330
15D8
102
}
330
15D8
100
AcDbXrecord
280
     1
270
     1
271
     1
  0
XRECORD
  5
15D9
102
{ACAD_REACTORS
330
15D8
102
}
330
15D8
100
AcDbXrecord
280
     1
270
     1
271
     1
  0
XRECORD
  5
15DD
102
{ACAD_REACTORS
330
15D8
102
}
330
15D8
100
AcDbXrecord
280
     1
270
     1
271
     1
  0
XRECORD
  5
15DC
102
{ACAD_REACTORS
330
15D8
102
}
330
15D8
100
AcDbXrecord
280
     1
270
     1
271
     1
  0
XRECORD
  5
15DE
102
{ACAD_REACTORS
330
15D8
102
}
330
15D8
100
AcDbXrecord
280
     1
270
     1
271
     1
  0
XRECORD
  5
15DB
102
{ACAD_REACTORS
330
15D8
102
}
330
15D8
100
AcDbXrecord
280
     1
270
     1
271
     1
  0
XRECORD
  5
169B
102
{ACAD_REACTORS
330
15D0
102
}
330
15D0
100
AcDbXrecord
280
     1
102
MATERIAL
148
0.0
149
0.0
149
0.0
 93
        0
 94
      127
282
     0
 72
     0
 77
     0
171
     0
175
     0
179
     0
273
     0
  0
XRECORD
  5
15D2
102
{ACAD_REACTORS
330
15D0
102
}
330
15D0
100
AcDbXrecord
280
     1
270
     1
271
     1
  0
XRECORD
  5
15D1
102
{ACAD_REACTORS
330
15D0
102
}
330
15D0
100
AcDbXrecord
280
     1
270
     1
271
     1
  0
XRECORD
  5
15D5
102
{ACAD_REACTORS
330
15D0
102
}
330
15D0
100
AcDbXrecord
280
     1
270
     1
271
     1
  0
XRECORD
  5
15D4
102
{ACAD_REACTORS
330
15D0
102
}
330
15D0
100
AcDbXrecord
280
     1
270
     1
271
     1
  0
XRECORD
  5
15D6
102
{ACAD_REACTORS
330
15D0
102
}
330
15D0
100
AcDbXrecord
280
     1
270
     1
271
     1
  0
XRECORD
  5
15D3
102
{ACAD_REACTORS
330
15D0
102
}
330
15D0
100
AcDbXrecord
280
     1
270
     1
271
     1
  0
XRECORD
  5
169D
102
{ACAD_REACTORS
330
15E0
102
}
330
15E0
100
AcDbXrecord
280
     1
102
MATERIAL
148
0.0
149
0.0
149
0.0
 93
        0
 94
      127
282
     0
 72
     0
 77
     0
171
     0
175
     0
179
     0
273
     0
  0
XRECORD
  5
15E2
102
{ACAD_REACTORS
330
15E0
102
}
330
15E0
100
AcDbXrecord
280
     1
270
     1
271
     1
  0
XRECORD
  5
15E1
102
{ACAD_REACTORS
330
15E0
102
}
330
15E0
100
AcDbXrecord
280
     1
270
     1
271
     1
  0
XRECORD
  5
15E5
102
{ACAD_REACTORS
330
15E0
102
}
330
15E0
100
AcDbXrecord
280
     1
270
     1
271
     1
  0
XRECORD
  5
15E4
102
{ACAD_REACTORS
330
15E0
102
}
330
15E0
100
AcDbXrecord
280
     1
270
     1
271
     1
  0
XRECORD
  5
15E6
102
{ACAD_REACTORS
330
15E0
102
}
330
15E0
100
AcDbXrecord
280
     1
270
     1
271
     1
  0
XRECORD
  5
15E3
102
{ACAD_REACTORS
330
15E0
102
}
330
15E0
100
AcDbXrecord
280
     1
270
     1
271
     1
  0
CELLSTYLEMAP
  5
1692
102
{ACAD_REACTORS
330
1691
102
}
330
1691
100
AcDbCellStyleMap
 90
        3
300
CELLSTYLE
  1
TABLEFORMAT_BEGIN
 90
        5
170
     1
 91
        0
 92
    32768
 62
   257
 93
        1
300
CONTENTFORMAT
  1
CONTENTFORMAT_BEGIN
 90
        0
 91
        0
 92
      512
 93
        0
300

 40
0.0
140
1.0
 94
        5
 62
     0
340
11
144
6.0
309
CONTENTFORMAT_END
171
     1
301
MARGIN
  1
CELLMARGIN_BEGIN
 40
1.5
 40
1.5
 40
1.5
 40
1.5
 40
4.5
 40
4.5
309
CELLMARGIN_END
 94
        6
 95
        1
302
GRIDFORMAT
  1
GRIDFORMAT_BEGIN
 90
        0
 91
        1
 62
     0
 92
       -2
340
0
 93
        0
 40
1.125
309
GRIDFORMAT_END
 95
        2
302
GRIDFORMAT
  1
GRIDFORMAT_BEGIN
 90
        0
 91
        1
 62
     0
 92
       -2
340
0
 93
        0
 40
1.125
309
GRIDFORMAT_END
 95
        4
302
GRIDFORMAT
  1
GRIDFORMAT_BEGIN
 90
        0
 91
        1
 62
     0
 92
       -2
340
0
 93
        0
 40
1.125
309
GRIDFORMAT_END
 95
        8
302
GRIDFORMAT
  1
GRIDFORMAT_BEGIN
 90
        0
 91
        1
 62
     0
 92
       -2
340
0
 93
        0
 40
1.125
309
GRIDFORMAT_END
 95
       16
302
GRIDFORMAT
  1
GRIDFORMAT_BEGIN
 90
        0
 91
        1
 62
     0
 92
       -2
340
0
 93
        0
 40
1.125
309
GRIDFORMAT_END
 95
       32
302
GRIDFORMAT
  1
GRIDFORMAT_BEGIN
 90
        0
 91
        1
 62
     0
 92
       -2
340
0
 93
        0
 40
1.125
309
GRIDFORMAT_END
309
TABLEFORMAT_END
  1
CELLSTYLE_BEGIN
 90
        1
 91
        1
300
_TITLE
309
CELLSTYLE_END
300
CELLSTYLE
  1
TABLEFORMAT_BEGIN
 90
        5
170
     1
 91
        0
 92
        0
 62
   257
 93
        1
300
CONTENTFORMAT
  1
CONTENTFORMAT_BEGIN
 90
        0
 91
        0
 92
      512
 93
        0
300

 40
0.0
140
1.0
 94
        5
 62
     0
340
11
144
4.5
309
CONTENTFORMAT_END
171
     1
301
MARGIN
  1
CELLMARGIN_BEGIN
 40
1.5
 40
1.5
 40
1.5
 40
1.5
 40
4.5
 40
4.5
309
CELLMARGIN_END
 94
        6
 95
        1
302
GRIDFORMAT
  1
GRIDFORMAT_BEGIN
 90
        0
 91
        1
 62
     0
 92
       -2
340
0
 93
        0
 40
1.125
309
GRIDFORMAT_END
 95
        2
302
GRIDFORMAT
  1
GRIDFORMAT_BEGIN
 90
        0
 91
        1
 62
     0
 92
       -2
340
0
 93
        0
 40
1.125
309
GRIDFORMAT_END
 95
        4
302
GRIDFORMAT
  1
GRIDFORMAT_BEGIN
 90
        0
 91
        1
 62
     0
 92
       -2
340
0
 93
        0
 40
1.125
309
GRIDFORMAT_END
 95
        8
302
GRIDFORMAT
  1
GRIDFORMAT_BEGIN
 90
        0
 91
        1
 62
     0
 92
       -2
340
0
 93
        0
 40
1.125
309
GRIDFORMAT_END
 95
       16
302
GRIDFORMAT
  1
GRIDFORMAT_BEGIN
 90
        0
 91
        1
 62
     0
 92
       -2
340
0
 93
        0
 40
1.125
309
GRIDFORMAT_END
 95
       32
302
GRIDFORMAT
  1
GRIDFORMAT_BEGIN
 90
        0
 91
        1
 62
     0
 92
       -2
340
0
 93
        0
 40
1.125
309
GRIDFORMAT_END
309
TABLEFORMAT_END
  1
CELLSTYLE_BEGIN
 90
        2
 91
        1
300
_HEADER
309
CELLSTYLE_END
300
CELLSTYLE
  1
TABLEFORMAT_BEGIN
 90
        5
170
     1
 91
        0
 92
        0
 62
   257
 93
        1
300
CONTENTFORMAT
  1
CONTENTFORMAT_BEGIN
 90
        0
 91
        0
 92
      512
 93
        0
300

 40
0.0
140
1.0
 94
        2
 62
     0
340
11
144
4.5
309
CONTENTFORMAT_END
171
     1
301
MARGIN
  1
CELLMARGIN_BEGIN
 40
1.5
 40
1.5
 40
1.5
 40
1.5
 40
4.5
 40
4.5
309
CELLMARGIN_END
 94
        6
 95
        1
302
GRIDFORMAT
  1
GRIDFORMAT_BEGIN
 90
        0
 91
        1
 62
     0
 92
       -2
340
0
 93
        0
 40
1.125
309
GRIDFORMAT_END
 95
        2
302
GRIDFORMAT
  1
GRIDFORMAT_BEGIN
 90
        0
 91
        1
 62
     0
 92
       -2
340
0
 93
        0
 40
1.125
309
GRIDFORMAT_END
 95
        4
302
GRIDFORMAT
  1
GRIDFORMAT_BEGIN
 90
        0
 91
        1
 62
     0
 92
       -2
340
0
 93
        0
 40
1.125
309
GRIDFORMAT_END
 95
        8
302
GRIDFORMAT
  1
GRIDFORMAT_BEGIN
 90
        0
 91
        1
 62
     0
 92
       -2
340
0
 93
        0
 40
1.125
309
GRIDFORMAT_END
 95
       16
302
GRIDFORMAT
  1
GRIDFORMAT_BEGIN
 90
        0
 91
        1
 62
     0
 92
       -2
340
0
 93
        0
 40
1.125
309
GRIDFORMAT_END
 95
       32
302
GRIDFORMAT
  1
GRIDFORMAT_BEGIN
 90
        0
 91
        1
 62
     0
 92
       -2
340
0
 93
        0
 40
1.125
309
GRIDFORMAT_END
309
TABLEFORMAT_END
  1
CELLSTYLE_BEGIN
 90
        3
 91
        2
300
_DATA
309
CELLSTYLE_END
  0
XRECORD
  5
16C4
102
{ACAD_REACTORS
330
1691
102
}
330
1691
100
AcDbXrecord
280
     1
102
ACAD_ROUNDTRIP_PRE2007_TABLESTYLE
 90
      512
 91
        0
  1

 92
      512
 93
        0
  2

 94
      512
 95
        0
  3

  0
XRECORD
  5
16A9
102
{ACAD_REACTORS
330
16A8
102
}
330
16A8
100
AcDbXrecord
280
     1
102
RTVSPropertyOp0
 70
     1
102
RTVSPropertyOp1
 70
     1
102
RTVSPropertyOp2
 70
     1
102
RTVSPropertyOp3
 70
     1
102
RTVSPropertyOp4
 70
     1
102
RTVSPropertyOp5
 70
     1
102
RTVSPropertyOp6
 70
     1
102
RTVSPropertyOp7
 70
     1
102
RTVSPropertyOp8
 70
     1
102
RTVSPropertyOp9
 70
     1
102
RTVSPropertyOp10
 70
     1
102
RTVSPropertyOp11
 70
     1
102
RTVSPropertyOp12
 70
     1
102
RTVSPropertyOp13
 70
     1
102
RTVSPropertyOp14
 70
     1
102
RTVSPropertyOp15
 70
     1
102
RTVSPropertyOp16
 70
     1
102
RTVSPropertyOp17
 70
     1
102
RTVSPropertyOp18
 70
     1
102
RTVSPropertyOp19
 70
     1
102
RTVSPropertyOp20
 70
     1
102
RTVSPropertyOp21
 70
     1
102
RTVSPropertyOp22
 70
     1
102
RTVSPropertyOp23
 70
     1
102
RTVSPropertyOp24
 70
     1
102
RTVSPropertyOp25
 70
     1
102
RTVSPropertyOp26
 70
     1
102
RTVSPropertyOp27
 70
     1
  0
XRECORD
  5
16AD
102
{ACAD_REACTORS
330
16AC
102
}
330
16AC
100
AcDbXrecord
280
     1
102
RTVSPropertyOp0
 70
     1
102
RTVSPropertyOp1
 70
     1
102
RTVSPropertyOp2
 70
     1
102
RTVSPropertyOp3
 70
     1
102
RTVSPropertyOp4
 70
     1
102
RTVSPropertyOp5
 70
     1
102
RTVSPropertyOp6
 70
     1
102
RTVSPropertyOp7
 70
     1
102
RTVSPropertyOp8
 70
     1
102
RTVSPropertyOp9
 70
     1
102
RTVSPropertyOp10
 70
     1
102
RTVSPropertyOp11
 70
     1
102
RTVSPropertyOp12
 70
     1
102
RTVSPropertyOp13
 70
     1
102
RTVSPropertyOp14
 70
     1
102
RTVSPropertyOp15
 70
     1
102
RTVSPropertyOp16
 70
     1
102
RTVSPropertyOp17
 70
     1
102
RTVSPropertyOp18
 70
     1
102
RTVSPropertyOp19
 70
     1
102
RTVSPropertyOp20
 70
     1
102
RTVSPropertyOp21
 70
     1
102
RTVSPropertyOp22
 70
     1
102
RTVSPropertyOp23
 70
     1
102
RTVSPropertyOp24
 70
     1
102
RTVSPropertyOp25
 70
     1
102
RTVSPropertyOp26
 70
     1
102
RTVSPropertyOp27
 70
     1
  0
XRECORD
  5
16AB
102
{ACAD_REACTORS
330
16AA
102
}
330
16AA
100
AcDbXrecord
280
     1
102
RTVSPropertyOp0
 70
     1
102
RTVSPropertyOp1
 70
     1
102
RTVSPropertyOp2
 70
     1
102
RTVSPropertyOp3
 70
     1
102
RTVSPropertyOp4
 70
     1
102
RTVSPropertyOp5
 70
     1
102
RTVSPropertyOp6
 70
     1
102
RTVSPropertyOp7
 70
     1
102
RTVSPropertyOp8
 70
     1
102
RTVSPropertyOp9
 70
     1
102
RTVSPropertyOp10
 70
     1
102
RTVSPropertyOp11
 70
     1
102
RTVSPropertyOp12
 70
     1
102
RTVSPropertyOp13
 70
     1
102
RTVSPropertyOp14
 70
     1
102
RTVSPropertyOp15
 70
     1
102
RTVSPropertyOp16
 70
     1
102
RTVSPropertyOp17
 70
     1
102
RTVSPropertyOp18
 70
     1
102
RTVSPropertyOp19
 70
     1
102
RTVSPropertyOp20
 70
     1
102
RTVSPropertyOp21
 70
     1
102
RTVSPropertyOp22
 70
     1
102
RTVSPropertyOp23
 70
     1
102
RTVSPropertyOp24
 70
     1
102
RTVSPropertyOp25
 70
     1
102
RTVSPropertyOp26
 70
     1
102
RTVSPropertyOp27
 70
     1
  0
XRECORD
  5
16A7
102
{ACAD_REACTORS
330
16A6
102
}
330
16A6
100
AcDbXrecord
280
     1
102
RTVSPropertyOp0
 70
     1
102
RTVSPropertyOp1
 70
     1
102
RTVSPropertyOp2
 70
     1
102
RTVSPropertyOp3
 70
     1
102
RTVSPropertyOp4
 70
     1
102
RTVSPropertyOp5
 70
     1
102
RTVSPropertyOp6
 70
     1
102
RTVSPropertyOp7
 70
     1
102
RTVSPropertyOp8
 70
     1
102
RTVSPropertyOp9
 70
     1
102
RTVSPropertyOp10
 70
     1
102
RTVSPropertyOp11
 70
     1
102
RTVSPropertyOp12
 70
     1
102
RTVSPropertyOp13
 70
     1
102
RTVSPropertyOp14
 70
     1
102
RTVSPropertyOp15
 70
     1
102
RTVSPropertyOp16
 70
     1
102
RTVSPropertyOp17
 70
     1
102
RTVSPropertyOp18
 70
     1
102
RTVSPropertyOp19
 70
     1
102
RTVSPropertyOp20
 70
     1
102
RTVSPropertyOp21
 70
     1
102
RTVSPropertyOp22
 70
     1
102
RTVSPropertyOp23
 70
     1
102
RTVSPropertyOp24
 70
     1
102
RTVSPropertyOp25
 70
     1
102
RTVSPropertyOp26
 70
     1
102
RTVSPropertyOp27
 70
     1
  0
XRECORD
  5
16B5
102
{ACAD_REACTORS
330
16B4
102
}
330
16B4
100
AcDbXrecord
280
     1
102
RTVSPropertyOp0
 70
     1
102
RTVSPropertyOp1
 70
     1
102
RTVSPropertyOp2
 70
     1
102
RTVSPropertyOp3
 70
     1
102
RTVSPropertyOp4
 70
     1
102
RTVSPropertyOp5
 70
     1
102
RTVSPropertyOp6
 70
     1
102
RTVSPropertyOp7
 70
     1
102
RTVSPropertyOp8
 70
     1
102
RTVSPropertyOp9
 70
     1
102
RTVSPropertyOp10
 70
     1
102
RTVSPropertyOp11
 70
     1
102
RTVSPropertyOp12
 70
     1
102
RTVSPropertyOp13
 70
     1
102
RTVSPropertyOp14
 70
     1
102
RTVSPropertyOp15
 70
     1
102
RTVSPropertyOp16
 70
     1
102
RTVSPropertyOp17
 70
     1
102
RTVSPropertyOp18
 70
     1
102
RTVSPropertyOp19
 70
     1
102
RTVSPropertyOp20
 70
     1
102
RTVSPropertyOp21
 70
     1
102
RTVSPropertyOp22
 70
     1
102
RTVSPropertyOp23
 70
     1
102
RTVSPropertyOp24
 70
     1
102
RTVSPropertyOp25
 70
     1
102
RTVSPropertyOp26
 70
     1
102
RTVSPropertyOp27
 70
     1
  0
XRECORD
  5
16BD
102
{ACAD_REACTORS
330
16BC
102
}
330
16BC
100
AcDbXrecord
280
     1
102
RTVSPropertyOp0
 70
     1
102
RTVSPropertyOp1
 70
     1
102
RTVSPropertyOp2
 70
     1
102
RTVSPropertyOp3
 70
     1
102
RTVSPropertyOp4
 70
     1
102
RTVSPropertyOp5
 70
     1
102
RTVSPropertyOp6
 70
     1
102
RTVSPropertyOp7
 70
     1
102
RTVSPropertyOp8
 70
     1
102
RTVSPropertyOp9
 70
     1
102
RTVSPropertyOp10
 70
     1
102
RTVSPropertyOp11
 70
     1
102
RTVSPropertyOp12
 70
     1
102
RTVSPropertyOp13
 70
     1
102
RTVSPropertyOp14
 70
     1
102
RTVSPropertyOp15
 70
     1
102
RTVSPropertyOp16
 70
     1
102
RTVSPropertyOp17
 70
     1
102
RTVSPropertyOp18
 70
     1
102
RTVSPropertyOp19
 70
     1
102
RTVSPropertyOp20
 70
     1
102
RTVSPropertyOp21
 70
     1
102
RTVSPropertyOp22
 70
     1
102
RTVSPropertyOp23
 70
     1
102
RTVSPropertyOp24
 70
     1
102
RTVSPropertyOp25
 70
     1
102
RTVSPropertyOp26
 70
     1
102
RTVSPropertyOp27
 70
     1
  0
XRECORD
  5
16AF
102
{ACAD_REACTORS
330
16AE
102
}
330
16AE
100
AcDbXrecord
280
     1
102
RTVSPropertyOp0
 70
     1
102
RTVSPropertyOp1
 70
     1
102
RTVSPropertyOp2
 70
     1
102
RTVSPropertyOp3
 70
     1
102
RTVSPropertyOp4
 70
     1
102
RTVSPropertyOp5
 70
     1
102
RTVSPropertyOp6
 70
     1
102
RTVSPropertyOp7
 70
     1
102
RTVSPropertyOp8
 70
     1
102
RTVSPropertyOp9
 70
     1
102
RTVSPropertyOp10
 70
     1
102
RTVSPropertyOp11
 70
     1
102
RTVSPropertyOp12
 70
     1
102
RTVSPropertyOp13
 70
     1
102
RTVSPropertyOp14
 70
     1
102
RTVSPropertyOp15
 70
     1
102
RTVSPropertyOp16
 70
     1
102
RTVSPropertyOp17
 70
     1
102
RTVSPropertyOp18
 70
     1
102
RTVSPropertyOp19
 70
     1
102
RTVSPropertyOp20
 70
     1
102
RTVSPropertyOp21
 70
     1
102
RTVSPropertyOp22
 70
     1
102
RTVSPropertyOp23
 70
     1
102
RTVSPropertyOp24
 70
     1
102
RTVSPropertyOp25
 70
     1
102
RTVSPropertyOp26
 70
     1
102
RTVSPropertyOp27
 70
     1
  0
XRECORD
  5
16B3
102
{ACAD_REACTORS
330
16B2
102
}
330
16B2
100
AcDbXrecord
280
     1
102
RTVSPropertyOp0
 70
     1
102
RTVSPropertyOp1
 70
     1
102
RTVSPropertyOp2
 70
     1
102
RTVSPropertyOp3
 70
     1
102
RTVSPropertyOp4
 70
     1
102
RTVSPropertyOp5
 70
     1
102
RTVSPropertyOp6
 70
     1
102
RTVSPropertyOp7
 70
     1
102
RTVSPropertyOp8
 70
     1
102
RTVSPropertyOp9
 70
     1
102
RTVSPropertyOp10
 70
     1
102
RTVSPropertyOp11
 70
     1
102
RTVSPropertyOp12
 70
     1
102
RTVSPropertyOp13
 70
     1
102
RTVSPropertyOp14
 70
     1
102
RTVSPropertyOp15
 70
     1
102
RTVSPropertyOp16
 70
     1
102
RTVSPropertyOp17
 70
     1
102
RTVSPropertyOp18
 70
     1
102
RTVSPropertyOp19
 70
     1
102
RTVSPropertyOp20
 70
     1
102
RTVSPropertyOp21
 70
     1
102
RTVSPropertyOp22
 70
     1
102
RTVSPropertyOp23
 70
     1
102
RTVSPropertyOp24
 70
     1
102
RTVSPropertyOp25
 70
     1
102
RTVSPropertyOp26
 70
     1
102
RTVSPropertyOp27
 70
     1
  0
XRECORD
  5
16C3
102
{ACAD_REACTORS
330
16C2
102
}
330
16C2
100
AcDbXrecord
280
     1
102
RTVSPropertyOp0
 70
     0
102
RTVSPropertyOp1
 70
     0
102
RTVSPropertyOp2
 70
     0
102
RTVSPropertyOp3
 70
     0
102
RTVSPropertyOp4
 70
     0
102
RTVSPropertyOp5
 70
     0
102
RTVSPropertyOp6
 70
     0
102
RTVSPropertyOp7
 70
     0
102
RTVSPropertyOp8
 70
     0
102
RTVSPropertyOp9
 70
     0
102
RTVSPropertyOp10
 70
     0
102
RTVSPropertyOp11
 70
     0
102
RTVSPropertyOp12
 70
     0
102
RTVSPropertyOp13
 70
     0
102
RTVSPropertyOp14
 70
     2
102
RTVSPropertyOp15
 70
     0
102
RTVSPropertyOp16
 70
     0
102
RTVSPropertyOp17
 70
     0
102
RTVSPropertyOp18
 70
     0
102
RTVSPropertyOp19
 70
     0
102
RTVSPropertyOp20
 70
     0
102
RTVSPropertyOp21
 70
     0
102
RTVSPropertyOp22
 70
     0
102
RTVSPropertyOp23
 70
     0
102
RTVSPropertyOp24
 70
     0
102
RTVSPropertyOp25
 70
     0
102
RTVSPropertyOp26
 70
     0
102
RTVSPropertyOp27
 70
     0
  0
XRECORD
  5
16BB
102
{ACAD_REACTORS
330
16BA
102
}
330
16BA
100
AcDbXrecord
280
     1
102
RTVSPropertyOp0
 70
     1
102
RTVSPropertyOp1
 70
     1
102
RTVSPropertyOp2
 70
     1
102
RTVSPropertyOp3
 70
     1
102
RTVSPropertyOp4
 70
     1
102
RTVSPropertyOp5
 70
     1
102
RTVSPropertyOp6
 70
     1
102
RTVSPropertyOp7
 70
     1
102
RTVSPropertyOp8
 70
     1
102
RTVSPropertyOp9
 70
     1
102
RTVSPropertyOp10
 70
     1
102
RTVSPropertyOp11
 70
     1
102
RTVSPropertyOp12
 70
     1
102
RTVSPropertyOp13
 70
     1
102
RTVSPropertyOp14
 70
     1
102
RTVSPropertyOp15
 70
     1
102
RTVSPropertyOp16
 70
     1
102
RTVSPropertyOp17
 70
     1
102
RTVSPropertyOp18
 70
     1
102
RTVSPropertyOp19
 70
     1
102
RTVSPropertyOp20
 70
     1
102
RTVSPropertyOp21
 70
     1
102
RTVSPropertyOp22
 70
     1
102
RTVSPropertyOp23
 70
     1
102
RTVSPropertyOp24
 70
     1
102
RTVSPropertyOp25
 70
     1
102
RTVSPropertyOp26
 70
     1
102
RTVSPropertyOp27
 70
     1
  0
XRECORD
  5
169F
102
{ACAD_REACTORS
330
169E
102
}
330
169E
100
AcDbXrecord
280
     1
102
RTVSPropertyOp0
 70
     1
102
RTVSPropertyOp1
 70
     1
102
RTVSPropertyOp2
 70
     1
102
RTVSPropertyOp3
 70
     1
102
RTVSPropertyOp4
 70
     1
102
RTVSPropertyOp5
 70
     1
102
RTVSPropertyOp6
 70
     1
102
RTVSPropertyOp7
 70
     1
102
RTVSPropertyOp8
 70
     1
102
RTVSPropertyOp9
 70
     1
102
RTVSPropertyOp10
 70
     1
102
RTVSPropertyOp11
 70
     1
102
RTVSPropertyOp12
 70
     1
102
RTVSPropertyOp13
 70
     1
102
RTVSPropertyOp14
 70
     1
102
RTVSPropertyOp15
 70
     1
102
RTVSPropertyOp16
 70
     1
102
RTVSPropertyOp17
 70
     1
102
RTVSPropertyOp18
 70
     1
102
RTVSPropertyOp19
 70
     1
102
RTVSPropertyOp20
 70
     1
102
RTVSPropertyOp21
 70
     1
102
RTVSPropertyOp22
 70
     1
102
RTVSPropertyOp23
 70
     1
102
RTVSPropertyOp24
 70
     1
102
RTVSPropertyOp25
 70
     1
102
RTVSPropertyOp26
 70
     1
102
RTVSPropertyOp27
 70
     1
  0
XRECORD
  5
16A1
102
{ACAD_REACTORS
330
16A0
102
}
330
16A0
100
AcDbXrecord
280
     1
102
RTVSPropertyOp0
 70
     1
102
RTVSPropertyOp1
 70
     1
102
RTVSPropertyOp2
 70
     1
102
RTVSPropertyOp3
 70
     1
102
RTVSPropertyOp4
 70
     1
102
RTVSPropertyOp5
 70
     1
102
RTVSPropertyOp6
 70
     1
102
RTVSPropertyOp7
 70
     1
102
RTVSPropertyOp8
 70
     1
102
RTVSPropertyOp9
 70
     1
102
RTVSPropertyOp10
 70
     1
102
RTVSPropertyOp11
 70
     1
102
RTVSPropertyOp12
 70
     1
102
RTVSPropertyOp13
 70
     1
102
RTVSPropertyOp14
 70
     1
102
RTVSPropertyOp15
 70
     1
102
RTVSPropertyOp16
 70
     1
102
RTVSPropertyOp17
 70
     1
102
RTVSPropertyOp18
 70
     1
102
RTVSPropertyOp19
 70
     1
102
RTVSPropertyOp20
 70
     1
102
RTVSPropertyOp21
 70
     1
102
RTVSPropertyOp22
 70
     1
102
RTVSPropertyOp23
 70
     1
102
RTVSPropertyOp24
 70
     1
102
RTVSPropertyOp25
 70
     1
102
RTVSPropertyOp26
 70
     1
102
RTVSPropertyOp27
 70
     1
  0
XRECORD
  5
16A3
102
{ACAD_REACTORS
330
16A2
102
}
330
16A2
100
AcDbXrecord
280
     1
102
RTVSPropertyOp0
 70
     1
102
RTVSPropertyOp1
 70
     1
102
RTVSPropertyOp2
 70
     1
102
RTVSPropertyOp3
 70
     1
102
RTVSPropertyOp4
 70
     1
102
RTVSPropertyOp5
 70
     1
102
RTVSPropertyOp6
 70
     1
102
RTVSPropertyOp7
 70
     1
102
RTVSPropertyOp8
 70
     1
102
RTVSPropertyOp9
 70
     1
102
RTVSPropertyOp10
 70
     1
102
RTVSPropertyOp11
 70
     1
102
RTVSPropertyOp12
 70
     1
102
RTVSPropertyOp13
 70
     1
102
RTVSPropertyOp14
 70
     1
102
RTVSPropertyOp15
 70
     1
102
RTVSPropertyOp16
 70
     1
102
RTVSPropertyOp17
 70
     1
102
RTVSPropertyOp18
 70
     1
102
RTVSPropertyOp19
 70
     1
102
RTVSPropertyOp20
 70
     1
102
RTVSPropertyOp21
 70
     1
102
RTVSPropertyOp22
 70
     1
102
RTVSPropertyOp23
 70
     1
102
RTVSPropertyOp24
 70
     1
102
RTVSPropertyOp25
 70
     1
102
RTVSPropertyOp26
 70
     1
102
RTVSPropertyOp27
 70
     1
  0
XRECORD
  5
16A5
102
{ACAD_REACTORS
330
16A4
102
}
330
16A4
100
AcDbXrecord
280
     1
102
RTVSPropertyOp0
 70
     1
102
RTVSPropertyOp1
 70
     1
102
RTVSPropertyOp2
 70
     1
102
RTVSPropertyOp3
 70
     1
102
RTVSPropertyOp4
 70
     1
102
RTVSPropertyOp5
 70
     1
102
RTVSPropertyOp6
 70
     1
102
RTVSPropertyOp7
 70
     1
102
RTVSPropertyOp8
 70
     1
102
RTVSPropertyOp9
 70
     1
102
RTVSPropertyOp10
 70
     1
102
RTVSPropertyOp11
 70
     1
102
RTVSPropertyOp12
 70
     1
102
RTVSPropertyOp13
 70
     1
102
RTVSPropertyOp14
 70
     1
102
RTVSPropertyOp15
 70
     1
102
RTVSPropertyOp16
 70
     1
102
RTVSPropertyOp17
 70
     1
102
RTVSPropertyOp18
 70
     1
102
RTVSPropertyOp19
 70
     1
102
RTVSPropertyOp20
 70
     1
102
RTVSPropertyOp21
 70
     1
102
RTVSPropertyOp22
 70
     1
102
RTVSPropertyOp23
 70
     1
102
RTVSPropertyOp24
 70
     1
102
RTVSPropertyOp25
 70
     1
102
RTVSPropertyOp26
 70
     1
102
RTVSPropertyOp27
 70
     1
  0
XRECORD
  5
16BF
102
{ACAD_REACTORS
330
16BE
102
}
330
16BE
100
AcDbXrecord
280
     1
102
RTVSPropertyOp0
 70
     0
102
RTVSPropertyOp1
 70
     0
102
RTVSPropertyOp2
 70
     0
102
RTVSPropertyOp3
 70
     0
102
RTVSPropertyOp4
 70
     0
102
RTVSPropertyOp5
 70
     0
102
RTVSPropertyOp6
 70
     0
102
RTVSPropertyOp7
 70
     0
102
RTVSPropertyOp8
 70
     0
102
RTVSPropertyOp9
 70
     0
102
RTVSPropertyOp10
 70
     0
102
RTVSPropertyOp11
 70
     0
102
RTVSPropertyOp12
 70
     0
102
RTVSPropertyOp13
 70
     0
102
RTVSPropertyOp14
 70
     2
102
RTVSPropertyOp15
 70
     0
102
RTVSPropertyOp16
 70
     0
102
RTVSPropertyOp17
 70
     0
102
RTVSPropertyOp18
 70
     0
102
RTVSPropertyOp19
 70
     0
102
RTVSPropertyOp20
 70
     0
102
RTVSPropertyOp21
 70
     0
102
RTVSPropertyOp22
 70
     0
102
RTVSPropertyOp23
 70
     0
102
RTVSPropertyOp24
 70
     0
102
RTVSPropertyOp25
 70
     0
102
RTVSPropertyOp26
 70
     0
102
RTVSPropertyOp27
 70
     0
  0
XRECORD
  5
16B9
102
{ACAD_REACTORS
330
16B8
102
}
330
16B8
100
AcDbXrecord
280
     1
102
RTVSPropertyOp0
 70
     1
102
RTVSPropertyOp1
 70
     1
102
RTVSPropertyOp2
 70
     1
102
RTVSPropertyOp3
 70
     1
102
RTVSPropertyOp4
 70
     1
102
RTVSPropertyOp5
 70
     1
102
RTVSPropertyOp6
 70
     1
102
RTVSPropertyOp7
 70
     1
102
RTVSPropertyOp8
 70
     1
102
RTVSPropertyOp9
 70
     1
102
RTVSPropertyOp10
 70
     1
102
RTVSPropertyOp11
 70
     1
102
RTVSPropertyOp12
 70
     1
102
RTVSPropertyOp13
 70
     1
102
RTVSPropertyOp14
 70
     1
102
RTVSPropertyOp15
 70
     1
102
RTVSPropertyOp16
 70
     1
102
RTVSPropertyOp17
 70
     1
102
RTVSPropertyOp18
 70
     1
102
RTVSPropertyOp19
 70
     1
102
RTVSPropertyOp20
 70
     1
102
RTVSPropertyOp21
 70
     1
102
RTVSPropertyOp22
 70
     1
102
RTVSPropertyOp23
 70
     1
102
RTVSPropertyOp24
 70
     1
102
RTVSPropertyOp25
 70
     1
102
RTVSPropertyOp26
 70
     1
102
RTVSPropertyOp27
 70
     1
  0
XRECORD
  5
16C1
102
{ACAD_REACTORS
330
16C0
102
}
330
16C0
100
AcDbXrecord
280
     1
102
RTVSPropertyOp0
 70
     0
102
RTVSPropertyOp1
 70
     0
102
RTVSPropertyOp2
 70
     0
102
RTVSPropertyOp3
 70
     0
102
RTVSPropertyOp4
 70
     0
102
RTVSPropertyOp5
 70
     0
102
RTVSPropertyOp6
 70
     0
102
RTVSPropertyOp7
 70
     0
102
RTVSPropertyOp8
 70
     0
102
RTVSPropertyOp9
 70
     0
102
RTVSPropertyOp10
 70
     0
102
RTVSPropertyOp11
 70
     0
102
RTVSPropertyOp12
 70
     0
102
RTVSPropertyOp13
 70
     0
102
RTVSPropertyOp14
 70
     2
102
RTVSPropertyOp15
 70
     0
102
RTVSPropertyOp16
 70
     0
102
RTVSPropertyOp17
 70
     0
102
RTVSPropertyOp18
 70
     0
102
RTVSPropertyOp19
 70
     0
102
RTVSPropertyOp20
 70
     0
102
RTVSPropertyOp21
 70
     0
102
RTVSPropertyOp22
 70
     0
102
RTVSPropertyOp23
 70
     0
102
RTVSPropertyOp24
 70
     0
102
RTVSPropertyOp25
 70
     0
102
RTVSPropertyOp26
 70
     0
102
RTVSPropertyOp27
 70
     0
  0
XRECORD
  5
16B1
102
{ACAD_REACTORS
330
16B0
102
}
330
16B0
100
AcDbXrecord
280
     1
102
RTVSPropertyOp0
 70
     1
102
RTVSPropertyOp1
 70
     1
102
RTVSPropertyOp2
 70
     1
102
RTVSPropertyOp3
 70
     1
102
RTVSPropertyOp4
 70
     1
102
RTVSPropertyOp5
 70
     1
102
RTVSPropertyOp6
 70
     1
102
RTVSPropertyOp7
 70
     1
102
RTVSPropertyOp8
 70
     1
102
RTVSPropertyOp9
 70
     1
102
RTVSPropertyOp10
 70
     1
102
RTVSPropertyOp11
 70
     1
102
RTVSPropertyOp12
 70
     1
102
RTVSPropertyOp13
 70
     1
102
RTVSPropertyOp14
 70
     1
102
RTVSPropertyOp15
 70
     1
102
RTVSPropertyOp16
 70
     1
102
RTVSPropertyOp17
 70
     1
102
RTVSPropertyOp18
 70
     1
102
RTVSPropertyOp19
 70
     1
102
RTVSPropertyOp20
 70
     1
102
RTVSPropertyOp21
 70
     1
102
RTVSPropertyOp22
 70
     1
102
RTVSPropertyOp23
 70
     1
102
RTVSPropertyOp24
 70
     1
102
RTVSPropertyOp25
 70
     1
102
RTVSPropertyOp26
 70
     1
102
RTVSPropertyOp27
 70
     1
  0
XRECORD
  5
16B7
102
{ACAD_REACTORS
330
16B6
102
}
330
16B6
100
AcDbXrecord
280
     1
102
RTVSPropertyOp0
 70
     1
102
RTVSPropertyOp1
 70
     1
102
RTVSPropertyOp2
 70
     1
102
RTVSPropertyOp3
 70
     1
102
RTVSPropertyOp4
 70
     1
102
RTVSPropertyOp5
 70
     1
102
RTVSPropertyOp6
 70
     1
102
RTVSPropertyOp7
 70
     1
102
RTVSPropertyOp8
 70
     1
102
RTVSPropertyOp9
 70
     1
102
RTVSPropertyOp10
 70
     1
102
RTVSPropertyOp11
 70
     1
102
RTVSPropertyOp12
 70
     1
102
RTVSPropertyOp13
 70
     1
102
RTVSPropertyOp14
 70
     1
102
RTVSPropertyOp15
 70
     1
102
RTVSPropertyOp16
 70
     1
102
RTVSPropertyOp17
 70
     1
102
RTVSPropertyOp18
 70
     1
102
RTVSPropertyOp19
 70
     1
102
RTVSPropertyOp20
 70
     1
102
RTVSPropertyOp21
 70
     1
102
RTVSPropertyOp22
 70
     1
102
RTVSPropertyOp23
 70
     1
102
RTVSPropertyOp24
 70
     1
102
RTVSPropertyOp25
 70
     1
102
RTVSPropertyOp26
 70
     1
102
RTVSPropertyOp27
 70
     1
  0
ENDSEC
  0
EOF
