  0
SECTION
  2
HEADER
  9
$ACADVER
  1
AC1015
  9
$ACADMAINTVER
 70
    20
  9
$DWGCODEPAGE
  3
ANSI_1252
  9
$INSBASE
 10
0.0
 20
0.0
 30
0.0
  9
$EXTMIN
 10
372.0875535961433
 20
41.6668632612023
 30
0.0
  9
$EXTMAX
 10
374.6581813250385
 20
42.19686327729555
 30
0.0
  9
$LIMMIN
 10
0.0
 20
0.0
  9
$LIMMAX
 10
0.0
 20
0.0
  9
$ORTHOMODE
 70
     0
  9
$REGENMODE
 70
     1
  9
$FILLMODE
 70
     1
  9
$QTEXTMODE
 70
     0
  9
$MIRRTEXT
 70
     1
  9
$LTSCALE
 40
1.0
  9
$ATTMODE
 70
     1
  9
$TEXTSIZE
 40
0.0
  9
$TRACEWID
 40
0.05
  9
$TEXTSTYLE
  7
STANDARD
  9
$CLAYER
  8
INDUSA
  9
$CELTYPE
  6
CONTINUOUS
  9
$CECOLOR
 62
   256
  9
$CELTSCALE
 40
1.0
  9
$DISPSILH
 70
     0
  9
$DIMSCALE
 40
1.0
  9
$DIMASZ
 40
5.994399999999999
  9
$DIMEXO
 40
0.9905999999999998
  9
$DIMDLI
 40
0.38
  9
$DIMRND
 40
0.0
  9
$DIMDLE
 40
0.9905999999999998
  9
$DIMEXE
 40
0.18
  9
$DIMTP
 40
0.0
  9
$DIMTM
 40
0.0
  9
$DIMTXT
 40
6.349999999999999
  9
$DIMCEN
 40
0.09
  9
$DIMTSZ
 40
0.0
  9
$DIMTOL
 70
     0
  9
$DIMLIM
 70
     0
  9
$DIMTIH
 70
     1
  9
$DIMTOH
 70
     1
  9
$DIMSE1
 70
     0
  9
$DIMSE2
 70
     0
  9
$DIMTAD
 70
     1
  9
$DIMZIN
 70
     0
  9
$DIMBLK
  1

  9
$DIMASO
 70
     1
  9
$DIMSHO
 70
     1
  9
$DIMPOST
  1

  9
$DIMAPOST
  1

  9
$DIMALT
 70
     0
  9
$DIMALTD
 70
     2
  9
$DIMALTF
 40
0.0394
  9
$DIMLFAC
 40
1.0
  9
$DIMTOFL
 70
     0
  9
$DIMTVP
 40
0.0
  9
$DIMTIX
 70
     0
  9
$DIMSOXD
 70
     0
  9
$DIMSAH
 70
     0
  9
$DIMBLK1
  1

  9
$DIMBLK2
  1

  9
$DIMSTYLE
  2
STANDARD
  9
$DIMCLRD
 70
     0
  9
$DIMCLRE
 70
     0
  9
$DIMCLRT
 70
     0
  9
$DIMTFAC
 40
1.0
  9
$DIMGAP
 40
0.9905999999999998
  9
$DIMJUST
 70
     0
  9
$DIMSD1
 70
     0
  9
$DIMSD2
 70
     0
  9
$DIMTOLJ
 70
     1
  9
$DIMTZIN
 70
     0
  9
$DIMALTZ
 70
     0
  9
$DIMALTTZ
 70
     0
  9
$DIMUPT
 70
     0
  9
$DIMDEC
 70
     4
  9
$DIMTDEC
 70
     4
  9
$DIMALTU
 70
     2
  9
$DIMALTTD
 70
     2
  9
$DIMTXSTY
  7
STANDARD
  9
$DIMAUNIT
 70
     0
  9
$DIMADEC
 70
     0
  9
$DIMALTRND
 40
0.0
  9
$DIMAZIN
 70
     0
  9
$DIMDSEP
 70
    46
  9
$DIMATFIT
 70
     3
  9
$DIMFRAC
 70
     0
  9
$DIMLDRBLK
  1

  9
$DIMLUNIT
 70
     2
  9
$DIMLWD
 70
    -2
  9
$DIMLWE
 70
    -2
  9
$DIMTMOVE
 70
     0
  9
$LUNITS
 70
     2
  9
$LUPREC
 70
     2
  9
$SKETCHINC
 40
0.1
  9
$FILLETRAD
 40
0.0
  9
$AUNITS
 70
     0
  9
$AUPREC
 70
     2
  9
$MENU
  1
acad
  9
$ELEVATION
 40
0.0
  9
$PELEVATION
 40
0.0
  9
$THICKNESS
 40
0.0
  9
$LIMCHECK
 70
     0
  9
$CHAMFERA
 40
0.0
  9
$CHAMFERB
 40
0.0
  9
$CHAMFERC
 40
0.0
  9
$CHAMFERD
 40
0.0
  9
$SKPOLY
 70
     0
  9
$TDCREATE
 40
2444972.041666667
  9
$TDUCREATE
 40
2444972.000000000
  9
$TDUPDATE
 40
2456149.676123044
  9
$TDUUPDATE
 40
2456149.634456378
  9
$TDINDWG
 40
0.0092657639
  9
$TDUSRTIMER
 40
0.0092657639
  9
$USRTIMER
 70
     1
  9
$ANGBASE
 50
0.0
  9
$ANGDIR
 70
     0
  9
$PDMODE
 70
     0
  9
$PDSIZE
 40
-1.0
  9
$PLINEWID
 40
0.0
  9
$SPLFRAME
 70
     0
  9
$SPLINETYPE
 70
     6
  9
$SPLINESEGS
 70
     8
  9
$HANDSEED
  5
10DD
  9
$SURFTAB1
 70
     6
  9
$SURFTAB2
 70
     6
  9
$SURFTYPE
 70
     6
  9
$SURFU
 70
     6
  9
$SURFV
 70
     6
  9
$UCSBASE
  2

  9
$UCSNAME
  2

  9
$UCSORG
 10
0.0
 20
0.0
 30
0.0
  9
$UCSXDIR
 10
1.0
 20
0.0
 30
0.0
  9
$UCSYDIR
 10
0.0
 20
1.0
 30
0.0
  9
$UCSORTHOREF
  2

  9
$UCSORTHOVIEW
 70
     0
  9
$UCSORGTOP
 10
0.0
 20
0.0
 30
0.0
  9
$UCSORGBOTTOM
 10
0.0
 20
0.0
 30
0.0
  9
$UCSORGLEFT
 10
0.0
 20
0.0
 30
0.0
  9
$UCSORGRIGHT
 10
0.0
 20
0.0
 30
0.0
  9
$UCSORGFRONT
 10
0.0
 20
0.0
 30
0.0
  9
$UCSORGBACK
 10
0.0
 20
0.0
 30
0.0
  9
$PUCSBASE
  2

  9
$PUCSNAME
  2

  9
$PUCSORG
 10
0.0
 20
0.0
 30
0.0
  9
$PUCSXDIR
 10
1.0
 20
0.0
 30
0.0
  9
$PUCSYDIR
 10
0.0
 20
1.0
 30
0.0
  9
$PUCSORTHOREF
  2

  9
$PUCSORTHOVIEW
 70
     0
  9
$PUCSORGTOP
 10
0.0
 20
0.0
 30
0.0
  9
$PUCSORGBOTTOM
 10
0.0
 20
0.0
 30
0.0
  9
$PUCSORGLEFT
 10
0.0
 20
0.0
 30
0.0
  9
$PUCSORGRIGHT
 10
0.0
 20
0.0
 30
0.0
  9
$PUCSORGFRONT
 10
0.0
 20
0.0
 30
0.0
  9
$PUCSORGBACK
 10
0.0
 20
0.0
 30
0.0
  9
$USERI1
 70
     0
  9
$USERI2
 70
     0
  9
$USERI3
 70
     0
  9
$USERI4
 70
     0
  9
$USERI5
 70
     0
  9
$USERR1
 40
0.0
  9
$USERR2
 40
0.0
  9
$USERR3
 40
0.0
  9
$USERR4
 40
0.0
  9
$USERR5
 40
0.0
  9
$WORLDVIEW
 70
     1
  9
$SHADEDGE
 70
     3
  9
$SHADEDIF
 70
    70
  9
$TILEMODE
 70
     1
  9
$MAXACTVP
 70
    16
  9
$PINSBASE
 10
0.0
 20
0.0
 30
0.0
  9
$PLIMCHECK
 70
     0
  9
$PEXTMIN
 10
1.000000000000000E+20
 20
1.000000000000000E+20
 30
1.000000000000000E+20
  9
$PEXTMAX
 10
-1.000000000000000E+20
 20
-1.000000000000000E+20
 30
-1.000000000000000E+20
  9
$PLIMMIN
 10
0.0
 20
0.0
  9
$PLIMMAX
 10
12.0
 20
9.0
  9
$UNITMODE
 70
     0
  9
$VISRETAIN
 70
     0
  9
$PLINEGEN
 70
     1
  9
$PSLTSCALE
 70
     1
  9
$TREEDEPTH
 70
  3020
  9
$CMLSTYLE
  2
STANDARD
  9
$CMLJUST
 70
     0
  9
$CMLSCALE
 40
1.0
  9
$PROXYGRAPHICS
 70
     1
  9
$MEASUREMENT
 70
     0
  9
$CELWEIGHT
370
    -1
  9
$ENDCAPS
280
     0
  9
$JOINSTYLE
280
     0
  9
$LWDISPLAY
290
     0
  9
$INSUNITS
 70
     0
  9
$HYPERLINKBASE
  1

  9
$STYLESHEET
  1

  9
$XEDIT
290
     1
  9
$CEPSNTYPE
380
     0
  9
$PSTYLEMODE
290
     1
  9
$FINGERPRINTGUID
  2
{D0224701-362D-4A2F-BE38-AC11D54EC83E}
  9
$VERSIONGUID
  2
{821B5585-A1A6-4836-A8EF-2A1F256ACC39}
  9
$EXTNAMES
290
     1
  9
$PSVPSCALE
 40
0.0
  9
$OLESTARTUP
290
     0
  0
ENDSEC
  0
SECTION
  2
CLASSES
  0
CLASS
  1
IMAGE
  2
AcDbRasterImage
  3
ISM
 90
    32895
280
     0
281
     1
  0
CLASS
  1
DICTIONARYVAR
  2
AcDbDictionaryVar
  3
ObjectDBX Classes
 90
        0
280
     0
281
     0
  0
CLASS
  1
RASTERVARIABLES
  2
AcDbRasterVariables
  3
ISM
 90
    32768
280
     0
281
     0
  0
CLASS
  1
IMAGEDEF
  2
AcDbRasterImageDef
  3
ISM
 90
    32768
280
     0
281
     0
  0
CLASS
  1
IMAGEDEF_REACTOR
  2
AcDbRasterImageDefReactor
  3
ISM
 90
    32769
280
     0
281
     0
  0
CLASS
  1
IDBUFFER
  2
AcDbIdBuffer
  3
ObjectDBX Classes
 90
    32768
280
     0
281
     0
  0
CLASS
  1
SPATIAL_FILTER
  2
AcDbSpatialFilter
  3
ObjectDBX Classes
 90
    32768
280
     0
281
     0
  0
CLASS
  1
SORTENTSTABLE
  2
AcDbSortentsTable
  3
ObjectDBX Classes
 90
    32768
280
     0
281
     0
  0
CLASS
  1
LAYER_INDEX
  2
AcDbLayerIndex
  3
ObjectDBX Classes
 90
    32768
280
     0
281
     0
  0
CLASS
  1
SPATIAL_INDEX
  2
AcDbSpatialIndex
  3
ObjectDBX Classes
 90
    32768
280
     0
281
     0
  0
CLASS
  1
OBJECT_PTR
  2
CAseDLPNTableRecord
  3
ASE-LPNTableRecord
 90
    32769
280
     0
281
     0
  0
CLASS
  1
LAYOUT
  2
AcDbLayout
  3
ObjectDBX Classes
 90
        0
280
     0
281
     0
  0
CLASS
  1
PLOTSETTINGS
  2
AcDbPlotSettings
  3
ObjectDBX Classes
 90
    32768
280
     0
281
     0
  0
CLASS
  1
ACDBDICTIONARYWDFLT
  2
AcDbDictionaryWithDefault
  3
ObjectDBX Classes
 90
        0
280
     0
281
     0
  0
CLASS
  1
ACDBPLACEHOLDER
  2
AcDbPlaceHolder
  3
ObjectDBX Classes
 90
        0
280
     0
281
     0
  0
CLASS
  1
VBA_PROJECT
  2
AcDbVbaProject
  3
acad
 90
    32768
280
     0
281
     0
  0
CLASS
  1
WIPEOUT
  2
AcDbWipeout
  3
WipeOut|AutoCAD Express Tool|expresstools@autodesk.com
 90
    32768
280
     0
281
     1
  0
CLASS
  1
WIPEOUTVARIABLES
  2
AcDbWipeoutVariables
  3
WipeOut|AutoCAD Express Tool|expresstools@autodesk.com
 90
    32768
280
     0
281
     0
  0
CLASS
  1
RTEXT
  2
RText
  3
RText|AutoCAD Express Tool|expresstools@autodesk.com
 90
    32768
280
     0
281
     1
  0
CLASS
  1
ARCALIGNEDTEXT
  2
AcDbArcAlignedText
  3
ATEXT|AutoCAD Express Tool|expresstools@autodesk.com
 90
    32768
280
     0
281
     1
  0
CLASS
  1
MATERIAL
  2
AcDbMaterial
  3
ObjectDBX Classes
 90
     1153
280
     0
281
     0
  0
CLASS
  1
VISUALSTYLE
  2
AcDbVisualStyle
  3
ObjectDBX Classes
 90
     4095
280
     0
281
     0
  0
CLASS
  1
TABLESTYLE
  2
AcDbTableStyle
  3
ObjectDBX Classes
 90
     4095
280
     0
281
     0
  0
CLASS
  1
SCALE
  2
AcDbScale
  3
ObjectDBX Classes
 90
     1153
280
     0
281
     0
  0
CLASS
  1
MLEADERSTYLE
  2
AcDbMLeaderStyle
  3
ACDB_MLEADERSTYLE_CLASS
 90
     4095
280
     0
281
     0
  0
CLASS
  1
CELLSTYLEMAP
  2
AcDbCellStyleMap
  3
ObjectDBX Classes
 90
     1152
280
     0
281
     0
  0
ENDSEC
  0
SECTION
  2
TABLES
  0
TABLE
  2
VPORT
  5
7
330
0
100
AcDbSymbolTable
 70
     1
  0
VPORT
  5
1044
330
7
100
AcDbSymbolTableRecord
100
AcDbViewportTableRecord
  2
*Active
 70
     0
 10
0.0
 20
0.0
 11
1.0
 21
1.0
 12
373.3728674605909
 22
41.93186326924893
 13
0.0
 23
0.0
 14
1.0
 24
1.0
 15
0.0
 25
0.0
 16
0.0
 26
0.0
 36
1.0
 17
0.0
 27
0.0
 37
0.0
 40
1.568184875548215
 41
1.645464025026068
 42
50.0
 43
0.0
 44
0.0
 50
0.0
 51
0.0
 71
     0
 72
  2000
 73
     1
 74
     1
 75
     0
 76
     0
 77
     0
 78
     0
281
     0
 65
     1
110
0.0
120
0.0
130
0.0
111
1.0
121
0.0
131
0.0
112
0.0
122
1.0
132
0.0
 79
     0
146
0.0
  0
ENDTAB
  0
TABLE
  2
LTYPE
  5
4
330
0
100
AcDbSymbolTable
 70
     6
  0
LTYPE
  5
11
330
4
100
AcDbSymbolTableRecord
100
AcDbLinetypeTableRecord
  2
BYBLOCK
 70
     0
  3

 72
    65
 73
     0
 40
0.0
  0
LTYPE
  5
12
330
4
100
AcDbSymbolTableRecord
100
AcDbLinetypeTableRecord
  2
BYLAYER
 70
     0
  3

 72
    65
 73
     0
 40
0.0
  0
LTYPE
  5
13
330
4
100
AcDbSymbolTableRecord
100
AcDbLinetypeTableRecord
  2
CONTINUOUS
 70
     0
  3
Solid line
 72
    65
 73
     0
 40
0.0
  0
LTYPE
  5
1E
330
4
100
AcDbSymbolTableRecord
100
AcDbLinetypeTableRecord
  2
HIDDEN
 70
     0
  3
Hidden __ __ __ __ __ __ __ __ __ __ __ __ __ __
 72
    65
 73
     2
 40
1.905
 49
1.27
 74
     0
 49
-0.635
 74
     0
  0
LTYPE
  5
1F
330
4
100
AcDbSymbolTableRecord
100
AcDbLinetypeTableRecord
  2
PHANTOM
 70
     0
  3
Phantom ______  __  __  ______  __  __  ______
 72
    65
 73
     6
 40
12.7
 49
6.349999999999999
 74
     0
 49
-1.27
 74
     0
 49
1.27
 74
     0
 49
-1.27
 74
     0
 49
1.27
 74
     0
 49
-1.27
 74
     0
  0
LTYPE
  5
20
330
4
100
AcDbSymbolTableRecord
100
AcDbLinetypeTableRecord
  2
CENTER
 70
     0
  3
Center ____ _ ____ _ ____ _ ____ _ ____ _ ____
 72
    65
 73
     4
 40
10.16
 49
6.349999999999999
 74
     0
 49
-1.27
 74
     0
 49
1.27
 74
     0
 49
-1.27
 74
     0
  0
LTYPE
  5
21
330
4
100
AcDbSymbolTableRecord
100
AcDbLinetypeTableRecord
  2
CENTERX2
 70
     0
  3
Center (2x) ________  __  ________  __  _____
 72
    65
 73
     4
 40
20.32
 49
12.7
 74
     0
 49
-2.54
 74
     0
 49
2.54
 74
     0
 49
-2.54
 74
     0
  0
LTYPE
  5
22
330
4
100
AcDbSymbolTableRecord
100
AcDbLinetypeTableRecord
  2
DOT2
 70
     0
  3
Dot (.5x) ........................................
 72
    65
 73
     2
 40
0.635
 49
0.0
 74
     0
 49
-0.635
 74
     0
  0
ENDTAB
  0
TABLE
  2
LAYER
  5
2
330
0
100
AcDbSymbolTable
 70
     4
  0
LAYER
  5
14
102
{ACAD_XDICTIONARY
360
109E
102
}
330
2
100
AcDbSymbolTableRecord
100
AcDbLayerTableRecord
  2
0
 70
     0
 62
     7
  6
CONTINUOUS
370
    -3
390
1028
  0
LAYER
  5
26
330
2
100
AcDbSymbolTableRecord
100
AcDbLayerTableRecord
  2
DEFPOINTS
 70
     0
 62
     7
  6
CONTINUOUS
290
     0
370
    -3
390
1028
  0
LAYER
  5
27
102
{ACAD_XDICTIONARY
360
10A0
102
}
330
2
100
AcDbSymbolTableRecord
100
AcDbLayerTableRecord
  2
FORMAT
 70
     0
 62
     7
  6
CONTINUOUS
370
    -3
390
1028
  0
LAYER
  5
102F
102
{ACAD_XDICTIONARY
360
10A2
102
}
330
2
100
AcDbSymbolTableRecord
100
AcDbLayerTableRecord
  2
INDUSA
 70
     0
 62
     3
  6
CONTINUOUS
370
    -3
390
1028
  0
ENDTAB
  0
TABLE
  2
STYLE
  5
3
330
0
100
AcDbSymbolTable
 70
     2
  0
STYLE
  5
17
330
3
100
AcDbSymbolTableRecord
100
AcDbTextStyleTableRecord
  2
STANDARD
 70
     0
 40
0.0
 41
1.0
 50
0.0
 71
     0
 42
0.0
  3
txt
  4

  0
STYLE
  5
68
330
3
100
AcDbSymbolTableRecord
100
AcDbTextStyleTableRecord
  2
SLDTEXTSTYLE0
 70
     0
 40
0.0
 41
0.75
 50
0.0
 71
     0
 42
0.0
  3
txt
  4

  0
ENDTAB
  0
TABLE
  2
VIEW
  5
5
330
0
100
AcDbSymbolTable
 70
     0
  0
ENDTAB
  0
TABLE
  2
UCS
  5
6
330
0
100
AcDbSymbolTable
 70
     0
  0
ENDTAB
  0
TABLE
  2
APPID
  5
8
330
0
100
AcDbSymbolTable
 70
     3
  0
APPID
  5
16
330
8
100
AcDbSymbolTableRecord
100
AcDbRegAppTableRecord
  2
ACAD
 70
     0
  0
APPID
  5
1042
330
8
100
AcDbSymbolTableRecord
100
AcDbRegAppTableRecord
  2
DCO15
 70
     0
  0
APPID
  5
10DC
330
8
100
AcDbSymbolTableRecord
100
AcDbRegAppTableRecord
  2
ACAD_MLEADERVER
 70
     0
  0
ENDTAB
  0
TABLE
  2
DIMSTYLE
  5
9
330
0
100
AcDbSymbolTable
 70
     1
100
AcDbDimStyleTable
 71
     1
340
18
  0
DIMSTYLE
105
18
330
9
100
AcDbSymbolTableRecord
100
AcDbDimStyleTableRecord
  2
STANDARD
 70
     0
289
     0
340
17
  0
ENDTAB
  0
TABLE
  2
BLOCK_RECORD
  5
1
330
0
100
AcDbSymbolTable
 70
    32
  0
BLOCK_RECORD
  5
A
330
1
100
AcDbSymbolTableRecord
100
AcDbBlockTableRecord
  2
*MODEL_SPACE
340
102B
  0
BLOCK_RECORD
  5
B
330
1
100
AcDbSymbolTableRecord
100
AcDbBlockTableRecord
  2
*PAPER_SPACE
340
102C
  0
BLOCK_RECORD
  5
8C
330
1
100
AcDbSymbolTableRecord
100
AcDbBlockTableRecord
  2
NOTE35
340
0
102
{BLKREFS
331
8F
102
}
  0
BLOCK_RECORD
  5
90
330
1
100
AcDbSymbolTableRecord
100
AcDbBlockTableRecord
  2
NOTE36
340
0
102
{BLKREFS
331
93
102
}
  0
BLOCK_RECORD
  5
95
330
1
100
AcDbSymbolTableRecord
100
AcDbBlockTableRecord
  2
NOTE38
340
0
102
{BLKREFS
331
98
102
}
  0
BLOCK_RECORD
  5
99
330
1
100
AcDbSymbolTableRecord
100
AcDbBlockTableRecord
  2
NOTE39
340
0
102
{BLKREFS
331
9C
102
}
  0
BLOCK_RECORD
  5
9D
330
1
100
AcDbSymbolTableRecord
100
AcDbBlockTableRecord
  2
NOTE40
340
0
102
{BLKREFS
331
A0
102
}
  0
BLOCK_RECORD
  5
A1
330
1
100
AcDbSymbolTableRecord
100
AcDbBlockTableRecord
  2
NOTE41
340
0
102
{BLKREFS
331
A4
102
}
  0
BLOCK_RECORD
  5
A5
330
1
100
AcDbSymbolTableRecord
100
AcDbBlockTableRecord
  2
NOTE42
340
0
102
{BLKREFS
331
A8
102
}
  0
BLOCK_RECORD
  5
A9
330
1
100
AcDbSymbolTableRecord
100
AcDbBlockTableRecord
  2
NOTE43
340
0
102
{BLKREFS
331
AC
102
}
  0
BLOCK_RECORD
  5
AD
330
1
100
AcDbSymbolTableRecord
100
AcDbBlockTableRecord
  2
NOTE44
340
0
102
{BLKREFS
331
B0
102
}
  0
BLOCK_RECORD
  5
B1
330
1
100
AcDbSymbolTableRecord
100
AcDbBlockTableRecord
  2
NOTE45
340
0
102
{BLKREFS
331
B4
102
}
  0
BLOCK_RECORD
  5
B5
330
1
100
AcDbSymbolTableRecord
100
AcDbBlockTableRecord
  2
NOTE46
340
0
102
{BLKREFS
331
B8
102
}
  0
BLOCK_RECORD
  5
B9
330
1
100
AcDbSymbolTableRecord
100
AcDbBlockTableRecord
  2
NOTE47
340
0
102
{BLKREFS
331
BC
102
}
  0
BLOCK_RECORD
  5
BD
330
1
100
AcDbSymbolTableRecord
100
AcDbBlockTableRecord
  2
NOTE48
340
0
102
{BLKREFS
331
C0
102
}
  0
BLOCK_RECORD
  5
C2
330
1
100
AcDbSymbolTableRecord
100
AcDbBlockTableRecord
  2
NOTE50
340
0
102
{BLKREFS
331
C5
102
}
  0
BLOCK_RECORD
  5
C6
330
1
100
AcDbSymbolTableRecord
100
AcDbBlockTableRecord
  2
NOTE51
340
0
102
{BLKREFS
331
C9
102
}
  0
BLOCK_RECORD
  5
5F6
330
1
100
AcDbSymbolTableRecord
100
AcDbBlockTableRecord
  2
SW_CENTERMARK0
340
0
  0
BLOCK_RECORD
  5
5FF
330
1
100
AcDbSymbolTableRecord
100
AcDbBlockTableRecord
  2
SW_CENTERMARK1
340
0
  0
BLOCK_RECORD
  5
608
330
1
100
AcDbSymbolTableRecord
100
AcDbBlockTableRecord
  2
SW_CENTERMARK2
340
0
  0
BLOCK_RECORD
  5
611
330
1
100
AcDbSymbolTableRecord
100
AcDbBlockTableRecord
  2
SW_CENTERMARK3
340
0
  0
BLOCK_RECORD
  5
61A
330
1
100
AcDbSymbolTableRecord
100
AcDbBlockTableRecord
  2
SW_CENTERMARK4
340
0
  0
BLOCK_RECORD
  5
623
330
1
100
AcDbSymbolTableRecord
100
AcDbBlockTableRecord
  2
SW_CENTERMARK5
340
0
  0
BLOCK_RECORD
  5
81E
330
1
100
AcDbSymbolTableRecord
100
AcDbBlockTableRecord
  2
SW_CENTERMARK6
340
0
  0
BLOCK_RECORD
  5
FD3
330
1
100
AcDbSymbolTableRecord
100
AcDbBlockTableRecord
  2
SW_CENTERMARK7
340
0
  0
BLOCK_RECORD
  5
FDC
330
1
100
AcDbSymbolTableRecord
100
AcDbBlockTableRecord
  2
SW_CENTERMARK8
340
0
  0
BLOCK_RECORD
  5
FE5
330
1
100
AcDbSymbolTableRecord
100
AcDbBlockTableRecord
  2
SW_CENTERMARK9
340
0
  0
BLOCK_RECORD
  5
FEE
330
1
100
AcDbSymbolTableRecord
100
AcDbBlockTableRecord
  2
SW_CENTERMARK10
340
0
  0
BLOCK_RECORD
  5
FF7
330
1
100
AcDbSymbolTableRecord
100
AcDbBlockTableRecord
  2
SW_CENTERMARK11
340
0
  0
BLOCK_RECORD
  5
1000
330
1
100
AcDbSymbolTableRecord
100
AcDbBlockTableRecord
  2
SW_CENTERMARK12
340
0
  0
BLOCK_RECORD
  5
1009
330
1
100
AcDbSymbolTableRecord
100
AcDbBlockTableRecord
  2
SW_CENTERMARK13
340
0
  0
BLOCK_RECORD
  5
1012
330
1
100
AcDbSymbolTableRecord
100
AcDbBlockTableRecord
  2
SW_CENTERMARK14
340
0
  0
BLOCK_RECORD
  5
101B
330
1
100
AcDbSymbolTableRecord
100
AcDbBlockTableRecord
  2
SW_CENTERMARK15
340
0
  0
BLOCK_RECORD
  5
1030
330
1
100
AcDbSymbolTableRecord
100
AcDbBlockTableRecord
  2
10310PL
340
0
  0
ENDTAB
  0
ENDSEC
  0
SECTION
  2
BLOCKS
  0
BLOCK
  5
D
330
A
100
AcDbEntity
  8
0
100
AcDbBlockBegin
  2
*MODEL_SPACE
 70
     0
 10
0.0
 20
0.0
 30
0.0
  3
*MODEL_SPACE
  1

  0
ENDBLK
  5
E
330
A
100
AcDbEntity
  8
0
100
AcDbBlockEnd
  0
BLOCK
  5
F
330
B
100
AcDbEntity
 67
     1
  8
0
100
AcDbBlockBegin
  2
*PAPER_SPACE
 70
     0
 10
0.0
 20
0.0
 30
0.0
  3
*PAPER_SPACE
  1

  0
ENDBLK
  5
10
330
B
100
AcDbEntity
 67
     1
  8
0
100
AcDbBlockEnd
  0
BLOCK
  5
8D
330
8C
100
AcDbEntity
  8
0
 62
     0
100
AcDbBlockBegin
  2
NOTE35
 70
     0
 10
0.0
 20
0.0
 30
0.0
  3
NOTE35
  1

  0
ENDBLK
  5
8E
330
8C
100
AcDbEntity
  8
0
100
AcDbBlockEnd
  0
BLOCK
  5
91
330
90
100
AcDbEntity
  8
0
 62
     0
100
AcDbBlockBegin
  2
NOTE36
 70
     0
 10
0.0
 20
0.0
 30
0.0
  3
NOTE36
  1

  0
ENDBLK
  5
92
330
90
100
AcDbEntity
  8
0
100
AcDbBlockEnd
  0
BLOCK
  5
96
330
95
100
AcDbEntity
  8
0
 62
     0
100
AcDbBlockBegin
  2
NOTE38
 70
     0
 10
0.0
 20
0.0
 30
0.0
  3
NOTE38
  1

  0
ENDBLK
  5
97
330
95
100
AcDbEntity
  8
0
100
AcDbBlockEnd
  0
BLOCK
  5
9A
330
99
100
AcDbEntity
  8
0
 62
     0
100
AcDbBlockBegin
  2
NOTE39
 70
     0
 10
0.0
 20
0.0
 30
0.0
  3
NOTE39
  1

  0
ENDBLK
  5
9B
330
99
100
AcDbEntity
  8
0
100
AcDbBlockEnd
  0
BLOCK
  5
9E
330
9D
100
AcDbEntity
  8
0
 62
     0
100
AcDbBlockBegin
  2
NOTE40
 70
     0
 10
0.0
 20
0.0
 30
0.0
  3
NOTE40
  1

  0
ENDBLK
  5
9F
330
9D
100
AcDbEntity
  8
0
100
AcDbBlockEnd
  0
BLOCK
  5
A2
330
A1
100
AcDbEntity
  8
0
 62
     0
100
AcDbBlockBegin
  2
NOTE41
 70
     0
 10
0.0
 20
0.0
 30
0.0
  3
NOTE41
  1

  0
ENDBLK
  5
A3
330
A1
100
AcDbEntity
  8
0
100
AcDbBlockEnd
  0
BLOCK
  5
A6
330
A5
100
AcDbEntity
  8
0
 62
     0
100
AcDbBlockBegin
  2
NOTE42
 70
     0
 10
0.0
 20
0.0
 30
0.0
  3
NOTE42
  1

  0
ENDBLK
  5
A7
330
A5
100
AcDbEntity
  8
0
100
AcDbBlockEnd
  0
BLOCK
  5
AA
330
A9
100
AcDbEntity
  8
0
 62
     0
100
AcDbBlockBegin
  2
NOTE43
 70
     0
 10
0.0
 20
0.0
 30
0.0
  3
NOTE43
  1

  0
ENDBLK
  5
AB
330
A9
100
AcDbEntity
  8
0
100
AcDbBlockEnd
  0
BLOCK
  5
AE
330
AD
100
AcDbEntity
  8
0
 62
     0
100
AcDbBlockBegin
  2
NOTE44
 70
     0
 10
0.0
 20
0.0
 30
0.0
  3
NOTE44
  1

  0
ENDBLK
  5
AF
330
AD
100
AcDbEntity
  8
0
100
AcDbBlockEnd
  0
BLOCK
  5
B2
330
B1
100
AcDbEntity
  8
0
 62
     0
100
AcDbBlockBegin
  2
NOTE45
 70
     0
 10
0.0
 20
0.0
 30
0.0
  3
NOTE45
  1

  0
ENDBLK
  5
B3
330
B1
100
AcDbEntity
  8
0
100
AcDbBlockEnd
  0
BLOCK
  5
B6
330
B5
100
AcDbEntity
  8
0
 62
     0
100
AcDbBlockBegin
  2
NOTE46
 70
     0
 10
0.0
 20
0.0
 30
0.0
  3
NOTE46
  1

  0
ENDBLK
  5
B7
330
B5
100
AcDbEntity
  8
0
100
AcDbBlockEnd
  0
BLOCK
  5
BA
330
B9
100
AcDbEntity
  8
0
 62
     0
100
AcDbBlockBegin
  2
NOTE47
 70
     0
 10
0.0
 20
0.0
 30
0.0
  3
NOTE47
  1

  0
ENDBLK
  5
BB
330
B9
100
AcDbEntity
  8
0
100
AcDbBlockEnd
  0
BLOCK
  5
BE
330
BD
100
AcDbEntity
  8
0
 62
     0
100
AcDbBlockBegin
  2
NOTE48
 70
     0
 10
0.0
 20
0.0
 30
0.0
  3
NOTE48
  1

  0
ENDBLK
  5
BF
330
BD
100
AcDbEntity
  8
0
100
AcDbBlockEnd
  0
BLOCK
  5
C3
330
C2
100
AcDbEntity
  8
0
 62
     0
100
AcDbBlockBegin
  2
NOTE50
 70
     0
 10
0.0
 20
0.0
 30
0.0
  3
NOTE50
  1

  0
ENDBLK
  5
C4
330
C2
100
AcDbEntity
  8
0
100
AcDbBlockEnd
  0
BLOCK
  5
C7
330
C6
100
AcDbEntity
  8
0
 62
     0
100
AcDbBlockBegin
  2
NOTE51
 70
     0
 10
0.0
 20
0.0
 30
0.0
  3
NOTE51
  1

  0
ENDBLK
  5
C8
330
C6
100
AcDbEntity
  8
0
100
AcDbBlockEnd
  0
BLOCK
  5
5F7
330
5F6
100
AcDbEntity
  8
0
 62
     0
100
AcDbBlockBegin
  2
SW_CENTERMARK0
 70
     0
 10
0.0
 20
0.0
 30
0.0
  3
SW_CENTERMARK0
  1

  0
LINE
  5
5F8
330
5F6
100
AcDbEntity
  8
0
  6
Continuous
 62
     7
100
AcDbLine
 10
282.7303872919819
 20
215.7841867420174
 30
0.0
 11
282.7303872919819
 21
216.2841867420174
 31
0.0
  0
LINE
  5
5F9
330
5F6
100
AcDbEntity
  8
0
  6
Continuous
 62
     7
100
AcDbLine
 10
282.7303872919819
 20
215.7841867420174
 30
0.0
 11
282.2303872919819
 21
215.7841867420174
 31
0.0
  0
LINE
  5
5FA
330
5F6
100
AcDbEntity
  8
0
  6
Continuous
 62
     7
100
AcDbLine
 10
282.7303872919819
 20
215.7841867420174
 30
0.0
 11
282.7303872919819
 21
215.2841867420174
 31
0.0
  0
LINE
  5
5FB
330
5F6
100
AcDbEntity
  8
0
  6
Continuous
 62
     7
100
AcDbLine
 10
282.7303872919819
 20
215.7841867420174
 30
0.0
 11
283.2303872919819
 21
215.7841867420174
 31
0.0
  0
ENDBLK
  5
5FD
330
5F6
100
AcDbEntity
  8
0
100
AcDbBlockEnd
  0
BLOCK
  5
600
330
5FF
100
AcDbEntity
  8
0
 62
     0
100
AcDbBlockBegin
  2
SW_CENTERMARK1
 70
     0
 10
0.0
 20
0.0
 30
0.0
  3
SW_CENTERMARK1
  1

  0
LINE
  5
601
330
5FF
100
AcDbEntity
  8
0
  6
Continuous
 62
     7
100
AcDbLine
 10
282.7303872919819
 20
231.7911487673339
 30
0.0
 11
282.7303872919819
 21
232.2911487673338
 31
0.0
  0
LINE
  5
602
330
5FF
100
AcDbEntity
  8
0
  6
Continuous
 62
     7
100
AcDbLine
 10
282.7303872919819
 20
231.7911487673339
 30
0.0
 11
282.2303872919819
 21
231.7911487673339
 31
0.0
  0
LINE
  5
603
330
5FF
100
AcDbEntity
  8
0
  6
Continuous
 62
     7
100
AcDbLine
 10
282.7303872919819
 20
231.7911487673339
 30
0.0
 11
282.7303872919819
 21
231.2911487673339
 31
0.0
  0
LINE
  5
604
330
5FF
100
AcDbEntity
  8
0
  6
Continuous
 62
     7
100
AcDbLine
 10
282.7303872919819
 20
231.7911487673339
 30
0.0
 11
283.2303872919819
 21
231.7911487673339
 31
0.0
  0
ENDBLK
  5
606
330
5FF
100
AcDbEntity
  8
0
100
AcDbBlockEnd
  0
BLOCK
  5
609
330
608
100
AcDbEntity
  8
0
 62
     0
100
AcDbBlockBegin
  2
SW_CENTERMARK2
 70
     0
 10
0.0
 20
0.0
 30
0.0
  3
SW_CENTERMARK2
  1

  0
LINE
  5
60A
330
608
100
AcDbEntity
  8
0
  6
Continuous
 62
     7
100
AcDbLine
 10
282.7303872919819
 20
185.2841867420173
 30
0.0
 11
282.7303872919819
 21
185.7841867420173
 31
0.0
  0
LINE
  5
60B
330
608
100
AcDbEntity
  8
0
  6
Continuous
 62
     7
100
AcDbLine
 10
282.7303872919819
 20
185.2841867420173
 30
0.0
 11
282.2303872919819
 21
185.2841867420173
 31
0.0
  0
LINE
  5
60C
330
608
100
AcDbEntity
  8
0
  6
Continuous
 62
     7
100
AcDbLine
 10
282.7303872919819
 20
185.2841867420173
 30
0.0
 11
282.7303872919819
 21
184.7841867420173
 31
0.0
  0
LINE
  5
60D
330
608
100
AcDbEntity
  8
0
  6
Continuous
 62
     7
100
AcDbLine
 10
282.7303872919819
 20
185.2841867420173
 30
0.0
 11
283.2303872919819
 21
185.2841867420173
 31
0.0
  0
ENDBLK
  5
60F
330
608
100
AcDbEntity
  8
0
100
AcDbBlockEnd
  0
BLOCK
  5
612
330
611
100
AcDbEntity
  8
0
 62
     0
100
AcDbBlockBegin
  2
SW_CENTERMARK3
 70
     0
 10
0.0
 20
0.0
 30
0.0
  3
SW_CENTERMARK3
  1

  0
LINE
  5
613
330
611
100
AcDbEntity
  8
0
  6
Continuous
 62
     7
100
AcDbLine
 10
282.7303872919819
 20
215.7841867420174
 30
0.0
 11
282.7303872919819
 21
216.2841867420174
 31
0.0
  0
LINE
  5
614
330
611
100
AcDbEntity
  8
0
  6
Continuous
 62
     7
100
AcDbLine
 10
282.7303872919819
 20
215.7841867420174
 30
0.0
 11
282.2303872919819
 21
215.7841867420174
 31
0.0
  0
LINE
  5
615
330
611
100
AcDbEntity
  8
0
  6
Continuous
 62
     7
100
AcDbLine
 10
282.7303872919819
 20
215.7841867420174
 30
0.0
 11
282.7303872919819
 21
215.2841867420174
 31
0.0
  0
LINE
  5
616
330
611
100
AcDbEntity
  8
0
  6
Continuous
 62
     7
100
AcDbLine
 10
282.7303872919819
 20
215.7841867420174
 30
0.0
 11
283.2303872919819
 21
215.7841867420174
 31
0.0
  0
ENDBLK
  5
618
330
611
100
AcDbEntity
  8
0
100
AcDbBlockEnd
  0
BLOCK
  5
61B
330
61A
100
AcDbEntity
  8
0
 62
     0
100
AcDbBlockBegin
  2
SW_CENTERMARK4
 70
     0
 10
0.0
 20
0.0
 30
0.0
  3
SW_CENTERMARK4
  1

  0
LINE
  5
61C
330
61A
100
AcDbEntity
  8
0
  6
Continuous
 62
     7
100
AcDbLine
 10
282.7303872919819
 20
231.7911487673339
 30
0.0
 11
282.7303872919819
 21
232.2911487673338
 31
0.0
  0
LINE
  5
61D
330
61A
100
AcDbEntity
  8
0
  6
Continuous
 62
     7
100
AcDbLine
 10
282.7303872919819
 20
231.7911487673339
 30
0.0
 11
282.2303872919819
 21
231.7911487673339
 31
0.0
  0
LINE
  5
61E
330
61A
100
AcDbEntity
  8
0
  6
Continuous
 62
     7
100
AcDbLine
 10
282.7303872919819
 20
231.7911487673339
 30
0.0
 11
282.7303872919819
 21
231.2911487673339
 31
0.0
  0
LINE
  5
61F
330
61A
100
AcDbEntity
  8
0
  6
Continuous
 62
     7
100
AcDbLine
 10
282.7303872919819
 20
231.7911487673339
 30
0.0
 11
283.2303872919819
 21
231.7911487673339
 31
0.0
  0
ENDBLK
  5
621
330
61A
100
AcDbEntity
  8
0
100
AcDbBlockEnd
  0
BLOCK
  5
624
330
623
100
AcDbEntity
  8
0
 62
     0
100
AcDbBlockBegin
  2
SW_CENTERMARK5
 70
     0
 10
0.0
 20
0.0
 30
0.0
  3
SW_CENTERMARK5
  1

  0
LINE
  5
625
330
623
100
AcDbEntity
  8
0
  6
Continuous
 62
     7
100
AcDbLine
 10
282.7303872919819
 20
185.2841867420173
 30
0.0
 11
282.7303872919819
 21
185.7841867420173
 31
0.0
  0
LINE
  5
626
330
623
100
AcDbEntity
  8
0
  6
Continuous
 62
     7
100
AcDbLine
 10
282.7303872919819
 20
185.2841867420173
 30
0.0
 11
282.2303872919819
 21
185.2841867420173
 31
0.0
  0
LINE
  5
627
330
623
100
AcDbEntity
  8
0
  6
Continuous
 62
     7
100
AcDbLine
 10
282.7303872919819
 20
185.2841867420173
 30
0.0
 11
282.7303872919819
 21
184.7841867420173
 31
0.0
  0
LINE
  5
628
330
623
100
AcDbEntity
  8
0
  6
Continuous
 62
     7
100
AcDbLine
 10
282.7303872919819
 20
185.2841867420173
 30
0.0
 11
283.2303872919819
 21
185.2841867420173
 31
0.0
  0
ENDBLK
  5
62A
330
623
100
AcDbEntity
  8
0
100
AcDbBlockEnd
  0
BLOCK
  5
81F
330
81E
100
AcDbEntity
  8
0
 62
     0
100
AcDbBlockBegin
  2
SW_CENTERMARK6
 70
     0
 10
0.0
 20
0.0
 30
0.0
  3
SW_CENTERMARK6
  1

  0
LINE
  5
820
330
81E
100
AcDbEntity
  8
0
  6
Continuous
 62
     7
100
AcDbLine
 10
465.6069915051531
 20
168.1841867420174
 30
0.0
 11
465.6069915051531
 21
168.6841867420173
 31
0.0
  0
LINE
  5
821
330
81E
100
AcDbEntity
  8
0
  6
Continuous
 62
     7
100
AcDbLine
 10
465.6069915051531
 20
168.1841867420174
 30
0.0
 11
465.1069915051531
 21
168.1841867420174
 31
0.0
  0
LINE
  5
822
330
81E
100
AcDbEntity
  8
0
  6
Continuous
 62
     7
100
AcDbLine
 10
465.6069915051531
 20
168.1841867420174
 30
0.0
 11
465.6069915051531
 21
167.6841867420173
 31
0.0
  0
LINE
  5
823
330
81E
100
AcDbEntity
  8
0
  6
Continuous
 62
     7
100
AcDbLine
 10
465.6069915051531
 20
168.1841867420174
 30
0.0
 11
466.1069915051531
 21
168.1841867420174
 31
0.0
  0
ENDBLK
  5
825
330
81E
100
AcDbEntity
  8
0
100
AcDbBlockEnd
  0
BLOCK
  5
FD4
330
FD3
100
AcDbEntity
  8
0
 62
     0
100
AcDbBlockBegin
  2
SW_CENTERMARK7
 70
     0
 10
0.0
 20
0.0
 30
0.0
  3
SW_CENTERMARK7
  1

  0
LINE
  5
FD5
330
FD3
100
AcDbEntity
  8
0
  6
Continuous
 62
     7
100
AcDbLine
 10
112.8806258865676
 20
198.977774939451
 30
0.0
 11
112.8806258865676
 21
199.477774939451
 31
0.0
  0
LINE
  5
FD6
330
FD3
100
AcDbEntity
  8
0
  6
Continuous
 62
     7
100
AcDbLine
 10
112.8806258865676
 20
198.977774939451
 30
0.0
 11
112.3806258865676
 21
198.977774939451
 31
0.0
  0
LINE
  5
FD7
330
FD3
100
AcDbEntity
  8
0
  6
Continuous
 62
     7
100
AcDbLine
 10
112.8806258865676
 20
198.977774939451
 30
0.0
 11
112.8806258865676
 21
198.477774939451
 31
0.0
  0
LINE
  5
FD8
330
FD3
100
AcDbEntity
  8
0
  6
Continuous
 62
     7
100
AcDbLine
 10
112.8806258865676
 20
198.977774939451
 30
0.0
 11
113.3806258865676
 21
198.977774939451
 31
0.0
  0
ENDBLK
  5
FDA
330
FD3
100
AcDbEntity
  8
0
100
AcDbBlockEnd
  0
BLOCK
  5
FDD
330
FDC
100
AcDbEntity
  8
0
 62
     0
100
AcDbBlockBegin
  2
SW_CENTERMARK8
 70
     0
 10
0.0
 20
0.0
 30
0.0
  3
SW_CENTERMARK8
  1

  0
LINE
  5
FDE
330
FDC
100
AcDbEntity
  8
0
  6
Continuous
 62
     7
100
AcDbLine
 10
132.254512552591
 20
190.635535287456
 30
0.0
 11
132.254512552591
 21
191.135535287456
 31
0.0
  0
LINE
  5
FDF
330
FDC
100
AcDbEntity
  8
0
  6
Continuous
 62
     7
100
AcDbLine
 10
132.254512552591
 20
190.635535287456
 30
0.0
 11
131.754512552591
 21
190.635535287456
 31
0.0
  0
LINE
  5
FE0
330
FDC
100
AcDbEntity
  8
0
  6
Continuous
 62
     7
100
AcDbLine
 10
132.254512552591
 20
190.635535287456
 30
0.0
 11
132.254512552591
 21
190.135535287456
 31
0.0
  0
LINE
  5
FE1
330
FDC
100
AcDbEntity
  8
0
  6
Continuous
 62
     7
100
AcDbLine
 10
132.254512552591
 20
190.635535287456
 30
0.0
 11
132.754512552591
 21
190.635535287456
 31
0.0
  0
ENDBLK
  5
FE3
330
FDC
100
AcDbEntity
  8
0
100
AcDbBlockEnd
  0
BLOCK
  5
FE6
330
FE5
100
AcDbEntity
  8
0
 62
     0
100
AcDbBlockBegin
  2
SW_CENTERMARK9
 70
     0
 10
0.0
 20
0.0
 30
0.0
  3
SW_CENTERMARK9
  1

  0
LINE
  5
FE7
330
FE5
100
AcDbEntity
  8
0
  6
Continuous
 62
     7
100
AcDbLine
 10
139.41507903444
 20
175.0166933772398
 30
0.0
 11
139.41507903444
 21
175.5166933772398
 31
0.0
  0
LINE
  5
FE8
330
FE5
100
AcDbEntity
  8
0
  6
Continuous
 62
     7
100
AcDbLine
 10
139.41507903444
 20
175.0166933772398
 30
0.0
 11
138.91507903444
 21
175.0166933772398
 31
0.0
  0
LINE
  5
FE9
330
FE5
100
AcDbEntity
  8
0
  6
Continuous
 62
     7
100
AcDbLine
 10
139.41507903444
 20
175.0166933772398
 30
0.0
 11
139.41507903444
 21
174.5166933772398
 31
0.0
  0
LINE
  5
FEA
330
FE5
100
AcDbEntity
  8
0
  6
Continuous
 62
     7
100
AcDbLine
 10
139.41507903444
 20
175.0166933772398
 30
0.0
 11
139.91507903444
 21
175.0166933772398
 31
0.0
  0
ENDBLK
  5
FEC
330
FE5
100
AcDbEntity
  8
0
100
AcDbBlockEnd
  0
BLOCK
  5
FEF
330
FEE
100
AcDbEntity
  8
0
 62
     0
100
AcDbBlockBegin
  2
SW_CENTERMARK10
 70
     0
 10
0.0
 20
0.0
 30
0.0
  3
SW_CENTERMARK10
  1

  0
LINE
  5
FF0
330
FEE
100
AcDbEntity
  8
0
  6
Continuous
 62
     7
100
AcDbLine
 10
114.6431831484751
 20
202.161389704552
 30
0.0
 11
114.6431831484751
 21
202.661389704552
 31
0.0
  0
LINE
  5
FF1
330
FEE
100
AcDbEntity
  8
0
  6
Continuous
 62
     7
100
AcDbLine
 10
114.6431831484751
 20
202.161389704552
 30
0.0
 11
114.143183148475
 21
202.161389704552
 31
0.0
  0
LINE
  5
FF2
330
FEE
100
AcDbEntity
  8
0
  6
Continuous
 62
     7
100
AcDbLine
 10
114.6431831484751
 20
202.161389704552
 30
0.0
 11
114.6431831484751
 21
201.661389704552
 31
0.0
  0
LINE
  5
FF3
330
FEE
100
AcDbEntity
  8
0
  6
Continuous
 62
     7
100
AcDbLine
 10
114.6431831484751
 20
202.161389704552
 30
0.0
 11
115.143183148475
 21
202.161389704552
 31
0.0
  0
ENDBLK
  5
FF5
330
FEE
100
AcDbEntity
  8
0
100
AcDbBlockEnd
  0
BLOCK
  5
FF8
330
FF7
100
AcDbEntity
  8
0
 62
     0
100
AcDbBlockBegin
  2
SW_CENTERMARK11
 70
     0
 10
0.0
 20
0.0
 30
0.0
  3
SW_CENTERMARK11
  1

  0
LINE
  5
FF9
330
FF7
100
AcDbEntity
  8
0
  6
Continuous
 62
     7
100
AcDbLine
 10
154.5924075414616
 20
168.1841867420174
 30
0.0
 11
154.5924075414616
 21
168.6841867420173
 31
0.0
  0
LINE
  5
FFA
330
FF7
100
AcDbEntity
  8
0
  6
Continuous
 62
     7
100
AcDbLine
 10
154.5924075414616
 20
168.1841867420174
 30
0.0
 11
154.0924075414616
 21
168.1841867420174
 31
0.0
  0
LINE
  5
FFB
330
FF7
100
AcDbEntity
  8
0
  6
Continuous
 62
     7
100
AcDbLine
 10
154.5924075414616
 20
168.1841867420174
 30
0.0
 11
154.5924075414616
 21
167.6841867420173
 31
0.0
  0
LINE
  5
FFC
330
FF7
100
AcDbEntity
  8
0
  6
Continuous
 62
     7
100
AcDbLine
 10
154.5924075414616
 20
168.1841867420174
 30
0.0
 11
155.0924075414616
 21
168.1841867420174
 31
0.0
  0
ENDBLK
  5
FFE
330
FF7
100
AcDbEntity
  8
0
100
AcDbBlockEnd
  0
BLOCK
  5
1001
330
1000
100
AcDbEntity
  8
0
 62
     0
100
AcDbBlockBegin
  2
SW_CENTERMARK12
 70
     0
 10
0.0
 20
0.0
 30
0.0
  3
SW_CENTERMARK12
  1

  0
LINE
  5
1002
330
1000
100
AcDbEntity
  8
0
  6
Continuous
 62
     7
100
AcDbLine
 10
155.7924075414616
 20
168.1841867420174
 30
0.0
 11
155.7924075414616
 21
168.6841867420173
 31
0.0
  0
LINE
  5
1003
330
1000
100
AcDbEntity
  8
0
  6
Continuous
 62
     7
100
AcDbLine
 10
155.7924075414616
 20
168.1841867420174
 30
0.0
 11
155.2924075414616
 21
168.1841867420174
 31
0.0
  0
LINE
  5
1004
330
1000
100
AcDbEntity
  8
0
  6
Continuous
 62
     7
100
AcDbLine
 10
155.7924075414616
 20
168.1841867420174
 30
0.0
 11
155.7924075414616
 21
167.6841867420173
 31
0.0
  0
LINE
  5
1005
330
1000
100
AcDbEntity
  8
0
  6
Continuous
 62
     7
100
AcDbLine
 10
155.7924075414616
 20
168.1841867420174
 30
0.0
 11
156.2924075414616
 21
168.1841867420174
 31
0.0
  0
ENDBLK
  5
1007
330
1000
100
AcDbEntity
  8
0
100
AcDbBlockEnd
  0
BLOCK
  5
100A
330
1009
100
AcDbEntity
  8
0
 62
     0
100
AcDbBlockBegin
  2
SW_CENTERMARK13
 70
     0
 10
0.0
 20
0.0
 30
0.0
  3
SW_CENTERMARK13
  1

  0
LINE
  5
100B
330
1009
100
AcDbEntity
  8
0
  6
Continuous
 62
     7
100
AcDbLine
 10
155.7924075414616
 20
173.4169006024005
 30
0.0
 11
155.7924075414616
 21
173.9169006024005
 31
0.0
  0
LINE
  5
100C
330
1009
100
AcDbEntity
  8
0
  6
Continuous
 62
     7
100
AcDbLine
 10
155.7924075414616
 20
173.4169006024005
 30
0.0
 11
155.2924075414616
 21
173.4169006024005
 31
0.0
  0
LINE
  5
100D
330
1009
100
AcDbEntity
  8
0
  6
Continuous
 62
     7
100
AcDbLine
 10
155.7924075414616
 20
173.4169006024005
 30
0.0
 11
155.7924075414616
 21
172.9169006024005
 31
0.0
  0
LINE
  5
100E
330
1009
100
AcDbEntity
  8
0
  6
Continuous
 62
     7
100
AcDbLine
 10
155.7924075414616
 20
173.4169006024005
 30
0.0
 11
156.2924075414616
 21
173.4169006024005
 31
0.0
  0
ENDBLK
  5
1010
330
1009
100
AcDbEntity
  8
0
100
AcDbBlockEnd
  0
BLOCK
  5
1013
330
1012
100
AcDbEntity
  8
0
 62
     0
100
AcDbBlockBegin
  2
SW_CENTERMARK14
 70
     0
 10
0.0
 20
0.0
 30
0.0
  3
SW_CENTERMARK14
  1

  0
LINE
  5
1014
330
1012
100
AcDbEntity
  8
0
  6
Continuous
 62
     7
100
AcDbLine
 10
153.7924075414616
 20
168.4055127322338
 30
0.0
 11
153.7924075414616
 21
168.9055127322338
 31
0.0
  0
LINE
  5
1015
330
1012
100
AcDbEntity
  8
0
  6
Continuous
 62
     7
100
AcDbLine
 10
153.7924075414616
 20
168.4055127322338
 30
0.0
 11
153.2924075414616
 21
168.4055127322338
 31
0.0
  0
LINE
  5
1016
330
1012
100
AcDbEntity
  8
0
  6
Continuous
 62
     7
100
AcDbLine
 10
153.7924075414616
 20
168.4055127322338
 30
0.0
 11
153.7924075414616
 21
167.9055127322338
 31
0.0
  0
LINE
  5
1017
330
1012
100
AcDbEntity
  8
0
  6
Continuous
 62
     7
100
AcDbLine
 10
153.7924075414616
 20
168.4055127322338
 30
0.0
 11
154.2924075414616
 21
168.4055127322338
 31
0.0
  0
ENDBLK
  5
1019
330
1012
100
AcDbEntity
  8
0
100
AcDbBlockEnd
  0
BLOCK
  5
101C
330
101B
100
AcDbEntity
  8
0
 62
     0
100
AcDbBlockBegin
  2
SW_CENTERMARK15
 70
     0
 10
0.0
 20
0.0
 30
0.0
  3
SW_CENTERMARK15
  1

  0
LINE
  5
101D
330
101B
100
AcDbEntity
  8
0
  6
Continuous
 62
     7
100
AcDbLine
 10
108.663151924047
 20
197.2853140640814
 30
0.0
 11
108.663151924047
 21
197.7853140640814
 31
0.0
  0
LINE
  5
101E
330
101B
100
AcDbEntity
  8
0
  6
Continuous
 62
     7
100
AcDbLine
 10
108.663151924047
 20
197.2853140640814
 30
0.0
 11
108.163151924047
 21
197.2853140640814
 31
0.0
  0
LINE
  5
101F
330
101B
100
AcDbEntity
  8
0
  6
Continuous
 62
     7
100
AcDbLine
 10
108.663151924047
 20
197.2853140640814
 30
0.0
 11
108.663151924047
 21
196.7853140640814
 31
0.0
  0
LINE
  5
1020
330
101B
100
AcDbEntity
  8
0
  6
Continuous
 62
     7
100
AcDbLine
 10
108.663151924047
 20
197.2853140640814
 30
0.0
 11
109.163151924047
 21
197.2853140640814
 31
0.0
  0
ENDBLK
  5
1022
330
101B
100
AcDbEntity
  8
0
100
AcDbBlockEnd
  0
BLOCK
  5
1037
330
1030
100
AcDbEntity
  8
0
100
AcDbBlockBegin
  2
10310PL
 70
     0
 10
0.0
 20
0.0
 30
0.0
  3
10310PL
  1

  0
CIRCLE
  5
1031
330
1030
100
AcDbEntity
  8
INDUSA
100
AcDbCircle
 10
0.0
 20
-0.07
 30
0.0
 40
0.0175
  0
CIRCLE
  5
1032
330
1030
100
AcDbEntity
  8
INDUSA
100
AcDbCircle
 10
0.0
 20
-0.195
 30
0.0
 40
0.0225
  0
LWPOLYLINE
  5
1033
330
1030
100
AcDbEntity
  8
INDUSA
100
AcDbPolyline
 90
        8
 70
     1
 43
0.0
 10
0.138944
 20
-0.429725
 42
-0.14592
 10
-0.138944
 20
-0.429725
 42
-0.130433
 10
-0.25197
 20
-0.3633
 42
-0.180994
 10
-0.2975
 20
-0.261878
 10
-0.2975
 20
0.0
 10
0.2975
 20
0.0
 10
0.2975
 20
-0.261878
 42
-0.180994
 10
0.25197
 20
-0.3633
 42
-0.130433
  0
LWPOLYLINE
  5
1034
330
1030
100
AcDbEntity
  8
INDUSA
100
AcDbPolyline
 90
        8
 70
     0
 43
0.0
 10
-0.2875
 20
0.0
 10
-0.2875
 20
-0.261553
 42
0.180448
 10
-0.244861
 20
-0.356266
 42
0.130525
 10
-0.136172
 20
-0.4201170000000001
 42
0.146017
 10
0.136172
 20
-0.4201170000000001
 42
0.130525
 10
0.244861
 20
-0.356266
 42
0.180448
 10
0.2875
 20
-0.261553
 10
0.2875
 20
0.0
  0
LWPOLYLINE
  5
1035
330
1030
100
AcDbEntity
  8
INDUSA
100
AcDbPolyline
 90
       10
 70
     1
 43
0.0
 10
-0.2575
 20
-0.243012
 42
0.216778
 10
-0.223535
 20
-0.335166
 42
0.110918
 10
-0.143989
 20
-0.386131
 42
0.165772
 10
0.143989
 20
-0.386131
 42
0.110918
 10
0.223535
 20
-0.335166
 42
0.216778
 10
0.2575
 20
-0.243012
 10
0.2575
 20
-0.05
 42
0.4142140000000001
 10
0.2275
 20
-0.02
 10
-0.2275
 20
-0.02
 42
0.4142140000000001
 10
-0.2575
 20
-0.05
  0
LWPOLYLINE
  5
1036
330
1030
100
AcDbEntity
  8
INDUSA
100
AcDbPolyline
 90
       10
 70
     1
 43
0.0
 10
-0.125096
 20
-0.381679
 42
-0.130971
 10
-0.216427
 20
-0.328133
 42
-0.217649
 10
-0.2475
 20
-0.24339
 10
-0.2475
 20
-0.23
 42
-0.4142140000000001
 10
-0.1475
 20
-0.13
 10
0.1475
 20
-0.13
 42
-0.4142140000000001
 10
0.2475
 20
-0.23
 10
0.2475
 20
-0.24339
 42
-0.217649
 10
0.216427
 20
-0.328133
 42
-0.110793
 10
0.140665
 20
-0.376699
 42
-0.156041
  0
ENDBLK
  5
1038
330
1030
100
AcDbEntity
  8
0
100
AcDbBlockEnd
  0
ENDSEC
  0
SECTION
  2
ENTITIES
  0
INSERT
  5
8F
330
A
100
AcDbEntity
  8
0
100
AcDbBlockReference
  2
NOTE35
 10
0.0
 20
0.0
 30
0.0
  0
INSERT
  5
93
330
A
100
AcDbEntity
  8
0
100
AcDbBlockReference
  2
NOTE36
 10
0.0
 20
0.0
 30
0.0
  0
INSERT
  5
98
330
A
100
AcDbEntity
  8
0
100
AcDbBlockReference
  2
NOTE38
 10
0.0
 20
0.0
 30
0.0
  0
INSERT
  5
9C
330
A
100
AcDbEntity
  8
0
100
AcDbBlockReference
  2
NOTE39
 10
0.0
 20
0.0
 30
0.0
  0
INSERT
  5
A0
330
A
100
AcDbEntity
  8
0
100
AcDbBlockReference
  2
NOTE40
 10
0.0
 20
0.0
 30
0.0
  0
INSERT
  5
A4
330
A
100
AcDbEntity
  8
0
100
AcDbBlockReference
  2
NOTE41
 10
0.0
 20
0.0
 30
0.0
  0
INSERT
  5
A8
330
A
100
AcDbEntity
  8
0
100
AcDbBlockReference
  2
NOTE42
 10
0.0
 20
0.0
 30
0.0
  0
INSERT
  5
AC
330
A
100
AcDbEntity
  8
0
100
AcDbBlockReference
  2
NOTE43
 10
0.0
 20
0.0
 30
0.0
  0
INSERT
  5
B0
330
A
100
AcDbEntity
  8
0
100
AcDbBlockReference
  2
NOTE44
 10
0.0
 20
0.0
 30
0.0
  0
INSERT
  5
B4
330
A
100
AcDbEntity
  8
0
100
AcDbBlockReference
  2
NOTE45
 10
0.0
 20
0.0
 30
0.0
  0
INSERT
  5
B8
330
A
100
AcDbEntity
  8
0
100
AcDbBlockReference
  2
NOTE46
 10
0.0
 20
0.0
 30
0.0
  0
INSERT
  5
BC
330
A
100
AcDbEntity
  8
0
100
AcDbBlockReference
  2
NOTE47
 10
0.0
 20
0.0
 30
0.0
  0
INSERT
  5
C0
330
A
100
AcDbEntity
  8
0
100
AcDbBlockReference
  2
NOTE48
 10
0.0
 20
0.0
 30
0.0
  0
INSERT
  5
C5
330
A
100
AcDbEntity
  8
0
100
AcDbBlockReference
  2
NOTE50
 10
0.0
 20
0.0
 30
0.0
  0
INSERT
  5
C9
330
A
100
AcDbEntity
  8
0
100
AcDbBlockReference
  2
NOTE51
 10
0.0
 20
0.0
 30
0.0
  0
LWPOLYLINE
  5
DD
330
A
100
AcDbEntity
  8
INDUSA
  6
Continuous
100
AcDbPolyline
 90
       80
 70
   128
 43
0.0
 10
372.0893914755626
 20
42.19485591206881
 10
372.0894132014556
 20
42.18819539103838
 10
372.0894300397678
 20
42.18039847765299
 10
372.0894383397145
 20
42.1734728351626
 10
372.0894405599876
 20
42.16741876159044
 10
372.0894388165517
 20
42.16223640594813
 10
372.0894342269941
 20
42.15741668496462
 10
372.0894100722118
 20
42.14519317303034
 10
372.0893634613795
 20
42.13176096830698
 10
372.0892985370202
 20
42.11875210557314
 10
372.0892126616283
 20
42.10553802404734
 10
372.0891130622669
 20
42.09306062612863
 10
372.0890029128833
 20
42.08132338378759
 10
372.0888844784541
 20
42.07032663975092
 10
372.0887540634914
 20
42.05964961502882
 10
372.0886007454438
 20
42.04853693995806
 10
372.0884206202073
 20
42.03697490547034
 10
372.0882960614009
 20
42.02965456102225
 10
372.0881846454187
 20
42.02299742255541
 10
372.0880894866033
 20
42.01706158969733
 10
372.088007738833
 20
42.0117036387715
 10
372.0879266914173
 20
42.00606170151564
 10
372.0878538545413
 20
42.00059518072936
 10
372.0877823587699
 20
41.99468643818232
 10
372.0877125468297
 20
41.98808424029681
 10
372.0876489188714
 20
41.98080376390548
 10
372.0876163449331
 20
41.9761910051498
 10
372.0875920560403
 20
41.97196119878622
 10
372.0875749197049
 20
41.968128836194
 10
372.0875645484968
 20
41.96502518508764
 10
372.0875589754625
 20
41.9627232984099
 10
372.0875544306083
 20
41.95963969681593
 10
372.0875535961433
 20
41.95582900051209
 10
372.087559765224
 20
41.95131398592326
 10
372.0875767227454
 20
41.94614898268315
 10
372.0876063313527
 20
41.94075007591577
 10
372.0877055283828
 20
41.92993210856053
 10
372.0878673251911
 20
41.91899112466904
 10
372.0879852976842
 20
41.9130300827715
 10
372.0880976971431
 20
41.90820299688907
 10
372.088199188952
 20
41.90434410277935
 10
372.0883093085332
 20
41.90056472126576
 10
372.0884312149329
 20
41.89677280415031
 10
372.0885319169803
 20
41.89389447722765
 10
372.0886376407189
 20
41.89108150493535
 10
372.0887723472162
 20
41.8877615113202
 10
372.0889451857849
 20
41.883864799926
 10
372.08912657762
 20
41.88014005165729
 10
372.0893786158605
 20
41.87547282822611
 10
372.0896283891244
 20
41.87132656848239
 10
372.089894955997
 20
41.8673348356429
 10
372.0901963021798
 20
41.86327017780109
 10
372.0905452128692
 20
41.85905300261634
 10
372.0909390356584
 20
41.85480205848994
 10
372.0911441650434
 20
41.85276698175999
 10
372.0913981702371
 20
41.8503940640408
 10
372.0917206462665
 20
41.84758857492538
 10
372.0920613315148
 20
41.84484148252937
 10
372.0923706200166
 20
41.84251377958985
 10
372.0926238801522
 20
41.84071181383165
 10
372.0928333457751
 20
41.8392855044845
 10
372.0930301454111
 20
41.83799258101912
 10
372.093249237184
 20
41.83660720329913
 10
372.0935413893504
 20
41.83485318575235
 10
372.0938640441938
 20
41.83304416615697
 10
372.0942023303552
 20
41.83122563589545
 10
372.0945119615836
 20
41.82959076989623
 10
372.094788393025
 20
41.82815635431739
 10
372.0951734390302
 20
41.82619928050967
 10
372.0955129470868
 20
41.82451439131233
 10
372.0959864165826
 20
41.82225039083692
 10
372.0966288652463
 20
41.81934166182013
 10
372.0974685307784
 20
41.8157924585435
 10
372.0985399987741
 20
41.81161085371109
 10
372.099883740787
 20
41.80681019503804
 10
372.1015454437776
 20
41.80141053948733
 10
372.1038978900953
 20
41.79454248253438
 10
372.106701096539
 20
41.78724761162134
 10
372.1097673233791
 20
41.78009345237347
 10
372.1125894244952
 20
41.7741443649325
  0
LWPOLYLINE
  5
143
330
A
100
AcDbEntity
  8
INDUSA
  6
Continuous
100
AcDbPolyline
 90
       82
 70
   128
 43
0.0
 10
372.4462589379592
 20
41.77431886498066
 10
372.4473777320428
 20
41.77657948289247
 10
372.4501833524747
 20
41.78275702748629
 10
372.452797001247
 20
41.78906114254328
 10
372.4551964607282
 20
41.79543997947308
 10
372.4572259094758
 20
41.80141053948733
 10
372.4588876124664
 20
41.80681019503804
 10
372.4602313544793
 20
41.81161085371109
 10
372.461302822475
 20
41.8157924585435
 10
372.4621424880071
 20
41.81934166182013
 10
372.4627849366708
 20
41.82225039083692
 10
372.463202422504
 20
41.82424120459887
 10
372.4635089393897
 20
41.82575366128417
 10
372.4638123866363
 20
41.82728359330627
 10
372.4641869571252
 20
41.82921255607339
 10
372.4645296987338
 20
41.83101644221874
 10
372.4649099912686
 20
41.83305879537197
 10
372.465271940474
 20
41.83509848866793
 10
372.465594654922
 20
41.83705939393671
 10
372.4658234324498
 20
41.83852727007302
 10
372.4660260137363
 20
41.83987834718259
 10
372.4662269409938
 20
41.84126773145231
 10
372.4664772656007
 20
41.84307625744673
 10
372.4667739030166
 20
41.84534120787116
 10
372.4672097321792
 20
41.84894495312305
 10
372.4675654079957
 20
41.85217544198217
 10
372.467832317595
 20
41.85480205848994
 10
372.4683808889432
 20
41.86086538568321
 10
372.4688339438482
 20
41.86673531303363
 10
372.4692131485982
 20
41.87244867947134
 10
372.4693801310106
 20
41.87525277439686
 10
372.4695463087602
 20
41.87825226918044
 10
372.4697226938052
 20
41.88169857341978
 10
372.4699059482856
 20
41.88561718393298
 10
372.4700621273561
 20
41.88928327564331
 10
372.4702097829624
 20
41.89308508899244
 10
372.4703387674136
 20
41.89673186693521
 10
372.4704610314412
 20
41.90053155500623
 10
372.470571478848
 20
41.90431940037938
 10
372.4706731941743
 20
41.90818446729513
 10
372.4707858022494
 20
41.91301821027132
 10
372.4709040280623
 20
41.91899112466904
 10
372.4710041042609
 20
41.92520245764586
 10
372.4710828419967
 20
41.93142012361618
 10
372.4711416568799
 20
41.93757945154043
 10
372.4711825009628
 20
41.94365324679943
 10
372.4712071027799
 20
41.94958192710014
 10
372.4712170716567
 20
41.95484264794918
 10
372.4712172653718
 20
41.95923431072565
 10
372.4712123777909
 20
41.9627232984099
 10
372.4712045546813
 20
41.96578865353199
 10
372.4711879249854
 20
41.97016317997309
 10
372.4711600151105
 20
41.97539365891548
 10
372.4711190667195
 20
41.98123746965261
 10
372.4710684027715
 20
41.9870849460754
 10
372.4709957745119
 20
41.99408770952555
 10
372.4709209259791
 20
42.00032637868257
 10
372.4708446618361
 20
42.00606170151564
 10
372.4707626160427
 20
42.01177084300848
 10
372.4706797059817
 20
42.01720011089178
 10
372.4705828633351
 20
42.02323204133841
 10
372.4704693462892
 20
42.03000359092089
 10
372.4703431632562
 20
42.03743377182814
 10
372.4702259656234
 20
42.0448322281632
 10
372.4701201375766
 20
42.05204890523287
 10
372.4700246509357
 20
42.05908341560694
 10
372.4698932226939
 20
42.06977560971114
 10
372.4697744008346
 20
42.08073389385076
 10
372.4696637746139
 20
42.09243266139361
 10
372.4695635643048
 20
42.10487162921759
 10
372.4694929626031
 20
42.11535541568133
 10
372.4694342371269
 20
42.12599997077318
 10
372.469390710835
 20
42.1360642150435
 10
372.4693604316755
 20
42.14551408443781
 10
372.4693415221019
 20
42.1543471947703
 10
372.4693352636142
 20
42.1590335205588
 10
372.4693317618413
 20
42.16357664618822
 10
372.4693308677716
 20
42.16867776069971
 10
372.4693339076085
 20
42.17455716286035
 10
372.4693426992936
 20
42.18121470365854
 10
372.469359373693
 20
42.18865017447802
 10
372.4693798180862
 20
42.19485591206881
  0
LWPOLYLINE
  5
197
330
A
100
AcDbEntity
  8
INDUSA
  6
Continuous
100
AcDbPolyline
 90
        9
 70
   128
 43
0.0
 10
372.4673789646669
 20
42.19686327729555
 10
372.4677685108228
 20
42.19682495150896
 10
372.46814357305
 20
42.19671134505602
 10
372.4684892799897
 20
42.19652674947115
 10
372.4687923547073
 20
42.19627831731172
 10
372.4690411593957
 20
42.19597552571626
 10
372.4692261573119
 20
42.19563002739283
 10
372.4693402107997
 20
42.19525511417719
 10
372.4693789836211
 20
42.19486515078875
  0
LWPOLYLINE
  5
1A2
330
A
100
AcDbEntity
  8
INDUSA
  6
Continuous
100
AcDbPolyline
 90
        9
 70
   128
 43
0.0
 10
372.0893924441381
 20
42.19484720979067
 10
372.089428117518
 20
42.19523970637651
 10
372.0895400848432
 20
42.19561759982439
 10
372.0897239800735
 20
42.19596619758936
 10
372.0899726655527
 20
42.19627196941706
 10
372.0902764853282
 20
42.19652302418086
 10
372.0906236376805
 20
42.19670961652132
 10
372.0910006370587
 20
42.19682453427645
 10
372.0913923885865
 20
42.19686327729555
  0
LINE
  5
1AD
330
A
100
AcDbEntity
  8
INDUSA
  6
Continuous
100
AcDbLine
 10
372.2797447741806
 20
42.02110119018885
 30
0.0
 11
372.2811204758665
 21
42.02108713839384
 31
0.0
  0
LWPOLYLINE
  5
1AE
330
A
100
AcDbEntity
  8
INDUSA
  6
Continuous
100
AcDbPolyline
 90
       45
 70
   128
 43
0.0
 10
372.2793856766267
 20
42.06185644719931
 10
372.2683466812788
 20
42.06151367578836
 10
372.2573500275804
 20
42.06048858020635
 10
372.2448080796941
 20
42.05846160505148
 10
372.2323962282581
 20
42.05553634319636
 10
372.2202029247029
 20
42.05174563680025
 10
372.2083166223212
 20
42.04712232802244
 10
372.1968257706805
 20
42.04169924412104
 10
372.185149451737
 20
42.03511440608831
 10
372.1739393603249
 20
42.02767120156618
 10
372.1632704418345
 20
42.01943957660528
 10
372.1532176342054
 20
42.01048943255278
 10
372.1438558753772
 20
42.00089074526164
 10
372.1348782535835
 20
41.99024991546007
 10
372.1266536768718
 20
41.97895321104857
 10
372.1192285027547
 20
41.96709290001723
 10
372.1126491483493
 20
41.95476122800442
 10
372.1069619711681
 20
41.94205043319794
 10
372.1015796419425
 20
41.92711746547552
 10
372.0973566528602
 20
41.91174277890655
 10
372.0943143423839
 20
41.8960658073816
 10
372.0924740787788
 20
41.88022597734066
 10
372.0918571856065
 20
41.86436271418375
 10
372.0921222176595
 20
41.85389060381981
 10
372.0932348277612
 20
41.8405474670622
 10
372.0952146705432
 20
41.82726210583182
 10
372.0980474855943
 20
41.81411805231305
 10
372.101719087009
 20
41.80119883869024
 10
372.1062152292772
 20
41.78858798597189
 10
372.1126491930528
 20
41.77400892827841
 10
372.1202387716813
 20
41.7599387824926
 10
372.1289182063384
 20
41.74651595805022
 10
372.138621768002
 20
41.73387887928816
 10
372.1491777654929
 20
41.72225418541762
 10
372.1606862005038
 20
41.71149279032084
 10
372.1730355378432
 20
41.70171177242132
 10
372.1861142646714
 20
41.69302821014258
 10
372.1971123051091
 20
41.68689834926459
 10
372.2085474562092
 20
41.68152026686999
 10
372.2203373704298
 20
41.67693240795466
 10
372.2323997076793
 20
41.67317315790984
 10
372.2446521204157
 20
41.67028097663256
 10
372.2561434190912
 20
41.66838805232378
 10
372.2677459102316
 20
41.6672459081206
 10
372.2793856766267
 20
41.6668632612023
  0
LWPOLYLINE
  5
239
330
A
100
AcDbEntity
  8
INDUSA
  6
Continuous
100
AcDbPolyline
 90
       45
 70
   128
 43
0.0
 10
372.2793856766267
 20
42.06185644719931
 10
372.2904246719746
 20
42.06151367578836
 10
372.301421325673
 20
42.06048858020635
 10
372.3139632735593
 20
42.05846160505148
 10
372.3263751249953
 20
42.05553634319636
 10
372.3385684285505
 20
42.05174563680025
 10
372.3504547309322
 20
42.04712232802244
 10
372.361945582573
 20
42.04169924412104
 10
372.3736219015165
 20
42.03511440608831
 10
372.3848319929285
 20
42.02767120156618
 10
372.3955009114189
 20
42.01943957660528
 10
372.405553719048
 20
42.01048943255278
 10
372.4149154778762
 20
42.00089074526164
 10
372.4238930996699
 20
41.99024991546007
 10
372.4321176763816
 20
41.97895321104857
 10
372.4395428504987
 20
41.96709290001723
 10
372.4461222049041
 20
41.95476122800442
 10
372.4518093820853
 20
41.94205043319794
 10
372.4571917113109
 20
41.92711746547552
 10
372.4614147003932
 20
41.91174277890655
 10
372.4644570108695
 20
41.8960658073816
 10
372.4662972744746
 20
41.88022597734066
 10
372.4669141676469
 20
41.86436271418375
 10
372.4666491355939
 20
41.85389060381981
 10
372.4655365254922
 20
41.8405474670622
 10
372.4635566827102
 20
41.82726210583182
 10
372.4607238676591
 20
41.81411805231305
 10
372.4570522662444
 20
41.80119883869024
 10
372.4525561239762
 20
41.78858798597189
 10
372.4461221602006
 20
41.77400892827841
 10
372.4385325815721
 20
41.7599387824926
 10
372.429853146915
 20
41.74651595805022
 10
372.4201495852514
 20
41.73387887928816
 10
372.4095935877605
 20
41.72225418541762
 10
372.3980851527496
 20
41.71149279032084
 10
372.3857358154102
 20
41.70171177242132
 10
372.372657088582
 20
41.69302821014258
 10
372.3616590481443
 20
41.68689834926459
 10
372.3502238970442
 20
41.68152026686999
 10
372.3384339828236
 20
41.67693240795466
 10
372.3263716455741
 20
41.67317315790984
 10
372.3141192328377
 20
41.67028097663256
 10
372.3026279341622
 20
41.66838805232378
 10
372.2910254430218
 20
41.6672459081206
 10
372.2793856766267
 20
41.6668632612023
  0
LWPOLYLINE
  5
268
330
A
100
AcDbEntity
  8
INDUSA
  6
Continuous
100
AcDbPolyline
 90
       18
 70
   128
 43
0.0
 10
372.2793856766267
 20
41.7076115891728
 10
372.2669906569837
 20
41.7081879213843
 10
372.2549012601568
 20
41.70988216851088
 10
372.24296616206
 20
41.71267489943835
 10
372.2313241940184
 20
41.71651598666044
 10
372.2201141994639
 20
41.72135531757208
 10
372.2084796857281
 20
41.72772036347719
 10
372.1974419783993
 20
41.73517395410867
 10
372.1871204506798
 20
41.7435977593455
 10
372.1776344906731
 20
41.75287347141835
 10
372.1685130652232
 20
41.76360489282938
 10
372.1603743490024
 20
41.77517006401154
 10
372.1532883849187
 20
41.78741333488556
 10
372.1473252084298
 20
41.80017904792162
 10
372.142313456182
 20
41.81398953352305
 10
372.1385414060397
 20
41.82818937156531
 10
372.1360170152231
 20
41.84275662753912
 10
372.1347735431237
 20
41.85748889990332
  0
LWPOLYLINE
  5
2D5
330
A
100
AcDbEntity
  8
INDUSA
  6
Continuous
100
AcDbPolyline
 90
       18
 70
   128
 43
0.0
 10
372.2793856766267
 20
41.7076115891728
 10
372.2917806962697
 20
41.7081879213843
 10
372.3038700930966
 20
41.70988216851088
 10
372.3158051911934
 20
41.71267489943835
 10
372.327447159235
 20
41.71651598666044
 10
372.3386571537895
 20
41.72135531757208
 10
372.3502916675253
 20
41.72772036347719
 10
372.3613293748541
 20
41.73517395410867
 10
372.3716509025736
 20
41.7435977593455
 10
372.3811368625803
 20
41.75287347141835
 10
372.3902582880302
 20
41.76360489282938
 10
372.398397004251
 20
41.77517006401154
 10
372.4054829683347
 20
41.78741333488556
 10
372.4114461448236
 20
41.80017904792162
 10
372.4164578970714
 20
41.81398953352305
 10
372.4202299472137
 20
41.82818937156531
 10
372.4227543380304
 20
41.84275662753912
 10
372.4239978101297
 20
41.85748889990332
  0
LWPOLYLINE
  5
308
330
A
100
AcDbEntity
  8
INDUSA
  6
Continuous
100
AcDbPolyline
 90
        3
 70
   128
 43
0.0
 10
372.1347735431237
 20
41.85748889990332
 10
372.1343629416271
 20
41.86748046771804
 10
372.1342267003103
 20
41.8707428639214
  0
LWPOLYLINE
  5
31A
330
A
100
AcDbEntity
  8
INDUSA
  6
Continuous
100
AcDbPolyline
 90
        3
 70
   128
 43
0.0
 10
372.4239978101297
 20
41.85748889990332
 10
372.4244084116264
 20
41.86748046771804
 10
372.4245446529431
 20
41.8707428639214
  0
ARC
  5
32B
330
A
100
AcDbEntity
  8
INDUSA
  6
Continuous
100
AcDbCircle
 10
372.2793856766267
 20
41.87682845644014
 30
0.0
 40
0.145286485286384
100
AcDbArc
 50
357.5993582396772
 51
182.4006417603242
  0
LWPOLYLINE
  5
390
330
A
100
AcDbEntity
  8
INDUSA
  6
Continuous
100
AcDbPolyline
 90
       38
 70
   128
 43
0.0
 10
372.2793856766267
 20
42.02110721025797
 10
372.2814852255589
 20
42.02108324919077
 10
372.2836820334388
 20
42.02100583765837
 10
372.2857553158148
 20
42.02088200900885
 10
372.2876456491841
 20
42.02072076354357
 10
372.2893009809969
 20
42.0205355123076
 10
372.2906698845519
 20
42.02034035179945
 10
372.2917221561266
 20
42.02014881227347
 10
372.2924249591498
 20
42.01997375343176
 10
372.2927629873349
 20
42.01982484612795
 10
372.2927217884181
 20
42.01970974955889
 10
372.2923074988841
 20
42.01963054988715
 10
372.2915141508175
 20
42.01958697889181
 10
372.2903719404905
 20
42.01957475993963
 10
372.2889282796724
 20
42.01958674047324
 10
372.2872146452038
 20
42.01961323473784
 10
372.2852863599738
 20
42.01964464638563
 10
372.2831908418058
 20
42.01967266056867
 10
372.2793856766267
 20
42.01969413314196
 10
372.2787371293135
 20
42.01969349239202
 10
372.2765058682027
 20
42.01968152675958
 10
372.2743567605695
 20
42.01965746138426
 10
372.2723359181738
 20
42.01962621364923
 10
372.2705173148034
 20
42.01959639642569
 10
372.2685499023838
 20
42.01957508776518
 10
372.2673837803496
 20
42.01958379004332
 10
372.2665535099996
 20
42.0196222350392
 10
372.2660859413637
 20
42.01969626400801
 10
372.2659910302801
 20
42.01980638358923
 10
372.2662783572642
 20
42.01995166991087
 10
372.2669358169852
 20
42.0201244935784
 10
372.2679494293599
 20
42.02031552646491
 10
372.2692869194044
 20
42.02051190886828
 10
372.2709118109388
 20
42.02069935057493
 10
372.2727780738106
 20
42.02086438093515
 10
372.2748200292891
 20
42.02099262032839
 10
372.2769916686421
 20
42.02107603702875
 10
372.2793856766267
 20
42.02110721025797
  0
LINE
  5
41F
330
A
100
AcDbEntity
  8
INDUSA
  6
Continuous
100
AcDbLine
 10
372.2793856766267
 20
42.19686326656672
 30
0.0
 11
372.4673226382776
 21
42.19686327729555
 31
0.0
  0
LINE
  5
420
330
A
100
AcDbEntity
  8
INDUSA
  6
Continuous
100
AcDbLine
 10
372.2793856766267
 20
42.19686326656672
 30
0.0
 11
372.0914487149759
 21
42.19686327729555
 31
0.0
  0
LWPOLYLINE
  5
422
330
A
100
AcDbEntity
  8
INDUSA
  6
Continuous
100
AcDbPolyline
 90
       20
 70
   128
 43
0.0
 10
372.2793856766267
 20
42.09186327312322
 10
372.276842517099
 20
42.09205004427763
 10
372.2743532476207
 20
42.09260246012541
 10
372.2716090842342
 20
42.0936880395207
 10
372.2690850207774
 20
42.09521595988603
 10
372.2668572822778
 20
42.09714737389417
 10
372.2649829229532
 20
42.09942291531893
 10
372.2635241933359
 20
42.10197388980719
 10
372.2625095285668
 20
42.10473233316275
 10
372.2619395517005
 20
42.10802937898966
 10
372.2620017416967
 20
42.11137543473574
 10
372.2625862304314
 20
42.11425883922907
 10
372.263641946037
 20
42.11700425896975
 10
372.2651508990868
 20
42.11953969154688
 10
372.267061150652
 20
42.12178726349207
 10
372.2693151906325
 20
42.12367324385973
 10
372.2718517482473
 20
42.12515850220056
 10
372.2746086479357
 20
42.12619681511255
 10
372.2775008670479
 20
42.12676147971484
 10
372.2793856766267
 20
42.12686325464579
  0
LWPOLYLINE
  5
439
330
A
100
AcDbEntity
  8
INDUSA
  6
Continuous
100
AcDbPolyline
 90
       20
 70
   128
 43
0.0
 10
372.2793856766267
 20
42.09186327312322
 10
372.2819288361544
 20
42.09205004427763
 10
372.2844181056327
 20
42.09260246012541
 10
372.2871622690192
 20
42.0936880395207
 10
372.289686332476
 20
42.09521595988603
 10
372.2919140709756
 20
42.09714737389417
 10
372.2937884303002
 20
42.09942291531893
 10
372.2952471599175
 20
42.10197388980719
 10
372.2962618246867
 20
42.10473233316275
 10
372.2968318015529
 20
42.10802937898966
 10
372.2967696115567
 20
42.11137543473574
 10
372.296185122822
 20
42.11425883922907
 10
372.2951294072164
 20
42.11700425896975
 10
372.2936204541667
 20
42.11953969154688
 10
372.2917102026014
 20
42.12178726349207
 10
372.2894561626209
 20
42.12367324385973
 10
372.2869196050061
 20
42.12515850220056
 10
372.2841627053177
 20
42.12619681511255
 10
372.2812704862055
 20
42.12676147971484
 10
372.2793856766267
 20
42.12686325464579
  0
LWPOLYLINE
  5
44F
330
A
100
AcDbEntity
  8
INDUSA
  6
Continuous
100
AcDbPolyline
 90
        6
 70
   128
 43
0.0
 10
372.2793856766267
 20
42.02074509713979
 10
372.2829336004989
 20
42.02072112117144
 10
372.2848866549512
 20
42.02068942640158
 10
372.286685345248
 20
42.02065285895201
 10
372.28828225473
 20
42.02061991248461
 10
372.2885860568104
 20
42.02061553154321
  0
LWPOLYLINE
  5
457
330
A
100
AcDbEntity
  8
INDUSA
  6
Continuous
100
AcDbPolyline
 90
        7
 70
   128
 43
0.0
 10
372.2701876117109
 20
42.02061579976412
 10
372.2706603994785
 20
42.02062319074007
 10
372.2722835508367
 20
42.02065706107947
 10
372.2746967361501
 20
42.02070398483606
 10
372.2767009940191
 20
42.02073106024595
 10
372.2787809723715
 20
42.02074438188406
 10
372.2793856766267
 20
42.02074509713979
  0
LWPOLYLINE
  5
5C9
330
A
100
AcDbEntity
  8
INDUSA
  6
Continuous
100
AcDbPolyline
 90
       20
 70
   128
 43
0.0
 10
372.2793856766267
 20
41.93436326686474
 10
372.2816472097958
 20
41.93447720859381
 10
372.2853688076331
 20
41.93517570797535
 10
372.2889216477244
 20
41.93648398522468
 10
372.2922029225348
 20
41.938373631278
 10
372.295123010893
 20
41.94078264985415
 10
372.2975960299565
 20
41.94365222606989
 10
372.2995559591992
 20
41.9468928262982
 10
372.3009471502347
 20
41.95044071082207
 10
372.3017240204109
 20
41.95417097810837
 10
372.3018564898713
 20
41.95796362165543
 10
372.3013540860458
 20
41.96172526333662
 10
372.3002222273691
 20
41.96534773562285
 10
372.2985012475593
 20
41.96873107407423
 10
372.2962331697537
 20
41.97177331749531
 10
372.2934883916943
 20
41.9743950501475
 10
372.2903423439904
 20
41.97651266161534
 10
372.2868863400264
 20
41.97807623300882
 10
372.2831905982649
 20
41.9790368289146
 10
372.2793856766267
 20
41.97936326865288
  0
LWPOLYLINE
  5
5E0
330
A
100
AcDbEntity
  8
INDUSA
  6
Continuous
100
AcDbPolyline
 90
       20
 70
   128
 43
0.0
 10
372.2793856766267
 20
41.93436326686474
 10
372.2771241434576
 20
41.93447720859381
 10
372.2734025456203
 20
41.93517570797535
 10
372.269849705529
 20
41.93648398522468
 10
372.2665684307186
 20
41.938373631278
 10
372.2636483423604
 20
41.94078264985415
 10
372.2611753232969
 20
41.94365222606989
 10
372.2592153940542
 20
41.9468928262982
 10
372.2578242030187
 20
41.95044071082207
 10
372.2570473328425
 20
41.95417097810837
 10
372.2569148633821
 20
41.95796362165543
 10
372.2574172672076
 20
41.96172526333662
 10
372.2585491258843
 20
41.96534773562285
 10
372.2602701056941
 20
41.96873107407423
 10
372.2625381834997
 20
41.97177331749531
 10
372.2652829615591
 20
41.9743950501475
 10
372.268429009263
 20
41.97651266161534
 10
372.271885013227
 20
41.97807623300882
 10
372.2755807549885
 20
41.9790368289146
 10
372.2793856766267
 20
41.97936326865288
  0
ARC
  5
633
330
A
100
AcDbEntity
  8
INDUSA
  6
Continuous
100
AcDbCircle
 10
372.7385399770278
 20
42.17926883399307
 30
0.0
 40
0.005
100
AcDbArc
 50
90.00001881652137
 51
179.638640954585
  0
ARC
  5
634
330
A
100
AcDbEntity
  8
INDUSA
  6
Continuous
100
AcDbCircle
 10
373.1035971311153
 20
42.17926883399307
 30
0.0
 40
0.005
100
AcDbArc
 50
0.3282639396362175
 51
89.99998118348191
  0
LWPOLYLINE
  5
635
330
A
100
AcDbEntity
  8
INDUSA
  6
Continuous
100
AcDbPolyline
 90
       56
 70
   128
 43
0.0
 10
373.1083614577333
 20
41.93848666727364
 10
373.1083838243762
 20
41.93845768451511
 10
373.1085395266096
 20
41.93872474312603
 10
373.1087194879333
 20
41.93923704504787
 10
373.1089414109269
 20
41.94001339554607
 10
373.1092004825155
 20
41.94106286942779
 10
373.1094142396728
 20
41.94207212507545
 10
373.1096360434571
 20
41.94322511732399
 10
373.1101113010923
 20
41.94599029600441
 10
373.1105807472745
 20
41.94911891400635
 10
373.1110324908773
 20
41.95255547940551
 10
373.1114481885711
 20
41.95620812654316
 10
373.1118040879051
 20
41.9598994421941
 10
373.1120968957225
 20
41.96356085121452
 10
373.1123096545021
 20
41.96680276274501
 10
373.1124509771148
 20
41.96940033316432
 10
373.1125505466739
 20
41.971568079589
 10
373.1126005847732
 20
41.97280931651413
 10
373.1126507420818
 20
41.97419271051704
 10
373.1126999755184
 20
41.9757311809045
 10
373.1127479274551
 20
41.97747346937477
 10
373.1127931673805
 20
41.97945302903472
 10
373.1128335495273
 20
41.9816939252597
 10
373.1128622938673
 20
41.98382301807224
 10
373.1128794004003
 20
41.98555739402592
 10
373.1128903825561
 20
41.98712946653187
 10
373.1128967751542
 20
41.98852172672569
 10
373.1129004706422
 20
41.99011874377548
 10
373.112900262026
 20
41.99193732619106
 10
373.1128949423114
 20
41.99396369039833
 10
373.1128563185016
 20
41.9995097386819
 10
373.1127903808633
 20
42.00488567530929
 10
373.1126986791173
 20
42.0103893595916
 10
373.1125699181835
 20
42.01661324679672
 10
373.1123982419053
 20
42.02363616406738
 10
373.1122302760164
 20
42.02975319504559
 10
373.1120416422168
 20
42.03608234405338
 10
373.111847897319
 20
42.04217945217907
 10
373.1116541673223
 20
42.04798789501011
 10
373.1114649374763
 20
42.05346566617309
 10
373.1113171030561
 20
42.05764448821365
 10
373.1111761529724
 20
42.06156653344452
 10
373.1110304196159
 20
42.06557135462581
 10
373.1108501900712
 20
42.07047284573137
 10
373.1106336761991
 20
42.07633487313806
 10
373.1103830684701
 20
42.08319027155458
 10
373.1101046104709
 20
42.09105993240892
 10
373.1098734338561
 20
42.09801470666945
 10
373.1096457888166
 20
42.10582062035619
 10
373.1094347734729
 20
42.11448875248253
 10
373.1092395831624
 20
42.12404380917369
 10
373.1090606500188
 20
42.13450401082456
 10
373.1089028020183
 20
42.14566575169384
 10
373.1087656070272
 20
42.15770263030946
 10
373.1086546380798
 20
42.17058861341148
 10
373.1085998018066
 20
42.17929922409176
  0
LWPOLYLINE
  5
66F
330
A
100
AcDbEntity
  8
INDUSA
  6
Continuous
100
AcDbPolyline
 90
       64
 70
   128
 43
0.0
 10
372.7335375745574
 20
42.17929920360266
 10
372.7334892649929
 20
42.17155627153634
 10
372.7333919753114
 20
42.15982200011431
 10
372.7332759399692
 20
42.14909690424621
 10
372.7331483562271
 20
42.13938984453498
 10
372.7330135305205
 20
42.13068844556629
 10
372.7328782130758
 20
42.12309944808303
 10
372.7327434171716
 20
42.11643074631512
 10
372.7326122124473
 20
42.11065044432699
 10
372.7324880857746
 20
42.10572495490133
 10
372.732372110037
 20
42.10155394851982
 10
372.7322705437223
 20
42.09820313930332
 10
372.7321871270219
 20
42.09559596508562
 10
372.7320957680027
 20
42.09284094899714
 10
372.731985976247
 20
42.08962851941406
 10
372.7318130035678
 20
42.08471416860639
 10
372.7316071142236
 20
42.07901822954236
 10
372.7313706327955
 20
42.07258575588285
 10
372.731148724703
 20
42.06656104504882
 10
372.7309128244201
 20
42.06008026182472
 10
372.7306673724929
 20
42.0531939136964
 10
372.7304192085544
 20
42.04600137650787
 10
372.7302003999034
 20
42.03936113595783
 10
372.7300198723356
 20
42.03356574654399
 10
372.7298734535257
 20
42.02856651127159
 10
372.7297566731254
 20
42.02431260227977
 10
372.7296557177583
 20
42.02036872684776
 10
372.7295808990279
 20
42.01722440302193
 10
372.7295264650861
 20
42.0147744435054
 10
372.7294750411788
 20
42.01229244649231
 10
372.7294340778867
 20
42.01015989661037
 10
372.7293937702457
 20
42.00787957191288
 10
372.729355250744
 20
42.00546479403793
 10
372.7293192495385
 20
42.00288705706417
 10
372.729281758217
 20
41.99960634290992
 10
372.7292511214296
 20
41.99576229035675
 10
372.7292364735881
 20
41.99145808994591
 10
372.7292395879308
 20
41.988773660658
 10
372.7292511959354
 20
41.98641911327659
 10
372.7292671252767
 20
41.9845342951995
 10
372.7292840827981
 20
41.98305848419487
 10
372.7293366093913
 20
41.97981655776321
 10
372.7294227679053
 20
41.97622348546802
 10
372.7295798112432
 20
41.97173097908318
 10
372.729772721676
 20
41.96776041567146
 10
372.7300528635065
 20
41.96338899612247
 10
372.7304013867656
 20
41.95913785874664
 10
372.7308173377792
 20
41.95501753866493
 10
372.7310994912664
 20
41.95259730696498
 10
372.7313528110067
 20
41.95060974538146
 10
372.7315650035421
 20
41.94905410885631
 10
372.731730838565
 20
41.94789752542793
 10
372.73188835874
 20
41.94684668063938
 10
372.7320179839412
 20
41.94602497100651
 10
372.7321495015899
 20
41.94524465679942
 10
372.7323239196817
 20
41.94432494222938
 10
372.7325010348836
 20
41.94357791721642
 10
372.7326790590564
 20
41.94304035782635
 10
372.7328510482589
 20
41.94261035501777
 10
372.7330135901252
 20
41.94227662861168
 10
372.7331637491265
 20
41.94203905939876
 10
372.7332712013999
 20
41.94191977560341
 10
372.7333679546396
 20
41.94185978352844
 10
372.7334419687072
 20
41.9418568032962
  0
LINE
  5
6B1
330
A
100
AcDbEntity
  8
INDUSA
  6
Continuous
100
AcDbLine
 10
373.0186092221324
 20
41.78626883399307
 30
0.0
 11
373.0186092232147
 21
41.81087234794914
 31
0.0
  0
LINE
  5
6B2
330
A
100
AcDbEntity
  8
INDUSA
  6
Continuous
100
AcDbLine
 10
372.8235278849283
 20
41.81087234794914
 30
0.0
 11
372.8235278860107
 21
41.78626883399307
 31
0.0
  0
ARC
  5
6B3
330
A
100
AcDbEntity
  8
INDUSA
  6
Continuous
100
AcDbCircle
 10
373.0166092221324
 20
41.78626883399307
 30
0.0
 40
0.0020000000000002
100
AcDbArc
 50
270.0
 51
0.0000000000003997
  0
ARC
  5
6B4
330
A
100
AcDbEntity
  8
INDUSA
  6
Continuous
100
AcDbCircle
 10
372.8255278860107
 20
41.78626883399307
 30
0.0
 40
0.0019999999999999
100
AcDbArc
 50
180.0
 51
270.0
  0
LINE
  5
6CF
330
A
100
AcDbEntity
  8
INDUSA
  6
Continuous
100
AcDbLine
 10
372.9210685540715
 20
42.18426883399308
 30
0.0
 11
372.7385399753857
 21
42.18426883399307
 31
0.0
  0
LINE
  5
6D1
330
A
100
AcDbEntity
  8
INDUSA
  6
Continuous
100
AcDbLine
 10
372.9210685540715
 20
42.18426883399308
 30
0.0
 11
373.1035971327573
 21
42.18426883399307
 31
0.0
  0
LWPOLYLINE
  5
6EC
330
A
100
AcDbEntity
  8
INDUSA
  6
Continuous
100
AcDbPolyline
 90
       16
 70
   128
 43
0.0
 10
373.0184956614653
 20
41.81087234794914
 10
373.0182954494635
 20
41.81082871734917
 10
373.0168881167451
 20
41.81042006790458
 10
373.0143752370755
 20
41.80975458204566
 10
373.0107565124313
 20
41.8088595288974
 10
373.0060907576958
 20
41.80774101793587
 10
373.0004648093859
 20
41.80645191848099
 10
372.9937111262957
 20
41.80499994933426
 10
372.9860526521484
 20
41.80349484264671
 10
372.9776217204312
 20
41.80202201187431
 10
372.9682536546866
 20
41.80062493860542
 10
372.9582296845297
 20
41.79940518915474
 10
372.9477384586612
 20
41.79843542158424
 10
372.9389905531684
 20
41.79787478029548
 10
372.9300603645647
 20
41.79752820908844
 10
372.9210685540715
 20
41.79740959584534
  0
LWPOLYLINE
  5
6FF
330
A
100
AcDbEntity
  8
INDUSA
  6
Continuous
100
AcDbPolyline
 90
       12
 70
   128
 43
0.0
 10
373.0170568823042
 20
41.81046907262898
 10
373.0238480244557
 20
41.81447786271393
 10
373.035984595565
 20
41.82297900497734
 10
373.0474294622222
 20
41.8323907572013
 10
373.0580760140697
 20
41.84263211667358
 10
373.0686513830701
 20
41.85462641894638
 10
373.0782146652023
 20
41.86751350939094
 10
373.0866704781333
 20
41.88115287005722
 10
373.0939234097282
 20
41.89540407240211
 10
373.0999324966947
 20
41.91022321760475
 10
373.104691003708
 20
41.92554974734604
 10
373.107544778173
 20
41.93845768451511
  0
LWPOLYLINE
  5
718
330
A
100
AcDbEntity
  8
INDUSA
  6
Continuous
100
AcDbPolyline
 90
       13
 70
   128
 43
0.0
 10
372.8250802258389
 20
41.81046907262898
 10
372.8182890836874
 20
41.81447786271393
 10
372.8061525125781
 20
41.82297900497734
 10
372.7947076459209
 20
41.8323907572013
 10
372.7840610940734
 20
41.84263211667358
 10
372.773485725073
 20
41.85462641894638
 10
372.7639224429408
 20
41.86751350939094
 10
372.7554666300098
 20
41.88115287005722
 10
372.7482136984149
 20
41.89540407240211
 10
372.7422046114484
 20
41.91022321760475
 10
372.7374461044351
 20
41.92554974734604
 10
372.7339817036668
 20
41.94121961474239
 10
372.7338986676352
 20
41.94183841396953
  0
LWPOLYLINE
  5
731
330
A
100
AcDbEntity
  8
INDUSA
  6
Continuous
100
AcDbPolyline
 90
       16
 70
   128
 43
0.0
 10
372.8236414466778
 20
41.81087234794914
 10
372.8238416586796
 20
41.81082871734917
 10
372.825248991398
 20
41.81042006790458
 10
372.8277618710677
 20
41.80975458204566
 10
372.8313805957118
 20
41.8088595288974
 10
372.8360463504473
 20
41.80774101793587
 10
372.8416722987572
 20
41.80645191848099
 10
372.8484259818474
 20
41.80499994933426
 10
372.8560844559947
 20
41.80349484264671
 10
372.8645153877119
 20
41.80202201187431
 10
372.8738834534565
 20
41.80062493860542
 10
372.8839074236134
 20
41.79940518915474
 10
372.8943986494819
 20
41.79843542158424
 10
372.9031465549747
 20
41.79787478029548
 10
372.9120767435784
 20
41.79752820908844
 10
372.9210685540715
 20
41.79740959584534
  0
LINE
  5
744
330
A
100
AcDbEntity
  8
INDUSA
  6
Continuous
100
AcDbLine
 10
373.0166092221324
 20
41.78426883399307
 30
0.0
 11
372.8255278860107
 21
41.78426883399307
 31
0.0
  0
LINE
  5
745
330
A
100
AcDbEntity
  8
INDUSA
  6
Continuous
100
AcDbLine
 10
373.6904872071245
 20
41.78888525270805
 30
0.0
 11
373.6904872069755
 21
41.80002601456031
 31
0.0
  0
ARC
  5
746
330
A
100
AcDbEntity
  8
INDUSA
  6
Continuous
100
AcDbCircle
 10
373.6884872071245
 20
41.78888525270805
 30
0.0
 40
0.002
100
AcDbArc
 50
270.0
 51
0.0
  0
ARC
  5
776
330
A
100
AcDbEntity
  8
INDUSA
  6
Continuous
100
AcDbCircle
 10
373.470493620323
 20
42.18188525270805
 30
0.0
 40
0.0050000000000006
100
AcDbArc
 50
90.0000000000004
 51
179.2717529154371
  0
LINE
  5
777
330
A
100
AcDbEntity
  8
INDUSA
  6
Continuous
100
AcDbLine
 10
373.8554872071245
 20
42.18688525270805
 30
0.0
 11
373.470493620323
 21
42.18688525270805
 31
0.0
  0
ARC
  5
778
330
A
100
AcDbEntity
  8
INDUSA
  6
Continuous
100
AcDbCircle
 10
373.8554872071245
 20
42.18188525270805
 30
0.0
 40
0.005
100
AcDbArc
 50
0.0
 51
90.0000000000004
  0
LINE
  5
779
330
A
100
AcDbEntity
  8
INDUSA
  6
Continuous
100
AcDbLine
 10
373.3324294733503
 20
41.8095847518383
 30
0.0
 11
373.3324882733324
 21
41.80958472203598
 31
0.0
  0
LWPOLYLINE
  5
77A
330
A
100
AcDbEntity
  8
INDUSA
  6
Continuous
100
AcDbPolyline
 90
        7
 70
   128
 43
0.0
 10
373.3304871963956
 20
41.81078331183776
 10
373.330487226198
 20
41.81077839445457
 10
373.3305922197798
 20
41.81039895128593
 10
373.3308943855265
 20
41.81005714845047
 10
373.3313181745508
 20
41.80980975937233
 10
373.3318361985185
 20
41.80964933347091
 10
373.3324294733503
 20
41.8095847518383
  0
LINE
  5
783
330
A
100
AcDbEntity
  8
INDUSA
  6
Continuous
100
AcDbLine
 10
373.3304872071245
 20
42.1648857704362
 30
0.0
 11
373.3304871963956
 21
41.81078331183776
 31
0.0
  0
ARC
  5
784
330
A
100
AcDbEntity
  8
INDUSA
  6
Continuous
100
AcDbCircle
 10
373.3324872071245
 20
42.1648857704362
 30
0.0
 40
0.002
100
AcDbArc
 50
90.0000000000004
 51
180.0000000000008
  0
LINE
  5
7AA
330
A
100
AcDbEntity
  8
INDUSA
  6
Continuous
100
AcDbLine
 10
373.3994872021177
 20
42.16688521962747
 30
0.0
 11
373.3324874158394
 21
42.16688577042531
 31
0.0
  0
LWPOLYLINE
  5
7AB
330
A
100
AcDbEntity
  8
INDUSA
  6
Continuous
100
AcDbPolyline
 90
       21
 70
   128
 43
0.0
 10
373.3994872021177
 20
42.16688521962747
 10
373.3994872021177
 20
42.16688521962747
 10
373.3995947586992
 20
42.16687540721283
 10
373.4001911031702
 20
42.16682208340749
 10
373.4012883650759
 20
42.16672991227492
 10
373.4028567718961
 20
42.16661029506609
 10
373.4048501598337
 20
42.16647905495152
 10
373.4072238254049
 20
42.16635300044105
 10
373.4099037098387
 20
42.16624840546534
 10
373.4128043698766
 20
42.16617979679391
 10
373.4158518510559
 20
42.16615351673349
 10
373.4193892377117
 20
42.16617909457669
 10
373.4228739189604
 20
42.1662550048171
 10
373.4257914471128
 20
42.16635311219976
 10
373.4284883486727
 20
42.16646667953715
 10
373.4308958547809
 20
42.16658310789749
 10
373.4329387890795
 20
42.16669040557131
 10
373.4345557885864
 20
42.16677887749061
 10
373.4357047128179
 20
42.1668430661051
 10
373.4362894641855
 20
42.16687588591263
 10
373.4364871876934
 20
42.16688700776681
  0
LWPOLYLINE
  5
7C2
330
A
100
AcDbEntity
  8
INDUSA
  6
Continuous
100
AcDbPolyline
 90
       10
 70
   128
 43
0.0
 10
373.4654940264919
 20
42.18194880254701
 10
373.464847763131
 20
42.17753911215946
 10
373.4630206274488
 20
42.17364145174757
 10
373.4601974385479
 20
42.17045598860964
 10
373.4573029326895
 20
42.16852210287139
 10
373.4539872753122
 20
42.1672962513952
 10
373.4503573971489
 20
42.16688068781182
 10
373.4466105448702
 20
42.16688407223806
 10
373.4428647505739
 20
42.16688365686819
 10
373.4364871876934
 20
42.16688700776681
  0
LWPOLYLINE
  5
7CE
330
A
100
AcDbEntity
  8
INDUSA
  6
Continuous
100
AcDbPolyline
 90
       24
 70
   128
 43
0.0
 10
373.6904872069755
 20
41.80002601456031
 10
373.706246224294
 20
41.80594347428665
 10
373.7215790907541
 20
41.81291703891143
 10
373.7364394637444
 20
41.82093201588974
 10
373.7502715634802
 20
41.82962657522544
 10
373.7635450186827
 20
41.83922798942909
 10
373.7761861356595
 20
41.84969095897064
 10
373.7881212281683
 20
41.86097012471542
 10
373.7992824661234
 20
41.87301434587822
 10
373.8096207725504
 20
41.88575367640838
 10
373.8190908330181
 20
41.8991144747673
 10
373.8284510421255
 20
41.9144411535202
 10
373.8366564112404
 20
41.9303434343277
 10
373.8436851250627
 20
41.94676168274269
 10
373.8495196151236
 20
41.96364060055599
 10
373.8541421043375
 20
41.9809246213375
 10
373.8572093146542
 20
41.99654744576797
 10
373.8592833923795
 20
42.01239369820938
 10
373.8603435205915
 20
42.02841621648654
 10
373.8604872124889
 20
42.04455696057663
 10
373.8604872124889
 20
42.06071323167667
 10
373.8604872124889
 20
42.07686950277671
 10
373.8604872124889
 20
42.09302577387676
 10
373.8604872124889
 20
42.18188525281981
  0
LWPOLYLINE
  5
7E8
330
A
100
AcDbEntity
  8
INDUSA
  6
Continuous
100
AcDbPolyline
 90
       16
 70
   128
 43
0.0
 10
373.5901301699379
 20
41.81350465130195
 10
373.600671515862
 20
41.81344513606414
 10
373.6111496734121
 20
41.81303648661956
 10
373.6213726672032
 20
41.81237100076065
 10
373.6312735723951
 20
41.81147594761237
 10
373.640738944585
 20
41.81035743665084
 10
373.6496070810282
 20
41.80906833719596
 10
373.6580309095481
 20
41.80761636804923
 10
373.6656788187721
 20
41.80611126136169
 10
373.672419309678
 20
41.80463843058929
 10
373.6783056576424
 20
41.8032413573204
 10
373.6831222931543
 20
41.80202160786971
 10
373.6867703004429
 20
41.80105184029922
 10
373.6888225200274
 20
41.80049119901046
 10
373.6900678529092
 20
41.80014462780341
 10
373.6904872069755
 20
41.80002601456031
  0
LWPOLYLINE
  5
7FA
330
A
100
AcDbEntity
  8
INDUSA
  6
Continuous
100
AcDbPolyline
 90
        3
 70
   128
 43
0.0
 10
373.3324882733324
 20
41.80958472203598
 10
373.4253975349167
 20
41.81105734419212
 10
373.5901301699379
 20
41.81350465130195
  0
LINE
  5
801
330
A
100
AcDbEntity
  8
INDUSA
  6
Continuous
100
AcDbLine
 10
373.6884872071245
 20
41.78688525270804
 30
0.0
 11
373.5901879191431
 21
41.78688525270805
 31
0.0
  0
LINE
  5
80F
330
A
100
AcDbEntity
  8
INDUSA
  6
Continuous
100
AcDbLine
 10
373.3324872071245
 20
41.78688525270805
 30
0.0
 11
373.5901879191431
 21
41.78688525270805
 31
0.0
  0
LINE
  5
81C
330
A
100
AcDbEntity
  8
INDUSA
  6
Continuous
100
AcDbLine
 10
373.3304871963956
 20
41.81078331183776
 30
0.0
 11
373.3304872071245
 21
41.78888525270805
 31
0.0
  0
ARC
  5
81D
330
A
100
AcDbEntity
  8
INDUSA
  6
Continuous
100
AcDbCircle
 10
373.3324872071245
 20
41.78888525270805
 30
0.0
 40
0.002
100
AcDbArc
 50
180.0000000000008
 51
270.0
  0
LINE
  5
876
330
A
100
AcDbEntity
  8
INDUSA
  6
Continuous
100
AcDbLine
 10
374.3909096051655
 20
41.99007527879433
 30
0.0
 11
374.3910453472934
 21
41.98993952921585
 31
0.0
  0
LWPOLYLINE
  5
882
330
A
100
AcDbEntity
  8
INDUSA
  6
Continuous
100
AcDbPolyline
 90
        3
 70
   128
 43
0.0
 10
374.299817786058
 20
42.05403265706258
 10
374.2998645160995
 20
42.05315426341252
 10
374.3000244353614
 20
42.05175225785928
  0
ARC
  5
8A0
330
A
100
AcDbEntity
  8
INDUSA
  6
Continuous
100
AcDbCircle
 10
374.2681877328725
 20
42.1847112464066
 30
0.0
 40
0.0050000000000006
100
AcDbArc
 50
90.0000000000004
 51
179.2717529154386
  0
ARC
  5
8A1
330
A
100
AcDbEntity
  8
INDUSA
  6
Continuous
100
AcDbCircle
 10
374.6531813196741
 20
42.1847112464066
 30
0.0
 40
0.005
100
AcDbArc
 50
0.0
 51
90.0000000000004
  0
ARC
  5
8A2
330
A
100
AcDbEntity
  8
INDUSA
  6
Continuous
100
AcDbCircle
 10
374.5154238647517
 20
42.14925503262285
 30
0.0
 40
0.1100000000000001
100
AcDbArc
 50
273.9976336419387
 51
357.0
  0
ARC
  5
8D5
330
A
100
AcDbEntity
  8
INDUSA
  6
Continuous
100
AcDbCircle
 10
374.5154238647517
 20
42.14925503262285
 30
0.0
 40
0.1000000000000001
100
AcDbArc
 50
273.9976336419393
 51
357.0
  0
LINE
  5
8EB
330
A
100
AcDbEntity
  8
INDUSA
  6
Continuous
100
AcDbLine
 10
374.6152868182271
 20
42.14402143699856
 30
0.0
 11
374.6174329948339
 21
42.1849729261878
 31
0.0
  0
ARC
  5
8F7
330
A
100
AcDbEntity
  8
INDUSA
  6
Continuous
100
AcDbCircle
 10
374.6224261425077
 20
42.1847112464066
 30
0.0
 40
0.0050000000000003
100
AcDbArc
 50
90.0000000000004
 51
177.0000000000027
  0
LINE
  5
8F8
330
A
100
AcDbEntity
  8
INDUSA
  6
Continuous
100
AcDbLine
 10
374.4677582067843
 20
42.18971124640659
 30
0.0
 11
374.6224261425077
 21
42.1897112464066
 31
0.0
  0
LWPOLYLINE
  5
91E
330
A
100
AcDbEntity
  8
INDUSA
  6
Continuous
100
AcDbPolyline
 90
        9
 70
   128
 43
0.0
 10
374.1301804785333
 20
41.81663865200238
 10
374.1297903959356
 20
41.81660372368053
 10
374.1294153635106
 20
41.81650051823811
 10
374.1290697459779
 20
41.81633302918629
 10
374.1287668053709
 20
41.81610769382671
 10
374.1285181943975
 20
41.81583315483288
 10
374.1283334796033
 20
41.8155199622269
 10
374.1282197241388
 20
41.81518015614704
 10
374.1281813089452
 20
41.81482676020817
  0
ARC
  5
929
330
A
100
AcDbEntity
  8
INDUSA
  6
Continuous
100
AcDbCircle
 10
374.1301813196741
 20
42.16171176410209
 30
0.0
 40
0.002
100
AcDbArc
 50
180.0000000000008
 51
270.0000000000008
  0
LINE
  5
92A
330
A
100
AcDbEntity
  8
INDUSA
  6
Continuous
100
AcDbLine
 10
374.1281813196741
 20
41.81482676124918
 30
0.0
 11
374.1281813196741
 21
42.16171176410209
 31
0.0
  0
LWPOLYLINE
  5
92B
330
A
100
AcDbEntity
  8
INDUSA
  6
Continuous
100
AcDbPolyline
 90
        3
 70
   128
 43
0.0
 10
374.1971813146673
 20
42.15971121354954
 10
374.1676279310785
 20
42.15971124335186
 10
374.1301811043821
 20
42.1597117648925
  0
LWPOLYLINE
  5
930
330
A
100
AcDbEntity
  8
INDUSA
  6
Continuous
100
AcDbPolyline
 90
       22
 70
   128
 43
0.0
 10
374.2341813300452
 20
42.15971300168888
 10
374.2341813300452
 20
42.15971300168888
 10
374.2339156721435
 20
42.1596977298613
 10
374.2331370417677
 20
42.15965310460882
 10
374.2318580900035
 20
42.15958024724381
 10
374.2301231031023
 20
42.15948384045617
 10
374.2279767398439
 20
42.15937022469001
 10
374.2254852656923
 20
42.15925016789691
 10
374.2227187012038
 20
42.15913620195346
 10
374.2197559182248
 20
42.15904168947594
 10
374.2166740749679
 20
42.1589798254426
 10
374.2135648135743
 20
42.15895924507634
 10
374.2105216984354
 20
42.15898558287875
 10
374.2076225881181
 20
42.15905549540178
 10
374.2049404983125
 20
42.15916264778928
 10
374.2025603060327
 20
42.1592923139687
 10
374.2005648617349
 20
42.15942726447241
 10
374.1989911202989
 20
42.15955064422445
 10
374.197890878161
 20
42.15964571735816
 10
374.1972907785974
 20
42.15970093361096
 10
374.1971813146673
 20
42.15971121354954
 10
374.1971813146673
 20
42.15971121354954
  0
LWPOLYLINE
  5
948
330
A
100
AcDbEntity
  8
INDUSA
  6
Continuous
100
AcDbPolyline
 90
        6
 70
   128
 43
0.0
 10
374.2574528460107
 20
42.1614913286175
 10
374.2569726411901
 20
42.16130502126174
 10
374.2529146675668
 20
42.16016649245278
 10
374.2487228666149
 20
42.15971611975686
 10
374.2403914783797
 20
42.15970979980187
 10
374.2341813300452
 20
42.15971300168888
  0
LINE
  5
98F
330
A
100
AcDbEntity
  8
INDUSA
  6
Continuous
100
AcDbLine
 10
374.1301804686908
 20
41.81663866256303
 30
0.0
 11
374.1322078663477
 21
41.81666665584982
 31
0.0
  0
LINE
  5
990
330
A
100
AcDbEntity
  8
INDUSA
  6
Continuous
100
AcDbLine
 10
374.4881813195251
 20
41.80285200825887
 30
0.0
 11
374.4881813196741
 21
41.79171124640659
 31
0.0
  0
LWPOLYLINE
  5
991
330
A
100
AcDbEntity
  8
INDUSA
  6
Continuous
100
AcDbPolyline
 90
       25
 70
   128
 43
0.0
 10
374.4618384830836
 20
41.80578768602566
 10
374.4760290062703
 20
41.80950701585964
 10
374.4900044039539
 20
41.81410184851841
 10
374.5036873449288
 20
41.81954306713299
 10
374.5170005042754
 20
41.82580161443905
 10
374.5298665542803
 20
41.83284840336994
 10
374.5435042832694
 20
41.84151962748722
 10
374.5565726314388
 20
41.85112101188854
 10
374.5689855669342
 20
41.86158416024403
 10
374.580657065352
 20
41.87284067622379
 10
374.5915010873876
 20
41.88482213369565
 10
374.6014994685254
 20
41.89751774421887
 10
374.6106535051666
 20
41.91090208641248
 10
374.6189043079219
 20
41.92488235584455
 10
374.6261930470071
 20
41.93936583749013
 10
374.6324608777366
 20
41.95425969711499
 10
374.6376921687923
 20
41.96955447248178
 10
374.6418927167259
 20
41.98522101691918
 10
374.6450412873826
 20
42.00115149072366
 10
374.6471166317068
 20
42.01723809889512
 10
374.6480974857412
 20
42.03337301663117
 10
374.6486548189722
 20
42.06995037547307
 10
374.6486231540046
 20
42.10653572878794
 10
374.6483496282897
 20
42.14312428585247
 10
374.6481813196741
 20
42.17971124663011
  0
LWPOLYLINE
  5
9BF
330
A
100
AcDbEntity
  8
INDUSA
  6
Continuous
100
AcDbPolyline
 90
        6
 70
   128
 43
0.0
 10
374.4530281186751
 20
41.79154470912174
 10
374.4531955937571
 20
41.79089439264492
 10
374.4535688892654
 20
41.79033616534428
 10
374.454105918733
 20
41.78993296972469
 10
374.4547461364135
 20
41.78973025432781
 10
374.4550211731992
 20
41.78971124044613
  0
LINE
  5
9C7
330
A
100
AcDbEntity
  8
INDUSA
  6
Continuous
100
AcDbLine
 10
374.4550211731992
 20
41.78971124044614
 30
0.0
 11
374.368842559114
 21
41.7897112464066
 31
0.0
  0
LWPOLYLINE
  5
9D3
330
A
100
AcDbEntity
  8
INDUSA
  6
Continuous
100
AcDbPolyline
 90
       13
 70
   128
 43
0.0
 10
374.4330810219697
 20
42.0302657221909
 10
374.4330810201071
 20
42.0302657221909
 10
374.4326113075666
 20
42.03023811033921
 10
374.4316008840404
 20
42.03017580858426
 10
374.4298300728849
 20
42.03006498864846
 10
374.4274087105594
 20
42.02991234115319
 10
374.4243834768138
 20
42.02972081652837
 10
374.420759790083
 20
42.02949071279721
 10
374.4165925052665
 20
42.02922550193028
 10
374.4119614925883
 20
42.0289302801247
 10
374.406897157868
 20
42.0286069249268
 10
374.4014611583851
 20
42.02825938514428
 10
374.4006872814797
 20
42.02820985368447
  0
LWPOLYLINE
  5
9E2
330
A
100
AcDbEntity
  8
INDUSA
  6
Continuous
100
AcDbPolyline
 90
        6
 70
   128
 43
0.0
 10
374.4298802357814
 20
42.03300850442604
 10
374.430883849477
 20
42.03290893486695
 10
374.4317979295455
 20
42.03248274675565
 10
374.4325190246753
 20
42.03177813044743
 10
374.4329657484493
 20
42.03087504557328
 10
374.4330810219697
 20
42.0302657221909
  0
LINE
  5
9EA
330
A
100
AcDbEntity
  8
INDUSA
  6
Continuous
100
AcDbLine
 10
374.1971813221093
 20
42.16971121396013
 30
0.0
 11
374.1301815283889
 21
42.16971176412386
 31
0.0
  0
ARC
  5
9EB
330
A
100
AcDbEntity
  8
INDUSA
  6
Continuous
100
AcDbCircle
 10
374.1971813196741
 20
42.16871121396013
 30
0.0
 40
0.0009999999999999
100
AcDbArc
 50
0.0
 51
90.0000000000004
  0
LINE
  5
9EC
330
A
100
AcDbEntity
  8
INDUSA
  6
Continuous
100
AcDbLine
 10
374.1981813196741
 20
42.16871121396013
 30
0.0
 11
374.1981813196741
 21
42.1607112139601
 31
0.0
  0
ARC
  5
9ED
330
A
100
AcDbEntity
  8
INDUSA
  6
Continuous
100
AcDbCircle
 10
374.1971813196741
 20
42.1607112139601
 30
0.0
 40
0.0010000000000001
100
AcDbArc
 50
270.0000000000008
 51
0.0
  0
LINE
  5
9EE
330
A
100
AcDbEntity
  8
INDUSA
  6
Continuous
100
AcDbLine
 10
374.1281813196741
 20
42.16171176410209
 30
0.0
 11
374.1281813196741
 21
42.16771176413476
 31
0.0
  0
ARC
  5
9EF
330
A
100
AcDbEntity
  8
INDUSA
  6
Continuous
100
AcDbCircle
 10
374.1301813196741
 20
42.16771176413476
 30
0.0
 40
0.0020000000000001
100
AcDbArc
 50
90.0000000000004
 51
179.9999999999988
  0
LWPOLYLINE
  5
9F0
330
A
100
AcDbEntity
  8
INDUSA
  6
Continuous
100
AcDbPolyline
 90
       11
 70
   128
 43
0.0
 10
374.2997540835939
 20
42.05449374369339
 10
374.3004454527698
 20
42.04948985925869
 10
374.3019613329969
 20
42.04467127076344
 10
374.3042700444064
 20
42.0401783024426
 10
374.3072954867683
 20
42.03613309911446
 10
374.3109612022243
 20
42.03265768638806
 10
374.315155014833
 20
42.02984202257352
 10
374.3197644357286
 20
42.02777591696935
 10
374.3246537898384
 20
42.0265071575995
 10
374.3282094006143
 20
42.02611782005982
 10
374.3317860816322
 20
42.02615316561417
  0
ARC
  5
A13
330
A
100
AcDbEntity
  8
INDUSA
  6
Continuous
100
AcDbCircle
 10
374.3358089177042
 20
42.03144649107475
 30
0.0
 40
0.005
100
AcDbArc
 50
35.71686543703333
 51
93.99763364193887
  0
ARC
  5
A14
330
A
100
AcDbEntity
  8
INDUSA
  6
Continuous
100
AcDbCircle
 10
374.4012508743795
 20
42.036019922463
 30
0.0
 40
0.005
100
AcDbArc
 50
93.99763364193887
 51
152.2784018468435
  0
LWPOLYLINE
  5
A15
330
A
100
AcDbEntity
  8
INDUSA
  6
Continuous
100
AcDbPolyline
 90
       20
 70
   128
 43
0.0
 10
374.3354603354536
 20
42.03643432608799
 10
374.3357408125601
 20
42.03645392111496
 10
374.3369192261897
 20
42.03653627983288
 10
374.3389755715333
 20
42.03667998663144
 10
374.3418635730348
 20
42.03688182285981
 10
374.3454894800387
 20
42.03713521710591
 10
374.3497675065599
 20
42.03743417910295
 10
374.3545624096594
 20
42.03776927641587
 10
374.3597971652351
 20
42.03813511482434
 10
374.3652715910874
 20
42.03851768723683
 10
374.3707935367427
 20
42.03890359750943
 10
374.3762418036066
 20
42.03928435198025
 10
374.3814582084022
 20
42.0396488939877
 10
374.3863001023135
 20
42.03998728445725
 10
374.3906215806208
 20
42.04028928629116
 10
374.3943092901907
 20
42.04054700187401
 10
374.3972435970507
 20
42.04075207165437
 10
374.3993584220014
 20
42.04089986137108
 10
374.4005117271743
 20
42.04098046175198
 10
374.4009022977851
 20
42.04100776067929
  0
LWPOLYLINE
  5
A3E
330
A
100
AcDbEntity
  8
INDUSA
  6
Continuous
100
AcDbPolyline
 90
       10
 70
   128
 43
0.0
 10
374.3310889308057
 20
42.0361288224812
 10
374.327722669085
 20
42.03617988876061
 10
374.3244120333991
 20
42.03679141751485
 10
374.3212524358831
 20
42.03795384219842
 10
374.3183308397136
 20
42.03962675086216
 10
374.3157341335617
 20
42.04176949313835
 10
374.313530981978
 20
42.04431514791207
 10
374.3117899303041
 20
42.04719661525444
 10
374.3105536107622
 20
42.05032801977353
 10
374.30974037989
 20
42.05501711717801
  0
LINE
  5
A4A
330
A
100
AcDbEntity
  8
INDUSA
  6
Continuous
100
AcDbLine
 10
374.3097403351865
 20
42.05501710227685
 30
0.0
 11
374.3099154536329
 21
42.05528788617806
 31
0.0
  0
ARC
  5
A94
330
A
100
AcDbEntity
  8
INDUSA
  6
Continuous
100
AcDbCircle
 10
374.395681319674
 20
42.02908398276044
 30
0.0
 40
0.005
100
AcDbArc
 50
130.1927184578741
 51
180.0000000000008
  0
LWPOLYLINE
  5
A95
330
A
100
AcDbEntity
  8
INDUSA
  6
Continuous
100
AcDbPolyline
 90
       20
 70
   128
 43
0.0
 10
374.390681319376
 20
42.02908398560242
 10
374.3905673776469
 20
42.02907741419034
 10
374.3898688782654
 20
42.02903710654931
 10
374.3885606010161
 20
42.02896166197018
 10
374.3866709549628
 20
42.02885257056908
 10
374.3842619363866
 20
42.02871330431657
 10
374.3813923601709
 20
42.02854724577622
 10
374.3781517599426
 20
42.02835934213356
 10
374.3746038754187
 20
42.0281533186789
 10
374.3708736081324
 20
42.02793638757424
 10
374.3670809645853
 20
42.02771531394676
 10
374.3633193229042
 20
42.02749581984238
 10
374.3596968506179
 20
42.0272841190453
 10
374.3563135121665
 20
42.02708600810723
 10
374.3532712687454
 20
42.02690770081239
 10
374.3506495360933
 20
42.02675392082887
 10
374.3485319246254
 20
42.02662963024335
 10
374.3469683532319
 20
42.02653776458459
 10
374.3460077573262
 20
42.0264812742825
 10
374.3456813175879
 20
42.02646209648804
  0
ARC
  5
AAB
330
A
100
AcDbEntity
  8
INDUSA
  6
Continuous
100
AcDbCircle
 10
374.340681319674
 20
42.02646209326559
 30
0.0
 40
0.0050000000000001
100
AcDbArc
 50
0.0
 51
52.98116781224219
  0
LWPOLYLINE
  5
AAC
330
A
100
AcDbEntity
  8
INDUSA
  6
Continuous
100
AcDbPolyline
 90
       20
 70
   128
 43
0.0
 10
374.2331813131175
 20
42.16871300130145
 10
374.2329945419631
 20
42.16870191297488
 10
374.2324421261153
 20
42.16866919561283
 10
374.2313565467201
 20
42.16860521375195
 10
374.2298286263547
 20
42.16851705848234
 10
374.2278972123466
 20
42.16841015010134
 10
374.2256216709218
 20
42.16829423396842
 10
374.2230706964336
 20
42.16818115091877
 10
374.220312253078
 20
42.16808357066469
 10
374.2170152072511
 20
42.16800808510737
 10
374.213669151505
 20
42.1679827475454
 10
374.2107857470117
 20
42.16800898476498
 10
374.208040327271
 20
42.16807735129253
 10
374.2055048946939
 20
42.16818145825522
 10
374.2032573227487
 20
42.16830698936241
 10
374.201371342381
 20
42.16843755892472
 10
374.1998860840402
 20
42.16855666018085
 10
374.1988477711282
 20
42.16864836378948
 10
374.1982831065259
 20
42.16870144731359
 10
374.198181331595
 20
42.16871121316211
  0
ARC
  5
AD9
330
A
100
AcDbEntity
  8
INDUSA
  6
Continuous
100
AcDbCircle
 10
374.2341813196741
 20
42.16871300101234
 30
0.0
 40
0.001
100
AcDbArc
 50
90.0000000000004
 51
180.0000000000008
  0
LINE
  5
ADB
330
A
100
AcDbEntity
  8
INDUSA
  6
Continuous
100
AcDbLine
 10
374.345681319674
 20
42.01571124640659
 30
0.0
 11
374.345681319674
 21
42.02646209326559
 31
0.0
  0
LINE
  5
ADC
330
A
100
AcDbEntity
  8
INDUSA
  6
Continuous
100
AcDbLine
 10
374.3906813196741
 20
42.02908398276044
 30
0.0
 11
374.3906813196741
 21
42.01571124640659
 31
0.0
  0
LINE
  5
ADD
330
A
100
AcDbEntity
  8
INDUSA
  6
Continuous
100
AcDbLine
 10
374.2331813196741
 20
42.16071300101142
 30
0.0
 11
374.2331813196741
 21
42.16871300101234
 31
0.0
  0
ARC
  5
AF4
330
A
100
AcDbEntity
  8
INDUSA
  6
Continuous
100
AcDbCircle
 10
374.2341813196741
 20
42.16071300101143
 30
0.0
 40
0.001
100
AcDbArc
 50
180.0000000000008
 51
270.0
  0
LWPOLYLINE
  5
AF5
330
A
100
AcDbEntity
  8
INDUSA
  6
Continuous
100
AcDbPolyline
 90
       19
 70
   128
 43
0.0
 10
374.2953641568027
 20
42.13825777894811
 10
374.2953832600913
 20
42.13880361220794
 10
374.2954083238445
 20
42.13962368643836
 10
374.2954361145101
 20
42.14078430435614
 10
374.2954586301646
 20
42.14225970557885
 10
374.2954668407045
 20
42.1440037672873
 10
374.2954514627061
 20
42.14598658285098
 10
374.2954057459436
 20
42.14813619828777
 10
374.2953256969057
 20
42.15036121360021
 10
374.295211002668
 20
42.15262470743613
 10
374.2950637344919
 20
42.15486225462512
 10
374.2948915366731
 20
42.15701013780193
 10
374.2947033648095
 20
42.15901017538266
 10
374.2945122723184
 20
42.16080435342149
 10
374.2943307165704
 20
42.16234803549008
 10
374.294172972878
 20
42.16359223588364
 10
374.2940514390073
 20
42.16450057900504
 10
374.293975234469
 20
42.1650495117064
 10
374.2939510945878
 20
42.16522077820258
  0
LINE
  5
B0A
330
A
100
AcDbEntity
  8
INDUSA
  6
Continuous
100
AcDbLine
 10
374.2953641580949
 20
42.13825778057168
 30
0.0
 11
374.2997540388904
 21
42.05449374369339
 31
0.0
  0
LINE
  5
B0B
330
A
100
AcDbEntity
  8
INDUSA
  6
Continuous
100
AcDbLine
 10
374.2931916718088
 20
42.17971124663011
 30
0.0
 11
374.2939510872763
 21
42.16522077801005
 31
0.0
  0
ARC
  5
B0C
330
A
100
AcDbEntity
  8
INDUSA
  6
Continuous
100
AcDbCircle
 10
374.2949497168111
 20
42.1652731139663
 30
0.0
 40
0.0009999999999999
100
AcDbArc
 50
183.0000000000025
 51
273.0000000000016
  0
ARC
  5
B22
330
A
100
AcDbEntity
  8
INDUSA
  6
Continuous
100
AcDbCircle
 10
374.2963627876297
 20
42.13831011652793
 30
0.0
 40
0.001
100
AcDbArc
 50
92.99999999999831
 51
182.9999999999982
  0
LINE
  5
B24
330
A
100
AcDbEntity
  8
INDUSA
  6
Continuous
100
AcDbLine
 10
374.3053504534425
 20
42.13878114013411
 30
0.0
 11
374.3097403351865
 21
42.05501710227685
 31
0.0
  0
LWPOLYLINE
  5
B25
330
A
100
AcDbEntity
  8
INDUSA
  6
Continuous
100
AcDbPolyline
 90
       19
 70
   128
 43
0.0
 10
374.3039373759828
 20
42.16574413678602
 10
374.30396133705
 20
42.16557861096219
 10
374.3040387485824
 20
42.16503508551972
 10
374.3041625772319
 20
42.16413289844052
 10
374.3043238226972
 20
42.16289245313959
 10
374.3045090739332
 20
42.16135490848677
 10
374.3047042344413
 20
42.15956351137714
 10
374.3048957739673
 20
42.1575691995676
 10
374.305070832809
 20
42.15542333922343
 10
374.3052197401128
 20
42.15318887284951
 10
374.3053348366819
 20
42.15092663071112
 10
374.3054140363536
 20
42.14870069525199
 10
374.305457607349
 20
42.14654823741869
 10
374.3054698263011
 20
42.14455838478165
 10
374.3054578457675
 20
42.14281204692082
 10
374.3054313515029
 20
42.14133001468138
 10
374.3053999398551
 20
42.14016514620738
 10
374.3053719256721
 20
42.13933825469569
 10
374.3053504530988
 20
42.13878114125686
  0
LINE
  5
B3A
330
A
100
AcDbEntity
  8
INDUSA
  6
Continuous
100
AcDbLine
 10
374.3029296445143
 20
42.1849729261878
 30
0.0
 11
374.3039373826239
 21
42.16574413757249
 31
0.0
  0
ARC
  5
B51
330
A
100
AcDbEntity
  8
INDUSA
  6
Continuous
100
AcDbCircle
 10
374.3029387530892
 20
42.16569180161624
 30
0.0
 40
0.0010000000000001
100
AcDbArc
 50
273.0000000000791
 51
3.000000000001268
  0
ARC
  5
B52
330
A
100
AcDbEntity
  8
INDUSA
  6
Continuous
100
AcDbCircle
 10
374.3043518239077
 20
42.13872880417787
 30
0.0
 40
0.001
100
AcDbArc
 50
2.999999999997351
 51
93.00000000000629
  0
LINE
  5
B53
330
A
100
AcDbEntity
  8
INDUSA
  6
Continuous
100
AcDbLine
 10
374.3042994879515
 20
42.13972743371263
 30
0.0
 11
374.2963104516734
 21
42.13930874606268
 31
0.0
  0
LINE
  5
B54
330
A
100
AcDbEntity
  8
INDUSA
  6
Continuous
100
AcDbLine
 10
374.2950020527674
 20
42.16427448443154
 30
0.0
 11
374.3029910890454
 21
42.16469317208149
 31
0.0
  0
ARC
  5
B55
330
A
100
AcDbEntity
  8
INDUSA
  6
Continuous
100
AcDbCircle
 10
374.354661705538
 20
42.04500201010206
 30
0.0
 40
0.0182202434356094
100
AcDbArc
 50
215.716865437035
 51
232.9811678122444
  0
ARC
  5
B56
330
A
100
AcDbEntity
  8
INDUSA
  6
Continuous
100
AcDbCircle
 10
374.3446813196741
 20
42.0157112464066
 30
0.0
 40
0.001
100
AcDbArc
 50
270.0
 51
0.0
  0
LINE
  5
B57
330
A
100
AcDbEntity
  8
INDUSA
  6
Continuous
100
AcDbLine
 10
374.3446813196741
 20
42.0147112464066
 30
0.0
 11
374.335681319674
 21
42.01471124938684
 31
0.0
  0
LINE
  5
B58
330
A
100
AcDbEntity
  8
INDUSA
  6
Continuous
100
AcDbLine
 10
374.335681319674
 20
42.02642538002686
 30
0.0
 11
374.335681319674
 21
42.01471124938684
 31
0.0
  0
LINE
  5
B59
330
A
100
AcDbEntity
  8
INDUSA
  6
Continuous
100
AcDbLine
 10
374.335681319674
 20
42.02642538002686
 30
0.0
 11
374.3317860816322
 21
42.02615316561417
 31
0.0
  0
LINE
  5
B5A
330
A
100
AcDbEntity
  8
INDUSA
  6
Continuous
100
AcDbLine
 10
374.3354603413365
 20
42.03643432572676
 30
0.0
 11
374.3310889308057
 21
42.0361288224812
 31
0.0
  0
LWPOLYLINE
  5
B5B
330
A
100
AcDbEntity
  8
INDUSA
  6
Continuous
100
AcDbPolyline
 90
       24
 70
   128
 43
0.0
 10
374.4881813195251
 20
41.80285200825886
 10
374.5039403368435
 20
41.80876946798519
 10
374.5192732033036
 20
41.81574303260997
 10
374.534133576294
 20
41.82375800958828
 10
374.5479656760297
 20
41.83245256892399
 10
374.5612391312323
 20
41.84205398312763
 10
374.573880248209
 20
41.85251695266918
 10
374.5858153407178
 20
41.86379611841396
 10
374.5969765786729
 20
41.87584033957676
 10
374.6073148850999
 20
41.88857967010693
 10
374.6167849455677
 20
41.90194046846585
 10
374.6261451546751
 20
41.91726714721875
 10
374.6343505237899
 20
41.93316942802624
 10
374.6413792376123
 20
41.94958767644124
 10
374.6472137276731
 20
41.96646659425454
 10
374.651836216887
 20
41.98375061503606
 10
374.6549034272037
 20
41.99937343946652
 10
374.6569775049291
 20
42.01521969190793
 10
374.6580376331411
 20
42.0312422101851
 10
374.6581813250385
 20
42.04738295427517
 10
374.6581813250385
 20
42.06353922537522
 10
374.6581813250385
 20
42.07969549647526
 10
374.6581813250385
 20
42.0958517675753
 10
374.6581813250385
 20
42.18471124651836
  0
ARC
  5
B75
330
A
100
AcDbEntity
  8
INDUSA
  6
Continuous
100
AcDbCircle
 10
374.4861813196741
 20
41.79171124640659
 30
0.0
 40
0.002
100
AcDbArc
 50
270.0
 51
0.0
  0
LINE
  5
B76
330
A
100
AcDbEntity
  8
INDUSA
  6
Continuous
100
AcDbLine
 10
374.4530281186751
 20
41.79154470912175
 30
0.0
 11
374.4330810219697
 21
42.0302657221909
 31
0.0
  0
ARC
  5
B77
330
A
100
AcDbEntity
  8
INDUSA
  6
Continuous
100
AcDbCircle
 10
374.4036813196741
 20
42.02817026285341
 30
0.0
 40
0.003
100
AcDbArc
 50
93.99763364193944
 51
180.0000000000008
  0
LINE
  5
B78
330
A
100
AcDbEntity
  8
INDUSA
  6
Continuous
100
AcDbLine
 10
374.4006813196741
 20
41.99071124640659
 30
0.0
 11
374.4006813196741
 21
42.02817026285341
 31
0.0
  0
ARC
  5
B79
330
A
100
AcDbEntity
  8
INDUSA
  6
Continuous
100
AcDbCircle
 10
374.3996813196741
 20
41.99071124640659
 30
0.0
 40
0.001
100
AcDbArc
 50
270.0
 51
0.0
  0
LINE
  5
B7A
330
A
100
AcDbEntity
  8
INDUSA
  6
Continuous
100
AcDbLine
 10
374.3916813196741
 20
41.98971124640659
 30
0.0
 11
374.3996813196741
 21
41.98971124640659
 31
0.0
  0
ARC
  5
B7B
330
A
100
AcDbEntity
  8
INDUSA
  6
Continuous
100
AcDbCircle
 10
374.3916813196741
 20
41.99071124640659
 30
0.0
 40
0.001
100
AcDbArc
 50
180.0000000000008
 51
270.0
  0
LINE
  5
B7C
330
A
100
AcDbEntity
  8
INDUSA
  6
Continuous
100
AcDbLine
 10
374.3906813196741
 20
42.0037112464066
 30
0.0
 11
374.3906813196741
 21
41.99071124640659
 31
0.0
  0
ARC
  5
B7D
330
A
100
AcDbEntity
  8
INDUSA
  6
Continuous
100
AcDbCircle
 10
374.3916813196741
 20
42.0037112464066
 30
0.0
 40
0.0009999999999999
100
AcDbArc
 50
90.0000000000004
 51
180.0000000000008
  0
ARC
  5
B7E
330
A
100
AcDbEntity
  8
INDUSA
  6
Continuous
100
AcDbCircle
 10
374.3916813196741
 20
42.00571124640659
 30
0.0
 40
0.0010000000000001
100
AcDbArc
 50
270.0
 51
0.0
  0
LINE
  5
B7F
330
A
100
AcDbEntity
  8
INDUSA
  6
Continuous
100
AcDbLine
 10
374.3926813196741
 20
42.00571124640659
 30
0.0
 11
374.3926813196741
 21
42.0137112464066
 31
0.0
  0
ARC
  5
B80
330
A
100
AcDbEntity
  8
INDUSA
  6
Continuous
100
AcDbCircle
 10
374.3916813196741
 20
42.0137112464066
 30
0.0
 40
0.0010000000000001
100
AcDbArc
 50
0.0
 51
90.0000000000004
  0
ARC
  5
B81
330
A
100
AcDbEntity
  8
INDUSA
  6
Continuous
100
AcDbCircle
 10
374.3916813196741
 20
42.0157112464066
 30
0.0
 40
0.001
100
AcDbArc
 50
180.0000000000008
 51
270.0
  0
LWPOLYLINE
  5
B82
330
A
100
AcDbEntity
  8
INDUSA
  6
Continuous
100
AcDbPolyline
 90
        5
 70
   128
 43
0.0
 10
374.3924545203052
 20
42.03290337673382
 10
374.3938776333533
 20
42.03424291661934
 10
374.3951630745731
 20
42.03574541560368
 10
374.3960460875831
 20
42.03700568131165
 10
374.3968247850142
 20
42.03834580234246
  0
LINE
  5
B89
330
A
100
AcDbEntity
  8
INDUSA
  6
Continuous
100
AcDbLine
 10
374.4427838106356
 20
42.03391026309685
 30
0.0
 11
374.4618384830836
 21
41.80578768602567
 31
0.0
  0
LINE
  5
B8A
330
A
100
AcDbEntity
  8
INDUSA
  6
Continuous
100
AcDbLine
 10
374.4298802357814
 20
42.03300850442604
 30
0.0
 11
374.4034721738534
 21
42.03116296364462
 31
0.0
  0
LINE
  5
B8B
330
A
100
AcDbEntity
  8
INDUSA
  6
Continuous
100
AcDbLine
 10
374.5223953921068
 20
42.04949833958256
 30
0.0
 11
374.4009022980117
 21
42.04100775711501
 31
0.0
  0
LINE
  5
B8C
330
A
100
AcDbEntity
  8
INDUSA
  6
Continuous
100
AcDbLine
 10
374.5230925448424
 20
42.03952267027853
 30
0.0
 11
374.4427838106356
 21
42.03391026309685
 31
0.0
  0
LINE
  5
B8D
330
A
100
AcDbEntity
  8
INDUSA
  6
Continuous
100
AcDbLine
 10
374.4550211731992
 20
41.78971124044614
 30
0.0
 11
374.4861813196741
 21
41.7897112464066
 31
0.0
  0
LINE
  5
B8E
330
A
100
AcDbEntity
  8
INDUSA
  6
Continuous
100
AcDbLine
 10
374.6481813196741
 20
42.17971124663011
 30
0.0
 11
374.6271709655128
 21
42.17971124663011
 31
0.0
  0
LINE
  5
B8F
330
A
100
AcDbEntity
  8
INDUSA
  6
Continuous
100
AcDbLine
 10
374.6252731135747
 20
42.14349807743613
 30
0.0
 11
374.6271709655128
 21
42.17971124663011
 31
0.0
  0
LINE
  5
B90
330
A
100
AcDbEntity
  8
INDUSA
  6
Continuous
100
AcDbLine
 10
374.6531813196741
 20
42.1897112464066
 30
0.0
 11
374.6224261425077
 21
42.1897112464066
 31
0.0
  0
LWPOLYLINE
  5
B91
330
A
100
AcDbEntity
  8
INDUSA
  6
Continuous
100
AcDbPolyline
 90
       10
 70
   128
 43
0.0
 10
374.2631881390415
 20
42.18477479624556
 10
374.2625418756805
 20
42.18036510585801
 10
374.2607147399984
 20
42.17646744544611
 10
374.2578915510974
 20
42.17328198230819
 10
374.254997045239
 20
42.17134809656994
 10
374.2516813878618
 20
42.17012224509375
 10
374.2480515096984
 20
42.16970668151037
 10
374.2443046574197
 20
42.16971006593661
 10
374.2405588631235
 20
42.16970965056674
 10
374.2341813002429
 20
42.16971300146536
  0
ARC
  5
B9D
330
A
100
AcDbEntity
  8
INDUSA
  6
Continuous
100
AcDbCircle
 10
374.2979364968405
 20
42.1847112464066
 30
0.0
 40
0.005
100
AcDbArc
 50
3.000000000000708
 51
90.0000000000004
  0
LINE
  5
B9E
330
A
100
AcDbEntity
  8
INDUSA
  6
Continuous
100
AcDbLine
 10
374.2931916718088
 20
42.17971124663011
 30
0.0
 11
374.2726766322456
 21
42.17971124663011
 31
0.0
  0
LINE
  5
B9F
330
A
100
AcDbEntity
  8
INDUSA
  6
Continuous
100
AcDbLine
 10
374.2726766322456
 20
42.17971124663011
 30
0.0
 11
374.2713703219495
 21
42.17535616992967
 31
0.0
  0
LINE
  5
BA0
330
A
100
AcDbEntity
  8
INDUSA
  6
Continuous
100
AcDbLine
 10
374.2713703219495
 20
42.17535616992967
 30
0.0
 11
374.2773482952915
 21
42.02962382487015
 31
0.0
  0
LINE
  5
BA1
330
A
100
AcDbEntity
  8
INDUSA
  6
Continuous
100
AcDbLine
 10
374.2773482952915
 20
42.02962382487015
 30
0.0
 11
374.3008266542755
 21
42.0082690303679
 31
0.0
  0
LINE
  5
BA2
330
A
100
AcDbEntity
  8
INDUSA
  6
Continuous
100
AcDbLine
 10
374.3008266542755
 20
42.0082690303679
 30
0.0
 11
374.335681319674
 21
42.0016191338654
 31
0.0
  0
LINE
  5
BA3
330
A
100
AcDbEntity
  8
INDUSA
  6
Continuous
100
AcDbLine
 10
374.335681319674
 20
42.00471124402241
 30
0.0
 11
374.335681319674
 21
42.0016191338654
 31
0.0
  0
LINE
  5
BA4
330
A
100
AcDbEntity
  8
INDUSA
  6
Continuous
100
AcDbLine
 10
374.335681319674
 20
42.00471124402241
 30
0.0
 11
374.3446813196741
 21
42.00471124640659
 31
0.0
  0
ARC
  5
BA5
330
A
100
AcDbEntity
  8
INDUSA
  6
Continuous
100
AcDbCircle
 10
374.3446813196741
 20
42.0037112464066
 30
0.0
 40
0.0009999999999999
100
AcDbArc
 50
0.0
 51
90.0000000000004
  0
LINE
  5
BA6
330
A
100
AcDbEntity
  8
INDUSA
  6
Continuous
100
AcDbLine
 10
374.345681319674
 20
41.99071124640659
 30
0.0
 11
374.345681319674
 21
42.0037112464066
 31
0.0
  0
ARC
  5
BA7
330
A
100
AcDbEntity
  8
INDUSA
  6
Continuous
100
AcDbCircle
 10
374.3446813196741
 20
41.99071124640659
 30
0.0
 40
0.001
100
AcDbArc
 50
270.0
 51
0.0
  0
LINE
  5
BA8
330
A
100
AcDbEntity
  8
INDUSA
  6
Continuous
100
AcDbLine
 10
374.3366813196741
 20
41.98971124640659
 30
0.0
 11
374.3446813196741
 21
41.98971124640659
 31
0.0
  0
ARC
  5
BA9
330
A
100
AcDbEntity
  8
INDUSA
  6
Continuous
100
AcDbCircle
 10
374.3366813196741
 20
41.99071124640659
 30
0.0
 40
0.0010000000000001
100
AcDbArc
 50
180.0000000000008
 51
270.0
  0
LINE
  5
BAA
330
A
100
AcDbEntity
  8
INDUSA
  6
Continuous
100
AcDbLine
 10
374.335681319674
 20
41.99116432778359
 30
0.0
 11
374.335681319674
 21
41.99071124640659
 31
0.0
  0
ARC
  5
BAB
330
A
100
AcDbEntity
  8
INDUSA
  6
Continuous
100
AcDbCircle
 10
374.3326813196741
 20
41.99116432778359
 30
0.0
 40
0.0030000000000001
100
AcDbArc
 50
0.0000000000013589
 51
79.07869655340694
  0
LINE
  5
BAC
330
A
100
AcDbEntity
  8
INDUSA
  6
Continuous
100
AcDbLine
 10
374.3332497012856
 20
41.99410999279233
 30
0.0
 11
374.3006357160983
 21
42.00040303338027
 31
0.0
  0
ARC
  5
BAD
330
A
100
AcDbEntity
  8
INDUSA
  6
Continuous
100
AcDbCircle
 10
374.3000673344868
 20
41.99745736837154
 30
0.0
 40
0.003
100
AcDbArc
 50
79.07869655341823
 51
159.4209582817472
  0
LINE
  5
BAE
330
A
100
AcDbEntity
  8
INDUSA
  6
Continuous
100
AcDbLine
 10
374.2870874856315
 20
41.97142149857239
 30
0.0
 11
374.2972587699659
 21
41.99851186603963
 31
0.0
  0
LWPOLYLINE
  5
BAF
330
A
100
AcDbEntity
  8
INDUSA
  6
Continuous
100
AcDbPolyline
 90
        6
 70
   128
 43
0.0
 10
374.2806490366064
 20
41.96849805465894
 10
374.2822390203081
 20
41.96818180731492
 10
374.2839025710426
 20
41.96840805164533
 10
374.2853974406324
 20
41.9691721980925
 10
374.2865551118455
 20
41.97038807324128
 10
374.2870874856315
 20
41.97142149857239
  0
LINE
  5
BB7
330
A
100
AcDbEntity
  8
INDUSA
  6
Continuous
100
AcDbLine
 10
374.2806490366064
 20
41.96849805465894
 30
0.0
 11
374.2787766609989
 21
41.96920106164173
 31
0.0
  0
LWPOLYLINE
  5
BB8
330
A
100
AcDbEntity
  8
INDUSA
  6
Continuous
100
AcDbPolyline
 90
        6
 70
   128
 43
0.0
 10
374.2770226006113
 20
41.9730641280766
 10
374.2768318806491
 20
41.97207503370004
 10
374.2769792978368
 20
41.97107856324868
 10
374.2774482522808
 20
41.97018705657677
 10
374.2781858597599
 20
41.9695010518189
 10
374.2787766609989
 20
41.96920106164173
  0
LINE
  5
BC0
330
A
100
AcDbEntity
  8
INDUSA
  6
Continuous
100
AcDbLine
 10
374.2770226006113
 20
41.9730641280766
 30
0.0
 11
374.2888302015294
 21
42.00451265856757
 31
0.0
  0
ARC
  5
BC1
330
A
100
AcDbEntity
  8
INDUSA
  6
Continuous
100
AcDbCircle
 10
374.2841492606613
 20
42.00627015468106
 30
0.0
 40
0.0050000000000001
100
AcDbArc
 50
339.4209582817483
 51
47.97589513692584
  0
LINE
  5
BC2
330
A
100
AcDbEntity
  8
INDUSA
  6
Continuous
100
AcDbLine
 10
374.2874964766363
 20
42.00998447093256
 30
0.0
 11
374.2723397403093
 21
42.02364320824218
 31
0.0
  0
ARC
  5
BC3
330
A
100
AcDbEntity
  8
INDUSA
  6
Continuous
100
AcDbCircle
 10
374.2756869562844
 20
42.02735752449367
 30
0.0
 40
0.0050000000000001
100
AcDbArc
 50
182.8142206927633
 51
227.9758951369262
  0
LINE
  5
BC4
330
A
100
AcDbEntity
  8
INDUSA
  6
Continuous
100
AcDbLine
 10
374.2706929863735
 20
42.02711203614424
 30
0.0
 11
374.2643034538283
 21
42.15709430760681
 31
0.0
  0
ARC
  5
BC5
330
A
100
AcDbEntity
  8
INDUSA
  6
Continuous
100
AcDbCircle
 10
374.2593094839174
 20
42.15684881925739
 30
0.0
 40
0.005
100
AcDbArc
 50
2.814220692760915
 51
111.7975470983153
  0
LINE
  5
BC6
330
A
100
AcDbEntity
  8
INDUSA
  6
Continuous
100
AcDbLine
 10
374.2979364968405
 20
42.1897112464066
 30
0.0
 11
374.2681877328725
 21
42.1897112464066
 31
0.0
  0
LWPOLYLINE
  5
BCC
330
A
100
AcDbEntity
  8
INDUSA
  6
Continuous
100
AcDbPolyline
 90
        6
 70
   128
 43
0.0
 10
374.336557530304
 20
42.00471124402241
 10
374.3366398294173
 20
42.00477049103932
 10
374.3367158923946
 20
42.0049421822186
 10
374.3367745284639
 20
42.0052055602427
 10
374.336806521257
 20
42.00552244833665
 10
374.3368091736637
 20
42.00558349839406
  0
LWPOLYLINE
  5
BD4
330
A
100
AcDbEntity
  8
INDUSA
  6
Continuous
100
AcDbPolyline
 90
        7
 70
   128
 43
0.0
 10
374.3370911930404
 20
42.01358977309422
 10
374.3370872069798
 20
42.01391263655381
 10
374.3370526660882
 20
42.01421276084142
 10
374.3369921822749
 20
42.0144614761229
 10
374.3369114626847
 20
42.01463581970886
 10
374.3368192617498
 20
42.01471005729394
 10
374.3368060444198
 20
42.01471124938684
  0
LINE
  5
BE9
330
A
100
AcDbEntity
  8
INDUSA
  6
Continuous
100
AcDbLine
 10
374.1542374496065
 20
41.86103025428013
 30
0.0
 11
374.146424442967
 21
41.85860079876142
 31
0.0
  0
LINE
  5
BEA
330
A
100
AcDbEntity
  8
INDUSA
  6
Continuous
100
AcDbLine
 10
374.146424442967
 20
41.85860079876142
 30
0.0
 11
374.1431963448129
 21
41.79971126071172
 31
0.0
  0
LINE
  5
BEB
330
A
100
AcDbEntity
  8
INDUSA
  6
Continuous
100
AcDbLine
 10
374.148999155005
 20
41.79971126071172
 30
0.0
 11
374.1431963448129
 21
41.79971126071172
 31
0.0
  0
LINE
  5
BEC
330
A
100
AcDbEntity
  8
INDUSA
  6
Continuous
100
AcDbLine
 10
374.148999155005
 20
41.79971126071172
 30
0.0
 11
374.1542374496065
 21
41.86103025428013
 31
0.0
  0
ARC
  5
BED
330
A
100
AcDbEntity
  8
INDUSA
  6
Continuous
100
AcDbCircle
 10
374.1301813196741
 20
41.7977112464066
 30
0.0
 40
0.002
100
AcDbArc
 50
90.0000000000004
 51
180.0000000000008
  0
LINE
  5
BEE
330
A
100
AcDbEntity
  8
INDUSA
  6
Continuous
100
AcDbLine
 10
374.1312879496252
 20
41.7997112464066
 30
0.0
 11
374.1301813196741
 21
41.7997112464066
 31
0.0
  0
ARC
  5
BEF
330
A
100
AcDbEntity
  8
INDUSA
  6
Continuous
100
AcDbCircle
 10
374.1312879496252
 20
41.8017112464066
 30
0.0
 40
0.002
100
AcDbArc
 50
270.0
 51
356.8623997953165
  0
LINE
  5
BF0
330
A
100
AcDbEntity
  8
INDUSA
  6
Continuous
100
AcDbLine
 10
374.1367817227445
 20
41.86539268842892
 30
0.0
 11
374.1332849515576
 21
41.80160177822988
 31
0.0
  0
LWPOLYLINE
  5
BF1
330
A
100
AcDbEntity
  8
INDUSA
  6
Continuous
100
AcDbPolyline
 90
        5
 70
   128
 43
0.0
 10
374.1374832992158
 20
41.86629286757663
 10
374.1371839646898
 20
41.86614075652317
 10
374.136951864203
 20
41.86589813581661
 10
374.1368131343923
 20
41.86559236398891
 10
374.1367817227445
 20
41.86539268842891
  0
LINE
  5
BF8
330
A
100
AcDbEntity
  8
INDUSA
  6
Continuous
100
AcDbLine
 10
374.1640469275111
 20
41.87455278963967
 30
0.0
 11
374.1374832992158
 21
41.86629286757664
 31
0.0
  0
ARC
  5
BF9
330
A
100
AcDbEntity
  8
INDUSA
  6
Continuous
100
AcDbCircle
 10
374.1643438528502
 20
41.87359788894171
 30
0.0
 40
0.001
100
AcDbArc
 50
355.1172541148575
 51
107.2730251108506
  0
LINE
  5
BFA
330
A
100
AcDbEntity
  8
INDUSA
  6
Continuous
100
AcDbLine
 10
374.1583376309231
 20
41.79154101264912
 30
0.0
 11
374.1653402238238
 21
41.87351277206297
 31
0.0
  0
ARC
  5
BFB
330
A
100
AcDbEntity
  8
INDUSA
  6
Continuous
100
AcDbCircle
 10
374.156344888976
 20
41.79171124640659
 30
0.0
 40
0.0020000000000001
100
AcDbArc
 50
270.0
 51
355.1172541148575
  0
ARC
  5
BFC
330
A
100
AcDbEntity
  8
INDUSA
  6
Continuous
100
AcDbCircle
 10
374.1301813196741
 20
41.79171124640659
 30
0.0
 40
0.002
100
AcDbArc
 50
180.0000000000008
 51
270.0
  0
LINE
  5
BFD
330
A
100
AcDbEntity
  8
INDUSA
  6
Continuous
100
AcDbLine
 10
374.1301813196741
 20
41.7897112464066
 30
0.0
 11
374.156344888976
 21
41.7897112464066
 31
0.0
  0
LINE
  5
BFE
330
A
100
AcDbEntity
  8
INDUSA
  6
Continuous
100
AcDbLine
 10
374.1281813196741
 20
41.79171124640659
 30
0.0
 11
374.1281813196741
 21
41.7977112464066
 31
0.0
  0
LINE
  5
BFF
330
A
100
AcDbEntity
  8
INDUSA
  6
Continuous
100
AcDbLine
 10
374.1368197505078
 20
41.86608654609876
 30
0.0
 11
374.137412220677
 21
41.86627075425343
 31
0.0
  0
LWPOLYLINE
  5
C00
330
A
100
AcDbEntity
  8
INDUSA
  6
Continuous
100
AcDbPolyline
 90
        3
 70
   128
 43
0.0
 10
374.1367824081979
 20
41.86540511599735
 10
374.1367825274072
 20
41.86540708295063
 10
374.1368197505078
 20
41.86608654609875
  0
LWPOLYLINE
  5
C22
330
A
100
AcDbEntity
  8
INDUSA
  6
Continuous
100
AcDbPolyline
 90
        5
 70
   128
 43
0.0
 10
374.2763196085296
 20
41.97119173756795
 10
374.2764540766082
 20
41.97154991677956
 10
374.2767340694271
 20
41.97229563049035
 10
374.2769355033241
 20
41.97283213189797
 10
374.2770226006113
 20
41.9730641280766
  0
LINE
  5
C2A
330
A
100
AcDbEntity
  8
INDUSA
  6
Continuous
100
AcDbLine
 10
374.3916813196741
 20
41.98971124640659
 30
0.0
 11
374.3446813196741
 21
41.98971124640659
 31
0.0
  0
LINE
  5
C2C
330
A
100
AcDbEntity
  8
INDUSA
  6
Continuous
100
AcDbLine
 10
374.3446813196741
 20
42.00471124640659
 30
0.0
 11
374.3463769955247
 21
42.00471124640659
 31
0.0
  0
LINE
  5
C2D
330
A
100
AcDbEntity
  8
INDUSA
  6
Continuous
100
AcDbLine
 10
374.3463769955247
 20
42.00471124640659
 30
0.0
 11
374.3916813196741
 21
42.00471124640659
 31
0.0
  0
LINE
  5
C4B
330
A
100
AcDbEntity
  8
INDUSA
  6
Continuous
100
AcDbLine
 10
374.3916813196741
 20
42.0147112464066
 30
0.0
 11
374.3467622121403
 21
42.0147112464066
 31
0.0
  0
LINE
  5
C4C
330
A
100
AcDbEntity
  8
INDUSA
  6
Continuous
100
AcDbLine
 10
374.3467622121403
 20
42.0147112464066
 30
0.0
 11
374.3446813196741
 21
42.0147112464066
 31
0.0
  0
LINE
  5
C58
330
A
100
AcDbEntity
  8
INDUSA
  6
Continuous
100
AcDbLine
 10
374.2979364968405
 20
42.1897112464066
 30
0.0
 11
374.4545108694528
 21
42.18971124640659
 31
0.0
  0
LINE
  5
C60
330
A
100
AcDbEntity
  8
INDUSA
  6
Continuous
100
AcDbLine
 10
374.3445093218484
 20
42.00558948387645
 30
0.0
 11
374.3445093218484
 21
42.00471124640659
 31
0.0
  0
LINE
  5
C61
330
A
100
AcDbEntity
  8
INDUSA
  6
Continuous
100
AcDbLine
 10
374.3368091736637
 20
42.00558349839406
 30
0.0
 11
374.3368100453816
 21
42.00558945885854
 31
0.0
  0
LINE
  5
C64
330
A
100
AcDbEntity
  8
INDUSA
  6
Continuous
100
AcDbLine
 10
374.3368093748293
 20
42.00558948866086
 30
0.0
 11
374.3370911930404
 21
42.01358977309422
 31
0.0
  0
LINE
  5
C6D
330
A
100
AcDbEntity
  8
INDUSA
  6
Continuous
100
AcDbLine
 10
374.3449259142697
 20
42.0147112464066
 30
0.0
 11
374.3449259142697
 21
42.01358978046558
 31
0.0
  0
LWPOLYLINE
  5
C6F
330
A
100
AcDbEntity
  8
INDUSA
  6
Continuous
100
AcDbPolyline
 90
        3
 70
   128
 43
0.0
 10
374.3445093189083
 20
42.00558948866086
 10
374.3447197531066
 20
42.00974402180867
 10
374.3449259106717
 20
42.01358977309422
  0
LWPOLYLINE
  5
C89
330
A
100
AcDbEntity
  8
INDUSA
  6
Continuous
100
AcDbPolyline
 90
        4
 70
   128
 43
0.0
 10
374.1643989984594
 20
41.8624837433453
 10
374.1644002203546
 20
41.86249754182056
 10
374.1644007865987
 20
41.86250418773846
 10
374.1644015316568
 20
41.86251193634228
  0
LWPOLYLINE
  5
C8F
330
A
100
AcDbEntity
  8
INDUSA
  6
Continuous
100
AcDbPolyline
 90
        3
 70
   128
 43
0.0
 10
374.1643989984594
 20
41.8624837433453
 10
374.1642843191228
 20
41.86114091030315
 10
374.1641621892057
 20
41.85971123329357
  0
LWPOLYLINE
  5
CB7
330
A
100
AcDbEntity
  8
INDUSA
  6
Continuous
100
AcDbPolyline
 90
        5
 70
   128
 43
0.0
 10
374.1640469138227
 20
41.87455278984265
 10
374.1645318572126
 20
41.87470355979161
 10
374.1660173241697
 20
41.87516546598629
 10
374.1681723897062
 20
41.8758356010075
 10
374.1710903052888
 20
41.8767429327126
  0
LWPOLYLINE
  5
CE8
330
A
100
AcDbEntity
  8
INDUSA
  6
Continuous
100
AcDbPolyline
 90
       12
 70
   128
 43
0.0
 10
374.2699312274061
 20
41.95417687646108
 10
374.2708748285375
 20
41.95669006160454
 10
374.2717854832016
 20
41.95911549380975
 10
374.2726476792894
 20
41.96141189686016
 10
374.2734467689595
 20
41.96354018501
 10
374.2741691325508
 20
41.96546416333871
 10
374.2748025064073
 20
41.96715109399514
 10
374.2753361020885
 20
41.96857227734284
 10
374.275760829886
 20
41.96970351389603
 10
374.276069492539
 20
41.97052559605793
 10
374.2762568001352
 20
41.97102450183587
 10
374.2763196085296
 20
41.97119173756795
  0
LWPOLYLINE
  5
DB1
330
A
100
AcDbEntity
  8
INDUSA
  6
Continuous
100
AcDbPolyline
 90
        6
 70
   128
 43
0.0
 10
374.1718629602991
 20
41.87698316923337
 10
374.1756313149533
 20
41.878154936945
 10
374.179782689055
 20
41.87944582453922
 10
374.1844854359231
 20
41.88090813509183
 10
374.1893209223352
 20
41.88241172186093
 10
374.1944319312177
 20
41.88400096050457
  0
LINE
  5
DB9
330
A
100
AcDbEntity
  8
INDUSA
  6
Continuous
100
AcDbLine
 10
374.1710903028949
 20
41.87674291959673
 30
0.0
 11
374.1718629697349
 21
41.87698317951483
 31
0.0
  0
LINE
  5
E07
330
A
100
AcDbEntity
  8
INDUSA
  6
Continuous
100
AcDbLine
 10
374.2517999441375
 20
41.90588572912395
 30
0.0
 11
374.2699312348436
 21
41.9541768741263
 31
0.0
  0
LWPOLYLINE
  5
E23
330
A
100
AcDbEntity
  8
INDUSA
  6
Continuous
100
AcDbPolyline
 90
        3
 70
   128
 43
0.0
 10
374.2494380031429
 20
41.9022592341061
 10
374.2508191768728
 20
41.90394574753002
 10
374.2517999415002
 20
41.90588572970585
  0
LWPOLYLINE
  5
E31
330
A
100
AcDbEntity
  8
INDUSA
  6
Continuous
100
AcDbPolyline
 90
        8
 70
   128
 43
0.0
 10
374.2493562255702
 20
41.90217998973088
 10
374.2493665222726
 20
41.90218985429959
 10
374.2493767891727
 20
41.90219974867061
 10
374.2493870262704
 20
41.90220961323933
 10
374.2493972633682
 20
41.90221953741269
 10
374.2494074557624
 20
41.90222943178372
 10
374.2494176481567
 20
41.90223932615475
 10
374.2494380031429
 20
41.9022592341061
  0
LWPOLYLINE
  5
E9C
330
A
100
AcDbEntity
  8
INDUSA
  6
Continuous
100
AcDbPolyline
 90
        4
 70
   128
 43
0.0
 10
374.2454073135458
 20
41.89985171309666
 10
374.2468385104738
 20
41.90042096725659
 10
374.2481652949653
 20
41.90120324841695
 10
374.2493562255702
 20
41.90217998973088
  0
LINE
  5
EAD
330
A
100
AcDbEntity
  8
INDUSA
  6
Continuous
100
AcDbLine
 10
374.1944319283385
 20
41.88400097278062
 30
0.0
 11
374.2454073157928
 21
41.89985171437132
 31
0.0
  0
LWPOLYLINE
  5
EAF
330
A
100
AcDbEntity
  8
INDUSA
  6
Continuous
100
AcDbPolyline
 90
        9
 70
   128
 43
0.0
 10
374.1342040602765
 20
41.81836876622394
 10
374.1341493432126
 20
41.81802904955104
 10
374.1340246502958
 20
41.81770548573688
 10
374.1338344816766
 20
41.81740978709416
 10
374.1335856918893
 20
41.81715256324962
 10
374.1332872216306
 20
41.81694314233021
 10
374.1329498295389
 20
41.81678897491649
 10
374.1325856749616
 20
41.81669572344975
 10
374.1322078709207
 20
41.81666666618542
  0
LINE
  5
EEA
330
A
100
AcDbEntity
  8
INDUSA
  6
Continuous
100
AcDbLine
 10
374.1630949730009
 20
41.7897112464066
 30
0.0
 11
374.156344888976
 21
41.7897112464066
 31
0.0
  0
LINE
  5
F1B
330
A
100
AcDbEntity
  8
INDUSA
  6
Continuous
100
AcDbLine
 10
374.1281813196741
 20
41.8017112464066
 30
0.0
 11
374.1281813196741
 21
41.7977112464066
 31
0.0
  0
LINE
  5
F46
330
A
100
AcDbEntity
  8
INDUSA
  6
Continuous
100
AcDbLine
 10
374.1281813196741
 20
41.8017112464066
 30
0.0
 11
374.1281813196741
 21
41.81482676124918
 31
0.0
  0
LWPOLYLINE
  5
F47
330
A
100
AcDbEntity
  8
INDUSA
  6
Continuous
100
AcDbPolyline
 90
        5
 70
   128
 43
0.0
 10
374.1515461806856
 20
42.13442319608287
 10
374.1498676244817
 20
42.0898525451775
 10
374.1475493614278
 20
42.0453169231768
 10
374.1451012794576
 20
42.00078839412884
 10
374.1379822198949
 20
41.87144118896679
  0
LWPOLYLINE
  5
F4E
330
A
100
AcDbEntity
  8
INDUSA
  6
Continuous
100
AcDbPolyline
 90
        3
 70
   128
 43
0.0
 10
374.1515320245824
 20
42.13447866565541
 10
374.1515444819532
 20
42.1344319765921
 10
374.1515461806856
 20
42.13442319608287
  0
LINE
  5
F53
330
A
100
AcDbEntity
  8
INDUSA
  6
Continuous
100
AcDbLine
 10
374.1515752081476
 20
42.13526647142129
 30
0.0
 11
374.1515320245824
 21
42.13447866565542
 31
0.0
  0
LINE
  5
F55
330
A
100
AcDbEntity
  8
INDUSA
  6
Continuous
100
AcDbLine
 10
374.368842559114
 20
41.7897112464066
 30
0.0
 11
374.1630949730009
 21
41.7897112464066
 31
0.0
  0
LWPOLYLINE
  5
F56
330
A
100
AcDbEntity
  8
INDUSA
  6
Continuous
100
AcDbPolyline
 90
       15
 70
   128
 43
0.0
 10
374.2647864077888
 20
42.14726964361028
 10
374.2644203458629
 20
42.14716686285094
 10
374.2553966794811
 20
42.14486360154108
 10
374.2464664135776
 20
42.14273401326493
 10
374.2372818444572
 20
42.14073606184677
 10
374.2285137925945
 20
42.13904081634239
 10
374.2141534690461
 20
42.13677750504569
 10
374.1998691861234
 20
42.1352146228309
 10
374.1856159870229
 20
42.13439910090522
 10
374.176204145392
 20
42.13437466672615
 10
374.1668230895601
 20
42.13469733274535
 10
374.1629693512521
 20
42.13489643088535
 10
374.1597423259817
 20
42.13508366770104
 10
374.1562477652631
 20
42.13530039764003
 10
374.1516307894788
 20
42.13559503830031
  0
LINE
  5
F67
330
A
100
AcDbEntity
  8
INDUSA
  6
Continuous
100
AcDbLine
 10
374.1516307894788
 20
42.13559503830032
 30
0.0
 11
374.1515752081476
 21
42.13526647142129
 31
0.0
  0
LWPOLYLINE
  5
F68
330
A
100
AcDbEntity
  8
INDUSA
  6
Continuous
100
AcDbPolyline
 90
        9
 70
   128
 43
0.0
 10
374.137009919127
 20
41.86955571523861
 10
374.137009919127
 20
41.86955571523861
 10
374.137010842999
 20
41.86955747357563
 10
374.1370311383806
 20
41.86959669343189
 10
374.1370876733861
 20
41.86970618716435
 10
374.1372928921781
 20
41.87010398856357
 10
374.1376080815397
 20
41.87071535340503
 10
374.1379821900926
 20
41.87144112936215
 10
374.1379822198949
 20
41.87144118896679
  0
LWPOLYLINE
  5
F73
330
A
100
AcDbEntity
  8
INDUSA
  6
Continuous
100
AcDbPolyline
 90
        7
 70
   128
 43
0.0
 10
374.1368197505078
 20
41.86608654609875
 10
374.1368378107152
 20
41.86641589156345
 10
374.1368896667562
 20
41.86736172786907
 10
374.1369701926313
 20
41.86883077374653
 10
374.1370027665697
 20
41.86942500225262
 10
374.1370092336736
 20
41.86954284063534
 10
374.137009919127
 20
41.86955571523861
  0
LINE
  5
FD1
330
A
100
AcDbEntity
  8
INDUSA
  6
Continuous
100
AcDbLine
 10
374.4545108694528
 20
42.18971124640659
 30
0.0
 11
374.4677582067843
 21
42.18971124640659
 31
0.0
  0
LINE
  5
103D
330
A
100
AcDbEntity
  8
INDUSA
  6
Continuous
100
AcDbLine
 10
373.1083838243762
 20
41.93845768451511
 30
0.0
 11
373.107544778173
 21
41.93845768451511
 31
0.0
  0
LINE
  5
103F
330
A
100
AcDbEntity
  8
INDUSA
  6
Continuous
100
AcDbLine
 10
372.7334419687072
 20
41.9418568032962
 30
0.0
 11
372.7338986676352
 21
41.94183841396953
 31
0.0
  0
ENDSEC
  0
SECTION
  2
OBJECTS
  0
DICTIONARY
  5
19
330
0
100
AcDbDictionary
281
     1
  3
ACAD_COLOR
350
1075
  3
ACAD_GROUP
350
1A
  3
ACAD_LAYOUT
350
1029
  3
ACAD_MATERIAL
350
1048
  3
ACAD_MLEADERSTYLE
350
109A
  3
ACAD_MLINESTYLE
350
1B
  3
ACAD_PLOTSETTINGS
350
102A
  3
ACAD_PLOTSTYLENAME
350
1027
  3
ACAD_SCALELIST
350
1078
  3
ACAD_TABLESTYLE
350
1076
  3
ACAD_VISUALSTYLE
350
1061
  3
ACDB_RECOMPOSE_DATA
350
10AC
  3
AcDbVariableDictionary
350
1045
  3
ASE_INDEX_DICTIONARY
350
1041
  3
DWGPROPS
350
10AD
  0
DICTIONARY
  5
109E
330
14
100
AcDbDictionary
280
     1
281
     1
  3
ADSK_XREC_LAYER_RECONCILED
360
109F
  0
DICTIONARY
  5
10A0
330
27
100
AcDbDictionary
280
     1
281
     1
  3
ADSK_XREC_LAYER_RECONCILED
360
10A1
  0
DICTIONARY
  5
10A2
330
102F
100
AcDbDictionary
280
     1
281
     1
  3
ADSK_XREC_LAYER_RECONCILED
360
10A3
  0
DICTIONARY
  5
1075
102
{ACAD_REACTORS
330
19
102
}
330
19
100
AcDbDictionary
281
     1
  0
DICTIONARY
  5
1A
102
{ACAD_REACTORS
330
19
102
}
330
19
100
AcDbDictionary
281
     1
  0
DICTIONARY
  5
1029
102
{ACAD_REACTORS
330
19
102
}
330
19
100
AcDbDictionary
281
     1
  3
Layout1
350
102C
  3
Model
350
102B
  0
DICTIONARY
  5
1048
102
{ACAD_REACTORS
330
19
102
}
330
19
100
AcDbDictionary
281
     1
  3
ByBlock
350
1051
  3
ByLayer
350
1049
  3
Global
350
1059
  0
DICTIONARY
  5
109A
102
{ACAD_REACTORS
330
19
102
}
330
19
100
AcDbDictionary
281
     1
  3
Standard
350
109B
  0
DICTIONARY
  5
1B
102
{ACAD_REACTORS
330
19
102
}
330
19
100
AcDbDictionary
281
     1
  3
STANDARD
350
1C
  0
DICTIONARY
  5
102A
102
{ACAD_REACTORS
330
19
102
}
330
19
100
AcDbDictionary
281
     1
  0
ACDBDICTIONARYWDFLT
  5
1027
102
{ACAD_REACTORS
330
19
102
}
330
19
100
AcDbDictionary
281
     1
  3
Normal
350
1028
100
AcDbDictionaryWithDefault
340
1028
  0
DICTIONARY
  5
1078
102
{ACAD_REACTORS
330
19
102
}
330
19
100
AcDbDictionary
281
     1
  3
A0
350
1079
  3
A1
350
107A
  3
A2
350
107B
  3
A3
350
107C
  3
A4
350
107D
  3
A5
350
107E
  3
A6
350
107F
  3
A7
350
1080
  3
A8
350
1081
  3
A9
350
1082
  3
B0
350
1083
  3
B1
350
1084
  3
B2
350
1085
  3
B3
350
1086
  3
B4
350
1087
  3
B5
350
1088
  3
B6
350
1089
  3
B7
350
108A
  3
B8
350
108B
  3
B9
350
108C
  3
C0
350
108D
  3
C1
350
108E
  3
C2
350
108F
  3
C3
350
1090
  3
C4
350
1091
  3
C5
350
1092
  3
C6
350
1093
  3
C7
350
1094
  3
C8
350
1095
  3
C9
350
1096
  3
D0
350
1097
  3
D1
350
1098
  3
D2
350
1099
  0
DICTIONARY
  5
1076
102
{ACAD_REACTORS
330
19
102
}
330
19
100
AcDbDictionary
281
     1
  3
Standard
350
1077
  0
DICTIONARY
  5
1061
102
{ACAD_REACTORS
330
19
102
}
330
19
100
AcDbDictionary
281
     1
  3
2dWireframe
350
1067
  3
3D Hidden
350
1069
  3
3dWireframe
350
1068
  3
Basic
350
1066
  3
Brighten
350
106D
  3
ColorChange
350
1071
  3
Conceptual
350
106A
  3
Dim
350
106C
  3
EdgeColorOff
350
1074
  3
Facepattern
350
1070
  3
Flat
350
1062
  3
FlatWithEdges
350
1063
  3
Gouraud
350
1064
  3
GouraudWithEdges
350
1065
  3
JitterOff
350
1072
  3
Linepattern
350
106F
  3
OverhangOff
350
1073
  3
Realistic
350
106B
  3
Thicken
350
106E
  0
XRECORD
  5
10AC
102
{ACAD_REACTORS
330
19
102
}
330
19
100
AcDbXrecord
280
     1
 90
        1
330
1077
  0
DICTIONARY
  5
1045
102
{ACAD_REACTORS
330
19
102
}
330
19
100
AcDbDictionary
281
     1
  3
CANNOSCALE
350
10A6
  3
CMLEADERSTYLE
350
10A5
  3
CTABLESTYLE
350
10A4
  3
DIMASSOC
350
1046
  3
INDEXCTL
350
10A8
  3
SORTENTS
350
10A7
  3
XCLIPFRAME
350
10A9
  0
DICTIONARY
  5
1041
102
{ACAD_REACTORS
330
19
102
}
330
19
100
AcDbDictionary
281
     1
  3
ASEBlockHierarchyIndexRecord
350
1043
1001
DCO15
1040
1470632983.968
  0
XRECORD
  5
10AD
102
{ACAD_REACTORS
330
19
102
}
330
19
100
AcDbXrecord
280
     1
  1
DWGPROPS COOKIE
  2

  3

  4

  6

  7

  8
Julio
  9

300
=
301
=
302
=
303
=
304
=
305
=
306
=
307
=
308
=
309
=
 40
0.0092655787037037
 41
2444972.041666667
 42
2456149.676123044
  1

 90
        0
  0
XRECORD
  5
109F
102
{ACAD_REACTORS
330
109E
102
}
330
109E
100
AcDbXrecord
280
     1
290
     1
  0
XRECORD
  5
10A1
102
{ACAD_REACTORS
330
10A0
102
}
330
10A0
100
AcDbXrecord
280
     1
290
     1
  0
XRECORD
  5
10A3
102
{ACAD_REACTORS
330
10A2
102
}
330
10A2
100
AcDbXrecord
280
     1
290
     1
  0
LAYOUT
  5
102C
102
{ACAD_XDICTIONARY
360
10B0
102
}
102
{ACAD_REACTORS
330
1029
102
}
330
1029
100
AcDbPlotSettings
  1

  2
PLOTER 500
  4

  6

 40
0.0
 41
0.0
 42
0.0
 43
0.0
 44
0.0
 45
0.0
 46
0.0
 47
0.0
 48
0.0
 49
0.0
140
0.0
141
0.0
142
1.0
143
1.0
 70
   688
 72
     0
 73
     0
 74
     5
  7
monochrome.ctb
 75
    16
147
1.0
148
0.0
149
0.0
100
AcDbLayout
  1
Layout1
 70
     1
 71
     1
 10
0.0
 20
0.0
 11
12.0
 21
9.0
 12
0.0
 22
0.0
 32
0.0
 14
1.000000000000000E+20
 24
1.000000000000000E+20
 34
1.000000000000000E+20
 15
-1.000000000000000E+20
 25
-1.000000000000000E+20
 35
-1.000000000000000E+20
146
0.0
 13
0.0
 23
0.0
 33
0.0
 16
1.0
 26
0.0
 36
0.0
 17
0.0
 27
1.0
 37
0.0
 76
     0
330
B
  0
LAYOUT
  5
102B
102
{ACAD_XDICTIONARY
360
10AE
102
}
102
{ACAD_REACTORS
330
1029
102
}
330
1029
100
AcDbPlotSettings
  1

  2
PLOTER 500
  4

  6

 40
0.0
 41
0.0
 42
0.0
 43
0.0
 44
0.0
 45
0.0
 46
0.0
 47
0.0
 48
0.0
 49
0.0
140
0.0
141
0.0
142
1.0
143
1.0
 70
  1712
 72
     0
 73
     0
 74
     0
  7
monochrome.ctb
 75
     0
147
1.0
148
0.0
149
0.0
100
AcDbLayout
  1
Model
 70
     1
 71
     0
 10
0.0
 20
0.0
 11
12.0
 21
9.0
 12
0.0
 22
0.0
 32
0.0
 14
0.0
 24
0.0
 34
0.0
 15
0.0
 25
0.0
 35
0.0
146
0.0
 13
0.0
 23
0.0
 33
0.0
 16
1.0
 26
0.0
 36
0.0
 17
0.0
 27
1.0
 37
0.0
 76
     0
330
A
331
1044
  0
MATERIAL
  5
1051
102
{ACAD_XDICTIONARY
360
1052
102
}
102
{ACAD_REACTORS
330
1048
102
}
330
1048
100
AcDbMaterial
  1
ByBlock
 72
     0
 43
0.0208333333333333
 43
0.0
 43
0.0
 43
0.0
 43
0.0
 43
0.0208333333333333
 43
0.0
 43
0.0
 43
0.0
 43
0.0
 43
1.0
 43
0.0
 43
0.0
 43
0.0
 43
0.0
 43
1.0
 77
     0
 47
0.0208333333333333
 47
0.0
 47
0.0
 47
0.0
 47
0.0
 47
0.0208333333333333
 47
0.0
 47
0.0
 47
0.0
 47
0.0
 47
1.0
 47
0.0
 47
0.0
 47
0.0
 47
0.0
 47
1.0
171
     0
 49
0.0208333333333333
 49
0.0
 49
0.0
 49
0.0
 49
0.0
 49
0.0208333333333333
 49
0.0
 49
0.0
 49
0.0
 49
0.0
 49
1.0
 49
0.0
 49
0.0
 49
0.0
 49
0.0
 49
1.0
175
     0
142
0.0208333333333333
142
0.0
142
0.0
142
0.0
142
0.0
142
0.0208333333333333
142
0.0
142
0.0
142
0.0
142
0.0
142
1.0
142
0.0
142
0.0
142
0.0
142
0.0
142
1.0
179
     0
144
0.0208333333333333
144
0.0
144
0.0
144
0.0
144
0.0
144
0.0208333333333333
144
0.0
144
0.0
144
0.0
144
0.0
144
1.0
144
0.0
144
0.0
144
0.0
144
0.0
144
1.0
147
0.0208333333333333
147
0.0
147
0.0
147
0.0
147
0.0
147
0.0208333333333333
147
0.0
147
0.0
147
0.0
147
0.0
147
1.0
147
0.0
147
0.0
147
0.0
147
0.0
147
1.0
  0
MATERIAL
  5
1049
102
{ACAD_XDICTIONARY
360
104A
102
}
102
{ACAD_REACTORS
330
1048
102
}
330
1048
100
AcDbMaterial
  1
ByLayer
 72
     0
 43
0.0208333333333333
 43
0.0
 43
0.0
 43
0.0
 43
0.0
 43
0.0208333333333333
 43
0.0
 43
0.0
 43
0.0
 43
0.0
 43
1.0
 43
0.0
 43
0.0
 43
0.0
 43
0.0
 43
1.0
 77
     0
 47
0.0208333333333333
 47
0.0
 47
0.0
 47
0.0
 47
0.0
 47
0.0208333333333333
 47
0.0
 47
0.0
 47
0.0
 47
0.0
 47
1.0
 47
0.0
 47
0.0
 47
0.0
 47
0.0
 47
1.0
171
     0
 49
0.0208333333333333
 49
0.0
 49
0.0
 49
0.0
 49
0.0
 49
0.0208333333333333
 49
0.0
 49
0.0
 49
0.0
 49
0.0
 49
1.0
 49
0.0
 49
0.0
 49
0.0
 49
0.0
 49
1.0
175
     0
142
0.0208333333333333
142
0.0
142
0.0
142
0.0
142
0.0
142
0.0208333333333333
142
0.0
142
0.0
142
0.0
142
0.0
142
1.0
142
0.0
142
0.0
142
0.0
142
0.0
142
1.0
179
     0
144
0.0208333333333333
144
0.0
144
0.0
144
0.0
144
0.0
144
0.0208333333333333
144
0.0
144
0.0
144
0.0
144
0.0
144
1.0
144
0.0
144
0.0
144
0.0
144
0.0
144
1.0
147
0.0208333333333333
147
0.0
147
0.0
147
0.0
147
0.0
147
0.0208333333333333
147
0.0
147
0.0
147
0.0
147
0.0
147
1.0
147
0.0
147
0.0
147
0.0
147
0.0
147
1.0
  0
MATERIAL
  5
1059
102
{ACAD_XDICTIONARY
360
105A
102
}
102
{ACAD_REACTORS
330
1048
102
}
330
1048
100
AcDbMaterial
  1
Global
 72
     0
 43
0.0208333333333333
 43
0.0
 43
0.0
 43
0.0
 43
0.0
 43
0.0208333333333333
 43
0.0
 43
0.0
 43
0.0
 43
0.0
 43
1.0
 43
0.0
 43
0.0
 43
0.0
 43
0.0
 43
1.0
 77
     0
 47
0.0208333333333333
 47
0.0
 47
0.0
 47
0.0
 47
0.0
 47
0.0208333333333333
 47
0.0
 47
0.0
 47
0.0
 47
0.0
 47
1.0
 47
0.0
 47
0.0
 47
0.0
 47
0.0
 47
1.0
171
     0
 49
0.0208333333333333
 49
0.0
 49
0.0
 49
0.0
 49
0.0
 49
0.0208333333333333
 49
0.0
 49
0.0
 49
0.0
 49
0.0
 49
1.0
 49
0.0
 49
0.0
 49
0.0
 49
0.0
 49
1.0
175
     0
142
0.0208333333333333
142
0.0
142
0.0
142
0.0
142
0.0
142
0.0208333333333333
142
0.0
142
0.0
142
0.0
142
0.0
142
1.0
142
0.0
142
0.0
142
0.0
142
0.0
142
1.0
179
     0
144
0.0208333333333333
144
0.0
144
0.0
144
0.0
144
0.0
144
0.0208333333333333
144
0.0
144
0.0
144
0.0
144
0.0
144
1.0
144
0.0
144
0.0
144
0.0
144
0.0
144
1.0
147
0.0208333333333333
147
0.0
147
0.0
147
0.0
147
0.0
147
0.0208333333333333
147
0.0
147
0.0
147
0.0
147
0.0
147
1.0
147
0.0
147
0.0
147
0.0
147
0.0
147
1.0
  0
MLEADERSTYLE
  5
109B
102
{ACAD_REACTORS
330
109A
102
}
330
109A
100
AcDbMLeaderStyle
170
     2
171
     1
172
     0
 90
        2
 40
0.0
 41
0.0
173
     1
 91
-1056964608
340
11
 92
       -2
290
     1
 42
0.09
291
     1
 43
0.36
  3
Standard
 44
0.18
300

342
17
174
     1
178
     6
175
     1
176
     0
 93
-1056964608
 45
0.18
292
     0
297
     0
 46
0.18
 94
-1056964608
 47
1.0
 49
1.0
140
1.0
293
     1
141
0.0
294
     1
177
     0
142
1.0
295
     0
296
     0
143
0.125
1001
ACAD_MLEADERVER
1070
     2
  0
MLINESTYLE
  5
1C
102
{ACAD_REACTORS
330
1B
102
}
330
1B
100
AcDbMlineStyle
  2
STANDARD
 70
     0
  3

 62
     0
 51
90.0
 52
90.0
 71
     2
 49
0.5
 62
   256
  6
BYLAYER
 49
-0.5
 62
   256
  6
BYLAYER
  0
ACDBPLACEHOLDER
  5
1028
102
{ACAD_REACTORS
330
1027
102
}
330
1027
  0
SCALE
  5
1079
102
{ACAD_REACTORS
330
1078
102
}
330
1078
100
AcDbScale
 70
     0
300
1:1
140
1.0
141
1.0
290
     1
  0
SCALE
  5
107A
102
{ACAD_REACTORS
330
1078
102
}
330
1078
100
AcDbScale
 70
     0
300
1:2
140
1.0
141
2.0
290
     0
  0
SCALE
  5
107B
102
{ACAD_REACTORS
330
1078
102
}
330
1078
100
AcDbScale
 70
     0
300
1:4
140
1.0
141
4.0
290
     0
  0
SCALE
  5
107C
102
{ACAD_REACTORS
330
1078
102
}
330
1078
100
AcDbScale
 70
     0
300
1:5
140
1.0
141
5.0
290
     0
  0
SCALE
  5
107D
102
{ACAD_REACTORS
330
1078
102
}
330
1078
100
AcDbScale
 70
     0
300
1:8
140
1.0
141
8.0
290
     0
  0
SCALE
  5
107E
102
{ACAD_REACTORS
330
1078
102
}
330
1078
100
AcDbScale
 70
     0
300
1:10
140
1.0
141
10.0
290
     0
  0
SCALE
  5
107F
102
{ACAD_REACTORS
330
1078
102
}
330
1078
100
AcDbScale
 70
     0
300
1:16
140
1.0
141
16.0
290
     0
  0
SCALE
  5
1080
102
{ACAD_REACTORS
330
1078
102
}
330
1078
100
AcDbScale
 70
     0
300
1:20
140
1.0
141
20.0
290
     0
  0
SCALE
  5
1081
102
{ACAD_REACTORS
330
1078
102
}
330
1078
100
AcDbScale
 70
     0
300
1:30
140
1.0
141
30.0
290
     0
  0
SCALE
  5
1082
102
{ACAD_REACTORS
330
1078
102
}
330
1078
100
AcDbScale
 70
     0
300
1:40
140
1.0
141
40.0
290
     0
  0
SCALE
  5
1083
102
{ACAD_REACTORS
330
1078
102
}
330
1078
100
AcDbScale
 70
     0
300
1:50
140
1.0
141
50.0
290
     0
  0
SCALE
  5
1084
102
{ACAD_REACTORS
330
1078
102
}
330
1078
100
AcDbScale
 70
     0
300
1:100
140
1.0
141
100.0
290
     0
  0
SCALE
  5
1085
102
{ACAD_REACTORS
330
1078
102
}
330
1078
100
AcDbScale
 70
     0
300
2:1
140
2.0
141
1.0
290
     0
  0
SCALE
  5
1086
102
{ACAD_REACTORS
330
1078
102
}
330
1078
100
AcDbScale
 70
     0
300
4:1
140
4.0
141
1.0
290
     0
  0
SCALE
  5
1087
102
{ACAD_REACTORS
330
1078
102
}
330
1078
100
AcDbScale
 70
     0
300
8:1
140
8.0
141
1.0
290
     0
  0
SCALE
  5
1088
102
{ACAD_REACTORS
330
1078
102
}
330
1078
100
AcDbScale
 70
     0
300
10:1
140
10.0
141
1.0
290
     0
  0
SCALE
  5
1089
102
{ACAD_REACTORS
330
1078
102
}
330
1078
100
AcDbScale
 70
     0
300
100:1
140
100.0
141
1.0
290
     0
  0
SCALE
  5
108A
102
{ACAD_REACTORS
330
1078
102
}
330
1078
100
AcDbScale
 70
     0
300
1/128" = 1'-0"
140
0.0078125
141
12.0
290
     0
  0
SCALE
  5
108B
102
{ACAD_REACTORS
330
1078
102
}
330
1078
100
AcDbScale
 70
     0
300
1/64" = 1'-0"
140
0.015625
141
12.0
290
     0
  0
SCALE
  5
108C
102
{ACAD_REACTORS
330
1078
102
}
330
1078
100
AcDbScale
 70
     0
300
1/32" = 1'-0"
140
0.03125
141
12.0
290
     0
  0
SCALE
  5
108D
102
{ACAD_REACTORS
330
1078
102
}
330
1078
100
AcDbScale
 70
     0
300
1/16" = 1'-0"
140
0.0625
141
12.0
290
     0
  0
SCALE
  5
108E
102
{ACAD_REACTORS
330
1078
102
}
330
1078
100
AcDbScale
 70
     0
300
3/32" = 1'-0"
140
0.09375
141
12.0
290
     0
  0
SCALE
  5
108F
102
{ACAD_REACTORS
330
1078
102
}
330
1078
100
AcDbScale
 70
     0
300
1/8" = 1'-0"
140
0.125
141
12.0
290
     0
  0
SCALE
  5
1090
102
{ACAD_REACTORS
330
1078
102
}
330
1078
100
AcDbScale
 70
     0
300
3/16" = 1'-0"
140
0.1875
141
12.0
290
     0
  0
SCALE
  5
1091
102
{ACAD_REACTORS
330
1078
102
}
330
1078
100
AcDbScale
 70
     0
300
1/4" = 1'-0"
140
0.25
141
12.0
290
     0
  0
SCALE
  5
1092
102
{ACAD_REACTORS
330
1078
102
}
330
1078
100
AcDbScale
 70
     0
300
3/8" = 1'-0"
140
0.375
141
12.0
290
     0
  0
SCALE
  5
1093
102
{ACAD_REACTORS
330
1078
102
}
330
1078
100
AcDbScale
 70
     0
300
1/2" = 1'-0"
140
0.5
141
12.0
290
     0
  0
SCALE
  5
1094
102
{ACAD_REACTORS
330
1078
102
}
330
1078
100
AcDbScale
 70
     0
300
3/4" = 1'-0"
140
0.75
141
12.0
290
     0
  0
SCALE
  5
1095
102
{ACAD_REACTORS
330
1078
102
}
330
1078
100
AcDbScale
 70
     0
300
1" = 1'-0"
140
1.0
141
12.0
290
     0
  0
SCALE
  5
1096
102
{ACAD_REACTORS
330
1078
102
}
330
1078
100
AcDbScale
 70
     0
300
1-1/2" = 1'-0"
140
1.5
141
12.0
290
     0
  0
SCALE
  5
1097
102
{ACAD_REACTORS
330
1078
102
}
330
1078
100
AcDbScale
 70
     0
300
3" = 1'-0"
140
3.0
141
12.0
290
     0
  0
SCALE
  5
1098
102
{ACAD_REACTORS
330
1078
102
}
330
1078
100
AcDbScale
 70
     0
300
6" = 1'-0"
140
6.0
141
12.0
290
     0
  0
SCALE
  5
1099
102
{ACAD_REACTORS
330
1078
102
}
330
1078
100
AcDbScale
 70
     0
300
1'-0" = 1'-0"
140
12.0
141
12.0
290
     0
  0
TABLESTYLE
  5
1077
102
{ACAD_XDICTIONARY
360
10AA
102
}
102
{ACAD_REACTORS
330
1076
102
}
330
1076
100
AcDbTableStyle
  3
Standard
 70
     0
 71
     0
 40
0.06
 41
0.06
280
     0
281
     0
  7
STANDARD
140
0.18
170
     2
 62
     0
 63
     7
283
     0
274
    -2
284
     1
 64
     0
275
    -2
285
     1
 65
     0
276
    -2
286
     1
 66
     0
277
    -2
287
     1
 67
     0
278
    -2
288
     1
 68
     0
279
    -2
289
     1
 69
     0
  7
STANDARD
140
0.25
170
     5
 62
     0
 63
     7
283
     0
274
    -2
284
     1
 64
     0
275
    -2
285
     1
 65
     0
276
    -2
286
     1
 66
     0
277
    -2
287
     1
 67
     0
278
    -2
288
     1
 68
     0
279
    -2
289
     1
 69
     0
  7
STANDARD
140
0.18
170
     5
 62
     0
 63
     7
283
     0
274
    -2
284
     1
 64
     0
275
    -2
285
     1
 65
     0
276
    -2
286
     1
 66
     0
277
    -2
287
     1
 67
     0
278
    -2
288
     1
 68
     0
279
    -2
289
     1
 69
     0
  0
VISUALSTYLE
  5
1067
102
{ACAD_XDICTIONARY
360
10BF
102
}
102
{ACAD_REACTORS
330
1061
102
}
330
1061
100
AcDbVisualStyle
  2
2dWireframe
 70
     4
 71
     0
 72
     2
 73
     0
 90
        0
 40
-0.6
 41
-30.0
 62
     5
 63
     7
 74
     1
 91
        4
 64
     7
 65
   257
 75
     1
175
     1
 42
1.0
 92
        0
 66
   257
 43
1.0
 76
     1
 77
     6
 78
     2
 67
     7
 79
     5
170
     0
171
     0
290
     0
174
     0
 93
        1
 44
0.0
173
     0
291
     0
 45
0.0
1001
ACAD
1000
AcDbSavedByObjectVersion
1070
     0
  0
VISUALSTYLE
  5
1069
102
{ACAD_XDICTIONARY
360
10C3
102
}
102
{ACAD_REACTORS
330
1061
102
}
330
1061
100
AcDbVisualStyle
  2
3D Hidden
 70
     6
 71
     1
 72
     2
 73
     2
 90
        0
 40
-0.6
 41
-30.0
 62
     5
 63
     7
 74
     2
 91
        2
 64
     7
 65
   257
 75
     2
175
     1
 42
179.0
 92
        0
 66
   257
 43
1.0
 76
     1
 77
     6
 78
     2
 67
     7
 79
     3
170
     0
171
     0
290
     0
174
     0
 93
        1
 44
0.0
173
     0
291
     0
 45
0.0
1001
ACAD
1000
AcDbSavedByObjectVersion
1070
     0
  0
VISUALSTYLE
  5
1068
102
{ACAD_XDICTIONARY
360
10C1
102
}
102
{ACAD_REACTORS
330
1061
102
}
330
1061
100
AcDbVisualStyle
  2
3dWireframe
 70
     5
 71
     0
 72
     2
 73
     0
 90
        0
 40
-0.6
 41
-30.0
 62
     5
 63
     7
 74
     1
 91
        4
 64
     7
 65
   257
 75
     1
175
     1
 42
1.0
 92
        0
 66
   257
 43
1.0
 76
     1
 77
     6
 78
     2
 67
     7
 79
     5
170
     0
171
     0
290
     0
174
     0
 93
        1
 44
0.0
173
     0
291
     0
 45
0.0
1001
ACAD
1000
AcDbSavedByObjectVersion
1070
     0
  0
VISUALSTYLE
  5
1066
102
{ACAD_XDICTIONARY
360
10BD
102
}
102
{ACAD_REACTORS
330
1061
102
}
330
1061
100
AcDbVisualStyle
  2
Basic
 70
     7
 71
     1
 72
     0
 73
     1
 90
        0
 40
-0.6
 41
-30.0
 62
     5
 63
     7
 74
     0
 91
        4
 64
     7
 65
   257
 75
     1
175
     1
 42
1.0
 92
        8
 66
     7
 43
1.0
 76
     1
 77
     6
 78
     2
 67
     7
 79
     5
170
     0
171
     0
290
     0
174
     0
 93
        1
 44
0.0
173
     0
291
     1
 45
0.0
1001
ACAD
1000
AcDbSavedByObjectVersion
1070
     0
  0
VISUALSTYLE
  5
106D
102
{ACAD_XDICTIONARY
360
10CB
102
}
102
{ACAD_REACTORS
330
1061
102
}
330
1061
100
AcDbVisualStyle
  2
Brighten
 70
    12
 71
     2
 72
     2
 73
     0
 90
        0
 40
-0.6
 41
-30.0
 62
     5
 63
     7
 74
     1
 91
        4
 64
     7
 65
   257
 75
     1
175
     1
 42
1.0
 92
        8
 66
     7
 43
1.0
 76
     1
 77
     6
 78
     2
 67
     7
 79
     5
170
     0
171
     0
290
     0
174
     0
 93
        1
 44
50.0
173
     0
291
     1
 45
0.0
1001
ACAD
1000
AcDbSavedByObjectVersion
1070
     0
  0
VISUALSTYLE
  5
1071
102
{ACAD_XDICTIONARY
360
10D3
102
}
102
{ACAD_REACTORS
330
1061
102
}
330
1061
100
AcDbVisualStyle
  2
ColorChange
 70
    16
 71
     2
 72
     2
 73
     3
 90
        0
 40
-0.6
 41
-30.0
 62
     5
 63
     8
 74
     1
 91
        4
 64
     7
 65
   257
 75
     1
175
     1
 42
1.0
 92
        8
 66
     8
 43
1.0
 76
     1
 77
     6
 78
     2
 67
     7
 79
     5
170
     0
171
     0
290
     0
174
     0
 93
        1
 44
0.0
173
     0
291
     1
 45
0.0
1001
ACAD
1000
AcDbSavedByObjectVersion
1070
     0
  0
VISUALSTYLE
  5
106A
102
{ACAD_XDICTIONARY
360
10C5
102
}
102
{ACAD_REACTORS
330
1061
102
}
330
1061
100
AcDbVisualStyle
  2
Conceptual
 70
     9
 71
     3
 72
     2
 73
     0
 90
        0
 40
-0.6
 41
-30.0
 62
     5
 63
     7
 74
     2
 91
        2
 64
     7
 65
   257
 75
     1
175
     1
 42
179.0
 92
        8
 66
     7
 43
1.0
 76
     1
 77
     6
 78
     2
 67
     7
 79
     3
170
     0
171
     0
290
     0
174
     0
 93
        1
 44
0.0
173
     0
291
     0
 45
0.0
1001
ACAD
1000
AcDbSavedByObjectVersion
1070
     0
  0
VISUALSTYLE
  5
106C
102
{ACAD_XDICTIONARY
360
10C9
102
}
102
{ACAD_REACTORS
330
1061
102
}
330
1061
100
AcDbVisualStyle
  2
Dim
 70
    11
 71
     2
 72
     2
 73
     0
 90
        0
 40
-0.6
 41
-30.0
 62
     5
 63
     7
 74
     1
 91
        4
 64
     7
 65
   257
 75
     1
175
     1
 42
1.0
 92
        8
 66
     7
 43
1.0
 76
     1
 77
     6
 78
     2
 67
     7
 79
     5
170
     0
171
     0
290
     0
174
     0
 93
        1
 44
-50.0
173
     0
291
     1
 45
0.0
1001
ACAD
1000
AcDbSavedByObjectVersion
1070
     0
  0
VISUALSTYLE
  5
1074
102
{ACAD_XDICTIONARY
360
10D9
102
}
102
{ACAD_REACTORS
330
1061
102
}
330
1061
100
AcDbVisualStyle
  2
EdgeColorOff
 70
    22
 71
     2
 72
     2
 73
     0
 90
        0
 40
-0.6
 41
-30.0
 62
     5
 63
     7
 74
     1
 91
        4
 64
     7
 65
   257
 75
     1
175
     1
 42
1.0
 92
        8
 66
     7
 43
1.0
 76
     1
 77
     6
 78
     2
 67
     7
 79
     5
170
     0
171
     0
290
     0
174
     0
 93
        1
 44
0.0
173
     0
291
     1
 45
0.0
1001
ACAD
1000
AcDbSavedByObjectVersion
1070
     0
  0
VISUALSTYLE
  5
1070
102
{ACAD_XDICTIONARY
360
10D1
102
}
102
{ACAD_REACTORS
330
1061
102
}
330
1061
100
AcDbVisualStyle
  2
Facepattern
 70
    15
 71
     2
 72
     2
 73
     0
 90
        0
 40
-0.6
 41
-30.0
 62
     5
 63
     7
 74
     1
 91
        4
 64
     7
 65
   257
 75
     1
175
     1
 42
1.0
 92
        8
 66
     7
 43
1.0
 76
     1
 77
     6
 78
     2
 67
     7
 79
     5
170
     0
171
     0
290
     0
174
     0
 93
        1
 44
0.0
173
     0
291
     1
 45
0.0
1001
ACAD
1000
AcDbSavedByObjectVersion
1070
     0
  0
VISUALSTYLE
  5
1062
102
{ACAD_XDICTIONARY
360
10B5
102
}
102
{ACAD_REACTORS
330
1061
102
}
330
1061
100
AcDbVisualStyle
  2
Flat
 70
     0
 71
     2
 72
     1
 73
     1
 90
        2
 40
-0.6
 41
30.0
 62
     5
 63
     7
 74
     0
 91
        4
 64
     7
 65
   257
 75
     1
175
     1
 42
1.0
 92
        8
 66
     7
 43
1.0
 76
     1
 77
     6
 78
     2
 67
     7
 79
     5
170
     0
171
     0
290
     0
174
     0
 93
       13
 44
0.0
173
     0
291
     1
 45
0.0
1001
ACAD
1000
AcDbSavedByObjectVersion
1070
     0
  0
VISUALSTYLE
  5
1063
102
{ACAD_XDICTIONARY
360
10B7
102
}
102
{ACAD_REACTORS
330
1061
102
}
330
1061
100
AcDbVisualStyle
  2
FlatWithEdges
 70
     1
 71
     2
 72
     1
 73
     1
 90
        2
 40
-0.6
 41
30.0
 62
     5
 63
     7
 74
     1
 91
        4
 64
     7
 65
   257
 75
     1
175
     1
 42
1.0
 92
        0
 66
   257
 43
1.0
 76
     1
 77
     6
 78
     2
 67
     7
 79
     5
170
     0
171
     0
290
     0
174
     0
 93
       13
 44
0.0
173
     0
291
     1
 45
0.0
1001
ACAD
1000
AcDbSavedByObjectVersion
1070
     0
  0
VISUALSTYLE
  5
1064
102
{ACAD_XDICTIONARY
360
10B9
102
}
102
{ACAD_REACTORS
330
1061
102
}
330
1061
100
AcDbVisualStyle
  2
Gouraud
 70
     2
 71
     2
 72
     2
 73
     1
 90
        2
 40
-0.6
 41
30.0
 62
     5
 63
     7
 74
     0
 91
        4
 64
     7
 65
   257
 75
     1
175
     1
 42
1.0
 92
        0
 66
     7
 43
1.0
 76
     1
 77
     6
 78
     2
 67
     7
 79
     5
170
     0
171
     0
290
     0
174
     0
 93
       13
 44
0.0
173
     0
291
     1
 45
0.0
1001
ACAD
1000
AcDbSavedByObjectVersion
1070
     0
  0
VISUALSTYLE
  5
1065
102
{ACAD_XDICTIONARY
360
10BB
102
}
102
{ACAD_REACTORS
330
1061
102
}
330
1061
100
AcDbVisualStyle
  2
GouraudWithEdges
 70
     3
 71
     2
 72
     2
 73
     1
 90
        2
 40
-0.6
 41
30.0
 62
     5
 63
     7
 74
     1
 91
        4
 64
     7
 65
   257
 75
     1
175
     1
 42
1.0
 92
        0
 66
   257
 43
1.0
 76
     1
 77
     6
 78
     2
 67
     7
 79
     5
170
     0
171
     0
290
     0
174
     0
 93
       13
 44
0.0
173
     0
291
     1
 45
0.0
1001
ACAD
1000
AcDbSavedByObjectVersion
1070
     0
  0
VISUALSTYLE
  5
1072
102
{ACAD_XDICTIONARY
360
10D5
102
}
102
{ACAD_REACTORS
330
1061
102
}
330
1061
100
AcDbVisualStyle
  2
JitterOff
 70
    20
 71
     2
 72
     2
 73
     0
 90
        0
 40
-0.6
 41
-30.0
 62
     5
 63
     7
 74
     1
 91
        4
 64
     7
 65
   257
 75
     1
175
     1
 42
1.0
 92
       10
 66
     7
 43
1.0
 76
     1
 77
     6
 78
     2
 67
     7
 79
     5
170
     0
171
     0
290
     0
174
     0
 93
        1
 44
0.0
173
     0
291
     1
 45
0.0
1001
ACAD
1000
AcDbSavedByObjectVersion
1070
     0
  0
VISUALSTYLE
  5
106F
102
{ACAD_XDICTIONARY
360
10CF
102
}
102
{ACAD_REACTORS
330
1061
102
}
330
1061
100
AcDbVisualStyle
  2
Linepattern
 70
    14
 71
     2
 72
     2
 73
     0
 90
        0
 40
-0.6
 41
-30.0
 62
     5
 63
     7
 74
     1
 91
        4
 64
     7
 65
   257
 75
     7
175
     7
 42
1.0
 92
        8
 66
     7
 43
1.0
 76
     1
 77
     6
 78
     2
 67
     7
 79
     5
170
     0
171
     0
290
     0
174
     0
 93
        1
 44
0.0
173
     0
291
     1
 45
0.0
1001
ACAD
1000
AcDbSavedByObjectVersion
1070
     0
  0
VISUALSTYLE
  5
1073
102
{ACAD_XDICTIONARY
360
10D7
102
}
102
{ACAD_REACTORS
330
1061
102
}
330
1061
100
AcDbVisualStyle
  2
OverhangOff
 70
    21
 71
     2
 72
     2
 73
     0
 90
        0
 40
-0.6
 41
-30.0
 62
     5
 63
     7
 74
     1
 91
        4
 64
     7
 65
   257
 75
     1
175
     1
 42
1.0
 92
        9
 66
     7
 43
1.0
 76
     1
 77
     6
 78
     2
 67
     7
 79
     5
170
     0
171
     0
290
     0
174
     0
 93
        1
 44
0.0
173
     0
291
     1
 45
0.0
1001
ACAD
1000
AcDbSavedByObjectVersion
1070
     0
  0
VISUALSTYLE
  5
106B
102
{ACAD_XDICTIONARY
360
10C7
102
}
102
{ACAD_REACTORS
330
1061
102
}
330
1061
100
AcDbVisualStyle
  2
Realistic
 70
     8
 71
     2
 72
     2
 73
     0
 90
        0
 40
-0.6
 41
-30.0
 62
     5
 63
     7
 74
     1
 91
        0
 64
     7
 65
   257
 75
     1
175
     1
 42
1.0
 92
        8
 66
     8
 43
1.0
 76
     1
 77
     6
 78
     2
 67
     7
 79
     5
170
     0
171
     0
290
     0
174
     0
 93
       13
 44
0.0
173
     0
291
     0
 45
0.0
1001
ACAD
1000
AcDbSavedByObjectVersion
1070
     0
  0
VISUALSTYLE
  5
106E
102
{ACAD_XDICTIONARY
360
10CD
102
}
102
{ACAD_REACTORS
330
1061
102
}
330
1061
100
AcDbVisualStyle
  2
Thicken
 70
    13
 71
     2
 72
     2
 73
     0
 90
        0
 40
-0.6
 41
-30.0
 62
     5
 63
     7
 74
     1
 91
        4
 64
     7
 65
   257
 75
     1
175
     1
 42
1.0
 92
       12
 66
     7
 43
1.0
 76
     1
 77
     6
 78
     2
 67
     7
 79
     5
170
     0
171
     0
290
     0
174
     0
 93
        1
 44
0.0
173
     0
291
     1
 45
0.0
1001
ACAD
1000
AcDbSavedByObjectVersion
1070
     0
  0
DICTIONARYVAR
  5
10A6
102
{ACAD_REACTORS
330
1045
102
}
330
1045
100
DictionaryVariables
280
     0
  1
1:1
  0
DICTIONARYVAR
  5
10A5
102
{ACAD_REACTORS
330
1045
102
}
330
1045
100
DictionaryVariables
280
     0
  1
STANDARD
  0
DICTIONARYVAR
  5
10A4
102
{ACAD_REACTORS
330
1045
102
}
330
1045
100
DictionaryVariables
280
     0
  1
STANDARD
  0
DICTIONARYVAR
  5
1046
102
{ACAD_REACTORS
330
1045
102
}
330
1045
100
DictionaryVariables
280
     0
  1
1
  0
DICTIONARYVAR
  5
10A8
102
{ACAD_REACTORS
330
1045
102
}
330
1045
100
DictionaryVariables
280
     0
  1
0
  0
DICTIONARYVAR
  5
10A7
102
{ACAD_REACTORS
330
1045
102
}
330
1045
100
DictionaryVariables
280
     0
  1
127
  0
DICTIONARYVAR
  5
10A9
102
{ACAD_REACTORS
330
1045
102
}
330
1045
100
DictionaryVariables
280
     0
  1
2
  0
XRECORD
  5
1043
102
{ACAD_REACTORS
330
1041
102
}
330
1041
100
AcDbXrecord
280
     1
330
8F
330
93
330
98
330
9C
330
A0
330
A4
330
A8
330
AC
330
B0
330
B4
330
B8
330
BC
330
C0
330
C5
330
C9
  0
DICTIONARY
  5
10B0
330
102C
100
AcDbDictionary
280
     1
281
     1
  3
ACAD_XREC_ROUNDTRIP
360
10B1
  0
DICTIONARY
  5
10AE
330
102B
100
AcDbDictionary
280
     1
281
     1
  3
ACAD_XREC_ROUNDTRIP
360
10AF
  0
DICTIONARY
  5
1052
330
1051
100
AcDbDictionary
280
     1
281
     1
  3
ACAD_XREC_ROUNDTRIP
360
10B3
  3
BUMPTILE
360
1054
  3
DIFFUSETILE
360
1053
  3
OPACITYTILE
360
1057
  3
REFLECTIONTILE
360
1056
  3
REFRACTIONTILE
360
1058
  3
SPECULARTILE
360
1055
  0
DICTIONARY
  5
104A
330
1049
100
AcDbDictionary
280
     1
281
     1
  3
ACAD_XREC_ROUNDTRIP
360
10B2
  3
BUMPTILE
360
104C
  3
DIFFUSETILE
360
104B
  3
OPACITYTILE
360
104F
  3
REFLECTIONTILE
360
104E
  3
REFRACTIONTILE
360
1050
  3
SPECULARTILE
360
104D
  0
DICTIONARY
  5
105A
330
1059
100
AcDbDictionary
280
     1
281
     1
  3
ACAD_XREC_ROUNDTRIP
360
10B4
  3
BUMPTILE
360
105C
  3
DIFFUSETILE
360
105B
  3
OPACITYTILE
360
105F
  3
REFLECTIONTILE
360
105E
  3
REFRACTIONTILE
360
1060
  3
SPECULARTILE
360
105D
  0
DICTIONARY
  5
10AA
330
1077
100
AcDbDictionary
280
     1
281
     1
  3
ACAD_ROUNDTRIP_2008_TABLESTYLE_CELLSTYLEMAP
360
10AB
  3
ACAD_XREC_ROUNDTRIP
360
10DB
  0
DICTIONARY
  5
10BF
330
1067
100
AcDbDictionary
280
     1
281
     1
  3
ACAD_XREC_ROUNDTRIP
360
10C0
  0
DICTIONARY
  5
10C3
330
1069
100
AcDbDictionary
280
     1
281
     1
  3
ACAD_XREC_ROUNDTRIP
360
10C4
  0
DICTIONARY
  5
10C1
330
1068
100
AcDbDictionary
280
     1
281
     1
  3
ACAD_XREC_ROUNDTRIP
360
10C2
  0
DICTIONARY
  5
10BD
330
1066
100
AcDbDictionary
280
     1
281
     1
  3
ACAD_XREC_ROUNDTRIP
360
10BE
  0
DICTIONARY
  5
10CB
330
106D
100
AcDbDictionary
280
     1
281
     1
  3
ACAD_XREC_ROUNDTRIP
360
10CC
  0
DICTIONARY
  5
10D3
330
1071
100
AcDbDictionary
280
     1
281
     1
  3
ACAD_XREC_ROUNDTRIP
360
10D4
  0
DICTIONARY
  5
10C5
330
106A
100
AcDbDictionary
280
     1
281
     1
  3
ACAD_XREC_ROUNDTRIP
360
10C6
  0
DICTIONARY
  5
10C9
330
106C
100
AcDbDictionary
280
     1
281
     1
  3
ACAD_XREC_ROUNDTRIP
360
10CA
  0
DICTIONARY
  5
10D9
330
1074
100
AcDbDictionary
280
     1
281
     1
  3
ACAD_XREC_ROUNDTRIP
360
10DA
  0
DICTIONARY
  5
10D1
330
1070
100
AcDbDictionary
280
     1
281
     1
  3
ACAD_XREC_ROUNDTRIP
360
10D2
  0
DICTIONARY
  5
10B5
330
1062
100
AcDbDictionary
280
     1
281
     1
  3
ACAD_XREC_ROUNDTRIP
360
10B6
  0
DICTIONARY
  5
10B7
330
1063
100
AcDbDictionary
280
     1
281
     1
  3
ACAD_XREC_ROUNDTRIP
360
10B8
  0
DICTIONARY
  5
10B9
330
1064
100
AcDbDictionary
280
     1
281
     1
  3
ACAD_XREC_ROUNDTRIP
360
10BA
  0
DICTIONARY
  5
10BB
330
1065
100
AcDbDictionary
280
     1
281
     1
  3
ACAD_XREC_ROUNDTRIP
360
10BC
  0
DICTIONARY
  5
10D5
330
1072
100
AcDbDictionary
280
     1
281
     1
  3
ACAD_XREC_ROUNDTRIP
360
10D6
  0
DICTIONARY
  5
10CF
330
106F
100
AcDbDictionary
280
     1
281
     1
  3
ACAD_XREC_ROUNDTRIP
360
10D0
  0
DICTIONARY
  5
10D7
330
1073
100
AcDbDictionary
280
     1
281
     1
  3
ACAD_XREC_ROUNDTRIP
360
10D8
  0
DICTIONARY
  5
10C7
330
106B
100
AcDbDictionary
280
     1
281
     1
  3
ACAD_XREC_ROUNDTRIP
360
10C8
  0
DICTIONARY
  5
10CD
330
106E
100
AcDbDictionary
280
     1
281
     1
  3
ACAD_XREC_ROUNDTRIP
360
10CE
  0
XRECORD
  5
10B1
102
{ACAD_REACTORS
330
10B0
102
}
330
10B0
100
AcDbXrecord
280
     1
102
SHADEPLOT
 70
     0
102
SHADEPLOTRESLEVEL
 70
     2
102
SHADEPLOTCUSTOMDPI
 70
   300
  0
XRECORD
  5
10AF
102
{ACAD_REACTORS
330
10AE
102
}
330
10AE
100
AcDbXrecord
280
     1
102
SHADEPLOT
 70
     0
102
SHADEPLOTRESLEVEL
 70
     2
102
SHADEPLOTCUSTOMDPI
 70
   300
  0
XRECORD
  5
10B3
102
{ACAD_REACTORS
330
1052
102
}
330
1052
100
AcDbXrecord
280
     1
102
MATERIAL
148
0.0
149
0.0
149
0.0
 93
        0
 94
      127
282
     0
 72
     0
 77
     0
171
     0
175
     0
179
     0
273
     0
  0
XRECORD
  5
1054
102
{ACAD_REACTORS
330
1052
102
}
330
1052
100
AcDbXrecord
280
     1
270
     1
271
     1
  0
XRECORD
  5
1053
102
{ACAD_REACTORS
330
1052
102
}
330
1052
100
AcDbXrecord
280
     1
270
     1
271
     1
  0
XRECORD
  5
1057
102
{ACAD_REACTORS
330
1052
102
}
330
1052
100
AcDbXrecord
280
     1
270
     1
271
     1
  0
XRECORD
  5
1056
102
{ACAD_REACTORS
330
1052
102
}
330
1052
100
AcDbXrecord
280
     1
270
     1
271
     1
  0
XRECORD
  5
1058
102
{ACAD_REACTORS
330
1052
102
}
330
1052
100
AcDbXrecord
280
     1
270
     1
271
     1
  0
XRECORD
  5
1055
102
{ACAD_REACTORS
330
1052
102
}
330
1052
100
AcDbXrecord
280
     1
270
     1
271
     1
  0
XRECORD
  5
10B2
102
{ACAD_REACTORS
330
104A
102
}
330
104A
100
AcDbXrecord
280
     1
102
MATERIAL
148
0.0
149
0.0
149
0.0
 93
        0
 94
      127
282
     0
 72
     0
 77
     0
171
     0
175
     0
179
     0
273
     0
  0
XRECORD
  5
104C
102
{ACAD_REACTORS
330
104A
102
}
330
104A
100
AcDbXrecord
280
     1
270
     1
271
     1
  0
XRECORD
  5
104B
102
{ACAD_REACTORS
330
104A
102
}
330
104A
100
AcDbXrecord
280
     1
270
     1
271
     1
  0
XRECORD
  5
104F
102
{ACAD_REACTORS
330
104A
102
}
330
104A
100
AcDbXrecord
280
     1
270
     1
271
     1
  0
XRECORD
  5
104E
102
{ACAD_REACTORS
330
104A
102
}
330
104A
100
AcDbXrecord
280
     1
270
     1
271
     1
  0
XRECORD
  5
1050
102
{ACAD_REACTORS
330
104A
102
}
330
104A
100
AcDbXrecord
280
     1
270
     1
271
     1
  0
XRECORD
  5
104D
102
{ACAD_REACTORS
330
104A
102
}
330
104A
100
AcDbXrecord
280
     1
270
     1
271
     1
  0
XRECORD
  5
10B4
102
{ACAD_REACTORS
330
105A
102
}
330
105A
100
AcDbXrecord
280
     1
102
MATERIAL
148
0.0
149
0.0
149
0.0
 93
        0
 94
      127
282
     0
 72
     0
 77
     0
171
     0
175
     0
179
     0
273
     0
  0
XRECORD
  5
105C
102
{ACAD_REACTORS
330
105A
102
}
330
105A
100
AcDbXrecord
280
     1
270
     1
271
     1
  0
XRECORD
  5
105B
102
{ACAD_REACTORS
330
105A
102
}
330
105A
100
AcDbXrecord
280
     1
270
     1
271
     1
  0
XRECORD
  5
105F
102
{ACAD_REACTORS
330
105A
102
}
330
105A
100
AcDbXrecord
280
     1
270
     1
271
     1
  0
XRECORD
  5
105E
102
{ACAD_REACTORS
330
105A
102
}
330
105A
100
AcDbXrecord
280
     1
270
     1
271
     1
  0
XRECORD
  5
1060
102
{ACAD_REACTORS
330
105A
102
}
330
105A
100
AcDbXrecord
280
     1
270
     1
271
     1
  0
XRECORD
  5
105D
102
{ACAD_REACTORS
330
105A
102
}
330
105A
100
AcDbXrecord
280
     1
270
     1
271
     1
  0
CELLSTYLEMAP
  5
10AB
102
{ACAD_REACTORS
330
10AA
102
}
330
10AA
100
AcDbCellStyleMap
 90
        3
300
CELLSTYLE
  1
TABLEFORMAT_BEGIN
 90
        5
170
     1
 91
        0
 92
    32768
 62
   257
 93
        1
300
CONTENTFORMAT
  1
CONTENTFORMAT_BEGIN
 90
        0
 91
        0
 92
      512
 93
        0
300

 40
0.0
140
1.0
 94
        5
 62
     0
340
17
144
0.25
309
CONTENTFORMAT_END
171
     0
 94
        0
309
TABLEFORMAT_END
  1
CELLSTYLE_BEGIN
 90
        1
 91
        1
300
_TITLE
309
CELLSTYLE_END
300
CELLSTYLE
  1
TABLEFORMAT_BEGIN
 90
        5
170
     1
 91
        0
 92
        0
 62
   257
 93
        1
300
CONTENTFORMAT
  1
CONTENTFORMAT_BEGIN
 90
        0
 91
        0
 92
      512
 93
        0
300

 40
0.0
140
1.0
 94
        5
 62
     0
340
17
144
0.18
309
CONTENTFORMAT_END
171
     0
 94
        0
309
TABLEFORMAT_END
  1
CELLSTYLE_BEGIN
 90
        2
 91
        1
300
_HEADER
309
CELLSTYLE_END
300
CELLSTYLE
  1
TABLEFORMAT_BEGIN
 90
        5
170
     1
 91
        0
 92
        0
 62
   257
 93
        1
300
CONTENTFORMAT
  1
CONTENTFORMAT_BEGIN
 90
        0
 91
        0
 92
      512
 93
        0
300

 40
0.0
140
1.0
 94
        2
 62
     0
340
17
144
0.18
309
CONTENTFORMAT_END
171
     0
 94
        0
309
TABLEFORMAT_END
  1
CELLSTYLE_BEGIN
 90
        3
 91
        2
300
_DATA
309
CELLSTYLE_END
  0
XRECORD
  5
10DB
102
{ACAD_REACTORS
330
10AA
102
}
330
10AA
100
AcDbXrecord
280
     1
102
ACAD_ROUNDTRIP_PRE2007_TABLESTYLE
 90
      512
 91
        0
  1

 92
      512
 93
        0
  2

 94
      512
 95
        0
  3

  0
XRECORD
  5
10C0
102
{ACAD_REACTORS
330
10BF
102
}
330
10BF
100
AcDbXrecord
280
     1
102
RTVSPropertyOp0
 70
     1
102
RTVSPropertyOp1
 70
     1
102
RTVSPropertyOp2
 70
     1
102
RTVSPropertyOp3
 70
     1
102
RTVSPropertyOp4
 70
     1
102
RTVSPropertyOp5
 70
     1
102
RTVSPropertyOp6
 70
     1
102
RTVSPropertyOp7
 70
     1
102
RTVSPropertyOp8
 70
     1
102
RTVSPropertyOp9
 70
     1
102
RTVSPropertyOp10
 70
     1
102
RTVSPropertyOp11
 70
     1
102
RTVSPropertyOp12
 70
     1
102
RTVSPropertyOp13
 70
     1
102
RTVSPropertyOp14
 70
     1
102
RTVSPropertyOp15
 70
     1
102
RTVSPropertyOp16
 70
     1
102
RTVSPropertyOp17
 70
     1
102
RTVSPropertyOp18
 70
     1
102
RTVSPropertyOp19
 70
     1
102
RTVSPropertyOp20
 70
     1
102
RTVSPropertyOp21
 70
     1
102
RTVSPropertyOp22
 70
     1
102
RTVSPropertyOp23
 70
     1
102
RTVSPropertyOp24
 70
     1
102
RTVSPropertyOp25
 70
     1
102
RTVSPropertyOp26
 70
     1
102
RTVSPropertyOp27
 70
     1
  0
XRECORD
  5
10C4
102
{ACAD_REACTORS
330
10C3
102
}
330
10C3
100
AcDbXrecord
280
     1
102
RTVSPropertyOp0
 70
     1
102
RTVSPropertyOp1
 70
     1
102
RTVSPropertyOp2
 70
     1
102
RTVSPropertyOp3
 70
     1
102
RTVSPropertyOp4
 70
     1
102
RTVSPropertyOp5
 70
     1
102
RTVSPropertyOp6
 70
     1
102
RTVSPropertyOp7
 70
     1
102
RTVSPropertyOp8
 70
     1
102
RTVSPropertyOp9
 70
     1
102
RTVSPropertyOp10
 70
     1
102
RTVSPropertyOp11
 70
     1
102
RTVSPropertyOp12
 70
     1
102
RTVSPropertyOp13
 70
     1
102
RTVSPropertyOp14
 70
     1
102
RTVSPropertyOp15
 70
     1
102
RTVSPropertyOp16
 70
     1
102
RTVSPropertyOp17
 70
     1
102
RTVSPropertyOp18
 70
     1
102
RTVSPropertyOp19
 70
     1
102
RTVSPropertyOp20
 70
     1
102
RTVSPropertyOp21
 70
     1
102
RTVSPropertyOp22
 70
     1
102
RTVSPropertyOp23
 70
     1
102
RTVSPropertyOp24
 70
     1
102
RTVSPropertyOp25
 70
     1
102
RTVSPropertyOp26
 70
     1
102
RTVSPropertyOp27
 70
     1
  0
XRECORD
  5
10C2
102
{ACAD_REACTORS
330
10C1
102
}
330
10C1
100
AcDbXrecord
280
     1
102
RTVSPropertyOp0
 70
     1
102
RTVSPropertyOp1
 70
     1
102
RTVSPropertyOp2
 70
     1
102
RTVSPropertyOp3
 70
     1
102
RTVSPropertyOp4
 70
     1
102
RTVSPropertyOp5
 70
     1
102
RTVSPropertyOp6
 70
     1
102
RTVSPropertyOp7
 70
     1
102
RTVSPropertyOp8
 70
     1
102
RTVSPropertyOp9
 70
     1
102
RTVSPropertyOp10
 70
     1
102
RTVSPropertyOp11
 70
     1
102
RTVSPropertyOp12
 70
     1
102
RTVSPropertyOp13
 70
     1
102
RTVSPropertyOp14
 70
     1
102
RTVSPropertyOp15
 70
     1
102
RTVSPropertyOp16
 70
     1
102
RTVSPropertyOp17
 70
     1
102
RTVSPropertyOp18
 70
     1
102
RTVSPropertyOp19
 70
     1
102
RTVSPropertyOp20
 70
     1
102
RTVSPropertyOp21
 70
     1
102
RTVSPropertyOp22
 70
     1
102
RTVSPropertyOp23
 70
     1
102
RTVSPropertyOp24
 70
     1
102
RTVSPropertyOp25
 70
     1
102
RTVSPropertyOp26
 70
     1
102
RTVSPropertyOp27
 70
     1
  0
XRECORD
  5
10BE
102
{ACAD_REACTORS
330
10BD
102
}
330
10BD
100
AcDbXrecord
280
     1
102
RTVSPropertyOp0
 70
     1
102
RTVSPropertyOp1
 70
     1
102
RTVSPropertyOp2
 70
     1
102
RTVSPropertyOp3
 70
     1
102
RTVSPropertyOp4
 70
     1
102
RTVSPropertyOp5
 70
     1
102
RTVSPropertyOp6
 70
     1
102
RTVSPropertyOp7
 70
     1
102
RTVSPropertyOp8
 70
     1
102
RTVSPropertyOp9
 70
     1
102
RTVSPropertyOp10
 70
     1
102
RTVSPropertyOp11
 70
     1
102
RTVSPropertyOp12
 70
     1
102
RTVSPropertyOp13
 70
     1
102
RTVSPropertyOp14
 70
     1
102
RTVSPropertyOp15
 70
     1
102
RTVSPropertyOp16
 70
     1
102
RTVSPropertyOp17
 70
     1
102
RTVSPropertyOp18
 70
     1
102
RTVSPropertyOp19
 70
     1
102
RTVSPropertyOp20
 70
     1
102
RTVSPropertyOp21
 70
     1
102
RTVSPropertyOp22
 70
     1
102
RTVSPropertyOp23
 70
     1
102
RTVSPropertyOp24
 70
     1
102
RTVSPropertyOp25
 70
     1
102
RTVSPropertyOp26
 70
     1
102
RTVSPropertyOp27
 70
     1
  0
XRECORD
  5
10CC
102
{ACAD_REACTORS
330
10CB
102
}
330
10CB
100
AcDbXrecord
280
     1
102
RTVSPropertyOp0
 70
     1
102
RTVSPropertyOp1
 70
     1
102
RTVSPropertyOp2
 70
     1
102
RTVSPropertyOp3
 70
     1
102
RTVSPropertyOp4
 70
     1
102
RTVSPropertyOp5
 70
     1
102
RTVSPropertyOp6
 70
     1
102
RTVSPropertyOp7
 70
     1
102
RTVSPropertyOp8
 70
     1
102
RTVSPropertyOp9
 70
     1
102
RTVSPropertyOp10
 70
     1
102
RTVSPropertyOp11
 70
     1
102
RTVSPropertyOp12
 70
     1
102
RTVSPropertyOp13
 70
     1
102
RTVSPropertyOp14
 70
     1
102
RTVSPropertyOp15
 70
     1
102
RTVSPropertyOp16
 70
     1
102
RTVSPropertyOp17
 70
     1
102
RTVSPropertyOp18
 70
     1
102
RTVSPropertyOp19
 70
     1
102
RTVSPropertyOp20
 70
     1
102
RTVSPropertyOp21
 70
     1
102
RTVSPropertyOp22
 70
     1
102
RTVSPropertyOp23
 70
     1
102
RTVSPropertyOp24
 70
     1
102
RTVSPropertyOp25
 70
     1
102
RTVSPropertyOp26
 70
     1
102
RTVSPropertyOp27
 70
     1
  0
XRECORD
  5
10D4
102
{ACAD_REACTORS
330
10D3
102
}
330
10D3
100
AcDbXrecord
280
     1
102
RTVSPropertyOp0
 70
     1
102
RTVSPropertyOp1
 70
     1
102
RTVSPropertyOp2
 70
     1
102
RTVSPropertyOp3
 70
     1
102
RTVSPropertyOp4
 70
     1
102
RTVSPropertyOp5
 70
     1
102
RTVSPropertyOp6
 70
     1
102
RTVSPropertyOp7
 70
     1
102
RTVSPropertyOp8
 70
     1
102
RTVSPropertyOp9
 70
     1
102
RTVSPropertyOp10
 70
     1
102
RTVSPropertyOp11
 70
     1
102
RTVSPropertyOp12
 70
     1
102
RTVSPropertyOp13
 70
     1
102
RTVSPropertyOp14
 70
     1
102
RTVSPropertyOp15
 70
     1
102
RTVSPropertyOp16
 70
     1
102
RTVSPropertyOp17
 70
     1
102
RTVSPropertyOp18
 70
     1
102
RTVSPropertyOp19
 70
     1
102
RTVSPropertyOp20
 70
     1
102
RTVSPropertyOp21
 70
     1
102
RTVSPropertyOp22
 70
     1
102
RTVSPropertyOp23
 70
     1
102
RTVSPropertyOp24
 70
     1
102
RTVSPropertyOp25
 70
     1
102
RTVSPropertyOp26
 70
     1
102
RTVSPropertyOp27
 70
     1
  0
XRECORD
  5
10C6
102
{ACAD_REACTORS
330
10C5
102
}
330
10C5
100
AcDbXrecord
280
     1
102
RTVSPropertyOp0
 70
     1
102
RTVSPropertyOp1
 70
     1
102
RTVSPropertyOp2
 70
     1
102
RTVSPropertyOp3
 70
     1
102
RTVSPropertyOp4
 70
     1
102
RTVSPropertyOp5
 70
     1
102
RTVSPropertyOp6
 70
     1
102
RTVSPropertyOp7
 70
     1
102
RTVSPropertyOp8
 70
     1
102
RTVSPropertyOp9
 70
     1
102
RTVSPropertyOp10
 70
     1
102
RTVSPropertyOp11
 70
     1
102
RTVSPropertyOp12
 70
     1
102
RTVSPropertyOp13
 70
     1
102
RTVSPropertyOp14
 70
     1
102
RTVSPropertyOp15
 70
     1
102
RTVSPropertyOp16
 70
     1
102
RTVSPropertyOp17
 70
     1
102
RTVSPropertyOp18
 70
     1
102
RTVSPropertyOp19
 70
     1
102
RTVSPropertyOp20
 70
     1
102
RTVSPropertyOp21
 70
     1
102
RTVSPropertyOp22
 70
     1
102
RTVSPropertyOp23
 70
     1
102
RTVSPropertyOp24
 70
     1
102
RTVSPropertyOp25
 70
     1
102
RTVSPropertyOp26
 70
     1
102
RTVSPropertyOp27
 70
     1
  0
XRECORD
  5
10CA
102
{ACAD_REACTORS
330
10C9
102
}
330
10C9
100
AcDbXrecord
280
     1
102
RTVSPropertyOp0
 70
     1
102
RTVSPropertyOp1
 70
     1
102
RTVSPropertyOp2
 70
     1
102
RTVSPropertyOp3
 70
     1
102
RTVSPropertyOp4
 70
     1
102
RTVSPropertyOp5
 70
     1
102
RTVSPropertyOp6
 70
     1
102
RTVSPropertyOp7
 70
     1
102
RTVSPropertyOp8
 70
     1
102
RTVSPropertyOp9
 70
     1
102
RTVSPropertyOp10
 70
     1
102
RTVSPropertyOp11
 70
     1
102
RTVSPropertyOp12
 70
     1
102
RTVSPropertyOp13
 70
     1
102
RTVSPropertyOp14
 70
     1
102
RTVSPropertyOp15
 70
     1
102
RTVSPropertyOp16
 70
     1
102
RTVSPropertyOp17
 70
     1
102
RTVSPropertyOp18
 70
     1
102
RTVSPropertyOp19
 70
     1
102
RTVSPropertyOp20
 70
     1
102
RTVSPropertyOp21
 70
     1
102
RTVSPropertyOp22
 70
     1
102
RTVSPropertyOp23
 70
     1
102
RTVSPropertyOp24
 70
     1
102
RTVSPropertyOp25
 70
     1
102
RTVSPropertyOp26
 70
     1
102
RTVSPropertyOp27
 70
     1
  0
XRECORD
  5
10DA
102
{ACAD_REACTORS
330
10D9
102
}
330
10D9
100
AcDbXrecord
280
     1
102
RTVSPropertyOp0
 70
     0
102
RTVSPropertyOp1
 70
     0
102
RTVSPropertyOp2
 70
     0
102
RTVSPropertyOp3
 70
     0
102
RTVSPropertyOp4
 70
     0
102
RTVSPropertyOp5
 70
     0
102
RTVSPropertyOp6
 70
     0
102
RTVSPropertyOp7
 70
     0
102
RTVSPropertyOp8
 70
     0
102
RTVSPropertyOp9
 70
     0
102
RTVSPropertyOp10
 70
     0
102
RTVSPropertyOp11
 70
     0
102
RTVSPropertyOp12
 70
     0
102
RTVSPropertyOp13
 70
     0
102
RTVSPropertyOp14
 70
     2
102
RTVSPropertyOp15
 70
     0
102
RTVSPropertyOp16
 70
     0
102
RTVSPropertyOp17
 70
     0
102
RTVSPropertyOp18
 70
     0
102
RTVSPropertyOp19
 70
     0
102
RTVSPropertyOp20
 70
     0
102
RTVSPropertyOp21
 70
     0
102
RTVSPropertyOp22
 70
     0
102
RTVSPropertyOp23
 70
     0
102
RTVSPropertyOp24
 70
     0
102
RTVSPropertyOp25
 70
     0
102
RTVSPropertyOp26
 70
     0
102
RTVSPropertyOp27
 70
     0
  0
XRECORD
  5
10D2
102
{ACAD_REACTORS
330
10D1
102
}
330
10D1
100
AcDbXrecord
280
     1
102
RTVSPropertyOp0
 70
     1
102
RTVSPropertyOp1
 70
     1
102
RTVSPropertyOp2
 70
     1
102
RTVSPropertyOp3
 70
     1
102
RTVSPropertyOp4
 70
     1
102
RTVSPropertyOp5
 70
     1
102
RTVSPropertyOp6
 70
     1
102
RTVSPropertyOp7
 70
     1
102
RTVSPropertyOp8
 70
     1
102
RTVSPropertyOp9
 70
     1
102
RTVSPropertyOp10
 70
     1
102
RTVSPropertyOp11
 70
     1
102
RTVSPropertyOp12
 70
     1
102
RTVSPropertyOp13
 70
     1
102
RTVSPropertyOp14
 70
     1
102
RTVSPropertyOp15
 70
     1
102
RTVSPropertyOp16
 70
     1
102
RTVSPropertyOp17
 70
     1
102
RTVSPropertyOp18
 70
     1
102
RTVSPropertyOp19
 70
     1
102
RTVSPropertyOp20
 70
     1
102
RTVSPropertyOp21
 70
     1
102
RTVSPropertyOp22
 70
     1
102
RTVSPropertyOp23
 70
     1
102
RTVSPropertyOp24
 70
     1
102
RTVSPropertyOp25
 70
     1
102
RTVSPropertyOp26
 70
     1
102
RTVSPropertyOp27
 70
     1
  0
XRECORD
  5
10B6
102
{ACAD_REACTORS
330
10B5
102
}
330
10B5
100
AcDbXrecord
280
     1
102
RTVSPropertyOp0
 70
     1
102
RTVSPropertyOp1
 70
     1
102
RTVSPropertyOp2
 70
     1
102
RTVSPropertyOp3
 70
     1
102
RTVSPropertyOp4
 70
     1
102
RTVSPropertyOp5
 70
     1
102
RTVSPropertyOp6
 70
     1
102
RTVSPropertyOp7
 70
     1
102
RTVSPropertyOp8
 70
     1
102
RTVSPropertyOp9
 70
     1
102
RTVSPropertyOp10
 70
     1
102
RTVSPropertyOp11
 70
     1
102
RTVSPropertyOp12
 70
     1
102
RTVSPropertyOp13
 70
     1
102
RTVSPropertyOp14
 70
     1
102
RTVSPropertyOp15
 70
     1
102
RTVSPropertyOp16
 70
     1
102
RTVSPropertyOp17
 70
     1
102
RTVSPropertyOp18
 70
     1
102
RTVSPropertyOp19
 70
     1
102
RTVSPropertyOp20
 70
     1
102
RTVSPropertyOp21
 70
     1
102
RTVSPropertyOp22
 70
     1
102
RTVSPropertyOp23
 70
     1
102
RTVSPropertyOp24
 70
     1
102
RTVSPropertyOp25
 70
     1
102
RTVSPropertyOp26
 70
     1
102
RTVSPropertyOp27
 70
     1
  0
XRECORD
  5
10B8
102
{ACAD_REACTORS
330
10B7
102
}
330
10B7
100
AcDbXrecord
280
     1
102
RTVSPropertyOp0
 70
     1
102
RTVSPropertyOp1
 70
     1
102
RTVSPropertyOp2
 70
     1
102
RTVSPropertyOp3
 70
     1
102
RTVSPropertyOp4
 70
     1
102
RTVSPropertyOp5
 70
     1
102
RTVSPropertyOp6
 70
     1
102
RTVSPropertyOp7
 70
     1
102
RTVSPropertyOp8
 70
     1
102
RTVSPropertyOp9
 70
     1
102
RTVSPropertyOp10
 70
     1
102
RTVSPropertyOp11
 70
     1
102
RTVSPropertyOp12
 70
     1
102
RTVSPropertyOp13
 70
     1
102
RTVSPropertyOp14
 70
     1
102
RTVSPropertyOp15
 70
     1
102
RTVSPropertyOp16
 70
     1
102
RTVSPropertyOp17
 70
     1
102
RTVSPropertyOp18
 70
     1
102
RTVSPropertyOp19
 70
     1
102
RTVSPropertyOp20
 70
     1
102
RTVSPropertyOp21
 70
     1
102
RTVSPropertyOp22
 70
     1
102
RTVSPropertyOp23
 70
     1
102
RTVSPropertyOp24
 70
     1
102
RTVSPropertyOp25
 70
     1
102
RTVSPropertyOp26
 70
     1
102
RTVSPropertyOp27
 70
     1
  0
XRECORD
  5
10BA
102
{ACAD_REACTORS
330
10B9
102
}
330
10B9
100
AcDbXrecord
280
     1
102
RTVSPropertyOp0
 70
     1
102
RTVSPropertyOp1
 70
     1
102
RTVSPropertyOp2
 70
     1
102
RTVSPropertyOp3
 70
     1
102
RTVSPropertyOp4
 70
     1
102
RTVSPropertyOp5
 70
     1
102
RTVSPropertyOp6
 70
     1
102
RTVSPropertyOp7
 70
     1
102
RTVSPropertyOp8
 70
     1
102
RTVSPropertyOp9
 70
     1
102
RTVSPropertyOp10
 70
     1
102
RTVSPropertyOp11
 70
     1
102
RTVSPropertyOp12
 70
     1
102
RTVSPropertyOp13
 70
     1
102
RTVSPropertyOp14
 70
     1
102
RTVSPropertyOp15
 70
     1
102
RTVSPropertyOp16
 70
     1
102
RTVSPropertyOp17
 70
     1
102
RTVSPropertyOp18
 70
     1
102
RTVSPropertyOp19
 70
     1
102
RTVSPropertyOp20
 70
     1
102
RTVSPropertyOp21
 70
     1
102
RTVSPropertyOp22
 70
     1
102
RTVSPropertyOp23
 70
     1
102
RTVSPropertyOp24
 70
     1
102
RTVSPropertyOp25
 70
     1
102
RTVSPropertyOp26
 70
     1
102
RTVSPropertyOp27
 70
     1
  0
XRECORD
  5
10BC
102
{ACAD_REACTORS
330
10BB
102
}
330
10BB
100
AcDbXrecord
280
     1
102
RTVSPropertyOp0
 70
     1
102
RTVSPropertyOp1
 70
     1
102
RTVSPropertyOp2
 70
     1
102
RTVSPropertyOp3
 70
     1
102
RTVSPropertyOp4
 70
     1
102
RTVSPropertyOp5
 70
     1
102
RTVSPropertyOp6
 70
     1
102
RTVSPropertyOp7
 70
     1
102
RTVSPropertyOp8
 70
     1
102
RTVSPropertyOp9
 70
     1
102
RTVSPropertyOp10
 70
     1
102
RTVSPropertyOp11
 70
     1
102
RTVSPropertyOp12
 70
     1
102
RTVSPropertyOp13
 70
     1
102
RTVSPropertyOp14
 70
     1
102
RTVSPropertyOp15
 70
     1
102
RTVSPropertyOp16
 70
     1
102
RTVSPropertyOp17
 70
     1
102
RTVSPropertyOp18
 70
     1
102
RTVSPropertyOp19
 70
     1
102
RTVSPropertyOp20
 70
     1
102
RTVSPropertyOp21
 70
     1
102
RTVSPropertyOp22
 70
     1
102
RTVSPropertyOp23
 70
     1
102
RTVSPropertyOp24
 70
     1
102
RTVSPropertyOp25
 70
     1
102
RTVSPropertyOp26
 70
     1
102
RTVSPropertyOp27
 70
     1
  0
XRECORD
  5
10D6
102
{ACAD_REACTORS
330
10D5
102
}
330
10D5
100
AcDbXrecord
280
     1
102
RTVSPropertyOp0
 70
     0
102
RTVSPropertyOp1
 70
     0
102
RTVSPropertyOp2
 70
     0
102
RTVSPropertyOp3
 70
     0
102
RTVSPropertyOp4
 70
     0
102
RTVSPropertyOp5
 70
     0
102
RTVSPropertyOp6
 70
     0
102
RTVSPropertyOp7
 70
     0
102
RTVSPropertyOp8
 70
     0
102
RTVSPropertyOp9
 70
     0
102
RTVSPropertyOp10
 70
     0
102
RTVSPropertyOp11
 70
     0
102
RTVSPropertyOp12
 70
     0
102
RTVSPropertyOp13
 70
     0
102
RTVSPropertyOp14
 70
     2
102
RTVSPropertyOp15
 70
     0
102
RTVSPropertyOp16
 70
     0
102
RTVSPropertyOp17
 70
     0
102
RTVSPropertyOp18
 70
     0
102
RTVSPropertyOp19
 70
     0
102
RTVSPropertyOp20
 70
     0
102
RTVSPropertyOp21
 70
     0
102
RTVSPropertyOp22
 70
     0
102
RTVSPropertyOp23
 70
     0
102
RTVSPropertyOp24
 70
     0
102
RTVSPropertyOp25
 70
     0
102
RTVSPropertyOp26
 70
     0
102
RTVSPropertyOp27
 70
     0
  0
XRECORD
  5
10D0
102
{ACAD_REACTORS
330
10CF
102
}
330
10CF
100
AcDbXrecord
280
     1
102
RTVSPropertyOp0
 70
     1
102
RTVSPropertyOp1
 70
     1
102
RTVSPropertyOp2
 70
     1
102
RTVSPropertyOp3
 70
     1
102
RTVSPropertyOp4
 70
     1
102
RTVSPropertyOp5
 70
     1
102
RTVSPropertyOp6
 70
     1
102
RTVSPropertyOp7
 70
     1
102
RTVSPropertyOp8
 70
     1
102
RTVSPropertyOp9
 70
     1
102
RTVSPropertyOp10
 70
     1
102
RTVSPropertyOp11
 70
     1
102
RTVSPropertyOp12
 70
     1
102
RTVSPropertyOp13
 70
     1
102
RTVSPropertyOp14
 70
     1
102
RTVSPropertyOp15
 70
     1
102
RTVSPropertyOp16
 70
     1
102
RTVSPropertyOp17
 70
     1
102
RTVSPropertyOp18
 70
     1
102
RTVSPropertyOp19
 70
     1
102
RTVSPropertyOp20
 70
     1
102
RTVSPropertyOp21
 70
     1
102
RTVSPropertyOp22
 70
     1
102
RTVSPropertyOp23
 70
     1
102
RTVSPropertyOp24
 70
     1
102
RTVSPropertyOp25
 70
     1
102
RTVSPropertyOp26
 70
     1
102
RTVSPropertyOp27
 70
     1
  0
XRECORD
  5
10D8
102
{ACAD_REACTORS
330
10D7
102
}
330
10D7
100
AcDbXrecord
280
     1
102
RTVSPropertyOp0
 70
     0
102
RTVSPropertyOp1
 70
     0
102
RTVSPropertyOp2
 70
     0
102
RTVSPropertyOp3
 70
     0
102
RTVSPropertyOp4
 70
     0
102
RTVSPropertyOp5
 70
     0
102
RTVSPropertyOp6
 70
     0
102
RTVSPropertyOp7
 70
     0
102
RTVSPropertyOp8
 70
     0
102
RTVSPropertyOp9
 70
     0
102
RTVSPropertyOp10
 70
     0
102
RTVSPropertyOp11
 70
     0
102
RTVSPropertyOp12
 70
     0
102
RTVSPropertyOp13
 70
     0
102
RTVSPropertyOp14
 70
     2
102
RTVSPropertyOp15
 70
     0
102
RTVSPropertyOp16
 70
     0
102
RTVSPropertyOp17
 70
     0
102
RTVSPropertyOp18
 70
     0
102
RTVSPropertyOp19
 70
     0
102
RTVSPropertyOp20
 70
     0
102
RTVSPropertyOp21
 70
     0
102
RTVSPropertyOp22
 70
     0
102
RTVSPropertyOp23
 70
     0
102
RTVSPropertyOp24
 70
     0
102
RTVSPropertyOp25
 70
     0
102
RTVSPropertyOp26
 70
     0
102
RTVSPropertyOp27
 70
     0
  0
XRECORD
  5
10C8
102
{ACAD_REACTORS
330
10C7
102
}
330
10C7
100
AcDbXrecord
280
     1
102
RTVSPropertyOp0
 70
     1
102
RTVSPropertyOp1
 70
     1
102
RTVSPropertyOp2
 70
     1
102
RTVSPropertyOp3
 70
     1
102
RTVSPropertyOp4
 70
     1
102
RTVSPropertyOp5
 70
     1
102
RTVSPropertyOp6
 70
     1
102
RTVSPropertyOp7
 70
     1
102
RTVSPropertyOp8
 70
     1
102
RTVSPropertyOp9
 70
     1
102
RTVSPropertyOp10
 70
     1
102
RTVSPropertyOp11
 70
     1
102
RTVSPropertyOp12
 70
     1
102
RTVSPropertyOp13
 70
     1
102
RTVSPropertyOp14
 70
     1
102
RTVSPropertyOp15
 70
     1
102
RTVSPropertyOp16
 70
     1
102
RTVSPropertyOp17
 70
     1
102
RTVSPropertyOp18
 70
     1
102
RTVSPropertyOp19
 70
     1
102
RTVSPropertyOp20
 70
     1
102
RTVSPropertyOp21
 70
     1
102
RTVSPropertyOp22
 70
     1
102
RTVSPropertyOp23
 70
     1
102
RTVSPropertyOp24
 70
     1
102
RTVSPropertyOp25
 70
     1
102
RTVSPropertyOp26
 70
     1
102
RTVSPropertyOp27
 70
     1
  0
XRECORD
  5
10CE
102
{ACAD_REACTORS
330
10CD
102
}
330
10CD
100
AcDbXrecord
280
     1
102
RTVSPropertyOp0
 70
     1
102
RTVSPropertyOp1
 70
     1
102
RTVSPropertyOp2
 70
     1
102
RTVSPropertyOp3
 70
     1
102
RTVSPropertyOp4
 70
     1
102
RTVSPropertyOp5
 70
     1
102
RTVSPropertyOp6
 70
     1
102
RTVSPropertyOp7
 70
     1
102
RTVSPropertyOp8
 70
     1
102
RTVSPropertyOp9
 70
     1
102
RTVSPropertyOp10
 70
     1
102
RTVSPropertyOp11
 70
     1
102
RTVSPropertyOp12
 70
     1
102
RTVSPropertyOp13
 70
     1
102
RTVSPropertyOp14
 70
     1
102
RTVSPropertyOp15
 70
     1
102
RTVSPropertyOp16
 70
     1
102
RTVSPropertyOp17
 70
     1
102
RTVSPropertyOp18
 70
     1
102
RTVSPropertyOp19
 70
     1
102
RTVSPropertyOp20
 70
     1
102
RTVSPropertyOp21
 70
     1
102
RTVSPropertyOp22
 70
     1
102
RTVSPropertyOp23
 70
     1
102
RTVSPropertyOp24
 70
     1
102
RTVSPropertyOp25
 70
     1
102
RTVSPropertyOp26
 70
     1
102
RTVSPropertyOp27
 70
     1
  0
ENDSEC
  0
EOF
