  0
SECTION
  2
HEADER
  9
$ACADVER
  1
AC1015
  9
$ACADMAINTVER
 70
    20
  9
$DWGCODEPAGE
  3
ANSI_1252
  9
$INSBASE
 10
0.0
 20
0.0
 30
0.0
  9
$EXTMIN
 10
2034.352858253785
 20
1417.685121619924
 30
0.0
  9
$EXTMAX
 10
2038.256483303868
 20
1418.185994651013
 30
0.0
  9
$LIMMIN
 10
0.0
 20
0.0
  9
$LIMMAX
 10
420.0
 20
297.0
  9
$ORTHOMODE
 70
     0
  9
$REGENMODE
 70
     1
  9
$FILLMODE
 70
     1
  9
$QTEXTMODE
 70
     0
  9
$MIRRTEXT
 70
     0
  9
$LTSCALE
 40
1.0
  9
$ATTMODE
 70
     1
  9
$TEXTSIZE
 40
2.5
  9
$TRACEWID
 40
1.0
  9
$TEXTSTYLE
  7
Standard
  9
$CLAYER
  8
0
  9
$CELTYPE
  6
ByLayer
  9
$CECOLOR
 62
   256
  9
$CELTSCALE
 40
1.0
  9
$DISPSILH
 70
     0
  9
$DIMSCALE
 40
1.0
  9
$DIMASZ
 40
2.5
  9
$DIMEXO
 40
0.625
  9
$DIMDLI
 40
3.75
  9
$DIMRND
 40
0.0
  9
$DIMDLE
 40
0.0
  9
$DIMEXE
 40
1.25
  9
$DIMTP
 40
0.0
  9
$DIMTM
 40
0.0
  9
$DIMTXT
 40
2.5
  9
$DIMCEN
 40
2.5
  9
$DIMTSZ
 40
0.0
  9
$DIMTOL
 70
     0
  9
$DIMLIM
 70
     0
  9
$DIMTIH
 70
     0
  9
$DIMTOH
 70
     0
  9
$DIMSE1
 70
     0
  9
$DIMSE2
 70
     0
  9
$DIMTAD
 70
     1
  9
$DIMZIN
 70
     8
  9
$DIMBLK
  1

  9
$DIMASO
 70
     1
  9
$DIMSHO
 70
     1
  9
$DIMPOST
  1

  9
$DIMAPOST
  1

  9
$DIMALT
 70
     0
  9
$DIMALTD
 70
     3
  9
$DIMALTF
 40
0.03937007874016
  9
$DIMLFAC
 40
1.0
  9
$DIMTOFL
 70
     1
  9
$DIMTVP
 40
0.0
  9
$DIMTIX
 70
     0
  9
$DIMSOXD
 70
     0
  9
$DIMSAH
 70
     0
  9
$DIMBLK1
  1

  9
$DIMBLK2
  1

  9
$DIMSTYLE
  2
ISO-25
  9
$DIMCLRD
 70
     0
  9
$DIMCLRE
 70
     0
  9
$DIMCLRT
 70
     0
  9
$DIMTFAC
 40
1.0
  9
$DIMGAP
 40
0.625
  9
$DIMJUST
 70
     0
  9
$DIMSD1
 70
     0
  9
$DIMSD2
 70
     0
  9
$DIMTOLJ
 70
     0
  9
$DIMTZIN
 70
     8
  9
$DIMALTZ
 70
     0
  9
$DIMALTTZ
 70
     0
  9
$DIMUPT
 70
     0
  9
$DIMDEC
 70
     2
  9
$DIMTDEC
 70
     2
  9
$DIMALTU
 70
     2
  9
$DIMALTTD
 70
     3
  9
$DIMTXSTY
  7
Standard
  9
$DIMAUNIT
 70
     0
  9
$DIMADEC
 70
     0
  9
$DIMALTRND
 40
0.0
  9
$DIMAZIN
 70
     0
  9
$DIMDSEP
 70
    44
  9
$DIMATFIT
 70
     3
  9
$DIMFRAC
 70
     0
  9
$DIMLDRBLK
  1

  9
$DIMLUNIT
 70
     2
  9
$DIMLWD
 70
    -2
  9
$DIMLWE
 70
    -2
  9
$DIMTMOVE
 70
     0
  9
$LUNITS
 70
     2
  9
$LUPREC
 70
     4
  9
$SKETCHINC
 40
1.0
  9
$FILLETRAD
 40
0.0
  9
$AUNITS
 70
     0
  9
$AUPREC
 70
     0
  9
$MENU
  1
.
  9
$ELEVATION
 40
0.0
  9
$PELEVATION
 40
0.0
  9
$THICKNESS
 40
0.0
  9
$LIMCHECK
 70
     0
  9
$CHAMFERA
 40
0.0
  9
$CHAMFERB
 40
0.0
  9
$CHAMFERC
 40
0.0
  9
$CHAMFERD
 40
0.0
  9
$SKPOLY
 70
     0
  9
$TDCREATE
 40
2454120.450568576
  9
$TDUCREATE
 40
2454120.408901910
  9
$TDUPDATE
 40
2456147.605485926
  9
$TDUUPDATE
 40
2456147.563819260
  9
$TDINDWG
 40
0.0034928356
  9
$TDUSRTIMER
 40
0.0034928356
  9
$USRTIMER
 70
     1
  9
$ANGBASE
 50
0.0
  9
$ANGDIR
 70
     0
  9
$PDMODE
 70
     0
  9
$PDSIZE
 40
0.0
  9
$PLINEWID
 40
0.0
  9
$SPLFRAME
 70
     0
  9
$SPLINETYPE
 70
     6
  9
$SPLINESEGS
 70
     8
  9
$HANDSEED
  5
A74
  9
$SURFTAB1
 70
     6
  9
$SURFTAB2
 70
     6
  9
$SURFTYPE
 70
     6
  9
$SURFU
 70
     6
  9
$SURFV
 70
     6
  9
$UCSBASE
  2

  9
$UCSNAME
  2

  9
$UCSORG
 10
0.0
 20
0.0
 30
0.0
  9
$UCSXDIR
 10
1.0
 20
0.0
 30
0.0
  9
$UCSYDIR
 10
0.0
 20
1.0
 30
0.0
  9
$UCSORTHOREF
  2

  9
$UCSORTHOVIEW
 70
     0
  9
$UCSORGTOP
 10
0.0
 20
0.0
 30
0.0
  9
$UCSORGBOTTOM
 10
0.0
 20
0.0
 30
0.0
  9
$UCSORGLEFT
 10
0.0
 20
0.0
 30
0.0
  9
$UCSORGRIGHT
 10
0.0
 20
0.0
 30
0.0
  9
$UCSORGFRONT
 10
0.0
 20
0.0
 30
0.0
  9
$UCSORGBACK
 10
0.0
 20
0.0
 30
0.0
  9
$PUCSBASE
  2

  9
$PUCSNAME
  2

  9
$PUCSORG
 10
0.0
 20
0.0
 30
0.0
  9
$PUCSXDIR
 10
1.0
 20
0.0
 30
0.0
  9
$PUCSYDIR
 10
0.0
 20
1.0
 30
0.0
  9
$PUCSORTHOREF
  2

  9
$PUCSORTHOVIEW
 70
     0
  9
$PUCSORGTOP
 10
0.0
 20
0.0
 30
0.0
  9
$PUCSORGBOTTOM
 10
0.0
 20
0.0
 30
0.0
  9
$PUCSORGLEFT
 10
0.0
 20
0.0
 30
0.0
  9
$PUCSORGRIGHT
 10
0.0
 20
0.0
 30
0.0
  9
$PUCSORGFRONT
 10
0.0
 20
0.0
 30
0.0
  9
$PUCSORGBACK
 10
0.0
 20
0.0
 30
0.0
  9
$USERI1
 70
     0
  9
$USERI2
 70
     0
  9
$USERI3
 70
     0
  9
$USERI4
 70
     0
  9
$USERI5
 70
     0
  9
$USERR1
 40
0.0
  9
$USERR2
 40
0.0
  9
$USERR3
 40
0.0
  9
$USERR4
 40
0.0
  9
$USERR5
 40
0.0
  9
$WORLDVIEW
 70
     1
  9
$SHADEDGE
 70
     3
  9
$SHADEDIF
 70
    70
  9
$TILEMODE
 70
     1
  9
$MAXACTVP
 70
    64
  9
$PINSBASE
 10
0.0
 20
0.0
 30
0.0
  9
$PLIMCHECK
 70
     0
  9
$PEXTMIN
 10
1.000000000000000E+20
 20
1.000000000000000E+20
 30
1.000000000000000E+20
  9
$PEXTMAX
 10
-1.000000000000000E+20
 20
-1.000000000000000E+20
 30
-1.000000000000000E+20
  9
$PLIMMIN
 10
0.0
 20
0.0
  9
$PLIMMAX
 10
420.0
 20
297.0
  9
$UNITMODE
 70
     0
  9
$VISRETAIN
 70
     1
  9
$PLINEGEN
 70
     0
  9
$PSLTSCALE
 70
     1
  9
$TREEDEPTH
 70
  3020
  9
$CMLSTYLE
  2
Standard
  9
$CMLJUST
 70
     0
  9
$CMLSCALE
 40
20.0
  9
$PROXYGRAPHICS
 70
     1
  9
$MEASUREMENT
 70
     1
  9
$CELWEIGHT
370
    -1
  9
$ENDCAPS
280
     0
  9
$JOINSTYLE
280
     0
  9
$LWDISPLAY
290
     0
  9
$INSUNITS
 70
     4
  9
$HYPERLINKBASE
  1

  9
$STYLESHEET
  1

  9
$XEDIT
290
     1
  9
$CEPSNTYPE
380
     0
  9
$PSTYLEMODE
290
     1
  9
$FINGERPRINTGUID
  2
{190D0331-FEF6-4A32-A5F0-845091FCA453}
  9
$VERSIONGUID
  2
{3E814496-E2BF-4BCB-9721-4502FE5AB3FB}
  9
$EXTNAMES
290
     1
  9
$PSVPSCALE
 40
0.0
  9
$OLESTARTUP
290
     0
  0
ENDSEC
  0
SECTION
  2
CLASSES
  0
CLASS
  1
ACDBDICTIONARYWDFLT
  2
AcDbDictionaryWithDefault
  3
ObjectDBX Classes
 90
        0
280
     0
281
     0
  0
CLASS
  1
TABLESTYLE
  2
AcDbTableStyle
  3
ObjectDBX Classes
 90
     4095
280
     0
281
     0
  0
CLASS
  1
DIMASSOC
  2
AcDbDimAssoc
  3
"AcDbDimAssoc|Product Desc:     AcDim ARX App For Dimension|Company:          Autodesk, Inc.|WEB Address:      www.autodesk.com"
 90
    32768
280
     0
281
     0
  0
CLASS
  1
SORTENTSTABLE
  2
AcDbSortentsTable
  3
ObjectDBX Classes
 90
    32768
280
     0
281
     0
  0
CLASS
  1
DICTIONARYVAR
  2
AcDbDictionaryVar
  3
ObjectDBX Classes
 90
        0
280
     0
281
     0
  0
CLASS
  1
ACDBPLACEHOLDER
  2
AcDbPlaceHolder
  3
ObjectDBX Classes
 90
        0
280
     0
281
     0
  0
CLASS
  1
LAYOUT
  2
AcDbLayout
  3
ObjectDBX Classes
 90
        0
280
     0
281
     0
  0
CLASS
  1
MATERIAL
  2
AcDbMaterial
  3
ObjectDBX Classes
 90
     1153
280
     0
281
     0
  0
CLASS
  1
VISUALSTYLE
  2
AcDbVisualStyle
  3
ObjectDBX Classes
 90
     4095
280
     0
281
     0
  0
CLASS
  1
SCALE
  2
AcDbScale
  3
ObjectDBX Classes
 90
     1153
280
     0
281
     0
  0
CLASS
  1
MLEADERSTYLE
  2
AcDbMLeaderStyle
  3
ACDB_MLEADERSTYLE_CLASS
 90
     4095
280
     0
281
     0
  0
CLASS
  1
CELLSTYLEMAP
  2
AcDbCellStyleMap
  3
ObjectDBX Classes
 90
     1152
280
     0
281
     0
  0
ENDSEC
  0
SECTION
  2
TABLES
  0
TABLE
  2
VPORT
  5
8
330
0
100
AcDbSymbolTable
 70
     1
  0
VPORT
  5
9BE
330
8
100
AcDbSymbolTableRecord
100
AcDbViewportTableRecord
  2
*Active
 70
     0
 10
0.0
 20
0.0
 11
1.0
 21
1.0
 12
2036.370046424599
 22
1417.935558135469
 13
0.0
 23
0.0
 14
10.0
 24
10.0
 15
10.0
 25
10.0
 16
0.0
 26
0.0
 36
1.0
 17
0.0
 27
0.0
 37
0.0
 40
2.460828069446086
 41
1.645464025026068
 42
50.0
 43
0.0
 44
0.0
 50
0.0
 51
0.0
 71
     0
 72
  1000
 73
     1
 74
     3
 75
     0
 76
     0
 77
     0
 78
     0
281
     0
 65
     1
110
0.0
120
0.0
130
0.0
111
1.0
121
0.0
131
0.0
112
0.0
122
1.0
132
0.0
 79
     0
146
0.0
  0
ENDTAB
  0
TABLE
  2
LTYPE
  5
5
330
0
100
AcDbSymbolTable
 70
     3
  0
LTYPE
  5
14
330
5
100
AcDbSymbolTableRecord
100
AcDbLinetypeTableRecord
  2
ByBlock
 70
     0
  3

 72
    65
 73
     0
 40
0.0
  0
LTYPE
  5
15
330
5
100
AcDbSymbolTableRecord
100
AcDbLinetypeTableRecord
  2
ByLayer
 70
     0
  3

 72
    65
 73
     0
 40
0.0
  0
LTYPE
  5
16
330
5
100
AcDbSymbolTableRecord
100
AcDbLinetypeTableRecord
  2
Continuous
 70
     0
  3
Solid line
 72
    65
 73
     0
 40
0.0
  0
LTYPE
  5
26D
330
5
100
AcDbSymbolTableRecord
100
AcDbLinetypeTableRecord
  2
DASHDOT
 70
     0
  3
Dash dot __ . __ . __ . __ . __ . __ . __ . __
 72
    65
 73
     4
 40
25.4
 49
12.7
 74
     0
 49
-6.349999999999999
 74
     0
 49
0.0
 74
     0
 49
-6.349999999999999
 74
     0
  0
LTYPE
  5
26E
330
5
100
AcDbSymbolTableRecord
100
AcDbLinetypeTableRecord
  2
HIDDEN
 70
     0
  3
Hidden __ __ __ __ __ __ __ __ __ __ __ __ __ _
 72
    65
 73
     2
 40
9.524999999999998
 49
6.349999999999999
 74
     0
 49
-3.174999999999999
 74
     0
  0
ENDTAB
  0
TABLE
  2
LAYER
  5
2
330
0
100
AcDbSymbolTable
 70
     9
  0
LAYER
  5
10
102
{ACAD_XDICTIONARY
360
A0E
102
}
330
2
100
AcDbSymbolTableRecord
100
AcDbLayerTableRecord
  2
0
 70
     0
 62
     7
  6
Continuous
370
    -3
390
F
  0
LAYER
  5
26F
102
{ACAD_XDICTIONARY
360
A10
102
}
330
2
100
AcDbSymbolTableRecord
100
AcDbLayerTableRecord
  2
4
 70
     0
 62
     4
  6
Continuous
370
    -3
390
F
  0
LAYER
  5
270
102
{ACAD_XDICTIONARY
360
A12
102
}
330
2
100
AcDbSymbolTableRecord
100
AcDbLayerTableRecord
  2
cen
 70
     0
 62
     7
  6
DASHDOT
370
    -3
390
F
  0
LAYER
  5
271
102
{ACAD_XDICTIONARY
360
A14
102
}
330
2
100
AcDbSymbolTableRecord
100
AcDbLayerTableRecord
  2
hid
 70
     0
 62
     7
  6
HIDDEN
370
    -3
390
F
  0
LAYER
  5
272
102
{ACAD_XDICTIONARY
360
A16
102
}
330
2
100
AcDbSymbolTableRecord
100
AcDbLayerTableRecord
  2
hatch
 70
     0
 62
     9
  6
Continuous
370
    -3
390
F
  0
LAYER
  5
273
102
{ACAD_XDICTIONARY
360
A18
102
}
330
2
100
AcDbSymbolTableRecord
100
AcDbLayerTableRecord
  2
9
 70
     0
 62
     9
  6
Continuous
370
    -3
390
F
  0
LAYER
  5
274
102
{ACAD_XDICTIONARY
360
A1A
102
}
330
2
100
AcDbSymbolTableRecord
100
AcDbLayerTableRecord
  2
cotas
 70
     0
 62
     1
  6
Continuous
370
    -3
390
F
  0
LAYER
  5
275
330
2
100
AcDbSymbolTableRecord
100
AcDbLayerTableRecord
  2
Defpoints
 70
     0
 62
     7
  6
Continuous
290
     0
370
    -3
390
F
  0
LAYER
  5
276
102
{ACAD_XDICTIONARY
360
A1C
102
}
330
2
100
AcDbSymbolTableRecord
100
AcDbLayerTableRecord
  2
SANINDUSA
 70
     0
 62
     3
  6
Continuous
370
    -3
390
F
  0
ENDTAB
  0
TABLE
  2
STYLE
  5
3
330
0
100
AcDbSymbolTable
 70
     2
  0
STYLE
  5
11
330
3
100
AcDbSymbolTableRecord
100
AcDbTextStyleTableRecord
  2
Standard
 70
     0
 40
0.0
 41
1.0
 50
0.0
 71
     0
 42
2.5
  3
txt
  4

  0
STYLE
  5
277
330
3
100
AcDbSymbolTableRecord
100
AcDbTextStyleTableRecord
  2
SANINDUSA
 70
     0
 40
0.0
 41
1.0
 50
0.0
 71
     0
 42
2.5
  3
verdana.TTF
  4

1001
ACAD
1000
Verdana
1071
       34
  0
ENDTAB
  0
TABLE
  2
VIEW
  5
6
330
0
100
AcDbSymbolTable
 70
     0
  0
ENDTAB
  0
TABLE
  2
UCS
  5
7
330
0
100
AcDbSymbolTable
 70
     0
  0
ENDTAB
  0
TABLE
  2
APPID
  5
9
330
0
100
AcDbSymbolTable
 70
     3
  0
APPID
  5
12
330
9
100
AcDbSymbolTableRecord
100
AcDbRegAppTableRecord
  2
ACAD
 70
     0
  0
APPID
  5
279
330
9
100
AcDbSymbolTableRecord
100
AcDbRegAppTableRecord
  2
ACAD_PSEXT
 70
     0
  0
APPID
  5
A73
330
9
100
AcDbSymbolTableRecord
100
AcDbRegAppTableRecord
  2
ACAD_MLEADERVER
 70
     0
  0
ENDTAB
  0
TABLE
  2
DIMSTYLE
  5
A
330
0
100
AcDbSymbolTable
 70
     2
100
AcDbDimStyleTable
 71
     1
340
2B
  0
DIMSTYLE
105
2B
330
A
100
AcDbSymbolTableRecord
100
AcDbDimStyleTableRecord
  2
ISO-25
 70
     0
 41
2.5
 42
0.625
 43
3.75
 44
1.25
 73
     0
 74
     0
 77
     1
 78
     8
140
2.5
141
2.5
143
0.03937007874016
147
0.625
171
     3
172
     1
271
     2
272
     2
274
     3
278
    44
283
     0
284
     8
340
11
  0
DIMSTYLE
105
278
330
A
100
AcDbSymbolTableRecord
100
AcDbDimStyleTableRecord
  2
SANINDUSA
 70
     0
 40
5.0
 41
2.0
 42
1.0
 43
1.0
 44
1.0
 73
     0
 74
     0
 77
     1
 78
     8
140
2.0
141
0.0
143
0.03937007874016
147
1.0
171
     3
172
     1
176
   256
177
   256
178
   256
179
     1
271
     1
272
     1
274
     3
278
    44
283
     0
284
     8
340
277
371
    -1
372
    -1
  0
ENDTAB
  0
TABLE
  2
BLOCK_RECORD
  5
1
330
0
100
AcDbSymbolTable
 70
   102
  0
BLOCK_RECORD
  5
23
330
1
100
AcDbSymbolTableRecord
100
AcDbBlockTableRecord
  2
*Model_Space
340
26
  0
BLOCK_RECORD
  5
1F
330
1
100
AcDbSymbolTableRecord
100
AcDbBlockTableRecord
  2
*Paper_Space
340
22
  0
BLOCK_RECORD
  5
27
330
1
100
AcDbSymbolTableRecord
100
AcDbBlockTableRecord
  2
*Paper_Space0
340
2A
  0
BLOCK_RECORD
  5
2F
330
1
100
AcDbSymbolTableRecord
100
AcDbBlockTableRecord
  2
_DotSmall
340
0
  0
ENDTAB
  0
ENDSEC
  0
SECTION
  2
BLOCKS
  0
BLOCK
  5
24
330
23
100
AcDbEntity
  8
0
100
AcDbBlockBegin
  2
*Model_Space
 70
     0
 10
0.0
 20
0.0
 30
0.0
  3
*Model_Space
  1

  0
ENDBLK
  5
25
330
23
100
AcDbEntity
  8
0
100
AcDbBlockEnd
  0
BLOCK
  5
20
330
1F
100
AcDbEntity
 67
     1
  8
0
100
AcDbBlockBegin
  2
*Paper_Space
 70
     0
 10
0.0
 20
0.0
 30
0.0
  3
*Paper_Space
  1

  0
ENDBLK
  5
21
330
1F
100
AcDbEntity
 67
     1
  8
0
100
AcDbBlockEnd
  0
BLOCK
  5
28
330
27
100
AcDbEntity
 67
     1
  8
0
100
AcDbBlockBegin
  2
*Paper_Space0
 70
     0
 10
0.0
 20
0.0
 30
0.0
  3
*Paper_Space0
  1

  0
ENDBLK
  5
29
330
27
100
AcDbEntity
 67
     1
  8
0
100
AcDbBlockEnd
  0
BLOCK
  5
30
330
2F
100
AcDbEntity
  8
0
100
AcDbBlockBegin
  2
_DotSmall
 70
     0
 10
0.0
 20
0.0
 30
0.0
  3
_DotSmall
  1

  0
LWPOLYLINE
  5
31
330
2F
100
AcDbEntity
  8
0
  6
ByBlock
 62
     0
100
AcDbPolyline
 90
        2
 70
     1
 43
0.5
 10
-0.0625
 20
0.0
 42
1.0
 10
0.0625
 20
0.0
 42
1.0
  0
ENDBLK
  5
32
330
2F
100
AcDbEntity
  8
0
100
AcDbBlockEnd
  0
ENDSEC
  0
SECTION
  2
ENTITIES
  0
ARC
  5
49D
330
23
100
AcDbEntity
  8
SANINDUSA
100
AcDbCircle
 10
2035.386560075266
 20
1417.763885514504
 30
0.0
 40
0.0050148867028908
100
AcDbArc
 50
271.0250786416814
 51
3.997001993512218
  0
LWPOLYLINE
  5
49E
330
23
100
AcDbEntity
  8
SANINDUSA
100
AcDbPolyline
 90
       34
 70
   128
 43
0.0
 10
2035.386649791804
 20
1417.758871430382
 10
2035.386305873004
 20
1417.762092256769
 10
2035.385965441075
 20
1417.766190523132
 10
2035.38563159546
 20
1417.77112695001
 10
2035.385307405796
 20
1417.77686222814
 10
2035.384971265402
 20
1417.783904308303
 10
2035.384648714867
 20
1417.791824454292
 10
2035.384343181458
 20
1417.800536358579
 10
2035.384058122244
 20
1417.809953505024
 10
2035.383786027041
 20
1417.820426696762
 10
2035.383538459149
 20
1417.831583374962
 10
2035.383318070975
 20
1417.843293869718
 10
2035.383127544728
 20
1417.855428511127
 10
2035.382976506558
 20
1417.867930942997
 10
2035.382873986569
 20
1417.880753630623
 10
2035.382822011319
 20
1417.893758827671
 10
2035.382822666969
 20
1417.906808787807
 10
2035.382882897463
 20
1417.920934194549
 10
2035.38300297102
 20
1417.934939527734
 10
2035.383159492818
 20
1417.946949967965
 10
2035.383359287587
 20
1417.958740675672
 10
2035.383588378039
 20
1417.970188254341
 10
2035.38383272728
 20
1417.981169292554
 10
2035.38409105381
 20
1417.991949731335
 10
2035.384354267922
 20
1418.002145552858
 10
2035.384619419184
 20
1418.011649498567
 10
2035.384883646575
 20
1418.020354235395
 10
2035.385148857441
 20
1418.028200441822
 10
2035.385425184574
 20
1418.035211229547
 10
2035.385719750729
 20
1418.041330540403
 10
2035.386039619055
 20
1418.04650230132
 10
2035.386304263678
 20
1418.049819240197
 10
2035.386581574288
 20
1418.052554720863
 10
2035.386649076548
 20
1418.053116971477
  0
ARC
  5
49F
330
23
100
AcDbEntity
  8
SANINDUSA
100
AcDbCircle
 10
2035.386523207829
 20
1418.048069099053
 30
0.0
 40
0.0050494414486874
100
AcDbArc
 50
356.4142855779343
 51
88.57162550264879
  0
LINE
  5
4A0
330
23
100
AcDbEntity
  8
SANINDUSA
100
AcDbLine
 10
2035.391562764254
 20
1417.764235073551
 30
0.0
 11
2035.391562764254
 21
1418.047753298506
 31
0.0
  0
LINE
  5
4A1
330
23
100
AcDbEntity
  8
SANINDUSA
100
AcDbLine
 10
2034.51589978179
 20
1418.047753298506
 30
0.0
 11
2034.51589978179
 21
1417.764235073551
 31
0.0
  0
LWPOLYLINE
  5
4A3
330
23
100
AcDbEntity
  8
SANINDUSA
100
AcDbPolyline
 90
       34
 70
   128
 43
0.0
 10
2034.520813469496
 20
1418.053116971477
 10
2034.521127347556
 20
1418.050159940347
 10
2034.521425430384
 20
1418.046467492207
 10
2034.521745268908
 20
1418.041285732611
 10
2034.522039775458
 20
1418.035155648216
 10
2034.522316102591
 20
1418.028133476004
 10
2034.522581402865
 20
1418.020275363549
 10
2034.522845779267
 20
1418.011558258756
 10
2034.523111079541
 20
1418.002041706666
 10
2034.523374383059
 20
1417.991833263859
 10
2034.523632769194
 20
1417.98104053162
 10
2034.523876969424
 20
1417.970054531321
 10
2034.52410573205
 20
1417.95860307835
 10
2034.524305109587
 20
1417.946809494718
 10
2034.524461094942
 20
1417.934797132238
 10
2034.52455088934
 20
1417.925019556507
 10
2034.524611566868
 20
1417.915156388506
 10
2034.524642799702
 20
1417.905268126949
 10
2034.524636988249
 20
1417.892222309335
 10
2034.524578337279
 20
1417.879232043251
 10
2034.524469707814
 20
1417.866435432657
 10
2034.524314050284
 20
1417.853970581516
 10
2034.524120215979
 20
1417.841898882612
 10
2034.523896787968
 20
1417.830261343941
 10
2034.523646418658
 20
1417.819186413511
 10
2034.523371820059
 20
1417.808802509531
 10
2034.523084317055
 20
1417.799468779787
 10
2034.522776637879
 20
1417.790848130211
 10
2034.522452209797
 20
1417.783025974258
 10
2034.522114460077
 20
1417.776087695583
 10
2034.521739070025
 20
1417.769669705852
 10
2034.521352176275
 20
1417.764327401146
 10
2034.520958487597
 20
1417.760122680887
 10
2034.52081275424
 20
1417.758871430382
  0
ARC
  5
4A4
330
23
100
AcDbEntity
  8
SANINDUSA
100
AcDbCircle
 10
2034.521041964747
 20
1417.764013287736
 30
0.0
 40
0.0051469636205393
100
AcDbArc
 50
177.5303250820047
 51
267.4475942866834
  0
ARC
  5
4A5
330
23
100
AcDbEntity
  8
SANINDUSA
100
AcDbCircle
 10
2034.521004766582
 20
1418.048009159798
 30
0.0
 40
0.0051113926409936
100
AcDbArc
 50
92.14483150145971
 51
182.8692574297518
  0
ARC
  5
4A6
330
23
100
AcDbEntity
  8
SANINDUSA
100
AcDbCircle
 10
2034.363562764617
 20
1417.695826140752
 30
0.0
 40
0.0100000037131789
100
AcDbArc
 50
180.0349136720928
 51
269.9650863279072
  0
LINE
  5
4AA
330
23
100
AcDbEntity
  8
SANINDUSA
100
AcDbLine
 10
2034.353562746849
 20
1417.695820057615
 30
0.0
 11
2034.353562746849
 21
1418.17599464938
 31
0.0
  0
LWPOLYLINE
  5
4B0
330
23
100
AcDbEntity
  8
SANINDUSA
100
AcDbPolyline
 90
        7
 70
   128
 43
0.0
 10
2035.386649076548
 20
1418.053116971477
 10
2035.376649145689
 20
1418.05313574694
 10
2035.096372221318
 20
1418.053682261929
 10
2034.953731273022
 20
1418.053798818811
 10
2034.811088268366
 20
1418.053681725487
 10
2034.668445710745
 20
1418.053416112288
 10
2034.520813469496
 20
1418.053116971477
  0
ARC
  5
4B5
330
23
100
AcDbEntity
  8
SANINDUSA
100
AcDbCircle
 10
2035.543899781426
 20
1418.175994649156
 30
0.0
 40
0.0100000018565896
100
AcDbArc
 50
0.0
 51
90.0
  0
CIRCLE
  5
4C5
330
23
100
AcDbEntity
  8
SANINDUSA
100
AcDbCircle
 10
2034.953731273022
 20
1418.105994649156
 30
0.0
 40
0.0175000000000002
  0
LWPOLYLINE
  5
4C6
330
23
100
AcDbEntity
  8
SANINDUSA
100
AcDbPolyline
 90
        6
 70
   128
 43
0.0
 10
2034.52081275424
 20
1417.758871430382
 10
2034.530812685099
 20
1417.758851224407
 10
2034.811089028325
 20
1417.758337879404
 10
2034.953731273022
 20
1417.758243316635
 10
2035.239017967787
 20
1417.758571529611
 10
2035.386649791804
 20
1417.758871430382
  0
LINE
  5
4C9
330
23
100
AcDbEntity
  8
SANINDUSA
100
AcDbLine
 10
2035.543905888405
 20
1417.685826146826
 30
0.0
 11
2034.363556657639
 21
1417.685826146826
 31
0.0
  0
ARC
  5
4CB
330
23
100
AcDbEntity
  8
SANINDUSA
100
AcDbCircle
 10
2034.363562764617
 20
1418.175994649156
 30
0.0
 40
0.0100000018565896
100
AcDbArc
 50
90.0
 51
180.0
  0
LINE
  5
4CE
330
23
100
AcDbEntity
  8
SANINDUSA
100
AcDbLine
 10
2034.363562737313
 20
1418.185994649156
 30
0.0
 11
2035.543899808732
 21
1418.185994649156
 31
0.0
  0
LINE
  5
4CF
330
23
100
AcDbEntity
  8
SANINDUSA
100
AcDbLine
 10
2035.553899799195
 20
1418.17599464938
 30
0.0
 11
2035.553899799195
 21
1417.695820057615
 31
0.0
  0
ARC
  5
4D1
330
23
100
AcDbEntity
  8
SANINDUSA
100
AcDbCircle
 10
2035.543899781426
 20
1417.695826140752
 30
0.0
 40
0.0100000037131789
100
AcDbArc
 50
270.0349136720928
 51
359.9650863279072
  0
LWPOLYLINE
  5
4D2
330
23
100
AcDbEntity
  8
SANINDUSA
100
AcDbPolyline
 90
       39
 70
   128
 43
0.0
 10
2034.953731273022
 20
1417.9048837962
 10
2034.948524913006
 20
1417.905289525017
 10
2034.943441576977
 20
1417.906484985574
 10
2034.938172392268
 20
1417.908663922771
 10
2034.933329417091
 20
1417.911673748716
 10
2034.928961286974
 20
1417.915515387281
 10
2034.925269136858
 20
1417.920011842474
 10
2034.922262684163
 20
1417.925221079811
 10
2034.920137216058
 20
1417.93084906958
 10
2034.918930061814
 20
1417.936932066306
 10
2034.918736525532
 20
1417.943130949363
 10
2034.919596672711
 20
1417.949369827136
 10
2034.921489503887
 20
1417.955375084504
 10
2034.924367307406
 20
1417.960937404856
 10
2034.92815224519
 20
1417.965925047025
 10
2034.93264124794
 20
1417.970078790411
 10
2034.937778238859
 20
1417.973397219404
 10
2034.943239297439
 20
1417.975694471821
 10
2034.949012728595
 20
1417.97702533923
 10
2034.954782084516
 20
1417.977333942279
 10
2034.960521382466
 20
1417.97667012535
 10
2034.966018506978
 20
1417.975059265121
 10
2034.971174736228
 20
1417.972564602121
 10
2034.975890787971
 20
1417.969214910492
 10
2034.979999839049
 20
1417.965142929777
 10
2034.983469194454
 20
1417.960333132967
 10
2034.986115586665
 20
1417.955024400576
 10
2034.987908702996
 20
1417.949178615435
 10
2034.988726713416
 20
1417.943117687329
 10
2034.988524277416
 20
1417.936861732825
 10
2034.98728970131
 20
1417.93072574757
 10
2034.985020530131
 20
1417.924848968014
 10
2034.981790312287
 20
1417.919442379698
 10
2034.977733782214
 20
1417.91474592112
 10
2034.972929621768
 20
1417.91081940554
 10
2034.967680825573
 20
1417.907890254482
 10
2034.962005411927
 20
1417.905910843834
 10
2034.957899992541
 20
1417.905142778381
 10
2034.953731273022
 20
1417.9048837962
  0
ELLIPSE
  5
4D3
330
23
100
AcDbEntity
  8
SANINDUSA
100
AcDbEllipse
 10
2034.362864349228
 20
1417.695127725362
 30
0.0
 11
0.0070796854459923
 21
0.0070796854459914
 31
0.0
210
0.0
220
0.0
230
1.0
 40
0.9987827659587241
 41
2.356803477778012
 42
3.926381829401687
  0
ELLIPSE
  5
4D6
330
23
100
AcDbEntity
  8
SANINDUSA
100
AcDbEllipse
 10
2035.544598196816
 20
1417.695127725362
 30
0.0
 11
0.0070796854459925
 21
-0.0070796854459914
 31
0.0
210
0.0
220
0.0
230
0.9999999999999998
 40
0.998782765958712
 41
5.498396131367622
 42
7.067974482991366
  0
LINE
  5
4DA
330
23
100
AcDbEntity
  8
SANINDUSA
100
AcDbLine
 10
2035.543899808732
 20
1418.185994649156
 30
0.0
 11
2035.544214402047
 21
1418.185994649156
 31
0.0
  0
ARC
  5
4DB
330
23
100
AcDbEntity
  8
SANINDUSA
100
AcDbCircle
 10
2035.544201761942
 20
1418.173074763698
 30
0.0
 40
0.0129198916416623
100
AcDbArc
 50
86.46340195204295
 51
89.94394498830462
  0
ELLIPSE
  5
4DC
330
23
100
AcDbEntity
  8
SANINDUSA
100
AcDbEllipse
 10
2035.543924774168
 20
1418.175994649156
 30
0.0
 11
0.0153212848054977
 21
0.0
 31
0.0
210
0.0
220
0.0
230
0.9999999999999998
 40
0.6526867770522551
 41
1.443757117397877
 42
1.500641420274005
  0
ELLIPSE
  5
4DD
330
23
100
AcDbEntity
  8
SANINDUSA
100
AcDbEllipse
 10
2035.544598196816
 20
1418.175994649156
 30
0.0
 11
0.0100060954429884
 21
0.0
 31
0.0
210
0.0
220
0.0
230
1.0
 40
0.9993908270190777
 41
0.0
 42
1.443757117397863
  0
LINE
  5
4DE
330
23
100
AcDbEntity
  8
SANINDUSA
100
AcDbLine
 10
2034.362852190342
 20
1417.685121619924
 30
0.0
 11
2035.544610355702
 21
1417.685121619924
 31
0.0
  0
LINE
  5
4DF
330
23
100
AcDbEntity
  8
SANINDUSA
100
AcDbLine
 10
2035.554604266491
 20
1417.695115530714
 30
0.0
 11
2035.554604266491
 21
1418.17599464938
 31
0.0
  0
LINE
  5
4E0
330
23
100
AcDbEntity
  8
SANINDUSA
100
AcDbLine
 10
2034.363248143998
 20
1418.185994649156
 30
0.0
 11
2034.363562737313
 21
1418.185994649156
 31
0.0
  0
ELLIPSE
  5
4E2
330
23
100
AcDbEntity
  8
SANINDUSA
100
AcDbEllipse
 10
2034.362864349228
 20
1418.175994649156
 30
0.0
 11
0.0100060954429881
 21
0.0
 31
0.0
210
0.0
220
0.0
230
1.0
 40
0.9993908270191061
 41
1.697835536191975
 42
3.141592653589793
  0
ELLIPSE
  5
4E3
330
23
100
AcDbEntity
  8
SANINDUSA
100
AcDbEllipse
 10
2034.363537771875
 20
1418.175994649156
 30
0.0
 11
0.0153212848054977
 21
0.0
 31
0.0
210
0.0
220
0.0
230
0.9999999999999998
 40
0.6526867770522551
 41
1.640951233315824
 42
1.697835536191961
  0
LWPOLYLINE
  5
4E4
330
23
100
AcDbEntity
  8
SANINDUSA
100
AcDbPolyline
 90
        3
 70
   128
 43
0.0
 10
2034.363248143998
 20
1418.185994649156
 10
2034.362909351196
 20
1418.185989680766
 10
2034.362463806477
 20
1418.185970050694
  0
LINE
  5
4E5
330
23
100
AcDbEntity
  8
SANINDUSA
100
AcDbLine
 10
2034.352858279553
 20
1418.17599464938
 30
0.0
 11
2034.352858279553
 21
1417.695115530714
 31
0.0
  0
CIRCLE
  5
4E6
330
23
100
AcDbEntity
  8
SANINDUSA
100
AcDbCircle
 10
-2034.953731273022
 20
1417.940994649157
 30
0.0
 40
0.0235000000000001
210
0.0
220
0.0
230
-1.0
  0
LWPOLYLINE
  5
4E7
330
23
100
AcDbEntity
  8
SANINDUSA
100
AcDbPolyline
 90
       35
 70
   128
 43
0.0
 10
2036.313321089315
 20
1417.862693279788
 10
2036.339590853023
 20
1417.862816199466
 10
2036.37331750797
 20
1417.863057166144
 10
2036.384573331046
 20
1417.863153308436
 10
2036.395778154897
 20
1417.863255813524
 10
2036.406931986975
 20
1417.863364025756
 10
2036.418015351462
 20
1417.863477185175
 10
2036.428302353191
 20
1417.863586947128
 10
2036.437424993085
 20
1417.863687857792
 10
2036.445383390355
 20
1417.863778531357
 10
2036.449310189055
 20
1417.863824128911
 10
2036.452876051831
 20
1417.863866030976
 10
2036.456081008481
 20
1417.86390407364
 10
2036.458925059008
 20
1417.863938122794
 10
2036.461408218312
 20
1417.863968089029
 10
2036.46358126955
 20
1417.863994478986
 10
2036.466264685559
 20
1417.864027291343
 10
2036.469745328593
 20
1417.864070221588
 10
2036.475252037811
 20
1417.864138945743
 10
2036.482018610405
 20
1417.864224731728
 10
2036.490044986772
 20
1417.864328369304
 10
2036.499331092405
 20
1417.864450663134
 10
2036.509876822996
 20
1417.86459253709
 10
2036.520556857752
 20
1417.86473920922
 10
2036.532277753519
 20
1417.864903449818
 10
2036.545039435791
 20
1417.86508582513
 10
2036.558841785359
 20
1417.865286886498
 10
2036.573684712815
 20
1417.865507036253
 10
2036.58956809895
 20
1417.865746617123
 10
2036.606491824555
 20
1417.866005763218
 10
2036.626309385466
 20
1417.866313427493
 10
2036.647385379243
 20
1417.866644486591
 10
2036.669719656872
 20
1417.866998314664
 10
2036.693312009739
 20
1417.867373972937
 10
2036.709725012945
 20
1417.86763617377
  0
LWPOLYLINE
  5
4E8
330
23
100
AcDbEntity
  8
SANINDUSA
100
AcDbPolyline
 90
       33
 70
   128
 43
0.0
 10
2035.82727085607
 20
1417.867635443613
 10
2035.841461112665
 20
1417.867409229085
 10
2035.863053133654
 20
1417.867065280482
 10
2035.883597811627
 20
1417.86673930268
 10
2035.903094997572
 20
1417.866432085439
 10
2035.921544482874
 20
1417.866144165203
 10
2035.938946178126
 20
1417.865875839993
 10
2035.955299934315
 20
1417.865627199218
 10
2035.97207852261
 20
1417.865376323268
 10
2035.987588813471
 20
1417.86514882724
 10
2036.001830628085
 20
1417.864944189593
 10
2036.01480384724
 20
1417.864761724874
 10
2036.026508351731
 20
1417.864600643322
 10
2036.036922624278
 20
1417.86446036379
 10
2036.046073531675
 20
1417.864339634582
 10
2036.053960954713
 20
1417.864237576529
 10
2036.060584833788
 20
1417.864153370067
 10
2036.065945109295
 20
1417.864086270138
 10
2036.070041736531
 20
1417.864035621092
 10
2036.072756236362
 20
1417.8640023617
 10
2036.075326627063
 20
1417.863971113965
 10
2036.078400855827
 20
1417.863934024975
 10
2036.08197889285
 20
1417.863891258642
 10
2036.086060797738
 20
1417.863843038484
 10
2036.091998508143
 20
1417.863773971602
 10
2036.098756020832
 20
1417.863697007105
 10
2036.106333380508
 20
1417.863612830445
 10
2036.114730616974
 20
1417.863522335693
 10
2036.123947819638
 20
1417.863426521227
 10
2036.133983885812
 20
1417.863326638743
 10
2036.144366828668
 20
1417.863228484794
 10
2036.187199806737
 20
1417.862887292907
 10
2036.223744833785
 20
1417.862687825963
  0
ARC
  5
4E9
330
23
100
AcDbEntity
  8
SANINDUSA
100
AcDbCircle
 10
2035.827353617275
 20
1417.872635243304
 30
0.0
 40
0.0049999643711188
100
AcDbArc
 50
181.9878062840641
 51
268.9907783749301
  0
ARC
  5
4EA
330
23
100
AcDbEntity
  8
SANINDUSA
100
AcDbCircle
 10
2036.709630430748
 20
1417.872635263437
 30
0.0
 40
0.00499998432988
100
AcDbArc
 50
271.0839001864049
 51
358.0119707978667
  0
ARC
  5
4EB
330
23
100
AcDbEntity
  8
SANINDUSA
100
AcDbCircle
 10
2036.31341544077
 20
1417.852773648859
 30
0.0
 40
0.0099200796349604
100
AcDbArc
 50
90.5449574900305
 51
173.187895816613
  0
ARC
  5
4EC
330
23
100
AcDbEntity
  8
SANINDUSA
100
AcDbCircle
 10
2036.22356209521
 20
1417.852772809083
 30
0.0
 40
0.0099167007173725
100
AcDbArc
 50
6.847243568114185
 51
88.94413050831813
  0
ARC
  5
4ED
330
23
100
AcDbEntity
  8
SANINDUSA
100
AcDbCircle
 10
2036.234399613597
 20
1417.854085001684
 30
0.0
 40
0.0010000204644776
100
AcDbArc
 50
187.463482786408
 51
270.0135154990591
  0
ARC
  5
4EE
330
23
100
AcDbEntity
  8
SANINDUSA
100
AcDbCircle
 10
2036.302591697292
 20
1417.854065428772
 30
0.0
 40
0.0009804768829596
100
AcDbArc
 50
269.5566062430796
 51
353.2570912342382
  0
LINE
  5
4EF
330
23
100
AcDbEntity
  8
SANINDUSA
100
AcDbLine
 10
2035.677612950968
 20
1417.973584985167
 30
0.0
 11
2036.859371116328
 21
1417.973584985167
 31
0.0
  0
LINE
  5
4F3
330
23
100
AcDbEntity
  8
SANINDUSA
100
AcDbLine
 10
2036.869365027117
 20
1417.973584985167
 30
0.0
 11
2036.859371116328
 21
1417.973584985167
 31
0.0
  0
LINE
  5
4F5
330
23
100
AcDbEntity
  8
SANINDUSA
100
AcDbLine
 10
2036.868660559821
 20
1417.993759482905
 30
0.0
 11
2036.869365027117
 21
1417.973584985167
 31
0.0
  0
LINE
  5
4F6
330
23
100
AcDbEntity
  8
SANINDUSA
100
AcDbLine
 10
2035.667619040179
 20
1417.973584985167
 30
0.0
 11
2035.668323507475
 21
1417.993759482905
 31
0.0
  0
LINE
  5
4F8
330
23
100
AcDbEntity
  8
SANINDUSA
100
AcDbLine
 10
2035.677612950968
 20
1417.973584985167
 30
0.0
 11
2035.667619040179
 21
1417.973584985167
 31
0.0
  0
LINE
  5
4FA
330
23
100
AcDbEntity
  8
SANINDUSA
100
AcDbLine
 10
2035.678317418265
 20
1417.998584985539
 30
0.0
 11
2036.858666649031
 21
1417.998584985539
 31
0.0
  0
ARC
  5
4FC
330
23
100
AcDbEntity
  8
SANINDUSA
100
AcDbCircle
 10
2035.673320477522
 20
1417.993584985539
 30
0.0
 40
0.0050000000000001
100
AcDbArc
 50
90.0
 51
177.9999999962464
  0
LINE
  5
4FD
330
23
100
AcDbEntity
  8
SANINDUSA
100
AcDbLine
 10
2035.67332046287
 20
1417.998584985539
 30
0.0
 11
2035.678317418265
 21
1417.998584985539
 31
0.0
  0
LINE
  5
4FE
330
23
100
AcDbEntity
  8
SANINDUSA
100
AcDbLine
 10
2036.858666649031
 20
1417.998584985539
 30
0.0
 11
2036.863663604426
 21
1417.998584985539
 31
0.0
  0
ARC
  5
4FF
330
23
100
AcDbEntity
  8
SANINDUSA
100
AcDbCircle
 10
2036.863663589774
 20
1417.993584985539
 30
0.0
 40
0.005
100
AcDbArc
 50
2.000000003753602
 51
90.0
  0
LINE
  5
501
330
23
100
AcDbEntity
  8
SANINDUSA
100
AcDbLine
 10
2035.717219715285
 20
1417.968149207339
 30
0.0
 11
2035.716744129824
 21
1417.973584985167
 31
0.0
  0
LINE
  5
503
330
23
100
AcDbEntity
  8
SANINDUSA
100
AcDbLine
 10
2036.820239937472
 20
1417.973584985167
 30
0.0
 11
2036.819764352011
 21
1417.968149207339
 31
0.0
  0
ARC
  5
506
330
23
100
AcDbEntity
  8
SANINDUSA
100
AcDbCircle
 10
2035.722200670281
 20
1417.968584985539
 30
0.0
 40
0.0050000000000001
100
AcDbArc
 50
184.9999999962911
 51
270.0
  0
ARC
  5
507
330
23
100
AcDbEntity
  8
SANINDUSA
100
AcDbCircle
 10
2036.814783397015
 20
1417.968584985539
 30
0.0
 40
0.005
100
AcDbArc
 50
270.0
 51
355.0000000037089
  0
LINE
  5
509
330
23
100
AcDbEntity
  8
SANINDUSA
100
AcDbLine
 10
2036.814783370661
 20
1417.96358498539
 30
0.0
 11
2035.722200696635
 21
1417.96358498539
 31
0.0
  0
LINE
  5
50E
330
23
100
AcDbEntity
  8
SANINDUSA
100
AcDbLine
 10
2036.223744833785
 20
1417.862687825963
 30
0.0
 11
2036.224224625098
 21
1417.862701356217
 31
0.0
  0
ARC
  5
510
330
23
100
AcDbEntity
  8
SANINDUSA
100
AcDbCircle
 10
2035.814346116672
 20
1417.958584985539
 30
0.0
 40
0.0050000000000001
100
AcDbArc
 50
2.000000003753602
 51
90.0
  0
ARC
  5
511
330
23
100
AcDbEntity
  8
SANINDUSA
100
AcDbCircle
 10
2036.722637950624
 20
1417.958584985539
 30
0.0
 40
0.005
100
AcDbArc
 50
90.0
 51
177.9999999962464
  0
LWPOLYLINE
  5
513
330
23
100
AcDbEntity
  8
SANINDUSA
100
AcDbPolyline
 90
       15
 70
   128
 43
0.0
 10
2035.822353860306
 20
1417.872541755244
 10
2035.822356244492
 20
1417.872473105594
 10
2035.822331627774
 20
1417.873178109333
 10
2035.82226677792
 20
1417.875035442218
 10
2035.822162410187
 20
1417.878023825392
 10
2035.822023769783
 20
1417.88199394922
 10
2035.821849754023
 20
1417.886977545723
 10
2035.821635058093
 20
1417.893125250742
 10
2035.82138582127
 20
1417.900262504622
 10
2035.821110328602
 20
1417.90815197657
 10
2035.820805480646
 20
1417.9168817548
 10
2035.82046340959
 20
1417.926677137419
 10
2035.820095052885
 20
1417.93722530435
 10
2035.819729467797
 20
1417.947694126323
 10
2035.819343080687
 20
1417.958759482756
  0
LINE
  5
516
330
23
100
AcDbEntity
  8
SANINDUSA
100
AcDbLine
 10
2036.295986786427
 20
1417.853084981248
 30
0.0
 11
2036.240997280868
 21
1417.853084981248
 31
0.0
  0
LINE
  5
517
330
23
100
AcDbEntity
  8
SANINDUSA
100
AcDbLine
 10
2036.240997280868
 20
1417.853084981248
 30
0.0
 11
2036.234399849492
 21
1417.853084981248
 31
0.0
  0
LINE
  5
518
330
23
100
AcDbEntity
  8
SANINDUSA
100
AcDbLine
 10
2036.302584109771
 20
1417.853084981248
 30
0.0
 11
2036.295986786427
 21
1417.853084981248
 31
0.0
  0
ARC
  5
51D
330
23
100
AcDbEntity
  8
SANINDUSA
100
AcDbCircle
 10
2036.265150173305
 20
1417.041156561905
 30
0.0
 40
0.8229477601761248
100
AcDbArc
 50
86.64429646145356
 51
89.43718365047361
  0
ARC
  5
51E
330
23
100
AcDbEntity
  8
SANINDUSA
100
AcDbCircle
 10
2036.269927086717
 20
1417.101321311722
 30
0.0
 40
0.7627504750263443
100
AcDbArc
 50
89.75160339644389
 51
93.43510444182902
  0
LWPOLYLINE
  5
522
330
23
100
AcDbEntity
  8
SANINDUSA
100
AcDbPolyline
 90
       21
 70
   128
 43
0.0
 10
2037.365498601293
 20
1417.864042073294
 10
2037.36984035263
 20
1417.864373072788
 10
2037.377265184021
 20
1417.864987447664
 10
2037.384821682072
 20
1417.865706339284
 10
2037.392524330711
 20
1417.866536602184
 10
2037.400704293346
 20
1417.867597251937
 10
2037.409399567938
 20
1417.86924885194
 10
2037.418040363883
 20
1417.871478795811
 10
2037.427020787096
 20
1417.874450586542
 10
2037.43627393136
 20
1417.878260135457
 10
2037.445720582104
 20
1417.883008315965
 10
2037.455265640115
 20
1417.888799391493
 10
2037.464785664177
 20
1417.895729318067
 10
2037.471812068319
 20
1417.901714384362
 10
2037.478655128574
 20
1417.908402859971
 10
2037.485219596719
 20
1417.915806263491
 10
2037.491404532289
 20
1417.923908814594
 10
2037.497121213769
 20
1417.932693518504
 10
2037.502273349857
 20
1417.942136362001
 10
2037.506765364504
 20
1417.952203634932
 10
2037.509560613727
 20
1417.960155971154
  0
ARC
  5
523
330
23
100
AcDbEntity
  8
SANINDUSA
100
AcDbCircle
 10
2037.287165889686
 20
1417.938882305026
 30
0.0
 40
0.0750987128390512
100
AcDbArc
 50
249.4009724398123
 51
263.0552981283853
  0
ARC
  5
524
330
23
100
AcDbEntity
  8
SANINDUSA
100
AcDbCircle
 10
2037.514478585024
 20
1417.958344627534
 30
0.0
 40
0.0052409357358267
100
AcDbArc
 50
90.85063370173712
 51
159.7806856018289
  0
ARC
  5
525
330
23
100
AcDbEntity
  8
SANINDUSA
100
AcDbCircle
 10
2037.366516828316
 20
1417.854120209846
 30
0.0
 40
0.0099739741606027
100
AcDbArc
 50
95.85944232496091
 51
175.0902191016591
  0
ARC
  5
526
330
23
100
AcDbEntity
  8
SANINDUSA
100
AcDbCircle
 10
2037.276314894328
 20
1417.854529407569
 30
0.0
 40
0.0099637635814277
100
AcDbArc
 50
5.056850385851872
 51
79.76331472197266
  0
LINE
  5
527
330
23
100
AcDbEntity
  8
SANINDUSA
100
AcDbLine
 10
2037.286228938794
 20
1417.855401098534
 30
0.0
 11
2037.286351709461
 21
1417.853997826382
 31
0.0
  0
ARC
  5
528
330
23
100
AcDbEntity
  8
SANINDUSA
100
AcDbCircle
 10
2037.287347902514
 20
1417.854084985539
 30
0.0
 40
0.0010000000000002
100
AcDbArc
 50
184.9999999962911
 51
270.0
  0
LINE
  5
529
330
23
100
AcDbEntity
  8
SANINDUSA
100
AcDbLine
 10
2037.356511442756
 20
1417.853997826382
 30
0.0
 11
2037.356596796608
 21
1417.854973390505
 31
0.0
  0
ARC
  5
52A
330
23
100
AcDbEntity
  8
SANINDUSA
100
AcDbCircle
 10
2037.355515240166
 20
1417.854084985539
 30
0.0
 40
0.0010000000000002
100
AcDbArc
 50
270.0
 51
355.0000000037089
  0
LINE
  5
52B
330
23
100
AcDbEntity
  8
SANINDUSA
100
AcDbLine
 10
2037.07643157134
 20
1417.98457534033
 30
0.0
 11
2037.07643157134
 21
1417.993584985651
 31
0.0
  0
LINE
  5
530
330
23
100
AcDbEntity
  8
SANINDUSA
100
AcDbLine
 10
2037.086431571117
 20
1417.973584985167
 30
0.0
 11
2037.076512157671
 21
1417.973584985167
 31
0.0
  0
LINE
  5
533
330
23
100
AcDbEntity
  8
SANINDUSA
100
AcDbLine
 10
2037.086431571117
 20
1417.973584985167
 30
0.0
 11
2037.567310689783
 21
1417.973584985167
 31
0.0
  0
LINE
  5
535
330
23
100
AcDbEntity
  8
SANINDUSA
100
AcDbLine
 10
2037.576599762741
 20
1417.993768386553
 30
0.0
 11
2037.577304600572
 21
1417.973584985167
 31
0.0
  0
LINE
  5
536
330
23
100
AcDbEntity
  8
SANINDUSA
100
AcDbLine
 10
2037.577304600572
 20
1417.973584985167
 30
0.0
 11
2037.567310689783
 21
1417.973584985167
 31
0.0
  0
LINE
  5
538
330
23
100
AcDbEntity
  8
SANINDUSA
100
AcDbLine
 10
2037.086431571117
 20
1417.998584985539
 30
0.0
 11
2037.566606162882
 21
1417.998584985539
 31
0.0
  0
LINE
  5
53A
330
23
100
AcDbEntity
  8
SANINDUSA
100
AcDbLine
 10
2037.081431571229
 20
1417.998584985539
 30
0.0
 11
2037.086431571117
 21
1417.998584985539
 31
0.0
  0
ARC
  5
53B
330
23
100
AcDbEntity
  8
SANINDUSA
100
AcDbCircle
 10
2037.081431571341
 20
1417.993584985539
 30
0.0
 40
0.005
100
AcDbArc
 50
90.0
 51
180.0
  0
LINE
  5
53C
330
23
100
AcDbEntity
  8
SANINDUSA
100
AcDbLine
 10
2037.566606162882
 20
1417.998584985539
 30
0.0
 11
2037.571603118276
 21
1417.998584985539
 31
0.0
  0
ARC
  5
53D
330
23
100
AcDbEntity
  8
SANINDUSA
100
AcDbCircle
 10
2037.571603127466
 20
1417.993584985539
 30
0.0
 40
0.0050000000000004
100
AcDbArc
 50
2.000000003753602
 51
90.0
  0
LINE
  5
540
330
23
100
AcDbEntity
  8
SANINDUSA
100
AcDbLine
 10
2037.07643157134
 20
1417.982195075407
 30
0.0
 11
2037.07643157134
 21
1417.988584985763
 31
0.0
  0
LINE
  5
542
330
23
100
AcDbEntity
  8
SANINDUSA
100
AcDbLine
 10
2037.538179481125
 20
1417.973584985167
 30
0.0
 11
2037.537703895664
 21
1417.968149207339
 31
0.0
  0
LINE
  5
544
330
23
100
AcDbEntity
  8
SANINDUSA
100
AcDbLine
 10
2037.07643157134
 20
1417.968323517397
 30
0.0
 11
2037.07643157134
 21
1417.982195075407
 31
0.0
  0
ARC
  5
547
330
23
100
AcDbEntity
  8
SANINDUSA
100
AcDbCircle
 10
2037.07843157134
 20
1417.965584985539
 30
0.0
 40
0.0020000000000002
100
AcDbArc
 50
180.0
 51
270.0
  0
LINE
  5
548
330
23
100
AcDbEntity
  8
SANINDUSA
100
AcDbLine
 10
2037.07643157134
 20
1417.965584985718
 30
0.0
 11
2037.07643157134
 21
1417.968323517397
 31
0.0
  0
LINE
  5
54A
330
23
100
AcDbEntity
  8
SANINDUSA
100
AcDbLine
 10
2037.532722944117
 20
1417.963584985542
 30
0.0
 11
2037.078431571435
 21
1417.96358498539
 31
0.0
  0
ARC
  5
54B
330
23
100
AcDbEntity
  8
SANINDUSA
100
AcDbCircle
 10
2037.532722934708
 20
1417.968584985539
 30
0.0
 40
0.0050000000000001
100
AcDbArc
 50
270.0
 51
355.0000000037089
  0
ARC
  5
54C
330
23
100
AcDbEntity
  8
SANINDUSA
100
AcDbCircle
 10
2037.356335730253
 20
1418.031180351448
 30
0.0
 40
0.1635217001231331
100
AcDbArc
 50
266.0812072765176
 51
334.4872154906708
  0
ARC
  5
550
330
23
100
AcDbEntity
  8
SANINDUSA
100
AcDbCircle
 10
2037.312376024555
 20
1418.291104395796
 30
0.0
 40
0.4281452075560545
100
AcDbArc
 50
265.406224568453
 51
266.1716644205037
  0
LWPOLYLINE
  5
551
330
23
100
AcDbEntity
  8
SANINDUSA
100
AcDbPolyline
 90
       19
 70
   128
 43
0.0
 10
2037.283789901829
 20
1417.863914564058
 10
2037.283789931631
 20
1417.863914564058
 10
2037.286492450928
 20
1417.863765194818
 10
2037.28962683568
 20
1417.863602086708
 10
2037.295198543763
 20
1417.86334097366
 10
2037.301700129008
 20
1417.863086655542
 10
2037.308551340198
 20
1417.862882017895
 10
2037.315987153744
 20
1417.862738191888
 10
2037.323355614042
 20
1417.862680375382
 10
2037.330889015293
 20
1417.862711816832
 10
2037.33794179449
 20
1417.862825959727
 10
2037.344716339207
 20
1417.863013401434
 10
2037.350643663502
 20
1417.86323985438
 10
2037.355893908834
 20
1417.863488524958
 10
2037.360041349029
 20
1417.863716304108
 10
2037.363201915121
 20
1417.863908067152
 10
2037.365125625228
 20
1417.864032283232
 10
2037.365498601293
 20
1417.864042073294
 10
2037.365498601293
 20
1417.864042073294
  0
LINE
  5
55D
330
23
100
AcDbEntity
  8
SANINDUSA
100
AcDbLine
 10
2037.07643157134
 20
1417.95882928352
 30
0.0
 11
2037.07643157134
 21
1417.965584985718
 31
0.0
  0
LINE
  5
55F
330
23
100
AcDbEntity
  8
SANINDUSA
100
AcDbLine
 10
2037.07643157134
 20
1417.873480289981
 30
0.0
 11
2037.07643157134
 21
1417.95882928352
 31
0.0
  0
LWPOLYLINE
  5
560
330
23
100
AcDbEntity
  8
SANINDUSA
100
AcDbPolyline
 90
        3
 70
   128
 43
0.0
 10
2037.345160244798
 20
1417.868040978715
 10
2037.335169135428
 20
1417.868517741367
 10
2037.32974931488
 20
1417.868584990308
  0
LINE
  5
562
330
23
100
AcDbEntity
  8
SANINDUSA
100
AcDbLine
 10
2037.32974931488
 20
1417.868584990308
 30
0.0
 11
2037.078431571435
 21
1417.868584990308
 31
0.0
  0
ARC
  5
564
330
23
100
AcDbEntity
  8
SANINDUSA
100
AcDbCircle
 10
2037.07843157134
 20
1417.870584985539
 30
0.0
 40
0.0020000000000002
100
AcDbArc
 50
180.0
 51
270.0
  0
LINE
  5
565
330
23
100
AcDbEntity
  8
SANINDUSA
100
AcDbLine
 10
2037.07643157134
 20
1417.870584979459
 30
0.0
 11
2037.07643157134
 21
1417.873480289981
 31
0.0
  0
LINE
  5
568
330
23
100
AcDbEntity
  8
SANINDUSA
100
AcDbLine
 10
2037.341574429369
 20
1417.853084981248
 30
0.0
 11
2037.305524690842
 21
1417.853084981248
 31
0.0
  0
LINE
  5
569
330
23
100
AcDbEntity
  8
SANINDUSA
100
AcDbLine
 10
2037.305524690842
 20
1417.853084981248
 30
0.0
 11
2037.28734789679
 21
1417.853084981248
 31
0.0
  0
LINE
  5
56A
330
23
100
AcDbEntity
  8
SANINDUSA
100
AcDbLine
 10
2037.355515240526
 20
1417.853084981248
 30
0.0
 11
2037.341574429369
 21
1417.853084981248
 31
0.0
  0
LINE
  5
56B
330
23
100
AcDbEntity
  8
SANINDUSA
100
AcDbLine
 10
2037.07643157134
 20
1417.98457534033
 30
0.0
 11
2037.07643157134
 21
1417.988584985763
 31
0.0
  0
LINE
  5
573
330
23
100
AcDbEntity
  8
SANINDUSA
100
AcDbLine
 10
2038.024110284631
 20
1417.864612253756
 30
0.0
 11
2038.036721142076
 21
1417.875574704886
 31
0.0
  0
LINE
  5
574
330
23
100
AcDbEntity
  8
SANINDUSA
100
AcDbLine
 10
2037.977110284631
 20
1417.864612253756
 30
0.0
 11
2038.024110284631
 21
1417.864612253756
 31
0.0
  0
LINE
  5
575
330
23
100
AcDbEntity
  8
SANINDUSA
100
AcDbLine
 10
2037.964251046246
 20
1417.875790619143
 30
0.0
 11
2037.977110284631
 21
1417.864612253756
 31
0.0
  0
ARC
  5
576
330
23
100
AcDbEntity
  8
SANINDUSA
100
AcDbCircle
 10
2038.002373739953
 20
1418.509257643968
 30
0.0
 40
0.6346131194008798
100
AcDbArc
 50
266.5560350880211
 51
273.102556809095
  0
ARC
  5
577
330
23
100
AcDbEntity
  8
SANINDUSA
100
AcDbCircle
 10
2038.045737779484
 20
1417.854105648946
 30
0.0
 40
0.0100000000000007
100
AcDbArc
 50
94.00749259647458
 51
175.0000000037089
  0
ARC
  5
578
330
23
100
AcDbEntity
  8
SANINDUSA
100
AcDbCircle
 10
2037.955443534261
 20
1417.854554341553
 30
0.0
 40
0.0100000000000007
100
AcDbArc
 50
4.999999996291116
 51
82.27569705406866
  0
LINE
  5
579
330
23
100
AcDbEntity
  8
SANINDUSA
100
AcDbLine
 10
2037.965530421107
 20
1417.853997829796
 30
0.0
 11
2037.965405481243
 21
1417.855425898981
 31
0.0
  0
LWPOLYLINE
  5
57A
330
23
100
AcDbEntity
  8
SANINDUSA
100
AcDbPolyline
 90
       17
 70
   128
 43
0.0
 10
2038.045038910233
 20
1417.864081198143
 10
2038.066013138501
 20
1417.865913766347
 10
2038.076502583647
 20
1417.867131175573
 10
2038.086907513167
 20
1417.868886152239
 10
2038.097940769873
 20
1417.871693237317
 10
2038.108703764961
 20
1417.875404134135
 10
2038.119417757169
 20
1417.880143085791
 10
2038.12968769235
 20
1417.885779941296
 10
2038.139168473586
 20
1417.892082977725
 10
2038.148095259902
 20
1417.899149100359
 10
2038.156637175791
 20
1417.907166295696
 10
2038.164462432199
 20
1417.915884145786
 10
2038.171322229753
 20
1417.924965954395
 10
2038.177409062227
 20
1417.934582954119
 10
2038.182815326449
 20
1417.944971454717
 10
2038.187313616457
 20
1417.955784165162
 10
2038.18882941141
 20
1417.960146283452
  0
LWPOLYLINE
  5
57B
330
23
100
AcDbEntity
  8
SANINDUSA
100
AcDbPolyline
 90
       20
 70
   128
 43
0.0
 10
2037.876515072705
 20
1417.981963547991
 10
2037.877786508156
 20
1417.96833469079
 10
2037.879526658274
 20
1417.954757719195
 10
2037.880890164548
 20
1417.945676717799
 10
2037.88249729607
 20
1417.936636259927
 10
2037.884591577993
 20
1417.927707800952
 10
2037.886786615972
 20
1417.920818365669
 10
2037.88954597101
 20
1417.914134993987
 10
2037.892958384358
 20
1417.907521857634
 10
2037.896923768772
 20
1417.901224694858
 10
2037.901279772206
 20
1417.89545354784
 10
2037.906098651461
 20
1417.890062819518
 10
2037.911506363332
 20
1417.884953202884
 10
2037.917329138699
 20
1417.880322093321
 10
2037.923358662185
 20
1417.87630629883
 10
2037.929700557226
 20
1417.872804611916
 10
2037.936509257969
 20
1417.869766096858
 10
2037.943553277024
 20
1417.867322213419
 10
2037.950094395708
 20
1417.86563889352
 10
2037.956787599413
 20
1417.864463604335
  0
ARC
  5
57C
330
23
100
AcDbEntity
  8
SANINDUSA
100
AcDbCircle
 10
2038.034693953457
 20
1417.854084985539
 30
0.0
 40
0.001
100
AcDbArc
 50
270.0
 51
355.0000000037089
  0
LINE
  5
57D
330
23
100
AcDbEntity
  8
SANINDUSA
100
AcDbLine
 10
2038.035775832502
 20
1417.854977206374
 30
0.0
 11
2038.035690148155
 21
1417.853997829796
 31
0.0
  0
ARC
  5
57F
330
23
100
AcDbEntity
  8
SANINDUSA
100
AcDbCircle
 10
2038.025110284631
 20
1417.854084985539
 30
0.0
 40
0.0010000000000002
100
AcDbArc
 50
180.0
 51
270.0
  0
LINE
  5
580
330
23
100
AcDbEntity
  8
SANINDUSA
100
AcDbLine
 10
2038.025110284631
 20
1417.853084985539
 30
0.0
 11
2037.976110284631
 21
1417.853084985539
 31
0.0
  0
ARC
  5
581
330
23
100
AcDbEntity
  8
SANINDUSA
100
AcDbCircle
 10
2037.976110284631
 20
1417.854084985539
 30
0.0
 40
0.001
100
AcDbArc
 50
270.0
 51
0.0
  0
ARC
  5
582
330
23
100
AcDbEntity
  8
SANINDUSA
100
AcDbCircle
 10
2037.966526615805
 20
1417.854084985539
 30
0.0
 40
0.001
100
AcDbArc
 50
184.9999999962911
 51
270.0
  0
LINE
  5
583
330
23
100
AcDbEntity
  8
SANINDUSA
100
AcDbLine
 10
2038.024110284631
 20
1417.864612253756
 30
0.0
 11
2038.024110284631
 21
1417.854084985539
 31
0.0
  0
LINE
  5
584
330
23
100
AcDbEntity
  8
SANINDUSA
100
AcDbLine
 10
2037.977110284631
 20
1417.854084985539
 30
0.0
 11
2037.977110284631
 21
1417.864612253756
 31
0.0
  0
ARC
  5
585
330
23
100
AcDbEntity
  8
SANINDUSA
100
AcDbCircle
 10
2037.882811698683
 20
1417.993584985539
 30
0.0
 40
0.0050000000000002
100
AcDbArc
 50
2.708374170764497
 51
90.0
  0
LWPOLYLINE
  5
586
330
23
100
AcDbEntity
  8
SANINDUSA
100
AcDbPolyline
 90
       18
 70
   128
 43
0.0
 10
2037.88780611358
 20
1417.993821247764
 10
2037.889027207881
 20
1417.976399839003
 10
2037.891036473245
 20
1417.959051641933
 10
2037.892167395829
 20
1417.951008531147
 10
2037.893461488488
 20
1417.942958507017
 10
2037.895107222644
 20
1417.9349922954
 10
2037.897293069721
 20
1417.927200622152
 10
2037.900207501142
 20
1417.919674213132
 10
2037.904121989135
 20
1417.912212754666
 10
2037.908862054337
 20
1417.905213737109
 10
2037.914336097461
 20
1417.898807696003
 10
2037.920499354744
 20
1417.893063885826
 10
2037.92728530227
 20
1417.888026124855
 10
2037.934567184489
 20
1417.883789421021
 10
2037.942298486886
 20
1417.880402653931
 10
2037.950386943716
 20
1417.877896484518
 10
2037.958678651599
 20
1417.876317516905
 10
2037.964251046246
 20
1417.875790619143
  0
ARC
  5
587
330
23
100
AcDbEntity
  8
SANINDUSA
100
AcDbCircle
 10
2037.871529424254
 20
1417.981584985539
 30
0.0
 40
0.005
100
AcDbArc
 50
4.342161398757011
 51
90.0
  0
LINE
  5
588
330
23
100
AcDbEntity
  8
SANINDUSA
100
AcDbLine
 10
2037.871529424254
 20
1417.986584985539
 30
0.0
 11
2037.854110284631
 21
1417.986584985539
 31
0.0
  0
ARC
  5
589
330
23
100
AcDbEntity
  8
SANINDUSA
100
AcDbCircle
 10
2037.854110284631
 20
1417.987584985539
 30
0.0
 40
0.0010000000000002
100
AcDbArc
 50
180.0
 51
270.0
  0
LINE
  5
58A
330
23
100
AcDbEntity
  8
SANINDUSA
100
AcDbLine
 10
2037.853110284631
 20
1417.997584985539
 30
0.0
 11
2037.853110284631
 21
1417.987584985539
 31
0.0
  0
ARC
  5
58B
330
23
100
AcDbEntity
  8
SANINDUSA
100
AcDbCircle
 10
2037.854110284631
 20
1417.997584985539
 30
0.0
 40
0.0010000000000002
100
AcDbArc
 50
90.0
 51
180.0
  0
LINE
  5
58C
330
23
100
AcDbEntity
  8
SANINDUSA
100
AcDbLine
 10
2037.882811698683
 20
1417.998584985539
 30
0.0
 11
2037.854110284631
 21
1417.998584985539
 31
0.0
  0
LINE
  5
58D
330
23
100
AcDbEntity
  8
SANINDUSA
100
AcDbLine
 10
2037.976110284631
 20
1417.853084985539
 30
0.0
 11
2037.966526615805
 21
1417.853084985539
 31
0.0
  0
LINE
  5
58E
330
23
100
AcDbEntity
  8
SANINDUSA
100
AcDbLine
 10
2038.245483303868
 20
1417.973584985539
 30
0.0
 11
2038.244745268863
 21
1417.982020764253
 31
0.0
  0
ARC
  5
58F
330
23
100
AcDbEntity
  8
SANINDUSA
100
AcDbCircle
 10
2038.239764295372
 20
1417.981584985539
 30
0.0
 40
0.0050000000000001
100
AcDbArc
 50
4.999999996291116
 51
90.0
  0
LINE
  5
590
330
23
100
AcDbEntity
  8
SANINDUSA
100
AcDbLine
 10
2038.239764295372
 20
1417.986584985539
 30
0.0
 11
2038.223077198999
 21
1417.986584985539
 31
0.0
  0
ARC
  5
591
330
23
100
AcDbEntity
  8
SANINDUSA
100
AcDbCircle
 10
2038.223077198999
 20
1417.981584985539
 30
0.0
 40
0.0050000000000001
100
AcDbArc
 50
90.0
 51
175.0000000037089
  0
ARC
  5
594
330
23
100
AcDbEntity
  8
SANINDUSA
100
AcDbCircle
 10
2038.223077198999
 20
1417.981584985539
 30
0.0
 40
0.0160000000000001
100
AcDbArc
 50
162.8953648282062
 51
175.0000000037089
  0
ARC
  5
595
330
23
100
AcDbEntity
  8
SANINDUSA
100
AcDbCircle
 10
2038.20682912219
 20
1417.986584985539
 30
0.0
 40
0.001
100
AcDbArc
 50
342.8953648282063
 51
90.0
  0
LINE
  5
596
330
23
100
AcDbEntity
  8
SANINDUSA
100
AcDbLine
 10
2038.218096225509
 20
1417.982020764253
 30
0.0
 11
2038.216882621489
 21
1417.968149206825
 31
0.0
  0
LINE
  5
597
330
23
100
AcDbEntity
  8
SANINDUSA
100
AcDbLine
 10
2038.20713808383
 20
1417.982979477423
 30
0.0
 11
2038.206483524478
 21
1417.975497829796
 31
0.0
  0
ARC
  5
598
330
23
100
AcDbEntity
  8
SANINDUSA
100
AcDbCircle
 10
2038.211901647998
 20
1417.968584985539
 30
0.0
 40
0.0050000000000001
100
AcDbArc
 50
270.0
 51
355.0000000037089
  0
LINE
  5
599
330
23
100
AcDbEntity
  8
SANINDUSA
100
AcDbLine
 10
2038.211901647998
 20
1417.963584985539
 30
0.0
 11
2038.193579395498
 21
1417.963584985539
 31
0.0
  0
LINE
  5
59A
330
23
100
AcDbEntity
  8
SANINDUSA
100
AcDbLine
 10
2038.20548732978
 20
1417.974584985539
 30
0.0
 11
2038.193579395498
 21
1417.974584985539
 31
0.0
  0
ARC
  5
59B
330
23
100
AcDbEntity
  8
SANINDUSA
100
AcDbCircle
 10
2038.20548732978
 20
1417.975584985539
 30
0.0
 40
0.001
100
AcDbArc
 50
270.0
 51
355.0000000037089
  0
ARC
  5
59C
330
23
100
AcDbEntity
  8
SANINDUSA
100
AcDbCircle
 10
2038.193579395498
 20
1417.958584985539
 30
0.0
 40
0.0049999999999997
100
AcDbArc
 50
90.0
 51
161.8045436810935
  0
ARC
  5
59D
330
23
100
AcDbEntity
  8
SANINDUSA
100
AcDbCircle
 10
2038.193579395498
 20
1417.958584985539
 30
0.0
 40
0.0159999999999998
100
AcDbArc
 50
90.0
 51
94.85716402606007
  0
LWPOLYLINE
  5
59E
330
23
100
AcDbEntity
  8
SANINDUSA
100
AcDbPolyline
 90
       20
 70
   128
 43
0.0
 10
2038.036721142076
 20
1417.875574704886
 10
2038.057913299358
 20
1417.877170774514
 10
2038.067867749174
 20
1417.878227792581
 10
2038.07781181618
 20
1417.879646211108
 10
2038.087656281446
 20
1417.881572196523
 10
2038.097311926037
 20
1417.884151915256
 10
2038.106689531023
 20
1417.887531533736
 10
2038.11621432857
 20
1417.891979411487
 10
2038.125363224746
 20
1417.897232426058
 10
2038.134043164592
 20
1417.903229281732
 10
2038.142161093148
 20
1417.909908682795
 10
2038.149679294622
 20
1417.917255750748
 10
2038.15657703589
 20
1417.925237880516
 10
2038.162786343824
 20
1417.933766834816
 10
2038.168239245298
 20
1417.942754376368
 10
2038.172909350886
 20
1417.952185279135
 10
2038.176780982071
 20
1417.962011688551
 10
2038.179819146914
 20
1417.972127185116
 10
2038.181988853475
 20
1417.982425349329
 10
2038.183361613699
 20
1417.993945549486
  0
LWPOLYLINE
  5
59F
330
23
100
AcDbEntity
  8
SANINDUSA
100
AcDbPolyline
 90
        5
 70
   128
 43
0.0
 10
2038.191693048577
 20
1417.975128813327
 10
2038.192853588518
 20
1417.980637130029
 10
2038.193576441409
 20
1417.98670330958
 42
-0.3798873927696669
 10
2038.194569416445
 20
1417.987584985539
 10
2038.20682912219
 20
1417.987584985539
  0
ARC
  5
5A0
330
23
100
AcDbEntity
  8
SANINDUSA
100
AcDbCircle
 10
2038.188348596117
 20
1417.993584985539
 30
0.0
 40
0.0049999999999999
100
AcDbArc
 50
90.0
 51
175.8646520775066
  0
LINE
  5
5A1
330
23
100
AcDbEntity
  8
SANINDUSA
100
AcDbLine
 10
2038.250781840757
 20
1417.998584985539
 30
0.0
 11
2038.188348596117
 21
1417.998584985539
 31
0.0
  0
ARC
  5
5A2
330
23
100
AcDbEntity
  8
SANINDUSA
100
AcDbCircle
 10
2038.250781840757
 20
1417.993584985539
 30
0.0
 40
0.0050000000000001
100
AcDbArc
 50
2.000000003753602
 51
90.0
  0
LINE
  5
5A3
330
23
100
AcDbEntity
  8
SANINDUSA
100
AcDbLine
 10
2038.255778794892
 20
1417.993759483023
 30
0.0
 11
2038.256483303868
 21
1417.973584985539
 31
0.0
  0
LINE
  5
5A4
330
23
100
AcDbEntity
  8
SANINDUSA
100
AcDbLine
 10
2038.256483303868
 20
1417.973584985539
 30
0.0
 11
2038.245483303868
 21
1417.973584985539
 31
0.0
  0
LINE
  5
5A5
330
23
100
AcDbEntity
  8
SANINDUSA
100
AcDbLine
 10
2038.034693953457
 20
1417.853084985539
 30
0.0
 11
2038.025110284631
 21
1417.853084985539
 31
0.0
  0
ARC
  5
5A9
330
23
100
AcDbEntity
  8
SANINDUSA
100
AcDbCircle
 10
2037.800515602797
 20
1417.981584985539
 30
0.0
 40
0.005
100
AcDbArc
 50
90.0
 51
175.0000000037089
  0
ARC
  5
5AA
330
23
100
AcDbEntity
  8
SANINDUSA
100
AcDbCircle
 10
2037.800515602797
 20
1417.981584985539
 30
0.0
 40
0.0160000000000001
100
AcDbArc
 50
162.8953648282062
 51
175.0000000037089
  0
ARC
  5
5AB
330
23
100
AcDbEntity
  8
SANINDUSA
100
AcDbCircle
 10
2037.784267525988
 20
1417.986584985539
 30
0.0
 40
0.001
100
AcDbArc
 50
342.8953648282063
 51
90.0
  0
LINE
  5
5AC
330
23
100
AcDbEntity
  8
SANINDUSA
100
AcDbLine
 10
2037.786009602251
 20
1417.873149206825
 30
0.0
 11
2037.795534629307
 21
1417.982020764253
 31
0.0
  0
LINE
  5
5AD
330
23
100
AcDbEntity
  8
SANINDUSA
100
AcDbLine
 10
2037.77561050524
 20
1417.880497829796
 30
0.0
 11
2037.784576487627
 21
1417.982979477423
 31
0.0
  0
ARC
  5
5AE
330
23
100
AcDbEntity
  8
SANINDUSA
100
AcDbCircle
 10
2037.774614310543
 20
1417.880584985539
 30
0.0
 40
0.001
100
AcDbArc
 50
270.0
 51
355.0000000037089
  0
ARC
  5
5AF
330
23
100
AcDbEntity
  8
SANINDUSA
100
AcDbCircle
 10
2037.757610284631
 20
1417.870584985539
 30
0.0
 40
0.002
100
AcDbArc
 50
180.0
 51
270.0
  0
LINE
  5
5B0
330
23
100
AcDbEntity
  8
SANINDUSA
100
AcDbLine
 10
2037.755610284631
 20
1417.870584985539
 30
0.0
 11
2037.755610284631
 21
1417.993584985539
 31
0.0
  0
LINE
  5
5B1
330
23
100
AcDbEntity
  8
SANINDUSA
100
AcDbLine
 10
2037.766610284631
 20
1417.880584985539
 30
0.0
 11
2037.766610284631
 21
1417.986584985539
 31
0.0
  0
ARC
  5
5B2
330
23
100
AcDbEntity
  8
SANINDUSA
100
AcDbCircle
 10
2037.767610284631
 20
1417.880584985539
 30
0.0
 40
0.001
100
AcDbArc
 50
180.0
 51
270.0
  0
ARC
  5
5B3
330
23
100
AcDbEntity
  8
SANINDUSA
100
AcDbCircle
 10
2037.760610284631
 20
1417.993584985539
 30
0.0
 40
0.005
100
AcDbArc
 50
90.0
 51
180.0
  0
LINE
  5
5B4
330
23
100
AcDbEntity
  8
SANINDUSA
100
AcDbLine
 10
2037.817110284631
 20
1417.998584985539
 30
0.0
 11
2037.760610284631
 21
1417.998584985539
 31
0.0
  0
LINE
  5
5B5
330
23
100
AcDbEntity
  8
SANINDUSA
100
AcDbLine
 10
2037.784267525988
 20
1417.987584985539
 30
0.0
 11
2037.767610284631
 21
1417.987584985539
 31
0.0
  0
ARC
  5
5B6
330
23
100
AcDbEntity
  8
SANINDUSA
100
AcDbCircle
 10
2037.767610284631
 20
1417.986584985539
 30
0.0
 40
0.001
100
AcDbArc
 50
90.0
 51
180.0
  0
ARC
  5
5B7
330
23
100
AcDbEntity
  8
SANINDUSA
100
AcDbCircle
 10
2037.817110284631
 20
1417.997584985539
 30
0.0
 40
0.0010000000000001
100
AcDbArc
 50
0.0
 51
90.0
  0
LINE
  5
5B8
330
23
100
AcDbEntity
  8
SANINDUSA
100
AcDbLine
 10
2037.818110284631
 20
1417.987584985539
 30
0.0
 11
2037.818110284631
 21
1417.997584985539
 31
0.0
  0
ARC
  5
5B9
330
23
100
AcDbEntity
  8
SANINDUSA
100
AcDbCircle
 10
2037.817110284631
 20
1417.987584985539
 30
0.0
 40
0.001
100
AcDbArc
 50
270.0
 51
0.0
  0
LINE
  5
5BA
330
23
100
AcDbEntity
  8
SANINDUSA
100
AcDbLine
 10
2037.817110284631
 20
1417.986584985539
 30
0.0
 11
2037.800515602797
 21
1417.986584985539
 31
0.0
  0
ARC
  5
5BB
330
23
100
AcDbEntity
  8
SANINDUSA
100
AcDbCircle
 10
2037.78102862876
 20
1417.873584985539
 30
0.0
 40
0.0050000000000001
100
AcDbArc
 50
270.0
 51
355.0000000037089
  0
LINE
  5
5BC
330
23
100
AcDbEntity
  8
SANINDUSA
100
AcDbLine
 10
2037.757610284631
 20
1417.868584985539
 30
0.0
 11
2037.78102862876
 21
1417.868584985539
 31
0.0
  0
LINE
  5
5BD
330
23
100
AcDbEntity
  8
SANINDUSA
100
AcDbLine
 10
2037.767610284631
 20
1417.879584985539
 30
0.0
 11
2037.774614310543
 21
1417.879584985539
 31
0.0
  0
LINE
  5
5C0
330
23
100
AcDbEntity
  8
SANINDUSA
100
AcDbLine
 10
2037.854110284631
 20
1417.986584985539
 30
0.0
 11
2037.817110284631
 21
1417.986584985539
 31
0.0
  0
LINE
  5
5C4
330
23
100
AcDbEntity
  8
SANINDUSA
100
AcDbLine
 10
2037.817110284631
 20
1417.998584985539
 30
0.0
 11
2037.854110284631
 21
1417.998584985539
 31
0.0
  0
LINE
  5
5CC
330
23
100
AcDbEntity
  8
SANINDUSA
100
AcDbLine
 10
2037.791036294033
 20
1417.868584985539
 30
0.0
 11
2037.78102862876
 21
1417.868584985539
 31
0.0
  0
LINE
  5
5CF
330
23
100
AcDbEntity
  8
SANINDUSA
100
AcDbLine
 10
2037.939913581801
 20
1417.868584985539
 30
0.0
 11
2037.791036294033
 21
1417.868584985539
 31
0.0
  0
LINE
  5
5D5
330
23
100
AcDbEntity
  8
SANINDUSA
100
AcDbLine
 10
2038.187591685945
 20
1417.998584985539
 30
0.0
 11
2038.17736985585
 21
1417.998584985539
 31
0.0
  0
LINE
  5
5D7
330
23
100
AcDbEntity
  8
SANINDUSA
100
AcDbLine
 10
2037.89385163357
 20
1417.998584985539
 30
0.0
 11
2037.882811698683
 21
1417.998584985539
 31
0.0
  0
LINE
  5
5D8
330
23
100
AcDbEntity
  8
SANINDUSA
100
AcDbLine
 10
2037.89385163357
 20
1417.998584985539
 30
0.0
 11
2038.17736985585
 21
1417.998584985539
 31
0.0
  0
LINE
  5
5DC
330
23
100
AcDbEntity
  8
SANINDUSA
100
AcDbLine
 10
2038.245483303868
 20
1417.973584985539
 30
0.0
 11
2038.240502330378
 21
1417.973584985539
 31
0.0
  0
LINE
  5
5DD
330
23
100
AcDbEntity
  8
SANINDUSA
100
AcDbLine
 10
2038.240502330378
 20
1417.973584985539
 30
0.0
 11
2038.217358190503
 21
1417.973584985539
 31
0.0
  0
ARC
  5
5E5
330
23
100
AcDbEntity
  8
SANINDUSA
100
AcDbCircle
 10
2038.19218230745
 20
1417.975025732024
 30
0.0
 40
0.0005
100
AcDbArc
 50
168.1024346229849
 51
274.8571640260601
  0
LINE
  5
64C
330
23
100
AcDbEntity
  8
SANINDUSA
100
AcDbLine
 10
2036.714627332656
 20
1417.872459722502
 30
0.0
 11
2036.717640986609
 21
1417.958759482756
 31
0.0
  0
ENDSEC
  0
SECTION
  2
OBJECTS
  0
DICTIONARY
  5
C
330
0
100
AcDbDictionary
281
     1
  3
ACAD_COLOR
350
1C
  3
ACAD_GROUP
350
D
  3
ACAD_LAYOUT
350
1A
  3
ACAD_MATERIAL
350
1B
  3
ACAD_MLEADERSTYLE
350
A08
  3
ACAD_MLINESTYLE
350
17
  3
ACAD_PLOTSETTINGS
350
19
  3
ACAD_PLOTSTYLENAME
350
E
  3
ACAD_SCALELIST
350
9F6
  3
ACAD_TABLESTYLE
350
1D
  3
ACAD_VISUALSTYLE
350
9E2
  3
ACDB_RECOMPOSE_DATA
350
A25
  3
AcDbVariableDictionary
350
99B
  3
DWGPROPS
350
A26
  0
DICTIONARY
  5
A0E
330
10
100
AcDbDictionary
280
     1
281
     1
  3
ADSK_XREC_LAYER_RECONCILED
360
A0F
  0
DICTIONARY
  5
A10
330
26F
100
AcDbDictionary
280
     1
281
     1
  3
ADSK_XREC_LAYER_RECONCILED
360
A11
  0
DICTIONARY
  5
A12
330
270
100
AcDbDictionary
280
     1
281
     1
  3
ADSK_XREC_LAYER_RECONCILED
360
A13
  0
DICTIONARY
  5
A14
330
271
100
AcDbDictionary
280
     1
281
     1
  3
ADSK_XREC_LAYER_RECONCILED
360
A15
  0
DICTIONARY
  5
A16
330
272
100
AcDbDictionary
280
     1
281
     1
  3
ADSK_XREC_LAYER_RECONCILED
360
A17
  0
DICTIONARY
  5
A18
330
273
100
AcDbDictionary
280
     1
281
     1
  3
ADSK_XREC_LAYER_RECONCILED
360
A19
  0
DICTIONARY
  5
A1A
330
274
100
AcDbDictionary
280
     1
281
     1
  3
ADSK_XREC_LAYER_RECONCILED
360
A1B
  0
DICTIONARY
  5
A1C
330
276
100
AcDbDictionary
280
     1
281
     1
  3
ADSK_XREC_LAYER_RECONCILED
360
A1D
  0
DICTIONARY
  5
1C
102
{ACAD_REACTORS
330
C
102
}
330
C
100
AcDbDictionary
281
     1
  0
DICTIONARY
  5
D
102
{ACAD_REACTORS
330
C
102
}
330
C
100
AcDbDictionary
281
     1
  0
DICTIONARY
  5
1A
102
{ACAD_REACTORS
330
C
102
}
330
C
100
AcDbDictionary
281
     1
  3
Layout1
350
22
  3
Layout2
350
2A
  3
Model
350
26
  0
DICTIONARY
  5
1B
102
{ACAD_REACTORS
330
C
102
}
330
C
100
AcDbDictionary
281
     1
  3
ByBlock
350
9D2
  3
ByLayer
350
9CA
  3
Global
350
9DA
  0
DICTIONARY
  5
A08
102
{ACAD_REACTORS
330
C
102
}
330
C
100
AcDbDictionary
281
     1
  3
Standard
350
A09
  0
DICTIONARY
  5
17
102
{ACAD_REACTORS
330
C
102
}
330
C
100
AcDbDictionary
281
     1
  3
Standard
350
18
  0
DICTIONARY
  5
19
102
{ACAD_REACTORS
330
C
102
}
330
C
100
AcDbDictionary
281
     1
  0
ACDBDICTIONARYWDFLT
  5
E
102
{ACAD_REACTORS
330
C
102
}
330
C
100
AcDbDictionary
281
     1
  3
Normal
350
F
100
AcDbDictionaryWithDefault
340
F
  0
DICTIONARY
  5
9F6
102
{ACAD_REACTORS
330
C
102
}
330
C
100
AcDbDictionary
281
     1
  3
A0
350
9F7
  3
A1
350
9F8
  3
A2
350
9F9
  3
A3
350
9FA
  3
A4
350
9FB
  3
A5
350
9FC
  3
A6
350
9FD
  3
A7
350
9FE
  3
A8
350
9FF
  3
A9
350
A00
  3
B0
350
A01
  3
B1
350
A02
  3
B2
350
A03
  3
B3
350
A04
  3
B4
350
A05
  3
B5
350
A06
  3
B6
350
A07
  0
DICTIONARY
  5
1D
102
{ACAD_REACTORS
330
C
102
}
330
C
100
AcDbDictionary
281
     1
  3
Standard
350
1E
  0
DICTIONARY
  5
9E2
102
{ACAD_REACTORS
330
C
102
}
330
C
100
AcDbDictionary
281
     1
  3
2dWireframe
350
9E8
  3
3D Hidden
350
9EA
  3
3dWireframe
350
9E9
  3
Basic
350
9E7
  3
Brighten
350
9EE
  3
ColorChange
350
9F2
  3
Conceptual
350
9EB
  3
Dim
350
9ED
  3
EdgeColorOff
350
9F5
  3
Facepattern
350
9F1
  3
Flat
350
9E3
  3
FlatWithEdges
350
9E4
  3
Gouraud
350
9E5
  3
GouraudWithEdges
350
9E6
  3
JitterOff
350
9F3
  3
Linepattern
350
9F0
  3
OverhangOff
350
9F4
  3
Realistic
350
9EC
  3
Thicken
350
9EF
  0
XRECORD
  5
A25
102
{ACAD_REACTORS
330
C
102
}
330
C
100
AcDbXrecord
280
     1
 90
        1
330
1E
  0
DICTIONARY
  5
99B
102
{ACAD_REACTORS
330
C
102
}
330
C
100
AcDbDictionary
281
     1
  3
CANNOSCALE
350
A1F
  3
CMLEADERSTYLE
350
A1E
  3
CTABLESTYLE
350
99C
  3
DIMASSOC
350
9C7
  3
HIDETEXT
350
9C6
  3
INDEXCTL
350
A21
  3
PROJECTNAME
350
9C8
  3
SORTENTS
350
A20
  3
XCLIPFRAME
350
A22
  0
XRECORD
  5
A26
102
{ACAD_REACTORS
330
C
102
}
330
C
100
AcDbXrecord
280
     1
  1
DWGPROPS COOKIE
  2

  3

  4

  6

  7

  8
Julio
  9

300
=
301
=
302
=
303
=
304
=
305
=
306
=
307
=
308
=
309
=
 40
0.0034924768518519
 41
2454120.450568576
 42
2456147.605485926
  1

 90
        0
  0
XRECORD
  5
A0F
102
{ACAD_REACTORS
330
A0E
102
}
330
A0E
100
AcDbXrecord
280
     1
290
     1
  0
XRECORD
  5
A11
102
{ACAD_REACTORS
330
A10
102
}
330
A10
100
AcDbXrecord
280
     1
290
     1
  0
XRECORD
  5
A13
102
{ACAD_REACTORS
330
A12
102
}
330
A12
100
AcDbXrecord
280
     1
290
     1
  0
XRECORD
  5
A15
102
{ACAD_REACTORS
330
A14
102
}
330
A14
100
AcDbXrecord
280
     1
290
     1
  0
XRECORD
  5
A17
102
{ACAD_REACTORS
330
A16
102
}
330
A16
100
AcDbXrecord
280
     1
290
     1
  0
XRECORD
  5
A19
102
{ACAD_REACTORS
330
A18
102
}
330
A18
100
AcDbXrecord
280
     1
290
     1
  0
XRECORD
  5
A1B
102
{ACAD_REACTORS
330
A1A
102
}
330
A1A
100
AcDbXrecord
280
     1
290
     1
  0
XRECORD
  5
A1D
102
{ACAD_REACTORS
330
A1C
102
}
330
A1C
100
AcDbXrecord
280
     1
290
     1
  0
LAYOUT
  5
22
102
{ACAD_XDICTIONARY
360
A28
102
}
102
{ACAD_REACTORS
330
1A
102
}
330
1A
100
AcDbPlotSettings
  1

  2
C:\Documents and Settings\Julio\Application Data\Autodesk\AutoCAD 2006\R16.2\enu\plotters\Default Windows System Printer.pc3
  4

  6

 40
0.0
 41
0.0
 42
0.0
 43
0.0
 44
0.0
 45
0.0
 46
0.0
 47
0.0
 48
0.0
 49
0.0
140
0.0
141
0.0
142
1.0
143
1.0
 70
   688
 72
     0
 73
     0
 74
     5
  7

 75
    16
147
1.0
148
0.0
149
0.0
100
AcDbLayout
  1
Layout1
 70
     1
 71
     1
 10
0.0
 20
0.0
 11
420.0
 21
297.0
 12
0.0
 22
0.0
 32
0.0
 14
1.000000000000000E+20
 24
1.000000000000000E+20
 34
1.000000000000000E+20
 15
-1.000000000000000E+20
 25
-1.000000000000000E+20
 35
-1.000000000000000E+20
146
0.0
 13
0.0
 23
0.0
 33
0.0
 16
1.0
 26
0.0
 36
0.0
 17
0.0
 27
1.0
 37
0.0
 76
     0
330
1F
  0
LAYOUT
  5
2A
102
{ACAD_XDICTIONARY
360
A2C
102
}
102
{ACAD_REACTORS
330
1A
102
}
330
1A
100
AcDbPlotSettings
  1

  2
C:\Documents and Settings\Julio\Application Data\Autodesk\AutoCAD 2006\R16.2\enu\plotters\Default Windows System Printer.pc3
  4

  6

 40
0.0
 41
0.0
 42
0.0
 43
0.0
 44
0.0
 45
0.0
 46
0.0
 47
0.0
 48
0.0
 49
0.0
140
0.0
141
0.0
142
1.0
143
1.0
 70
   688
 72
     0
 73
     0
 74
     5
  7

 75
    16
147
1.0
148
0.0
149
0.0
100
AcDbLayout
  1
Layout2
 70
     1
 71
     2
 10
0.0
 20
0.0
 11
12.0
 21
9.0
 12
0.0
 22
0.0
 32
0.0
 14
0.0
 24
0.0
 34
0.0
 15
0.0
 25
0.0
 35
0.0
146
0.0
 13
0.0
 23
0.0
 33
0.0
 16
1.0
 26
0.0
 36
0.0
 17
0.0
 27
1.0
 37
0.0
 76
     0
330
27
  0
LAYOUT
  5
26
102
{ACAD_XDICTIONARY
360
A2A
102
}
102
{ACAD_REACTORS
330
1A
102
}
330
1A
100
AcDbPlotSettings
  1

  2
C:\Documents and Settings\Julio\Application Data\Autodesk\AutoCAD 2006\R16.2\enu\plotters\Default Windows System Printer.pc3
  4

  6

 40
0.0
 41
0.0
 42
0.0
 43
0.0
 44
0.0
 45
0.0
 46
0.0
 47
0.0
 48
0.0
 49
0.0
140
0.0
141
0.0
142
1.0
143
1.0
 70
  1712
 72
     0
 73
     0
 74
     0
  7

 75
     0
147
1.0
148
0.0
149
0.0
100
AcDbLayout
  1
Model
 70
     1
 71
     0
 10
0.0
 20
0.0
 11
12.0
 21
9.0
 12
0.0
 22
0.0
 32
0.0
 14
0.0
 24
0.0
 34
0.0
 15
0.0
 25
0.0
 35
0.0
146
0.0
 13
0.0
 23
0.0
 33
0.0
 16
1.0
 26
0.0
 36
0.0
 17
0.0
 27
1.0
 37
0.0
 76
     0
330
23
331
9BE
  0
MATERIAL
  5
9D2
102
{ACAD_XDICTIONARY
360
9D3
102
}
102
{ACAD_REACTORS
330
1B
102
}
330
1B
100
AcDbMaterial
  1
ByBlock
 72
     0
 43
0.0008202099737533
 43
0.0
 43
0.0
 43
0.0
 43
0.0
 43
0.0008202099737533
 43
0.0
 43
0.0
 43
0.0
 43
0.0
 43
1.0
 43
0.0
 43
0.0
 43
0.0
 43
0.0
 43
1.0
 77
     0
 47
0.0008202099737533
 47
0.0
 47
0.0
 47
0.0
 47
0.0
 47
0.0008202099737533
 47
0.0
 47
0.0
 47
0.0
 47
0.0
 47
1.0
 47
0.0
 47
0.0
 47
0.0
 47
0.0
 47
1.0
171
     0
 49
0.0008202099737533
 49
0.0
 49
0.0
 49
0.0
 49
0.0
 49
0.0008202099737533
 49
0.0
 49
0.0
 49
0.0
 49
0.0
 49
1.0
 49
0.0
 49
0.0
 49
0.0
 49
0.0
 49
1.0
175
     0
142
0.0008202099737533
142
0.0
142
0.0
142
0.0
142
0.0
142
0.0008202099737533
142
0.0
142
0.0
142
0.0
142
0.0
142
1.0
142
0.0
142
0.0
142
0.0
142
0.0
142
1.0
179
     0
144
0.0008202099737533
144
0.0
144
0.0
144
0.0
144
0.0
144
0.0008202099737533
144
0.0
144
0.0
144
0.0
144
0.0
144
1.0
144
0.0
144
0.0
144
0.0
144
0.0
144
1.0
147
0.0008202099737533
147
0.0
147
0.0
147
0.0
147
0.0
147
0.0008202099737533
147
0.0
147
0.0
147
0.0
147
0.0
147
1.0
147
0.0
147
0.0
147
0.0
147
0.0
147
1.0
  0
MATERIAL
  5
9CA
102
{ACAD_XDICTIONARY
360
9CB
102
}
102
{ACAD_REACTORS
330
1B
102
}
330
1B
100
AcDbMaterial
  1
ByLayer
 72
     0
 43
0.0008202099737533
 43
0.0
 43
0.0
 43
0.0
 43
0.0
 43
0.0008202099737533
 43
0.0
 43
0.0
 43
0.0
 43
0.0
 43
1.0
 43
0.0
 43
0.0
 43
0.0
 43
0.0
 43
1.0
 77
     0
 47
0.0008202099737533
 47
0.0
 47
0.0
 47
0.0
 47
0.0
 47
0.0008202099737533
 47
0.0
 47
0.0
 47
0.0
 47
0.0
 47
1.0
 47
0.0
 47
0.0
 47
0.0
 47
0.0
 47
1.0
171
     0
 49
0.0008202099737533
 49
0.0
 49
0.0
 49
0.0
 49
0.0
 49
0.0008202099737533
 49
0.0
 49
0.0
 49
0.0
 49
0.0
 49
1.0
 49
0.0
 49
0.0
 49
0.0
 49
0.0
 49
1.0
175
     0
142
0.0008202099737533
142
0.0
142
0.0
142
0.0
142
0.0
142
0.0008202099737533
142
0.0
142
0.0
142
0.0
142
0.0
142
1.0
142
0.0
142
0.0
142
0.0
142
0.0
142
1.0
179
     0
144
0.0008202099737533
144
0.0
144
0.0
144
0.0
144
0.0
144
0.0008202099737533
144
0.0
144
0.0
144
0.0
144
0.0
144
1.0
144
0.0
144
0.0
144
0.0
144
0.0
144
1.0
147
0.0008202099737533
147
0.0
147
0.0
147
0.0
147
0.0
147
0.0008202099737533
147
0.0
147
0.0
147
0.0
147
0.0
147
1.0
147
0.0
147
0.0
147
0.0
147
0.0
147
1.0
  0
MATERIAL
  5
9DA
102
{ACAD_XDICTIONARY
360
9DB
102
}
102
{ACAD_REACTORS
330
1B
102
}
330
1B
100
AcDbMaterial
  1
Global
 72
     0
 43
0.0008202099737533
 43
0.0
 43
0.0
 43
0.0
 43
0.0
 43
0.0008202099737533
 43
0.0
 43
0.0
 43
0.0
 43
0.0
 43
1.0
 43
0.0
 43
0.0
 43
0.0
 43
0.0
 43
1.0
 77
     0
 47
0.0008202099737533
 47
0.0
 47
0.0
 47
0.0
 47
0.0
 47
0.0008202099737533
 47
0.0
 47
0.0
 47
0.0
 47
0.0
 47
1.0
 47
0.0
 47
0.0
 47
0.0
 47
0.0
 47
1.0
171
     0
 49
0.0008202099737533
 49
0.0
 49
0.0
 49
0.0
 49
0.0
 49
0.0008202099737533
 49
0.0
 49
0.0
 49
0.0
 49
0.0
 49
1.0
 49
0.0
 49
0.0
 49
0.0
 49
0.0
 49
1.0
175
     0
142
0.0008202099737533
142
0.0
142
0.0
142
0.0
142
0.0
142
0.0008202099737533
142
0.0
142
0.0
142
0.0
142
0.0
142
1.0
142
0.0
142
0.0
142
0.0
142
0.0
142
1.0
179
     0
144
0.0008202099737533
144
0.0
144
0.0
144
0.0
144
0.0
144
0.0008202099737533
144
0.0
144
0.0
144
0.0
144
0.0
144
1.0
144
0.0
144
0.0
144
0.0
144
0.0
144
1.0
147
0.0008202099737533
147
0.0
147
0.0
147
0.0
147
0.0
147
0.0008202099737533
147
0.0
147
0.0
147
0.0
147
0.0
147
1.0
147
0.0
147
0.0
147
0.0
147
0.0
147
1.0
  0
MLEADERSTYLE
  5
A09
102
{ACAD_REACTORS
330
A08
102
}
330
A08
100
AcDbMLeaderStyle
170
     2
171
     1
172
     0
 90
        2
 40
0.0
 41
0.0
173
     1
 91
-1056964608
340
14
 92
       -2
290
     1
 42
2.0
291
     1
 43
0.36
  3
Standard
 44
4.0
300

342
11
174
     1
178
     6
175
     1
176
     0
 93
-1056964608
 45
4.0
292
     0
297
     0
 46
4.0
 94
-1056964608
 47
1.0
 49
1.0
140
1.0
293
     1
141
0.0
294
     1
177
     0
142
1.0
295
     0
296
     0
143
0.125
1001
ACAD_MLEADERVER
1070
     2
  0
MLINESTYLE
  5
18
102
{ACAD_REACTORS
330
17
102
}
330
17
100
AcDbMlineStyle
  2
STANDARD
 70
     0
  3

 62
   256
 51
90.0
 52
90.0
 71
     2
 49
0.5
 62
   256
  6
BYLAYER
 49
-0.5
 62
   256
  6
BYLAYER
  0
ACDBPLACEHOLDER
  5
F
102
{ACAD_REACTORS
330
E
102
}
330
E
  0
SCALE
  5
9F7
102
{ACAD_REACTORS
330
9F6
102
}
330
9F6
100
AcDbScale
 70
     0
300
1:1
140
1.0
141
1.0
290
     1
  0
SCALE
  5
9F8
102
{ACAD_REACTORS
330
9F6
102
}
330
9F6
100
AcDbScale
 70
     0
300
1:2
140
1.0
141
2.0
290
     0
  0
SCALE
  5
9F9
102
{ACAD_REACTORS
330
9F6
102
}
330
9F6
100
AcDbScale
 70
     0
300
1:4
140
1.0
141
4.0
290
     0
  0
SCALE
  5
9FA
102
{ACAD_REACTORS
330
9F6
102
}
330
9F6
100
AcDbScale
 70
     0
300
1:5
140
1.0
141
5.0
290
     0
  0
SCALE
  5
9FB
102
{ACAD_REACTORS
330
9F6
102
}
330
9F6
100
AcDbScale
 70
     0
300
1:8
140
1.0
141
8.0
290
     0
  0
SCALE
  5
9FC
102
{ACAD_REACTORS
330
9F6
102
}
330
9F6
100
AcDbScale
 70
     0
300
1:10
140
1.0
141
10.0
290
     0
  0
SCALE
  5
9FD
102
{ACAD_REACTORS
330
9F6
102
}
330
9F6
100
AcDbScale
 70
     0
300
1:16
140
1.0
141
16.0
290
     0
  0
SCALE
  5
9FE
102
{ACAD_REACTORS
330
9F6
102
}
330
9F6
100
AcDbScale
 70
     0
300
1:20
140
1.0
141
20.0
290
     0
  0
SCALE
  5
9FF
102
{ACAD_REACTORS
330
9F6
102
}
330
9F6
100
AcDbScale
 70
     0
300
1:30
140
1.0
141
30.0
290
     0
  0
SCALE
  5
A00
102
{ACAD_REACTORS
330
9F6
102
}
330
9F6
100
AcDbScale
 70
     0
300
1:40
140
1.0
141
40.0
290
     0
  0
SCALE
  5
A01
102
{ACAD_REACTORS
330
9F6
102
}
330
9F6
100
AcDbScale
 70
     0
300
1:50
140
1.0
141
50.0
290
     0
  0
SCALE
  5
A02
102
{ACAD_REACTORS
330
9F6
102
}
330
9F6
100
AcDbScale
 70
     0
300
1:100
140
1.0
141
100.0
290
     0
  0
SCALE
  5
A03
102
{ACAD_REACTORS
330
9F6
102
}
330
9F6
100
AcDbScale
 70
     0
300
2:1
140
2.0
141
1.0
290
     0
  0
SCALE
  5
A04
102
{ACAD_REACTORS
330
9F6
102
}
330
9F6
100
AcDbScale
 70
     0
300
4:1
140
4.0
141
1.0
290
     0
  0
SCALE
  5
A05
102
{ACAD_REACTORS
330
9F6
102
}
330
9F6
100
AcDbScale
 70
     0
300
8:1
140
8.0
141
1.0
290
     0
  0
SCALE
  5
A06
102
{ACAD_REACTORS
330
9F6
102
}
330
9F6
100
AcDbScale
 70
     0
300
10:1
140
10.0
141
1.0
290
     0
  0
SCALE
  5
A07
102
{ACAD_REACTORS
330
9F6
102
}
330
9F6
100
AcDbScale
 70
     0
300
100:1
140
100.0
141
1.0
290
     0
  0
TABLESTYLE
  5
1E
102
{ACAD_XDICTIONARY
360
A23
102
}
102
{ACAD_REACTORS
330
1D
102
}
330
1D
100
AcDbTableStyle
  3
Standard
 70
     0
 71
     0
 40
1.5
 41
1.5
280
     0
281
     0
  7
Standard
140
4.5
170
     2
 62
     0
 63
     7
283
     0
274
    -2
284
     1
 64
     0
275
    -2
285
     1
 65
     0
276
    -2
286
     1
 66
     0
277
    -2
287
     1
 67
     0
278
    -2
288
     1
 68
     0
279
    -2
289
     1
 69
     0
  7
Standard
140
6.0
170
     5
 62
     0
 63
     7
283
     0
274
    -2
284
     1
 64
     0
275
    -2
285
     1
 65
     0
276
    -2
286
     1
 66
     0
277
    -2
287
     1
 67
     0
278
    -2
288
     1
 68
     0
279
    -2
289
     1
 69
     0
  7
Standard
140
4.5
170
     5
 62
     0
 63
     7
283
     0
274
    -2
284
     1
 64
     0
275
    -2
285
     1
 65
     0
276
    -2
286
     1
 66
     0
277
    -2
287
     1
 67
     0
278
    -2
288
     1
 68
     0
279
    -2
289
     1
 69
     0
  0
VISUALSTYLE
  5
9E8
102
{ACAD_XDICTIONARY
360
A57
102
}
102
{ACAD_REACTORS
330
9E2
102
}
330
9E2
100
AcDbVisualStyle
  2
2dWireframe
 70
     4
 71
     0
 72
     2
 73
     0
 90
        0
 40
-0.6
 41
-30.0
 62
     5
 63
     7
 74
     1
 91
        4
 64
     7
 65
   257
 75
     1
175
     1
 42
1.0
 92
        0
 66
   257
 43
1.0
 76
     1
 77
     6
 78
     2
 67
     7
 79
     5
170
     0
171
     0
290
     0
174
     0
 93
        1
 44
0.0
173
     0
291
     0
 45
0.0
1001
ACAD
1000
AcDbSavedByObjectVersion
1070
     0
  0
VISUALSTYLE
  5
9EA
102
{ACAD_XDICTIONARY
360
A5B
102
}
102
{ACAD_REACTORS
330
9E2
102
}
330
9E2
100
AcDbVisualStyle
  2
3D Hidden
 70
     6
 71
     1
 72
     2
 73
     2
 90
        0
 40
-0.6
 41
-30.0
 62
     5
 63
     7
 74
     2
 91
        2
 64
     7
 65
   257
 75
     2
175
     1
 42
179.0
 92
        0
 66
   257
 43
1.0
 76
     1
 77
     6
 78
     2
 67
     7
 79
     3
170
     0
171
     0
290
     0
174
     0
 93
        1
 44
0.0
173
     0
291
     0
 45
0.0
1001
ACAD
1000
AcDbSavedByObjectVersion
1070
     0
  0
VISUALSTYLE
  5
9E9
102
{ACAD_XDICTIONARY
360
A59
102
}
102
{ACAD_REACTORS
330
9E2
102
}
330
9E2
100
AcDbVisualStyle
  2
3dWireframe
 70
     5
 71
     0
 72
     2
 73
     0
 90
        0
 40
-0.6
 41
-30.0
 62
     5
 63
     7
 74
     1
 91
        4
 64
     7
 65
   257
 75
     1
175
     1
 42
1.0
 92
        0
 66
   257
 43
1.0
 76
     1
 77
     6
 78
     2
 67
     7
 79
     5
170
     0
171
     0
290
     0
174
     0
 93
        1
 44
0.0
173
     0
291
     0
 45
0.0
1001
ACAD
1000
AcDbSavedByObjectVersion
1070
     0
  0
VISUALSTYLE
  5
9E7
102
{ACAD_XDICTIONARY
360
A55
102
}
102
{ACAD_REACTORS
330
9E2
102
}
330
9E2
100
AcDbVisualStyle
  2
Basic
 70
     7
 71
     1
 72
     0
 73
     1
 90
        0
 40
-0.6
 41
-30.0
 62
     5
 63
     7
 74
     0
 91
        4
 64
     7
 65
   257
 75
     1
175
     1
 42
1.0
 92
        8
 66
     7
 43
1.0
 76
     1
 77
     6
 78
     2
 67
     7
 79
     5
170
     0
171
     0
290
     0
174
     0
 93
        1
 44
0.0
173
     0
291
     1
 45
0.0
1001
ACAD
1000
AcDbSavedByObjectVersion
1070
     0
  0
VISUALSTYLE
  5
9EE
102
{ACAD_XDICTIONARY
360
A63
102
}
102
{ACAD_REACTORS
330
9E2
102
}
330
9E2
100
AcDbVisualStyle
  2
Brighten
 70
    12
 71
     2
 72
     2
 73
     0
 90
        0
 40
-0.6
 41
-30.0
 62
     5
 63
     7
 74
     1
 91
        4
 64
     7
 65
   257
 75
     1
175
     1
 42
1.0
 92
        8
 66
     7
 43
1.0
 76
     1
 77
     6
 78
     2
 67
     7
 79
     5
170
     0
171
     0
290
     0
174
     0
 93
        1
 44
50.0
173
     0
291
     1
 45
0.0
1001
ACAD
1000
AcDbSavedByObjectVersion
1070
     0
  0
VISUALSTYLE
  5
9F2
102
{ACAD_XDICTIONARY
360
A6B
102
}
102
{ACAD_REACTORS
330
9E2
102
}
330
9E2
100
AcDbVisualStyle
  2
ColorChange
 70
    16
 71
     2
 72
     2
 73
     3
 90
        0
 40
-0.6
 41
-30.0
 62
     5
 63
     8
 74
     1
 91
        4
 64
     7
 65
   257
 75
     1
175
     1
 42
1.0
 92
        8
 66
     8
 43
1.0
 76
     1
 77
     6
 78
     2
 67
     7
 79
     5
170
     0
171
     0
290
     0
174
     0
 93
        1
 44
0.0
173
     0
291
     1
 45
0.0
1001
ACAD
1000
AcDbSavedByObjectVersion
1070
     0
  0
VISUALSTYLE
  5
9EB
102
{ACAD_XDICTIONARY
360
A5D
102
}
102
{ACAD_REACTORS
330
9E2
102
}
330
9E2
100
AcDbVisualStyle
  2
Conceptual
 70
     9
 71
     3
 72
     2
 73
     0
 90
        0
 40
-0.6
 41
-30.0
 62
     5
 63
     7
 74
     2
 91
        2
 64
     7
 65
   257
 75
     1
175
     1
 42
179.0
 92
        8
 66
     7
 43
1.0
 76
     1
 77
     6
 78
     2
 67
     7
 79
     3
170
     0
171
     0
290
     0
174
     0
 93
        1
 44
0.0
173
     0
291
     0
 45
0.0
1001
ACAD
1000
AcDbSavedByObjectVersion
1070
     0
  0
VISUALSTYLE
  5
9ED
102
{ACAD_XDICTIONARY
360
A61
102
}
102
{ACAD_REACTORS
330
9E2
102
}
330
9E2
100
AcDbVisualStyle
  2
Dim
 70
    11
 71
     2
 72
     2
 73
     0
 90
        0
 40
-0.6
 41
-30.0
 62
     5
 63
     7
 74
     1
 91
        4
 64
     7
 65
   257
 75
     1
175
     1
 42
1.0
 92
        8
 66
     7
 43
1.0
 76
     1
 77
     6
 78
     2
 67
     7
 79
     5
170
     0
171
     0
290
     0
174
     0
 93
        1
 44
-50.0
173
     0
291
     1
 45
0.0
1001
ACAD
1000
AcDbSavedByObjectVersion
1070
     0
  0
VISUALSTYLE
  5
9F5
102
{ACAD_XDICTIONARY
360
A71
102
}
102
{ACAD_REACTORS
330
9E2
102
}
330
9E2
100
AcDbVisualStyle
  2
EdgeColorOff
 70
    22
 71
     2
 72
     2
 73
     0
 90
        0
 40
-0.6
 41
-30.0
 62
     5
 63
     7
 74
     1
 91
        4
 64
     7
 65
   257
 75
     1
175
     1
 42
1.0
 92
        8
 66
     7
 43
1.0
 76
     1
 77
     6
 78
     2
 67
     7
 79
     5
170
     0
171
     0
290
     0
174
     0
 93
        1
 44
0.0
173
     0
291
     1
 45
0.0
1001
ACAD
1000
AcDbSavedByObjectVersion
1070
     0
  0
VISUALSTYLE
  5
9F1
102
{ACAD_XDICTIONARY
360
A69
102
}
102
{ACAD_REACTORS
330
9E2
102
}
330
9E2
100
AcDbVisualStyle
  2
Facepattern
 70
    15
 71
     2
 72
     2
 73
     0
 90
        0
 40
-0.6
 41
-30.0
 62
     5
 63
     7
 74
     1
 91
        4
 64
     7
 65
   257
 75
     1
175
     1
 42
1.0
 92
        8
 66
     7
 43
1.0
 76
     1
 77
     6
 78
     2
 67
     7
 79
     5
170
     0
171
     0
290
     0
174
     0
 93
        1
 44
0.0
173
     0
291
     1
 45
0.0
1001
ACAD
1000
AcDbSavedByObjectVersion
1070
     0
  0
VISUALSTYLE
  5
9E3
102
{ACAD_XDICTIONARY
360
A4D
102
}
102
{ACAD_REACTORS
330
9E2
102
}
330
9E2
100
AcDbVisualStyle
  2
Flat
 70
     0
 71
     2
 72
     1
 73
     1
 90
        2
 40
-0.6
 41
30.0
 62
     5
 63
     7
 74
     0
 91
        4
 64
     7
 65
   257
 75
     1
175
     1
 42
1.0
 92
        8
 66
     7
 43
1.0
 76
     1
 77
     6
 78
     2
 67
     7
 79
     5
170
     0
171
     0
290
     0
174
     0
 93
       13
 44
0.0
173
     0
291
     1
 45
0.0
1001
ACAD
1000
AcDbSavedByObjectVersion
1070
     0
  0
VISUALSTYLE
  5
9E4
102
{ACAD_XDICTIONARY
360
A4F
102
}
102
{ACAD_REACTORS
330
9E2
102
}
330
9E2
100
AcDbVisualStyle
  2
FlatWithEdges
 70
     1
 71
     2
 72
     1
 73
     1
 90
        2
 40
-0.6
 41
30.0
 62
     5
 63
     7
 74
     1
 91
        4
 64
     7
 65
   257
 75
     1
175
     1
 42
1.0
 92
        0
 66
   257
 43
1.0
 76
     1
 77
     6
 78
     2
 67
     7
 79
     5
170
     0
171
     0
290
     0
174
     0
 93
       13
 44
0.0
173
     0
291
     1
 45
0.0
1001
ACAD
1000
AcDbSavedByObjectVersion
1070
     0
  0
VISUALSTYLE
  5
9E5
102
{ACAD_XDICTIONARY
360
A51
102
}
102
{ACAD_REACTORS
330
9E2
102
}
330
9E2
100
AcDbVisualStyle
  2
Gouraud
 70
     2
 71
     2
 72
     2
 73
     1
 90
        2
 40
-0.6
 41
30.0
 62
     5
 63
     7
 74
     0
 91
        4
 64
     7
 65
   257
 75
     1
175
     1
 42
1.0
 92
        0
 66
     7
 43
1.0
 76
     1
 77
     6
 78
     2
 67
     7
 79
     5
170
     0
171
     0
290
     0
174
     0
 93
       13
 44
0.0
173
     0
291
     1
 45
0.0
1001
ACAD
1000
AcDbSavedByObjectVersion
1070
     0
  0
VISUALSTYLE
  5
9E6
102
{ACAD_XDICTIONARY
360
A53
102
}
102
{ACAD_REACTORS
330
9E2
102
}
330
9E2
100
AcDbVisualStyle
  2
GouraudWithEdges
 70
     3
 71
     2
 72
     2
 73
     1
 90
        2
 40
-0.6
 41
30.0
 62
     5
 63
     7
 74
     1
 91
        4
 64
     7
 65
   257
 75
     1
175
     1
 42
1.0
 92
        0
 66
   257
 43
1.0
 76
     1
 77
     6
 78
     2
 67
     7
 79
     5
170
     0
171
     0
290
     0
174
     0
 93
       13
 44
0.0
173
     0
291
     1
 45
0.0
1001
ACAD
1000
AcDbSavedByObjectVersion
1070
     0
  0
VISUALSTYLE
  5
9F3
102
{ACAD_XDICTIONARY
360
A6D
102
}
102
{ACAD_REACTORS
330
9E2
102
}
330
9E2
100
AcDbVisualStyle
  2
JitterOff
 70
    20
 71
     2
 72
     2
 73
     0
 90
        0
 40
-0.6
 41
-30.0
 62
     5
 63
     7
 74
     1
 91
        4
 64
     7
 65
   257
 75
     1
175
     1
 42
1.0
 92
       10
 66
     7
 43
1.0
 76
     1
 77
     6
 78
     2
 67
     7
 79
     5
170
     0
171
     0
290
     0
174
     0
 93
        1
 44
0.0
173
     0
291
     1
 45
0.0
1001
ACAD
1000
AcDbSavedByObjectVersion
1070
     0
  0
VISUALSTYLE
  5
9F0
102
{ACAD_XDICTIONARY
360
A67
102
}
102
{ACAD_REACTORS
330
9E2
102
}
330
9E2
100
AcDbVisualStyle
  2
Linepattern
 70
    14
 71
     2
 72
     2
 73
     0
 90
        0
 40
-0.6
 41
-30.0
 62
     5
 63
     7
 74
     1
 91
        4
 64
     7
 65
   257
 75
     7
175
     7
 42
1.0
 92
        8
 66
     7
 43
1.0
 76
     1
 77
     6
 78
     2
 67
     7
 79
     5
170
     0
171
     0
290
     0
174
     0
 93
        1
 44
0.0
173
     0
291
     1
 45
0.0
1001
ACAD
1000
AcDbSavedByObjectVersion
1070
     0
  0
VISUALSTYLE
  5
9F4
102
{ACAD_XDICTIONARY
360
A6F
102
}
102
{ACAD_REACTORS
330
9E2
102
}
330
9E2
100
AcDbVisualStyle
  2
OverhangOff
 70
    21
 71
     2
 72
     2
 73
     0
 90
        0
 40
-0.6
 41
-30.0
 62
     5
 63
     7
 74
     1
 91
        4
 64
     7
 65
   257
 75
     1
175
     1
 42
1.0
 92
        9
 66
     7
 43
1.0
 76
     1
 77
     6
 78
     2
 67
     7
 79
     5
170
     0
171
     0
290
     0
174
     0
 93
        1
 44
0.0
173
     0
291
     1
 45
0.0
1001
ACAD
1000
AcDbSavedByObjectVersion
1070
     0
  0
VISUALSTYLE
  5
9EC
102
{ACAD_XDICTIONARY
360
A5F
102
}
102
{ACAD_REACTORS
330
9E2
102
}
330
9E2
100
AcDbVisualStyle
  2
Realistic
 70
     8
 71
     2
 72
     2
 73
     0
 90
        0
 40
-0.6
 41
-30.0
 62
     5
 63
     7
 74
     1
 91
        0
 64
     7
 65
   257
 75
     1
175
     1
 42
1.0
 92
        8
 66
     8
 43
1.0
 76
     1
 77
     6
 78
     2
 67
     7
 79
     5
170
     0
171
     0
290
     0
174
     0
 93
       13
 44
0.0
173
     0
291
     0
 45
0.0
1001
ACAD
1000
AcDbSavedByObjectVersion
1070
     0
  0
VISUALSTYLE
  5
9EF
102
{ACAD_XDICTIONARY
360
A65
102
}
102
{ACAD_REACTORS
330
9E2
102
}
330
9E2
100
AcDbVisualStyle
  2
Thicken
 70
    13
 71
     2
 72
     2
 73
     0
 90
        0
 40
-0.6
 41
-30.0
 62
     5
 63
     7
 74
     1
 91
        4
 64
     7
 65
   257
 75
     1
175
     1
 42
1.0
 92
       12
 66
     7
 43
1.0
 76
     1
 77
     6
 78
     2
 67
     7
 79
     5
170
     0
171
     0
290
     0
174
     0
 93
        1
 44
0.0
173
     0
291
     1
 45
0.0
1001
ACAD
1000
AcDbSavedByObjectVersion
1070
     0
  0
DICTIONARYVAR
  5
A1F
102
{ACAD_REACTORS
330
99B
102
}
330
99B
100
DictionaryVariables
280
     0
  1
1:1
  0
DICTIONARYVAR
  5
A1E
102
{ACAD_REACTORS
330
99B
102
}
330
99B
100
DictionaryVariables
280
     0
  1
STANDARD
  0
DICTIONARYVAR
  5
99C
102
{ACAD_REACTORS
330
99B
102
}
330
99B
100
DictionaryVariables
280
     0
  1
STANDARD
  0
DICTIONARYVAR
  5
9C7
102
{ACAD_REACTORS
330
99B
102
}
330
99B
100
DictionaryVariables
280
     0
  1
2
  0
DICTIONARYVAR
  5
9C6
102
{ACAD_REACTORS
330
99B
102
}
330
99B
100
DictionaryVariables
280
     0
  1
1
  0
DICTIONARYVAR
  5
A21
102
{ACAD_REACTORS
330
99B
102
}
330
99B
100
DictionaryVariables
280
     0
  1
0
  0
DICTIONARYVAR
  5
9C8
102
{ACAD_REACTORS
330
99B
102
}
330
99B
100
DictionaryVariables
280
     0
  1

  0
DICTIONARYVAR
  5
A20
102
{ACAD_REACTORS
330
99B
102
}
330
99B
100
DictionaryVariables
280
     0
  1
127
  0
DICTIONARYVAR
  5
A22
102
{ACAD_REACTORS
330
99B
102
}
330
99B
100
DictionaryVariables
280
     0
  1
2
  0
DICTIONARY
  5
A28
330
22
100
AcDbDictionary
280
     1
281
     1
  3
ACAD_XREC_ROUNDTRIP
360
A29
  0
DICTIONARY
  5
A2C
330
2A
100
AcDbDictionary
280
     1
281
     1
  3
ACAD_XREC_ROUNDTRIP
360
A2D
  0
DICTIONARY
  5
A2A
330
26
100
AcDbDictionary
280
     1
281
     1
  3
ACAD_XREC_ROUNDTRIP
360
A2B
  0
DICTIONARY
  5
9D3
330
9D2
100
AcDbDictionary
280
     1
281
     1
  3
ACAD_XREC_ROUNDTRIP
360
A4B
  3
BUMPTILE
360
9D5
  3
DIFFUSETILE
360
9D4
  3
OPACITYTILE
360
9D8
  3
REFLECTIONTILE
360
9D7
  3
REFRACTIONTILE
360
9D9
  3
SPECULARTILE
360
9D6
  0
DICTIONARY
  5
9CB
330
9CA
100
AcDbDictionary
280
     1
281
     1
  3
ACAD_XREC_ROUNDTRIP
360
A4A
  3
BUMPTILE
360
9CD
  3
DIFFUSETILE
360
9CC
  3
OPACITYTILE
360
9D0
  3
REFLECTIONTILE
360
9CF
  3
REFRACTIONTILE
360
9D1
  3
SPECULARTILE
360
9CE
  0
DICTIONARY
  5
9DB
330
9DA
100
AcDbDictionary
280
     1
281
     1
  3
ACAD_XREC_ROUNDTRIP
360
A4C
  3
BUMPTILE
360
9DD
  3
DIFFUSETILE
360
9DC
  3
OPACITYTILE
360
9E0
  3
REFLECTIONTILE
360
9DF
  3
REFRACTIONTILE
360
9E1
  3
SPECULARTILE
360
9DE
  0
DICTIONARY
  5
A23
330
1E
100
AcDbDictionary
280
     1
281
     1
  3
ACAD_ROUNDTRIP_2008_TABLESTYLE_CELLSTYLEMAP
360
A24
  3
ACAD_XREC_ROUNDTRIP
360
A27
  0
DICTIONARY
  5
A57
330
9E8
100
AcDbDictionary
280
     1
281
     1
  3
ACAD_XREC_ROUNDTRIP
360
A58
  0
DICTIONARY
  5
A5B
330
9EA
100
AcDbDictionary
280
     1
281
     1
  3
ACAD_XREC_ROUNDTRIP
360
A5C
  0
DICTIONARY
  5
A59
330
9E9
100
AcDbDictionary
280
     1
281
     1
  3
ACAD_XREC_ROUNDTRIP
360
A5A
  0
DICTIONARY
  5
A55
330
9E7
100
AcDbDictionary
280
     1
281
     1
  3
ACAD_XREC_ROUNDTRIP
360
A56
  0
DICTIONARY
  5
A63
330
9EE
100
AcDbDictionary
280
     1
281
     1
  3
ACAD_XREC_ROUNDTRIP
360
A64
  0
DICTIONARY
  5
A6B
330
9F2
100
AcDbDictionary
280
     1
281
     1
  3
ACAD_XREC_ROUNDTRIP
360
A6C
  0
DICTIONARY
  5
A5D
330
9EB
100
AcDbDictionary
280
     1
281
     1
  3
ACAD_XREC_ROUNDTRIP
360
A5E
  0
DICTIONARY
  5
A61
330
9ED
100
AcDbDictionary
280
     1
281
     1
  3
ACAD_XREC_ROUNDTRIP
360
A62
  0
DICTIONARY
  5
A71
330
9F5
100
AcDbDictionary
280
     1
281
     1
  3
ACAD_XREC_ROUNDTRIP
360
A72
  0
DICTIONARY
  5
A69
330
9F1
100
AcDbDictionary
280
     1
281
     1
  3
ACAD_XREC_ROUNDTRIP
360
A6A
  0
DICTIONARY
  5
A4D
330
9E3
100
AcDbDictionary
280
     1
281
     1
  3
ACAD_XREC_ROUNDTRIP
360
A4E
  0
DICTIONARY
  5
A4F
330
9E4
100
AcDbDictionary
280
     1
281
     1
  3
ACAD_XREC_ROUNDTRIP
360
A50
  0
DICTIONARY
  5
A51
330
9E5
100
AcDbDictionary
280
     1
281
     1
  3
ACAD_XREC_ROUNDTRIP
360
A52
  0
DICTIONARY
  5
A53
330
9E6
100
AcDbDictionary
280
     1
281
     1
  3
ACAD_XREC_ROUNDTRIP
360
A54
  0
DICTIONARY
  5
A6D
330
9F3
100
AcDbDictionary
280
     1
281
     1
  3
ACAD_XREC_ROUNDTRIP
360
A6E
  0
DICTIONARY
  5
A67
330
9F0
100
AcDbDictionary
280
     1
281
     1
  3
ACAD_XREC_ROUNDTRIP
360
A68
  0
DICTIONARY
  5
A6F
330
9F4
100
AcDbDictionary
280
     1
281
     1
  3
ACAD_XREC_ROUNDTRIP
360
A70
  0
DICTIONARY
  5
A5F
330
9EC
100
AcDbDictionary
280
     1
281
     1
  3
ACAD_XREC_ROUNDTRIP
360
A60
  0
DICTIONARY
  5
A65
330
9EF
100
AcDbDictionary
280
     1
281
     1
  3
ACAD_XREC_ROUNDTRIP
360
A66
  0
XRECORD
  5
A29
102
{ACAD_REACTORS
330
A28
102
}
330
A28
100
AcDbXrecord
280
     1
102
SHADEPLOT
 70
     0
102
SHADEPLOTRESLEVEL
 70
     2
102
SHADEPLOTCUSTOMDPI
 70
   300
  0
XRECORD
  5
A2D
102
{ACAD_REACTORS
330
A2C
102
}
330
A2C
100
AcDbXrecord
280
     1
102
SHADEPLOT
 70
     0
102
SHADEPLOTRESLEVEL
 70
     2
102
SHADEPLOTCUSTOMDPI
 70
   300
  0
XRECORD
  5
A2B
102
{ACAD_REACTORS
330
A2A
102
}
330
A2A
100
AcDbXrecord
280
     1
102
SHADEPLOT
 70
     0
102
SHADEPLOTRESLEVEL
 70
     2
102
SHADEPLOTCUSTOMDPI
 70
   300
  0
XRECORD
  5
A4B
102
{ACAD_REACTORS
330
9D3
102
}
330
9D3
100
AcDbXrecord
280
     1
102
MATERIAL
148
0.0
149
0.0
149
0.0
 93
        0
 94
      127
282
     0
 72
     0
 77
     0
171
     0
175
     0
179
     0
273
     0
  0
XRECORD
  5
9D5
102
{ACAD_REACTORS
330
9D3
102
}
330
9D3
100
AcDbXrecord
280
     1
270
     1
271
     1
  0
XRECORD
  5
9D4
102
{ACAD_REACTORS
330
9D3
102
}
330
9D3
100
AcDbXrecord
280
     1
270
     1
271
     1
  0
XRECORD
  5
9D8
102
{ACAD_REACTORS
330
9D3
102
}
330
9D3
100
AcDbXrecord
280
     1
270
     1
271
     1
  0
XRECORD
  5
9D7
102
{ACAD_REACTORS
330
9D3
102
}
330
9D3
100
AcDbXrecord
280
     1
270
     1
271
     1
  0
XRECORD
  5
9D9
102
{ACAD_REACTORS
330
9D3
102
}
330
9D3
100
AcDbXrecord
280
     1
270
     1
271
     1
  0
XRECORD
  5
9D6
102
{ACAD_REACTORS
330
9D3
102
}
330
9D3
100
AcDbXrecord
280
     1
270
     1
271
     1
  0
XRECORD
  5
A4A
102
{ACAD_REACTORS
330
9CB
102
}
330
9CB
100
AcDbXrecord
280
     1
102
MATERIAL
148
0.0
149
0.0
149
0.0
 93
        0
 94
      127
282
     0
 72
     0
 77
     0
171
     0
175
     0
179
     0
273
     0
  0
XRECORD
  5
9CD
102
{ACAD_REACTORS
330
9CB
102
}
330
9CB
100
AcDbXrecord
280
     1
270
     1
271
     1
  0
XRECORD
  5
9CC
102
{ACAD_REACTORS
330
9CB
102
}
330
9CB
100
AcDbXrecord
280
     1
270
     1
271
     1
  0
XRECORD
  5
9D0
102
{ACAD_REACTORS
330
9CB
102
}
330
9CB
100
AcDbXrecord
280
     1
270
     1
271
     1
  0
XRECORD
  5
9CF
102
{ACAD_REACTORS
330
9CB
102
}
330
9CB
100
AcDbXrecord
280
     1
270
     1
271
     1
  0
XRECORD
  5
9D1
102
{ACAD_REACTORS
330
9CB
102
}
330
9CB
100
AcDbXrecord
280
     1
270
     1
271
     1
  0
XRECORD
  5
9CE
102
{ACAD_REACTORS
330
9CB
102
}
330
9CB
100
AcDbXrecord
280
     1
270
     1
271
     1
  0
XRECORD
  5
A4C
102
{ACAD_REACTORS
330
9DB
102
}
330
9DB
100
AcDbXrecord
280
     1
102
MATERIAL
148
0.0
149
0.0
149
0.0
 93
        0
 94
      127
282
     0
 72
     0
 77
     0
171
     0
175
     0
179
     0
273
     0
  0
XRECORD
  5
9DD
102
{ACAD_REACTORS
330
9DB
102
}
330
9DB
100
AcDbXrecord
280
     1
270
     1
271
     1
  0
XRECORD
  5
9DC
102
{ACAD_REACTORS
330
9DB
102
}
330
9DB
100
AcDbXrecord
280
     1
270
     1
271
     1
  0
XRECORD
  5
9E0
102
{ACAD_REACTORS
330
9DB
102
}
330
9DB
100
AcDbXrecord
280
     1
270
     1
271
     1
  0
XRECORD
  5
9DF
102
{ACAD_REACTORS
330
9DB
102
}
330
9DB
100
AcDbXrecord
280
     1
270
     1
271
     1
  0
XRECORD
  5
9E1
102
{ACAD_REACTORS
330
9DB
102
}
330
9DB
100
AcDbXrecord
280
     1
270
     1
271
     1
  0
XRECORD
  5
9DE
102
{ACAD_REACTORS
330
9DB
102
}
330
9DB
100
AcDbXrecord
280
     1
270
     1
271
     1
  0
CELLSTYLEMAP
  5
A24
102
{ACAD_REACTORS
330
A23
102
}
330
A23
100
AcDbCellStyleMap
 90
        3
300
CELLSTYLE
  1
TABLEFORMAT_BEGIN
 90
        5
170
     1
 91
        0
 92
    32768
 62
   257
 93
        1
300
CONTENTFORMAT
  1
CONTENTFORMAT_BEGIN
 90
        0
 91
        0
 92
        4
 93
        0
300

 40
0.0
140
1.0
 94
        5
 62
     0
340
11
144
6.0
309
CONTENTFORMAT_END
171
     1
301
MARGIN
  1
CELLMARGIN_BEGIN
 40
1.5
 40
1.5
 40
1.5
 40
1.5
 40
0.18
 40
0.18
309
CELLMARGIN_END
 94
        6
 95
        1
302
GRIDFORMAT
  1
GRIDFORMAT_BEGIN
 90
        0
 91
        1
 62
     0
 92
       -2
340
0
 93
        0
 40
0.045
309
GRIDFORMAT_END
 95
        2
302
GRIDFORMAT
  1
GRIDFORMAT_BEGIN
 90
        0
 91
        1
 62
     0
 92
       -2
340
0
 93
        0
 40
0.045
309
GRIDFORMAT_END
 95
        4
302
GRIDFORMAT
  1
GRIDFORMAT_BEGIN
 90
        0
 91
        1
 62
     0
 92
       -2
340
0
 93
        0
 40
0.045
309
GRIDFORMAT_END
 95
        8
302
GRIDFORMAT
  1
GRIDFORMAT_BEGIN
 90
        0
 91
        1
 62
     0
 92
       -2
340
0
 93
        0
 40
0.045
309
GRIDFORMAT_END
 95
       16
302
GRIDFORMAT
  1
GRIDFORMAT_BEGIN
 90
        0
 91
        1
 62
     0
 92
       -2
340
0
 93
        0
 40
0.045
309
GRIDFORMAT_END
 95
       32
302
GRIDFORMAT
  1
GRIDFORMAT_BEGIN
 90
        0
 91
        1
 62
     0
 92
       -2
340
0
 93
        0
 40
0.045
309
GRIDFORMAT_END
309
TABLEFORMAT_END
  1
CELLSTYLE_BEGIN
 90
        1
 91
        1
300
_TITLE
309
CELLSTYLE_END
300
CELLSTYLE
  1
TABLEFORMAT_BEGIN
 90
        5
170
     1
 91
        0
 92
        0
 62
   257
 93
        1
300
CONTENTFORMAT
  1
CONTENTFORMAT_BEGIN
 90
        0
 91
        0
 92
        4
 93
        0
300

 40
0.0
140
1.0
 94
        5
 62
     0
340
11
144
4.5
309
CONTENTFORMAT_END
171
     1
301
MARGIN
  1
CELLMARGIN_BEGIN
 40
1.5
 40
1.5
 40
1.5
 40
1.5
 40
0.18
 40
0.18
309
CELLMARGIN_END
 94
        6
 95
        1
302
GRIDFORMAT
  1
GRIDFORMAT_BEGIN
 90
        0
 91
        1
 62
     0
 92
       -2
340
0
 93
        0
 40
0.045
309
GRIDFORMAT_END
 95
        2
302
GRIDFORMAT
  1
GRIDFORMAT_BEGIN
 90
        0
 91
        1
 62
     0
 92
       -2
340
0
 93
        0
 40
0.045
309
GRIDFORMAT_END
 95
        4
302
GRIDFORMAT
  1
GRIDFORMAT_BEGIN
 90
        0
 91
        1
 62
     0
 92
       -2
340
0
 93
        0
 40
0.045
309
GRIDFORMAT_END
 95
        8
302
GRIDFORMAT
  1
GRIDFORMAT_BEGIN
 90
        0
 91
        1
 62
     0
 92
       -2
340
0
 93
        0
 40
0.045
309
GRIDFORMAT_END
 95
       16
302
GRIDFORMAT
  1
GRIDFORMAT_BEGIN
 90
        0
 91
        1
 62
     0
 92
       -2
340
0
 93
        0
 40
0.045
309
GRIDFORMAT_END
 95
       32
302
GRIDFORMAT
  1
GRIDFORMAT_BEGIN
 90
        0
 91
        1
 62
     0
 92
       -2
340
0
 93
        0
 40
0.045
309
GRIDFORMAT_END
309
TABLEFORMAT_END
  1
CELLSTYLE_BEGIN
 90
        2
 91
        1
300
_HEADER
309
CELLSTYLE_END
300
CELLSTYLE
  1
TABLEFORMAT_BEGIN
 90
        5
170
     1
 91
        0
 92
        0
 62
   257
 93
        1
300
CONTENTFORMAT
  1
CONTENTFORMAT_BEGIN
 90
        0
 91
        0
 92
        4
 93
        0
300

 40
0.0
140
1.0
 94
        2
 62
     0
340
11
144
4.5
309
CONTENTFORMAT_END
171
     1
301
MARGIN
  1
CELLMARGIN_BEGIN
 40
1.5
 40
1.5
 40
1.5
 40
1.5
 40
0.18
 40
0.18
309
CELLMARGIN_END
 94
        6
 95
        1
302
GRIDFORMAT
  1
GRIDFORMAT_BEGIN
 90
        0
 91
        1
 62
     0
 92
       -2
340
0
 93
        0
 40
0.045
309
GRIDFORMAT_END
 95
        2
302
GRIDFORMAT
  1
GRIDFORMAT_BEGIN
 90
        0
 91
        1
 62
     0
 92
       -2
340
0
 93
        0
 40
0.045
309
GRIDFORMAT_END
 95
        4
302
GRIDFORMAT
  1
GRIDFORMAT_BEGIN
 90
        0
 91
        1
 62
     0
 92
       -2
340
0
 93
        0
 40
0.045
309
GRIDFORMAT_END
 95
        8
302
GRIDFORMAT
  1
GRIDFORMAT_BEGIN
 90
        0
 91
        1
 62
     0
 92
       -2
340
0
 93
        0
 40
0.045
309
GRIDFORMAT_END
 95
       16
302
GRIDFORMAT
  1
GRIDFORMAT_BEGIN
 90
        0
 91
        1
 62
     0
 92
       -2
340
0
 93
        0
 40
0.045
309
GRIDFORMAT_END
 95
       32
302
GRIDFORMAT
  1
GRIDFORMAT_BEGIN
 90
        0
 91
        1
 62
     0
 92
       -2
340
0
 93
        0
 40
0.045
309
GRIDFORMAT_END
309
TABLEFORMAT_END
  1
CELLSTYLE_BEGIN
 90
        3
 91
        2
300
_DATA
309
CELLSTYLE_END
  0
XRECORD
  5
A27
102
{ACAD_REACTORS
330
A23
102
}
330
A23
100
AcDbXrecord
280
     1
102
ACAD_ROUNDTRIP_PRE2007_TABLESTYLE
 90
        4
 91
        0
  1

 92
        4
 93
        0
  2

 94
        4
 95
        0
  3

  0
XRECORD
  5
A58
102
{ACAD_REACTORS
330
A57
102
}
330
A57
100
AcDbXrecord
280
     1
102
RTVSPropertyOp0
 70
     1
102
RTVSPropertyOp1
 70
     1
102
RTVSPropertyOp2
 70
     1
102
RTVSPropertyOp3
 70
     1
102
RTVSPropertyOp4
 70
     1
102
RTVSPropertyOp5
 70
     1
102
RTVSPropertyOp6
 70
     1
102
RTVSPropertyOp7
 70
     1
102
RTVSPropertyOp8
 70
     1
102
RTVSPropertyOp9
 70
     1
102
RTVSPropertyOp10
 70
     1
102
RTVSPropertyOp11
 70
     1
102
RTVSPropertyOp12
 70
     1
102
RTVSPropertyOp13
 70
     1
102
RTVSPropertyOp14
 70
     1
102
RTVSPropertyOp15
 70
     1
102
RTVSPropertyOp16
 70
     1
102
RTVSPropertyOp17
 70
     1
102
RTVSPropertyOp18
 70
     1
102
RTVSPropertyOp19
 70
     1
102
RTVSPropertyOp20
 70
     1
102
RTVSPropertyOp21
 70
     1
102
RTVSPropertyOp22
 70
     1
102
RTVSPropertyOp23
 70
     1
102
RTVSPropertyOp24
 70
     1
102
RTVSPropertyOp25
 70
     1
102
RTVSPropertyOp26
 70
     1
102
RTVSPropertyOp27
 70
     1
  0
XRECORD
  5
A5C
102
{ACAD_REACTORS
330
A5B
102
}
330
A5B
100
AcDbXrecord
280
     1
102
RTVSPropertyOp0
 70
     1
102
RTVSPropertyOp1
 70
     1
102
RTVSPropertyOp2
 70
     1
102
RTVSPropertyOp3
 70
     1
102
RTVSPropertyOp4
 70
     1
102
RTVSPropertyOp5
 70
     1
102
RTVSPropertyOp6
 70
     1
102
RTVSPropertyOp7
 70
     1
102
RTVSPropertyOp8
 70
     1
102
RTVSPropertyOp9
 70
     1
102
RTVSPropertyOp10
 70
     1
102
RTVSPropertyOp11
 70
     1
102
RTVSPropertyOp12
 70
     1
102
RTVSPropertyOp13
 70
     1
102
RTVSPropertyOp14
 70
     1
102
RTVSPropertyOp15
 70
     1
102
RTVSPropertyOp16
 70
     1
102
RTVSPropertyOp17
 70
     1
102
RTVSPropertyOp18
 70
     1
102
RTVSPropertyOp19
 70
     1
102
RTVSPropertyOp20
 70
     1
102
RTVSPropertyOp21
 70
     1
102
RTVSPropertyOp22
 70
     1
102
RTVSPropertyOp23
 70
     1
102
RTVSPropertyOp24
 70
     1
102
RTVSPropertyOp25
 70
     1
102
RTVSPropertyOp26
 70
     1
102
RTVSPropertyOp27
 70
     1
  0
XRECORD
  5
A5A
102
{ACAD_REACTORS
330
A59
102
}
330
A59
100
AcDbXrecord
280
     1
102
RTVSPropertyOp0
 70
     1
102
RTVSPropertyOp1
 70
     1
102
RTVSPropertyOp2
 70
     1
102
RTVSPropertyOp3
 70
     1
102
RTVSPropertyOp4
 70
     1
102
RTVSPropertyOp5
 70
     1
102
RTVSPropertyOp6
 70
     1
102
RTVSPropertyOp7
 70
     1
102
RTVSPropertyOp8
 70
     1
102
RTVSPropertyOp9
 70
     1
102
RTVSPropertyOp10
 70
     1
102
RTVSPropertyOp11
 70
     1
102
RTVSPropertyOp12
 70
     1
102
RTVSPropertyOp13
 70
     1
102
RTVSPropertyOp14
 70
     1
102
RTVSPropertyOp15
 70
     1
102
RTVSPropertyOp16
 70
     1
102
RTVSPropertyOp17
 70
     1
102
RTVSPropertyOp18
 70
     1
102
RTVSPropertyOp19
 70
     1
102
RTVSPropertyOp20
 70
     1
102
RTVSPropertyOp21
 70
     1
102
RTVSPropertyOp22
 70
     1
102
RTVSPropertyOp23
 70
     1
102
RTVSPropertyOp24
 70
     1
102
RTVSPropertyOp25
 70
     1
102
RTVSPropertyOp26
 70
     1
102
RTVSPropertyOp27
 70
     1
  0
XRECORD
  5
A56
102
{ACAD_REACTORS
330
A55
102
}
330
A55
100
AcDbXrecord
280
     1
102
RTVSPropertyOp0
 70
     1
102
RTVSPropertyOp1
 70
     1
102
RTVSPropertyOp2
 70
     1
102
RTVSPropertyOp3
 70
     1
102
RTVSPropertyOp4
 70
     1
102
RTVSPropertyOp5
 70
     1
102
RTVSPropertyOp6
 70
     1
102
RTVSPropertyOp7
 70
     1
102
RTVSPropertyOp8
 70
     1
102
RTVSPropertyOp9
 70
     1
102
RTVSPropertyOp10
 70
     1
102
RTVSPropertyOp11
 70
     1
102
RTVSPropertyOp12
 70
     1
102
RTVSPropertyOp13
 70
     1
102
RTVSPropertyOp14
 70
     1
102
RTVSPropertyOp15
 70
     1
102
RTVSPropertyOp16
 70
     1
102
RTVSPropertyOp17
 70
     1
102
RTVSPropertyOp18
 70
     1
102
RTVSPropertyOp19
 70
     1
102
RTVSPropertyOp20
 70
     1
102
RTVSPropertyOp21
 70
     1
102
RTVSPropertyOp22
 70
     1
102
RTVSPropertyOp23
 70
     1
102
RTVSPropertyOp24
 70
     1
102
RTVSPropertyOp25
 70
     1
102
RTVSPropertyOp26
 70
     1
102
RTVSPropertyOp27
 70
     1
  0
XRECORD
  5
A64
102
{ACAD_REACTORS
330
A63
102
}
330
A63
100
AcDbXrecord
280
     1
102
RTVSPropertyOp0
 70
     1
102
RTVSPropertyOp1
 70
     1
102
RTVSPropertyOp2
 70
     1
102
RTVSPropertyOp3
 70
     1
102
RTVSPropertyOp4
 70
     1
102
RTVSPropertyOp5
 70
     1
102
RTVSPropertyOp6
 70
     1
102
RTVSPropertyOp7
 70
     1
102
RTVSPropertyOp8
 70
     1
102
RTVSPropertyOp9
 70
     1
102
RTVSPropertyOp10
 70
     1
102
RTVSPropertyOp11
 70
     1
102
RTVSPropertyOp12
 70
     1
102
RTVSPropertyOp13
 70
     1
102
RTVSPropertyOp14
 70
     1
102
RTVSPropertyOp15
 70
     1
102
RTVSPropertyOp16
 70
     1
102
RTVSPropertyOp17
 70
     1
102
RTVSPropertyOp18
 70
     1
102
RTVSPropertyOp19
 70
     1
102
RTVSPropertyOp20
 70
     1
102
RTVSPropertyOp21
 70
     1
102
RTVSPropertyOp22
 70
     1
102
RTVSPropertyOp23
 70
     1
102
RTVSPropertyOp24
 70
     1
102
RTVSPropertyOp25
 70
     1
102
RTVSPropertyOp26
 70
     1
102
RTVSPropertyOp27
 70
     1
  0
XRECORD
  5
A6C
102
{ACAD_REACTORS
330
A6B
102
}
330
A6B
100
AcDbXrecord
280
     1
102
RTVSPropertyOp0
 70
     1
102
RTVSPropertyOp1
 70
     1
102
RTVSPropertyOp2
 70
     1
102
RTVSPropertyOp3
 70
     1
102
RTVSPropertyOp4
 70
     1
102
RTVSPropertyOp5
 70
     1
102
RTVSPropertyOp6
 70
     1
102
RTVSPropertyOp7
 70
     1
102
RTVSPropertyOp8
 70
     1
102
RTVSPropertyOp9
 70
     1
102
RTVSPropertyOp10
 70
     1
102
RTVSPropertyOp11
 70
     1
102
RTVSPropertyOp12
 70
     1
102
RTVSPropertyOp13
 70
     1
102
RTVSPropertyOp14
 70
     1
102
RTVSPropertyOp15
 70
     1
102
RTVSPropertyOp16
 70
     1
102
RTVSPropertyOp17
 70
     1
102
RTVSPropertyOp18
 70
     1
102
RTVSPropertyOp19
 70
     1
102
RTVSPropertyOp20
 70
     1
102
RTVSPropertyOp21
 70
     1
102
RTVSPropertyOp22
 70
     1
102
RTVSPropertyOp23
 70
     1
102
RTVSPropertyOp24
 70
     1
102
RTVSPropertyOp25
 70
     1
102
RTVSPropertyOp26
 70
     1
102
RTVSPropertyOp27
 70
     1
  0
XRECORD
  5
A5E
102
{ACAD_REACTORS
330
A5D
102
}
330
A5D
100
AcDbXrecord
280
     1
102
RTVSPropertyOp0
 70
     1
102
RTVSPropertyOp1
 70
     1
102
RTVSPropertyOp2
 70
     1
102
RTVSPropertyOp3
 70
     1
102
RTVSPropertyOp4
 70
     1
102
RTVSPropertyOp5
 70
     1
102
RTVSPropertyOp6
 70
     1
102
RTVSPropertyOp7
 70
     1
102
RTVSPropertyOp8
 70
     1
102
RTVSPropertyOp9
 70
     1
102
RTVSPropertyOp10
 70
     1
102
RTVSPropertyOp11
 70
     1
102
RTVSPropertyOp12
 70
     1
102
RTVSPropertyOp13
 70
     1
102
RTVSPropertyOp14
 70
     1
102
RTVSPropertyOp15
 70
     1
102
RTVSPropertyOp16
 70
     1
102
RTVSPropertyOp17
 70
     1
102
RTVSPropertyOp18
 70
     1
102
RTVSPropertyOp19
 70
     1
102
RTVSPropertyOp20
 70
     1
102
RTVSPropertyOp21
 70
     1
102
RTVSPropertyOp22
 70
     1
102
RTVSPropertyOp23
 70
     1
102
RTVSPropertyOp24
 70
     1
102
RTVSPropertyOp25
 70
     1
102
RTVSPropertyOp26
 70
     1
102
RTVSPropertyOp27
 70
     1
  0
XRECORD
  5
A62
102
{ACAD_REACTORS
330
A61
102
}
330
A61
100
AcDbXrecord
280
     1
102
RTVSPropertyOp0
 70
     1
102
RTVSPropertyOp1
 70
     1
102
RTVSPropertyOp2
 70
     1
102
RTVSPropertyOp3
 70
     1
102
RTVSPropertyOp4
 70
     1
102
RTVSPropertyOp5
 70
     1
102
RTVSPropertyOp6
 70
     1
102
RTVSPropertyOp7
 70
     1
102
RTVSPropertyOp8
 70
     1
102
RTVSPropertyOp9
 70
     1
102
RTVSPropertyOp10
 70
     1
102
RTVSPropertyOp11
 70
     1
102
RTVSPropertyOp12
 70
     1
102
RTVSPropertyOp13
 70
     1
102
RTVSPropertyOp14
 70
     1
102
RTVSPropertyOp15
 70
     1
102
RTVSPropertyOp16
 70
     1
102
RTVSPropertyOp17
 70
     1
102
RTVSPropertyOp18
 70
     1
102
RTVSPropertyOp19
 70
     1
102
RTVSPropertyOp20
 70
     1
102
RTVSPropertyOp21
 70
     1
102
RTVSPropertyOp22
 70
     1
102
RTVSPropertyOp23
 70
     1
102
RTVSPropertyOp24
 70
     1
102
RTVSPropertyOp25
 70
     1
102
RTVSPropertyOp26
 70
     1
102
RTVSPropertyOp27
 70
     1
  0
XRECORD
  5
A72
102
{ACAD_REACTORS
330
A71
102
}
330
A71
100
AcDbXrecord
280
     1
102
RTVSPropertyOp0
 70
     0
102
RTVSPropertyOp1
 70
     0
102
RTVSPropertyOp2
 70
     0
102
RTVSPropertyOp3
 70
     0
102
RTVSPropertyOp4
 70
     0
102
RTVSPropertyOp5
 70
     0
102
RTVSPropertyOp6
 70
     0
102
RTVSPropertyOp7
 70
     0
102
RTVSPropertyOp8
 70
     0
102
RTVSPropertyOp9
 70
     0
102
RTVSPropertyOp10
 70
     0
102
RTVSPropertyOp11
 70
     0
102
RTVSPropertyOp12
 70
     0
102
RTVSPropertyOp13
 70
     0
102
RTVSPropertyOp14
 70
     2
102
RTVSPropertyOp15
 70
     0
102
RTVSPropertyOp16
 70
     0
102
RTVSPropertyOp17
 70
     0
102
RTVSPropertyOp18
 70
     0
102
RTVSPropertyOp19
 70
     0
102
RTVSPropertyOp20
 70
     0
102
RTVSPropertyOp21
 70
     0
102
RTVSPropertyOp22
 70
     0
102
RTVSPropertyOp23
 70
     0
102
RTVSPropertyOp24
 70
     0
102
RTVSPropertyOp25
 70
     0
102
RTVSPropertyOp26
 70
     0
102
RTVSPropertyOp27
 70
     0
  0
XRECORD
  5
A6A
102
{ACAD_REACTORS
330
A69
102
}
330
A69
100
AcDbXrecord
280
     1
102
RTVSPropertyOp0
 70
     1
102
RTVSPropertyOp1
 70
     1
102
RTVSPropertyOp2
 70
     1
102
RTVSPropertyOp3
 70
     1
102
RTVSPropertyOp4
 70
     1
102
RTVSPropertyOp5
 70
     1
102
RTVSPropertyOp6
 70
     1
102
RTVSPropertyOp7
 70
     1
102
RTVSPropertyOp8
 70
     1
102
RTVSPropertyOp9
 70
     1
102
RTVSPropertyOp10
 70
     1
102
RTVSPropertyOp11
 70
     1
102
RTVSPropertyOp12
 70
     1
102
RTVSPropertyOp13
 70
     1
102
RTVSPropertyOp14
 70
     1
102
RTVSPropertyOp15
 70
     1
102
RTVSPropertyOp16
 70
     1
102
RTVSPropertyOp17
 70
     1
102
RTVSPropertyOp18
 70
     1
102
RTVSPropertyOp19
 70
     1
102
RTVSPropertyOp20
 70
     1
102
RTVSPropertyOp21
 70
     1
102
RTVSPropertyOp22
 70
     1
102
RTVSPropertyOp23
 70
     1
102
RTVSPropertyOp24
 70
     1
102
RTVSPropertyOp25
 70
     1
102
RTVSPropertyOp26
 70
     1
102
RTVSPropertyOp27
 70
     1
  0
XRECORD
  5
A4E
102
{ACAD_REACTORS
330
A4D
102
}
330
A4D
100
AcDbXrecord
280
     1
102
RTVSPropertyOp0
 70
     1
102
RTVSPropertyOp1
 70
     1
102
RTVSPropertyOp2
 70
     1
102
RTVSPropertyOp3
 70
     1
102
RTVSPropertyOp4
 70
     1
102
RTVSPropertyOp5
 70
     1
102
RTVSPropertyOp6
 70
     1
102
RTVSPropertyOp7
 70
     1
102
RTVSPropertyOp8
 70
     1
102
RTVSPropertyOp9
 70
     1
102
RTVSPropertyOp10
 70
     1
102
RTVSPropertyOp11
 70
     1
102
RTVSPropertyOp12
 70
     1
102
RTVSPropertyOp13
 70
     1
102
RTVSPropertyOp14
 70
     1
102
RTVSPropertyOp15
 70
     1
102
RTVSPropertyOp16
 70
     1
102
RTVSPropertyOp17
 70
     1
102
RTVSPropertyOp18
 70
     1
102
RTVSPropertyOp19
 70
     1
102
RTVSPropertyOp20
 70
     1
102
RTVSPropertyOp21
 70
     1
102
RTVSPropertyOp22
 70
     1
102
RTVSPropertyOp23
 70
     1
102
RTVSPropertyOp24
 70
     1
102
RTVSPropertyOp25
 70
     1
102
RTVSPropertyOp26
 70
     1
102
RTVSPropertyOp27
 70
     1
  0
XRECORD
  5
A50
102
{ACAD_REACTORS
330
A4F
102
}
330
A4F
100
AcDbXrecord
280
     1
102
RTVSPropertyOp0
 70
     1
102
RTVSPropertyOp1
 70
     1
102
RTVSPropertyOp2
 70
     1
102
RTVSPropertyOp3
 70
     1
102
RTVSPropertyOp4
 70
     1
102
RTVSPropertyOp5
 70
     1
102
RTVSPropertyOp6
 70
     1
102
RTVSPropertyOp7
 70
     1
102
RTVSPropertyOp8
 70
     1
102
RTVSPropertyOp9
 70
     1
102
RTVSPropertyOp10
 70
     1
102
RTVSPropertyOp11
 70
     1
102
RTVSPropertyOp12
 70
     1
102
RTVSPropertyOp13
 70
     1
102
RTVSPropertyOp14
 70
     1
102
RTVSPropertyOp15
 70
     1
102
RTVSPropertyOp16
 70
     1
102
RTVSPropertyOp17
 70
     1
102
RTVSPropertyOp18
 70
     1
102
RTVSPropertyOp19
 70
     1
102
RTVSPropertyOp20
 70
     1
102
RTVSPropertyOp21
 70
     1
102
RTVSPropertyOp22
 70
     1
102
RTVSPropertyOp23
 70
     1
102
RTVSPropertyOp24
 70
     1
102
RTVSPropertyOp25
 70
     1
102
RTVSPropertyOp26
 70
     1
102
RTVSPropertyOp27
 70
     1
  0
XRECORD
  5
A52
102
{ACAD_REACTORS
330
A51
102
}
330
A51
100
AcDbXrecord
280
     1
102
RTVSPropertyOp0
 70
     1
102
RTVSPropertyOp1
 70
     1
102
RTVSPropertyOp2
 70
     1
102
RTVSPropertyOp3
 70
     1
102
RTVSPropertyOp4
 70
     1
102
RTVSPropertyOp5
 70
     1
102
RTVSPropertyOp6
 70
     1
102
RTVSPropertyOp7
 70
     1
102
RTVSPropertyOp8
 70
     1
102
RTVSPropertyOp9
 70
     1
102
RTVSPropertyOp10
 70
     1
102
RTVSPropertyOp11
 70
     1
102
RTVSPropertyOp12
 70
     1
102
RTVSPropertyOp13
 70
     1
102
RTVSPropertyOp14
 70
     1
102
RTVSPropertyOp15
 70
     1
102
RTVSPropertyOp16
 70
     1
102
RTVSPropertyOp17
 70
     1
102
RTVSPropertyOp18
 70
     1
102
RTVSPropertyOp19
 70
     1
102
RTVSPropertyOp20
 70
     1
102
RTVSPropertyOp21
 70
     1
102
RTVSPropertyOp22
 70
     1
102
RTVSPropertyOp23
 70
     1
102
RTVSPropertyOp24
 70
     1
102
RTVSPropertyOp25
 70
     1
102
RTVSPropertyOp26
 70
     1
102
RTVSPropertyOp27
 70
     1
  0
XRECORD
  5
A54
102
{ACAD_REACTORS
330
A53
102
}
330
A53
100
AcDbXrecord
280
     1
102
RTVSPropertyOp0
 70
     1
102
RTVSPropertyOp1
 70
     1
102
RTVSPropertyOp2
 70
     1
102
RTVSPropertyOp3
 70
     1
102
RTVSPropertyOp4
 70
     1
102
RTVSPropertyOp5
 70
     1
102
RTVSPropertyOp6
 70
     1
102
RTVSPropertyOp7
 70
     1
102
RTVSPropertyOp8
 70
     1
102
RTVSPropertyOp9
 70
     1
102
RTVSPropertyOp10
 70
     1
102
RTVSPropertyOp11
 70
     1
102
RTVSPropertyOp12
 70
     1
102
RTVSPropertyOp13
 70
     1
102
RTVSPropertyOp14
 70
     1
102
RTVSPropertyOp15
 70
     1
102
RTVSPropertyOp16
 70
     1
102
RTVSPropertyOp17
 70
     1
102
RTVSPropertyOp18
 70
     1
102
RTVSPropertyOp19
 70
     1
102
RTVSPropertyOp20
 70
     1
102
RTVSPropertyOp21
 70
     1
102
RTVSPropertyOp22
 70
     1
102
RTVSPropertyOp23
 70
     1
102
RTVSPropertyOp24
 70
     1
102
RTVSPropertyOp25
 70
     1
102
RTVSPropertyOp26
 70
     1
102
RTVSPropertyOp27
 70
     1
  0
XRECORD
  5
A6E
102
{ACAD_REACTORS
330
A6D
102
}
330
A6D
100
AcDbXrecord
280
     1
102
RTVSPropertyOp0
 70
     0
102
RTVSPropertyOp1
 70
     0
102
RTVSPropertyOp2
 70
     0
102
RTVSPropertyOp3
 70
     0
102
RTVSPropertyOp4
 70
     0
102
RTVSPropertyOp5
 70
     0
102
RTVSPropertyOp6
 70
     0
102
RTVSPropertyOp7
 70
     0
102
RTVSPropertyOp8
 70
     0
102
RTVSPropertyOp9
 70
     0
102
RTVSPropertyOp10
 70
     0
102
RTVSPropertyOp11
 70
     0
102
RTVSPropertyOp12
 70
     0
102
RTVSPropertyOp13
 70
     0
102
RTVSPropertyOp14
 70
     2
102
RTVSPropertyOp15
 70
     0
102
RTVSPropertyOp16
 70
     0
102
RTVSPropertyOp17
 70
     0
102
RTVSPropertyOp18
 70
     0
102
RTVSPropertyOp19
 70
     0
102
RTVSPropertyOp20
 70
     0
102
RTVSPropertyOp21
 70
     0
102
RTVSPropertyOp22
 70
     0
102
RTVSPropertyOp23
 70
     0
102
RTVSPropertyOp24
 70
     0
102
RTVSPropertyOp25
 70
     0
102
RTVSPropertyOp26
 70
     0
102
RTVSPropertyOp27
 70
     0
  0
XRECORD
  5
A68
102
{ACAD_REACTORS
330
A67
102
}
330
A67
100
AcDbXrecord
280
     1
102
RTVSPropertyOp0
 70
     1
102
RTVSPropertyOp1
 70
     1
102
RTVSPropertyOp2
 70
     1
102
RTVSPropertyOp3
 70
     1
102
RTVSPropertyOp4
 70
     1
102
RTVSPropertyOp5
 70
     1
102
RTVSPropertyOp6
 70
     1
102
RTVSPropertyOp7
 70
     1
102
RTVSPropertyOp8
 70
     1
102
RTVSPropertyOp9
 70
     1
102
RTVSPropertyOp10
 70
     1
102
RTVSPropertyOp11
 70
     1
102
RTVSPropertyOp12
 70
     1
102
RTVSPropertyOp13
 70
     1
102
RTVSPropertyOp14
 70
     1
102
RTVSPropertyOp15
 70
     1
102
RTVSPropertyOp16
 70
     1
102
RTVSPropertyOp17
 70
     1
102
RTVSPropertyOp18
 70
     1
102
RTVSPropertyOp19
 70
     1
102
RTVSPropertyOp20
 70
     1
102
RTVSPropertyOp21
 70
     1
102
RTVSPropertyOp22
 70
     1
102
RTVSPropertyOp23
 70
     1
102
RTVSPropertyOp24
 70
     1
102
RTVSPropertyOp25
 70
     1
102
RTVSPropertyOp26
 70
     1
102
RTVSPropertyOp27
 70
     1
  0
XRECORD
  5
A70
102
{ACAD_REACTORS
330
A6F
102
}
330
A6F
100
AcDbXrecord
280
     1
102
RTVSPropertyOp0
 70
     0
102
RTVSPropertyOp1
 70
     0
102
RTVSPropertyOp2
 70
     0
102
RTVSPropertyOp3
 70
     0
102
RTVSPropertyOp4
 70
     0
102
RTVSPropertyOp5
 70
     0
102
RTVSPropertyOp6
 70
     0
102
RTVSPropertyOp7
 70
     0
102
RTVSPropertyOp8
 70
     0
102
RTVSPropertyOp9
 70
     0
102
RTVSPropertyOp10
 70
     0
102
RTVSPropertyOp11
 70
     0
102
RTVSPropertyOp12
 70
     0
102
RTVSPropertyOp13
 70
     0
102
RTVSPropertyOp14
 70
     2
102
RTVSPropertyOp15
 70
     0
102
RTVSPropertyOp16
 70
     0
102
RTVSPropertyOp17
 70
     0
102
RTVSPropertyOp18
 70
     0
102
RTVSPropertyOp19
 70
     0
102
RTVSPropertyOp20
 70
     0
102
RTVSPropertyOp21
 70
     0
102
RTVSPropertyOp22
 70
     0
102
RTVSPropertyOp23
 70
     0
102
RTVSPropertyOp24
 70
     0
102
RTVSPropertyOp25
 70
     0
102
RTVSPropertyOp26
 70
     0
102
RTVSPropertyOp27
 70
     0
  0
XRECORD
  5
A60
102
{ACAD_REACTORS
330
A5F
102
}
330
A5F
100
AcDbXrecord
280
     1
102
RTVSPropertyOp0
 70
     1
102
RTVSPropertyOp1
 70
     1
102
RTVSPropertyOp2
 70
     1
102
RTVSPropertyOp3
 70
     1
102
RTVSPropertyOp4
 70
     1
102
RTVSPropertyOp5
 70
     1
102
RTVSPropertyOp6
 70
     1
102
RTVSPropertyOp7
 70
     1
102
RTVSPropertyOp8
 70
     1
102
RTVSPropertyOp9
 70
     1
102
RTVSPropertyOp10
 70
     1
102
RTVSPropertyOp11
 70
     1
102
RTVSPropertyOp12
 70
     1
102
RTVSPropertyOp13
 70
     1
102
RTVSPropertyOp14
 70
     1
102
RTVSPropertyOp15
 70
     1
102
RTVSPropertyOp16
 70
     1
102
RTVSPropertyOp17
 70
     1
102
RTVSPropertyOp18
 70
     1
102
RTVSPropertyOp19
 70
     1
102
RTVSPropertyOp20
 70
     1
102
RTVSPropertyOp21
 70
     1
102
RTVSPropertyOp22
 70
     1
102
RTVSPropertyOp23
 70
     1
102
RTVSPropertyOp24
 70
     1
102
RTVSPropertyOp25
 70
     1
102
RTVSPropertyOp26
 70
     1
102
RTVSPropertyOp27
 70
     1
  0
XRECORD
  5
A66
102
{ACAD_REACTORS
330
A65
102
}
330
A65
100
AcDbXrecord
280
     1
102
RTVSPropertyOp0
 70
     1
102
RTVSPropertyOp1
 70
     1
102
RTVSPropertyOp2
 70
     1
102
RTVSPropertyOp3
 70
     1
102
RTVSPropertyOp4
 70
     1
102
RTVSPropertyOp5
 70
     1
102
RTVSPropertyOp6
 70
     1
102
RTVSPropertyOp7
 70
     1
102
RTVSPropertyOp8
 70
     1
102
RTVSPropertyOp9
 70
     1
102
RTVSPropertyOp10
 70
     1
102
RTVSPropertyOp11
 70
     1
102
RTVSPropertyOp12
 70
     1
102
RTVSPropertyOp13
 70
     1
102
RTVSPropertyOp14
 70
     1
102
RTVSPropertyOp15
 70
     1
102
RTVSPropertyOp16
 70
     1
102
RTVSPropertyOp17
 70
     1
102
RTVSPropertyOp18
 70
     1
102
RTVSPropertyOp19
 70
     1
102
RTVSPropertyOp20
 70
     1
102
RTVSPropertyOp21
 70
     1
102
RTVSPropertyOp22
 70
     1
102
RTVSPropertyOp23
 70
     1
102
RTVSPropertyOp24
 70
     1
102
RTVSPropertyOp25
 70
     1
102
RTVSPropertyOp26
 70
     1
102
RTVSPropertyOp27
 70
     1
  0
ENDSEC
  0
EOF
