  0
SECTION
  2
HEADER
  9
$ACADVER
  1
AC1015
  9
$ACADMAINTVER
 70
    20
  9
$DWGCODEPAGE
  3
ANSI_1252
  9
$INSBASE
 10
0.0
 20
0.0
 30
0.0
  9
$EXTMIN
 10
322.2529878673683
 20
529.7196110566666
 30
-0.0000000000000001
  9
$EXTMAX
 10
324.54508458029
 20
530.1197795687843
 30
0.0000000000000001
  9
$LIMMIN
 10
0.0
 20
0.0
  9
$LIMMAX
 10
420.0
 20
297.0
  9
$ORTHOMODE
 70
     0
  9
$REGENMODE
 70
     1
  9
$FILLMODE
 70
     1
  9
$QTEXTMODE
 70
     0
  9
$MIRRTEXT
 70
     0
  9
$LTSCALE
 40
1.0
  9
$ATTMODE
 70
     1
  9
$TEXTSIZE
 40
2.5
  9
$TRACEWID
 40
1.0
  9
$TEXTSTYLE
  7
Standard
  9
$CLAYER
  8
0
  9
$CELTYPE
  6
ByLayer
  9
$CECOLOR
 62
   256
  9
$CELTSCALE
 40
1.0
  9
$DISPSILH
 70
     0
  9
$DIMSCALE
 40
1.0
  9
$DIMASZ
 40
2.5
  9
$DIMEXO
 40
0.625
  9
$DIMDLI
 40
3.75
  9
$DIMRND
 40
0.0
  9
$DIMDLE
 40
0.0
  9
$DIMEXE
 40
1.25
  9
$DIMTP
 40
0.0
  9
$DIMTM
 40
0.0
  9
$DIMTXT
 40
2.5
  9
$DIMCEN
 40
2.5
  9
$DIMTSZ
 40
0.0
  9
$DIMTOL
 70
     0
  9
$DIMLIM
 70
     0
  9
$DIMTIH
 70
     0
  9
$DIMTOH
 70
     0
  9
$DIMSE1
 70
     0
  9
$DIMSE2
 70
     0
  9
$DIMTAD
 70
     1
  9
$DIMZIN
 70
     8
  9
$DIMBLK
  1

  9
$DIMASO
 70
     1
  9
$DIMSHO
 70
     1
  9
$DIMPOST
  1

  9
$DIMAPOST
  1

  9
$DIMALT
 70
     0
  9
$DIMALTD
 70
     3
  9
$DIMALTF
 40
0.03937007874016
  9
$DIMLFAC
 40
1.0
  9
$DIMTOFL
 70
     1
  9
$DIMTVP
 40
0.0
  9
$DIMTIX
 70
     0
  9
$DIMSOXD
 70
     0
  9
$DIMSAH
 70
     0
  9
$DIMBLK1
  1

  9
$DIMBLK2
  1

  9
$DIMSTYLE
  2
ISO-25
  9
$DIMCLRD
 70
     0
  9
$DIMCLRE
 70
     0
  9
$DIMCLRT
 70
     0
  9
$DIMTFAC
 40
1.0
  9
$DIMGAP
 40
0.625
  9
$DIMJUST
 70
     0
  9
$DIMSD1
 70
     0
  9
$DIMSD2
 70
     0
  9
$DIMTOLJ
 70
     0
  9
$DIMTZIN
 70
     8
  9
$DIMALTZ
 70
     0
  9
$DIMALTTZ
 70
     0
  9
$DIMUPT
 70
     0
  9
$DIMDEC
 70
     2
  9
$DIMTDEC
 70
     2
  9
$DIMALTU
 70
     2
  9
$DIMALTTD
 70
     3
  9
$DIMTXSTY
  7
Standard
  9
$DIMAUNIT
 70
     0
  9
$DIMADEC
 70
     0
  9
$DIMALTRND
 40
0.0
  9
$DIMAZIN
 70
     0
  9
$DIMDSEP
 70
    44
  9
$DIMATFIT
 70
     3
  9
$DIMFRAC
 70
     0
  9
$DIMLDRBLK
  1

  9
$DIMLUNIT
 70
     2
  9
$DIMLWD
 70
    -2
  9
$DIMLWE
 70
    -2
  9
$DIMTMOVE
 70
     0
  9
$LUNITS
 70
     2
  9
$LUPREC
 70
     4
  9
$SKETCHINC
 40
1.0
  9
$FILLETRAD
 40
0.0
  9
$AUNITS
 70
     0
  9
$AUPREC
 70
     0
  9
$MENU
  1
.
  9
$ELEVATION
 40
0.0
  9
$PELEVATION
 40
0.0
  9
$THICKNESS
 40
0.0
  9
$LIMCHECK
 70
     0
  9
$CHAMFERA
 40
0.0
  9
$CHAMFERB
 40
0.0
  9
$CHAMFERC
 40
0.0
  9
$CHAMFERD
 40
0.0
  9
$SKPOLY
 70
     0
  9
$TDCREATE
 40
2454119.796424514
  9
$TDUCREATE
 40
2454119.754757847
  9
$TDUPDATE
 40
2456147.602424584
  9
$TDUUPDATE
 40
2456147.560757917
  9
$TDINDWG
 40
0.0142851157
  9
$TDUSRTIMER
 40
0.0142849306
  9
$USRTIMER
 70
     1
  9
$ANGBASE
 50
0.0
  9
$ANGDIR
 70
     0
  9
$PDMODE
 70
     0
  9
$PDSIZE
 40
0.0
  9
$PLINEWID
 40
0.0
  9
$SPLFRAME
 70
     0
  9
$SPLINETYPE
 70
     6
  9
$SPLINESEGS
 70
     8
  9
$HANDSEED
  5
98D
  9
$SURFTAB1
 70
     6
  9
$SURFTAB2
 70
     6
  9
$SURFTYPE
 70
     6
  9
$SURFU
 70
     6
  9
$SURFV
 70
     6
  9
$UCSBASE
  2

  9
$UCSNAME
  2

  9
$UCSORG
 10
0.0
 20
0.0
 30
0.0
  9
$UCSXDIR
 10
1.0
 20
0.0
 30
0.0
  9
$UCSYDIR
 10
0.0
 20
1.0
 30
0.0
  9
$UCSORTHOREF
  2

  9
$UCSORTHOVIEW
 70
     0
  9
$UCSORGTOP
 10
0.0
 20
0.0
 30
0.0
  9
$UCSORGBOTTOM
 10
0.0
 20
0.0
 30
0.0
  9
$UCSORGLEFT
 10
0.0
 20
0.0
 30
0.0
  9
$UCSORGRIGHT
 10
0.0
 20
0.0
 30
0.0
  9
$UCSORGFRONT
 10
0.0
 20
0.0
 30
0.0
  9
$UCSORGBACK
 10
0.0
 20
0.0
 30
0.0
  9
$PUCSBASE
  2

  9
$PUCSNAME
  2

  9
$PUCSORG
 10
0.0
 20
0.0
 30
0.0
  9
$PUCSXDIR
 10
1.0
 20
0.0
 30
0.0
  9
$PUCSYDIR
 10
0.0
 20
1.0
 30
0.0
  9
$PUCSORTHOREF
  2

  9
$PUCSORTHOVIEW
 70
     0
  9
$PUCSORGTOP
 10
0.0
 20
0.0
 30
0.0
  9
$PUCSORGBOTTOM
 10
0.0
 20
0.0
 30
0.0
  9
$PUCSORGLEFT
 10
0.0
 20
0.0
 30
0.0
  9
$PUCSORGRIGHT
 10
0.0
 20
0.0
 30
0.0
  9
$PUCSORGFRONT
 10
0.0
 20
0.0
 30
0.0
  9
$PUCSORGBACK
 10
0.0
 20
0.0
 30
0.0
  9
$USERI1
 70
     0
  9
$USERI2
 70
     0
  9
$USERI3
 70
     0
  9
$USERI4
 70
     0
  9
$USERI5
 70
     0
  9
$USERR1
 40
0.0
  9
$USERR2
 40
0.0
  9
$USERR3
 40
0.0
  9
$USERR4
 40
0.0
  9
$USERR5
 40
0.0
  9
$WORLDVIEW
 70
     1
  9
$SHADEDGE
 70
     3
  9
$SHADEDIF
 70
    70
  9
$TILEMODE
 70
     1
  9
$MAXACTVP
 70
    64
  9
$PINSBASE
 10
0.0
 20
0.0
 30
0.0
  9
$PLIMCHECK
 70
     0
  9
$PEXTMIN
 10
1.000000000000000E+20
 20
1.000000000000000E+20
 30
1.000000000000000E+20
  9
$PEXTMAX
 10
-1.000000000000000E+20
 20
-1.000000000000000E+20
 30
-1.000000000000000E+20
  9
$PLIMMIN
 10
0.0
 20
0.0
  9
$PLIMMAX
 10
420.0
 20
297.0
  9
$UNITMODE
 70
     0
  9
$VISRETAIN
 70
     1
  9
$PLINEGEN
 70
     0
  9
$PSLTSCALE
 70
     1
  9
$TREEDEPTH
 70
  3020
  9
$CMLSTYLE
  2
Standard
  9
$CMLJUST
 70
     0
  9
$CMLSCALE
 40
20.0
  9
$PROXYGRAPHICS
 70
     1
  9
$MEASUREMENT
 70
     1
  9
$CELWEIGHT
370
    -1
  9
$ENDCAPS
280
     0
  9
$JOINSTYLE
280
     0
  9
$LWDISPLAY
290
     0
  9
$INSUNITS
 70
     4
  9
$HYPERLINKBASE
  1

  9
$STYLESHEET
  1

  9
$XEDIT
290
     1
  9
$CEPSNTYPE
380
     0
  9
$PSTYLEMODE
290
     1
  9
$FINGERPRINTGUID
  2
{3653ADBE-21E0-484D-99EE-17CEAC80CDEB}
  9
$VERSIONGUID
  2
{0AE159B1-60CC-42BF-9E9B-1C72B7FFD329}
  9
$EXTNAMES
290
     1
  9
$PSVPSCALE
 40
0.0
  9
$OLESTARTUP
290
     0
  0
ENDSEC
  0
SECTION
  2
CLASSES
  0
CLASS
  1
ACDBDICTIONARYWDFLT
  2
AcDbDictionaryWithDefault
  3
ObjectDBX Classes
 90
        0
280
     0
281
     0
  0
CLASS
  1
TABLESTYLE
  2
AcDbTableStyle
  3
ObjectDBX Classes
 90
     4095
280
     0
281
     0
  0
CLASS
  1
DICTIONARYVAR
  2
AcDbDictionaryVar
  3
ObjectDBX Classes
 90
        0
280
     0
281
     0
  0
CLASS
  1
DIMASSOC
  2
AcDbDimAssoc
  3
"AcDbDimAssoc|Product Desc:     AcDim ARX App For Dimension|Company:          Autodesk, Inc.|WEB Address:      www.autodesk.com"
 90
    32768
280
     0
281
     0
  0
CLASS
  1
SORTENTSTABLE
  2
AcDbSortentsTable
  3
ObjectDBX Classes
 90
    32768
280
     0
281
     0
  0
CLASS
  1
ACDBPLACEHOLDER
  2
AcDbPlaceHolder
  3
ObjectDBX Classes
 90
        0
280
     0
281
     0
  0
CLASS
  1
LAYOUT
  2
AcDbLayout
  3
ObjectDBX Classes
 90
        0
280
     0
281
     0
  0
CLASS
  1
MATERIAL
  2
AcDbMaterial
  3
ObjectDBX Classes
 90
     1153
280
     0
281
     0
  0
CLASS
  1
VISUALSTYLE
  2
AcDbVisualStyle
  3
ObjectDBX Classes
 90
     4095
280
     0
281
     0
  0
CLASS
  1
SCALE
  2
AcDbScale
  3
ObjectDBX Classes
 90
     1153
280
     0
281
     0
  0
CLASS
  1
MLEADERSTYLE
  2
AcDbMLeaderStyle
  3
ACDB_MLEADERSTYLE_CLASS
 90
     4095
280
     0
281
     0
  0
CLASS
  1
CELLSTYLEMAP
  2
AcDbCellStyleMap
  3
ObjectDBX Classes
 90
     1152
280
     0
281
     0
  0
ENDSEC
  0
SECTION
  2
TABLES
  0
TABLE
  2
VPORT
  5
8
330
0
100
AcDbSymbolTable
 70
     1
  0
VPORT
  5
8F5
330
8
100
AcDbSymbolTableRecord
100
AcDbViewportTableRecord
  2
*Active
 70
     0
 10
0.0
 20
0.0
 11
1.0
 21
1.0
 12
323.4374229287145
 22
529.9196953127254
 13
0.0
 23
0.0
 14
10.0
 24
10.0
 15
10.0
 25
10.0
 16
0.0
 26
0.0
 36
1.0
 17
0.0
 27
0.0
 37
0.0
 40
1.444927690717161
 41
1.645464025026068
 42
50.0
 43
0.0
 44
0.0
 50
0.0
 51
0.0
 71
     0
 72
  1000
 73
     1
 74
     3
 75
     0
 76
     0
 77
     0
 78
     0
281
     0
 65
     1
110
0.0
120
0.0
130
0.0
111
1.0
121
0.0
131
0.0
112
0.0
122
1.0
132
0.0
 79
     0
146
0.0
  0
ENDTAB
  0
TABLE
  2
LTYPE
  5
5
330
0
100
AcDbSymbolTable
 70
     3
  0
LTYPE
  5
14
330
5
100
AcDbSymbolTableRecord
100
AcDbLinetypeTableRecord
  2
ByBlock
 70
     0
  3

 72
    65
 73
     0
 40
0.0
  0
LTYPE
  5
15
330
5
100
AcDbSymbolTableRecord
100
AcDbLinetypeTableRecord
  2
ByLayer
 70
     0
  3

 72
    65
 73
     0
 40
0.0
  0
LTYPE
  5
16
330
5
100
AcDbSymbolTableRecord
100
AcDbLinetypeTableRecord
  2
Continuous
 70
     0
  3
Solid line
 72
    65
 73
     0
 40
0.0
  0
LTYPE
  5
23C
330
5
100
AcDbSymbolTableRecord
100
AcDbLinetypeTableRecord
  2
DASHDOT
 70
     0
  3
Dash dot __ . __ . __ . __ . __ . __ . __ . __
 72
    65
 73
     4
 40
25.4
 49
12.7
 74
     0
 49
-6.349999999999999
 74
     0
 49
0.0
 74
     0
 49
-6.349999999999999
 74
     0
  0
LTYPE
  5
23D
330
5
100
AcDbSymbolTableRecord
100
AcDbLinetypeTableRecord
  2
HIDDEN
 70
     0
  3
Hidden __ __ __ __ __ __ __ __ __ __ __ __ __ _
 72
    65
 73
     2
 40
9.524999999999998
 49
6.349999999999999
 74
     0
 49
-3.174999999999999
 74
     0
  0
ENDTAB
  0
TABLE
  2
LAYER
  5
2
330
0
100
AcDbSymbolTable
 70
     9
  0
LAYER
  5
10
102
{ACAD_XDICTIONARY
360
941
102
}
330
2
100
AcDbSymbolTableRecord
100
AcDbLayerTableRecord
  2
0
 70
     0
 62
     7
  6
Continuous
370
    -3
390
F
  0
LAYER
  5
23E
102
{ACAD_XDICTIONARY
360
943
102
}
330
2
100
AcDbSymbolTableRecord
100
AcDbLayerTableRecord
  2
4
 70
     0
 62
     4
  6
Continuous
370
    -3
390
F
  0
LAYER
  5
23F
102
{ACAD_XDICTIONARY
360
945
102
}
330
2
100
AcDbSymbolTableRecord
100
AcDbLayerTableRecord
  2
cen
 70
     0
 62
     7
  6
DASHDOT
370
    -3
390
F
  0
LAYER
  5
240
102
{ACAD_XDICTIONARY
360
947
102
}
330
2
100
AcDbSymbolTableRecord
100
AcDbLayerTableRecord
  2
hid
 70
     0
 62
     7
  6
HIDDEN
370
    -3
390
F
  0
LAYER
  5
241
102
{ACAD_XDICTIONARY
360
949
102
}
330
2
100
AcDbSymbolTableRecord
100
AcDbLayerTableRecord
  2
hatch
 70
     0
 62
     9
  6
Continuous
370
    -3
390
F
  0
LAYER
  5
242
102
{ACAD_XDICTIONARY
360
94B
102
}
330
2
100
AcDbSymbolTableRecord
100
AcDbLayerTableRecord
  2
9
 70
     0
 62
     9
  6
Continuous
370
    -3
390
F
  0
LAYER
  5
243
102
{ACAD_XDICTIONARY
360
94D
102
}
330
2
100
AcDbSymbolTableRecord
100
AcDbLayerTableRecord
  2
cotas
 70
     0
 62
     1
  6
Continuous
370
    -3
390
F
  0
LAYER
  5
244
330
2
100
AcDbSymbolTableRecord
100
AcDbLayerTableRecord
  2
Defpoints
 70
     0
 62
     7
  6
Continuous
290
     0
370
    -3
390
F
  0
LAYER
  5
245
102
{ACAD_XDICTIONARY
360
94F
102
}
330
2
100
AcDbSymbolTableRecord
100
AcDbLayerTableRecord
  2
SANINDUSA
 70
     0
 62
     3
  6
Continuous
370
    -3
390
F
  0
ENDTAB
  0
TABLE
  2
STYLE
  5
3
330
0
100
AcDbSymbolTable
 70
     2
  0
STYLE
  5
11
330
3
100
AcDbSymbolTableRecord
100
AcDbTextStyleTableRecord
  2
Standard
 70
     0
 40
0.0
 41
1.0
 50
0.0
 71
     0
 42
2.5
  3
txt
  4

  0
STYLE
  5
246
330
3
100
AcDbSymbolTableRecord
100
AcDbTextStyleTableRecord
  2
SANINDUSA
 70
     0
 40
0.0
 41
1.0
 50
0.0
 71
     0
 42
2.5
  3
verdana.TTF
  4

1001
ACAD
1000
Verdana
1071
       34
  0
ENDTAB
  0
TABLE
  2
VIEW
  5
6
330
0
100
AcDbSymbolTable
 70
     0
  0
ENDTAB
  0
TABLE
  2
UCS
  5
7
330
0
100
AcDbSymbolTable
 70
     0
  0
ENDTAB
  0
TABLE
  2
APPID
  5
9
330
0
100
AcDbSymbolTable
 70
     8
  0
APPID
  5
12
330
9
100
AcDbSymbolTableRecord
100
AcDbRegAppTableRecord
  2
ACAD
 70
     0
  0
APPID
  5
248
330
9
100
AcDbSymbolTableRecord
100
AcDbRegAppTableRecord
  2
ACAD_PSEXT
 70
     0
  0
APPID
  5
249
330
9
100
AcDbSymbolTableRecord
100
AcDbRegAppTableRecord
  2
ACAD_DSTYLE_DIMEXT_LENGTH
 70
     0
  0
APPID
  5
24A
330
9
100
AcDbSymbolTableRecord
100
AcDbRegAppTableRecord
  2
ACAD_DSTYLE_DIMEXT_ENABLED
 70
     0
  0
APPID
  5
24B
330
9
100
AcDbSymbolTableRecord
100
AcDbRegAppTableRecord
  2
ACAD_DSTYLE_DIMJOGGED_JOGANGLE_SYMBOL
 70
     0
  0
APPID
  5
24C
330
9
100
AcDbSymbolTableRecord
100
AcDbRegAppTableRecord
  2
ACAD_DSTYLE_DIMARC_LENGTH_SYMBOL
 70
     0
  0
APPID
  5
8D8
330
9
100
AcDbSymbolTableRecord
100
AcDbRegAppTableRecord
  2
ACAD_EXEMPT_FROM_CAD_STANDARDS
 70
     0
  0
APPID
  5
98C
330
9
100
AcDbSymbolTableRecord
100
AcDbRegAppTableRecord
  2
ACAD_MLEADERVER
 70
     0
  0
ENDTAB
  0
TABLE
  2
DIMSTYLE
  5
A
330
0
100
AcDbSymbolTable
 70
     2
100
AcDbDimStyleTable
 71
     1
340
2B
  0
DIMSTYLE
105
2B
330
A
100
AcDbSymbolTableRecord
100
AcDbDimStyleTableRecord
  2
ISO-25
 70
     0
 41
2.5
 42
0.625
 43
3.75
 44
1.25
 73
     0
 74
     0
 77
     1
 78
     8
140
2.5
141
2.5
143
0.03937007874016
147
0.625
171
     3
172
     1
271
     2
272
     2
274
     3
278
    44
283
     0
284
     8
340
11
  0
DIMSTYLE
105
247
330
A
100
AcDbSymbolTableRecord
100
AcDbDimStyleTableRecord
  2
SANINDUSA
 70
     0
 40
5.0
 41
2.0
 42
1.0
 43
1.0
 44
1.0
 73
     0
 74
     0
 77
     1
 78
     8
140
2.0
141
0.0
143
0.03937007874016
147
1.0
171
     3
172
     1
176
   256
177
   256
178
   256
179
     1
271
     1
272
     1
274
     3
278
    44
283
     0
284
     8
340
246
371
    -1
372
    -1
1001
ACAD_DSTYLE_DIMJOGGED_JOGANGLE_SYMBOL
1070
   384
1040
1.570796326794896
  0
ENDTAB
  0
TABLE
  2
BLOCK_RECORD
  5
1
330
0
100
AcDbSymbolTable
 70
     1
  0
BLOCK_RECORD
  5
23
330
1
100
AcDbSymbolTableRecord
100
AcDbBlockTableRecord
  2
*Model_Space
340
26
  0
BLOCK_RECORD
  5
1F
330
1
100
AcDbSymbolTableRecord
100
AcDbBlockTableRecord
  2
*Paper_Space
340
22
  0
BLOCK_RECORD
  5
27
330
1
100
AcDbSymbolTableRecord
100
AcDbBlockTableRecord
  2
*Paper_Space0
340
2A
  0
ENDTAB
  0
ENDSEC
  0
SECTION
  2
BLOCKS
  0
BLOCK
  5
24
330
23
100
AcDbEntity
  8
0
100
AcDbBlockBegin
  2
*Model_Space
 70
     0
 10
0.0
 20
0.0
 30
0.0
  3
*Model_Space
  1

  0
ENDBLK
  5
25
330
23
100
AcDbEntity
  8
0
100
AcDbBlockEnd
  0
BLOCK
  5
20
330
1F
100
AcDbEntity
 67
     1
  8
0
100
AcDbBlockBegin
  2
*Paper_Space
 70
     0
 10
0.0
 20
0.0
 30
0.0
  3
*Paper_Space
  1

  0
ENDBLK
  5
21
330
1F
100
AcDbEntity
 67
     1
  8
0
100
AcDbBlockEnd
  0
BLOCK
  5
28
330
27
100
AcDbEntity
 67
     1
  8
0
100
AcDbBlockBegin
  2
*Paper_Space0
 70
     0
 10
0.0
 20
0.0
 30
0.0
  3
*Paper_Space0
  1

  0
ENDBLK
  5
29
330
27
100
AcDbEntity
 67
     1
  8
0
100
AcDbBlockEnd
  0
ENDSEC
  0
SECTION
  2
ENTITIES
  0
ARC
  5
416
330
23
100
AcDbEntity
  8
SANINDUSA
100
AcDbCircle
 10
323.0371858990183
 20
532.9515258268464
 30
0.0
 40
3.103264522654765
100
AcDbArc
 50
272.2404368548918
 51
274.3101847564215
  0
ARC
  5
417
330
23
100
AcDbEntity
  8
SANINDUSA
100
AcDbCircle
 10
323.1927376888124
 20
532.9829921525519
 30
0.0
 40
3.134798949141771
100
AcDbArc
 50
265.6951438492495
 51
267.742136843419
  0
ARC
  5
418
330
23
100
AcDbEntity
  8
SANINDUSA
100
AcDbCircle
 10
322.9577725851783
 20
529.8620230450494
 30
0.0
 40
0.0049999997762527
100
AcDbArc
 50
181.9998246372861
 51
266.0707194223605
  0
ARC
  5
419
330
23
100
AcDbEntity
  8
SANINDUSA
100
AcDbCircle
 10
323.2700598071551
 20
529.8620230450486
 30
0.0
 40
0.0049999997748054
100
AcDbArc
 50
274.1276325174573
 51
358.0001753692237
  0
ARC
  5
41A
330
23
100
AcDbEntity
  8
SANINDUSA
100
AcDbCircle
 10
323.0689215883752
 20
529.8406616881321
 30
0.0
 40
0.00997021564052
100
AcDbArc
 50
6.043912469885215
 51
88.19184327092917
  0
ARC
  5
41B
330
23
100
AcDbEntity
  8
SANINDUSA
100
AcDbCircle
 10
323.1589245834813
 20
529.8406577437527
 30
0.0
 40
0.0099847225753554
100
AcDbArc
 50
92.42606100978312
 51
174.0652102125666
  0
ARC
  5
41C
330
23
100
AcDbEntity
  8
SANINDUSA
100
AcDbCircle
 10
323.0798301110191
 20
529.8418232954755
 30
0.0
 40
0.0009999999562732
100
AcDbArc
 50
186.421212827738
 51
270.0002651758205
  0
ARC
  5
41D
330
23
100
AcDbEntity
  8
SANINDUSA
100
AcDbCircle
 10
323.1480022831552
 20
529.8418232955092
 30
0.0
 40
0.0009999999899659
100
AcDbArc
 50
269.9999419850542
 51
352.3473941977598
  0
LINE
  5
420
330
23
100
AcDbEntity
  8
SANINDUSA
100
AcDbLine
 10
323.3640847064271
 20
529.9679977930028
 30
0.0
 11
323.3647892154033
 21
529.9478232955193
 31
0.0
  0
LINE
  5
421
330
23
100
AcDbEntity
  8
SANINDUSA
100
AcDbLine
 10
323.3647892154033
 20
529.9478232955193
 30
0.0
 11
323.3547953071331
 21
529.9478232955193
 31
0.0
  0
LINE
  5
422
330
23
100
AcDbEntity
  8
SANINDUSA
100
AcDbLine
 10
322.8630431769287
 20
529.9478232955193
 30
0.0
 11
322.863747685905
 21
529.9679977930028
 31
0.0
  0
LINE
  5
425
330
23
100
AcDbEntity
  8
SANINDUSA
100
AcDbLine
 10
322.8730370851989
 20
529.9478232955193
 30
0.0
 11
322.8630431769287
 21
529.9478232955193
 31
0.0
  0
LINE
  5
427
330
23
100
AcDbEntity
  8
SANINDUSA
100
AcDbLine
 10
322.8730370851989
 20
529.9478232955193
 30
0.0
 11
323.3547953071331
 21
529.9478232955193
 31
0.0
  0
ARC
  5
428
330
23
100
AcDbEntity
  8
SANINDUSA
100
AcDbCircle
 10
322.86874464004
 20
529.9678232955193
 30
0.0
 40
0.0050000000000001
100
AcDbArc
 50
90.0
 51
178.0000000027562
  0
LINE
  5
429
330
23
100
AcDbEntity
  8
SANINDUSA
100
AcDbLine
 10
322.86874464004
 20
529.9728232955193
 30
0.0
 11
322.8737415941751
 21
529.9728232955193
 31
0.0
  0
LINE
  5
42B
330
23
100
AcDbEntity
  8
SANINDUSA
100
AcDbLine
 10
323.3540907981569
 20
529.9728232955193
 30
0.0
 11
323.359087752292
 21
529.9728232955193
 31
0.0
  0
ARC
  5
42C
330
23
100
AcDbEntity
  8
SANINDUSA
100
AcDbCircle
 10
323.359087752292
 20
529.9678232955193
 30
0.0
 40
0.0050000000000001
100
AcDbArc
 50
1.999999997243794
 51
90.0
  0
LINE
  5
42E
330
23
100
AcDbEntity
  8
SANINDUSA
100
AcDbLine
 10
322.8737415941751
 20
529.9728232955193
 30
0.0
 11
323.3540907981569
 21
529.9728232955193
 31
0.0
  0
LINE
  5
430
330
23
100
AcDbEntity
  8
SANINDUSA
100
AcDbLine
 10
323.3156641020386
 20
529.9478232955193
 30
0.0
 11
323.3151885330237
 21
529.9423875168056
 31
0.0
  0
LINE
  5
432
330
23
100
AcDbEntity
  8
SANINDUSA
100
AcDbLine
 10
322.9126438593084
 20
529.9423875168056
 30
0.0
 11
322.9121682902934
 21
529.9478232955193
 31
0.0
  0
ARC
  5
434
330
23
100
AcDbEntity
  8
SANINDUSA
100
AcDbCircle
 10
323.3102075595332
 20
529.9428232955193
 30
0.0
 40
0.0050000000000001
100
AcDbArc
 50
270.0
 51
354.9999999975038
  0
LINE
  5
435
330
23
100
AcDbEntity
  8
SANINDUSA
100
AcDbLine
 10
323.3102075595332
 20
529.9378232955193
 30
0.0
 11
323.3052265860428
 21
529.9378232955193
 31
0.0
  0
LINE
  5
437
330
23
100
AcDbEntity
  8
SANINDUSA
100
AcDbLine
 10
323.3052265860428
 20
529.9378232955193
 30
0.0
 11
322.9226058062892
 21
529.9378232955193
 31
0.0
  0
LINE
  5
439
330
23
100
AcDbEntity
  8
SANINDUSA
100
AcDbLine
 10
322.9226058062892
 20
529.9378232955193
 30
0.0
 11
322.9176248327988
 21
529.9378232955193
 31
0.0
  0
ARC
  5
43A
330
23
100
AcDbEntity
  8
SANINDUSA
100
AcDbCircle
 10
322.9176248327988
 20
529.9428232955193
 30
0.0
 40
0.0050000000000001
100
AcDbArc
 50
185.0000000024962
 51
270.0
  0
ARC
  5
43F
330
23
100
AcDbEntity
  8
SANINDUSA
100
AcDbCircle
 10
322.9452940907326
 20
529.9328232955193
 30
0.0
 40
0.0050000000000001
100
AcDbArc
 50
1.999999997243794
 51
90.0
  0
ARC
  5
441
330
23
100
AcDbEntity
  8
SANINDUSA
100
AcDbCircle
 10
323.2825383015994
 20
529.9328232955193
 30
0.0
 40
0.0050000000000001
100
AcDbArc
 50
90.0
 51
178.0000000027562
  0
ARC
  5
442
330
23
100
AcDbEntity
  8
SANINDUSA
100
AcDbCircle
 10
323.1111059600246
 20
529.1356407836423
 30
0.0
 40
0.7173915025803403
100
AcDbArc
 50
88.38791068881922
 51
89.39836198316209
  0
ARC
  5
443
330
23
100
AcDbEntity
  8
SANINDUSA
100
AcDbCircle
 10
323.1143569608651
 20
529.24124435807
 30
0.0
 40
0.6117633631742386
100
AcDbArc
 50
89.59897002628807
 51
91.66850484717937
  0
LINE
  5
444
330
23
100
AcDbEntity
  8
SANINDUSA
100
AcDbLine
 10
322.9502910448677
 20
529.9329977930028
 30
0.0
 11
322.9527725999781
 21
529.8619353523285
 31
0.0
  0
LINE
  5
445
330
23
100
AcDbEntity
  8
SANINDUSA
100
AcDbLine
 10
323.2775413474643
 20
529.9329977930028
 30
0.0
 11
323.2750601431835
 21
529.8619453987714
 31
0.0
  0
LINE
  5
447
330
23
100
AcDbEntity
  8
SANINDUSA
100
AcDbLine
 10
323.1480022831552
 20
529.8408232955193
 30
0.0
 11
323.0798301110191
 21
529.8408232955193
 31
0.0
  0
LWPOLYLINE
  5
44C
330
23
100
AcDbEntity
  8
SANINDUSA
100
AcDbPolyline
 90
       10
 70
   128
 43
0.0
 10
323.0692361790908
 20
529.8506269393883
 10
323.0697923749892
 20
529.8507538426362
 10
323.0716466184494
 20
529.8510155373818
 10
323.0746517176361
 20
529.8513639388589
 10
323.0788601015721
 20
529.8517657321911
 10
323.0839638597638
 20
529.8521515823306
 10
323.0900579400529
 20
529.8524954053428
 10
323.096544321795
 20
529.8527483419248
 10
323.0965443770491
 20
529.8527483436499
 10
323.0965443770491
 20
529.8527483436499
  0
ARC
  5
44D
330
23
100
AcDbEntity
  8
SANINDUSA
100
AcDbCircle
 10
323.1285735243671
 20
529.6416640525332
 30
0.0
 40
0.211101744230571
100
AcDbArc
 50
81.84957853937612
 51
89.26323129145925
  0
LWPOLYLINE
  5
44E
330
23
100
AcDbEntity
  8
SANINDUSA
100
AcDbPolyline
 90
       39
 70
   128
 43
0.0
 10
322.6509914625775
 20
529.7798927936509
 10
322.6507859726408
 20
529.7803693439687
 10
322.6505894723785
 20
529.7812241703379
 10
322.6504045274497
 20
529.7824508246234
 10
322.6502302815725
 20
529.784060571842
 10
322.6500255125525
 20
529.7866669388859
 10
322.6498408569763
 20
529.789916878716
 10
322.6496804724348
 20
529.7937540511818
 10
322.6495432983573
 20
529.7982278031825
 10
322.649430067664
 20
529.8031356728126
 10
322.6493058781139
 20
529.8086791082242
 10
322.649168197854
 20
529.81474189808
 10
322.6490148291432
 20
529.8214077362985
 10
322.6488379996445
 20
529.829015989858
 10
322.6486478396575
 20
529.8371432016619
 10
322.6484426322294
 20
529.8458947574473
 10
322.6482501968271
 20
529.8550414954282
 10
322.6481192822487
 20
529.8639630623553
 10
322.6480408234595
 20
529.8730879360501
 10
322.648016446756
 20
529.8824921659632
 10
322.6480489707807
 20
529.8919771718805
 10
322.6481074119213
 20
529.8987498260537
 10
322.6481948046762
 20
529.9054657402977
 10
322.6483369219446
 20
529.9133964370427
 10
322.6485119893514
 20
529.9212805433041
 10
322.6486919161368
 20
529.9289277235727
 10
322.6488665611656
 20
529.9364042924064
 10
322.6490356361613
 20
529.9435930657433
 10
322.6491941483199
 20
529.9504118867231
 10
322.6493418452311
 20
529.9568987425182
 10
322.6494741811412
 20
529.9628831319309
 10
322.6495899013473
 20
529.9680569029809
 10
322.6497253897053
 20
529.972750182176
 10
322.6498823283806
 20
529.9768483438461
 10
322.6500632427772
 20
529.9803768924102
 10
322.6502631359387
 20
529.9832205802357
 10
322.6504837949688
 20
529.9854004782808
 10
322.6507278193613
 20
529.986903193312
 10
322.6509969459115
 20
529.9876724773537
  0
ARC
  5
44F
330
23
100
AcDbEntity
  8
SANINDUSA
100
AcDbCircle
 10
322.6510022416919
 20
529.982686835714
 30
0.0
 40
0.0049856444523032
100
AcDbArc
 50
359.8427551919144
 51
90.06085992059237
  0
ARC
  5
451
330
23
100
AcDbEntity
  8
SANINDUSA
100
AcDbCircle
 10
322.6510042590704
 20
529.7848764121718
 30
0.0
 40
0.0049836349498353
100
AcDbArc
 50
269.8528813125481
 51
0.187382030159077
  0
LINE
  5
452
330
23
100
AcDbEntity
  8
SANINDUSA
100
AcDbLine
 10
322.6559878673683
 20
529.7848927107826
 30
0.0
 11
322.6559878673683
 21
529.9826731529308
 31
0.0
  0
LINE
  5
453
330
23
100
AcDbEntity
  8
SANINDUSA
100
AcDbLine
 10
322.3503248878905
 20
529.9826731529308
 30
0.0
 11
322.3503248878905
 21
529.7848927107826
 31
0.0
  0
ARC
  5
455
330
23
100
AcDbEntity
  8
SANINDUSA
100
AcDbCircle
 10
322.3553091639086
 20
529.9826881831038
 30
0.0
 40
0.0049842986799725
100
AcDbArc
 50
89.9236089724973
 51
180.1727759552385
  0
LWPOLYLINE
  5
456
330
23
100
AcDbEntity
  8
SANINDUSA
100
AcDbPolyline
 90
       39
 70
   128
 43
0.0
 10
322.3553158093474
 20
529.9876724773537
 10
322.3555098405989
 20
529.987202933296
 10
322.3556901781124
 20
529.98635865561
 10
322.3558632876954
 20
529.9851172474818
 10
322.3560263257177
 20
529.9834936413491
 10
322.3562197122855
 20
529.9808625100675
 10
322.3563947950619
 20
529.9776304577583
 10
322.3565543505285
 20
529.9737122854475
 10
322.3566930961913
 20
529.9692073201811
 10
322.3568091355787
 20
529.9643105713649
 10
322.3569262113938
 20
529.9588978849936
 10
322.3570634832696
 20
529.9528145519968
 10
322.3572150072714
 20
529.9462512977669
 10
322.3573940067904
 20
529.9386172459547
 10
322.3575834020762
 20
529.9305363055357
 10
322.3577907514489
 20
529.9217548754993
 10
322.3579909741325
 20
529.9126539550639
 10
322.3581436782284
 20
529.9037072129476
 10
322.3582444844335
 20
529.8946224754133
 10
322.3582928174634
 20
529.8851931307685
 10
322.3582846054175
 20
529.8757550339193
 10
322.3582645449611
 20
529.871859425398
 10
322.3581919340622
 20
529.8638341055417
 10
322.3580778864548
 20
529.8559186541494
 10
322.3579179229839
 20
529.8479771140202
 10
322.3577378964604
 20
529.8402555328679
 10
322.3575554877888
 20
529.8324705265306
 10
322.3573825762397
 20
529.8250585418969
 10
322.357215967657
 20
529.8178548406379
 10
322.3570631186297
 20
529.8111670005742
 10
322.3569309097866
 20
529.8052411640274
 10
322.3568103408284
 20
529.7998880407158
 10
322.3566746832196
 20
529.7949912504988
 10
322.3565101998364
 20
529.7907300403253
 10
322.3563238094675
 20
529.7872331637928
 10
322.356112121697
 20
529.7843854666549
 10
322.3558696928773
 20
529.7821583860409
 10
322.3556036275115
 20
529.780653541189
 10
322.3553212926814
 20
529.7798927936509
  0
ARC
  5
457
330
23
100
AcDbEntity
  8
SANINDUSA
100
AcDbCircle
 10
322.3553101752826
 20
529.7848780900864
 30
0.0
 40
0.0049853088316612
100
AcDbArc
 50
179.831965195754
 51
270.127771534745
  0
ARC
  5
45A
330
23
100
AcDbEntity
  8
SANINDUSA
100
AcDbCircle
 10
322.262987869225
 20
530.1097795669277
 30
0.0
 40
0.0100000018565896
100
AcDbArc
 50
90.0
 51
180.0
  0
LINE
  5
45D
330
23
100
AcDbEntity
  8
SANINDUSA
100
AcDbLine
 10
322.262987869225
 20
530.1197795669277
 30
0.0
 11
322.7433248860339
 21
530.1197795669277
 31
0.0
  0
ARC
  5
460
330
23
100
AcDbEntity
  8
SANINDUSA
100
AcDbCircle
 10
322.7433248860339
 20
530.1097795669277
 30
0.0
 40
0.0100000018565896
100
AcDbArc
 50
0.0
 51
90.0
  0
LINE
  5
470
330
23
100
AcDbEntity
  8
SANINDUSA
100
AcDbLine
 10
322.7533248878905
 20
530.1097795669277
 30
0.0
 11
322.7533248878905
 21
529.7296049649368
 31
0.0
  0
LINE
  5
472
330
23
100
AcDbEntity
  8
SANINDUSA
100
AcDbLine
 10
322.2529878673683
 20
529.7296049649368
 30
0.0
 11
322.2529878673683
 21
530.1097795669277
 31
0.0
  0
CIRCLE
  5
474
330
23
100
AcDbEntity
  8
SANINDUSA
100
AcDbCircle
 10
322.5031563776294
 20
530.0397795669276
 30
0.0
 40
0.0175
  0
LWPOLYLINE
  5
477
330
23
100
AcDbEntity
  8
SANINDUSA
100
AcDbPolyline
 90
        6
 70
   128
 43
0.0
 10
322.6509969459115
 20
529.9876724773537
 10
322.640996957298
 20
529.9876772200511
 10
322.6009969935745
 20
529.9876943255409
 10
322.5031563776294
 20
529.9877147023672
 10
322.3888592642491
 20
529.9876877199641
 10
322.3553158093474
 20
529.9876724773537
  0
LWPOLYLINE
  5
47E
330
23
100
AcDbEntity
  8
SANINDUSA
100
AcDbPolyline
 90
        6
 70
   128
 43
0.0
 10
322.3553212926814
 20
529.7798927936509
 10
322.3653212903891
 20
529.7798994233158
 10
322.4053212822791
 20
529.7799241864161
 10
322.5031563776294
 20
529.779955744723
 10
322.6282624257393
 20
529.7799076802335
 10
322.6509914625775
 20
529.7798927936509
  0
ARC
  5
47F
330
23
100
AcDbEntity
  8
SANINDUSA
100
AcDbCircle
 10
322.7433248860339
 20
529.7296110585232
 30
0.0
 40
0.0100000037131789
100
AcDbArc
 50
270.0349136688398
 51
359.965086334417
  0
ARC
  5
481
330
23
100
AcDbEntity
  8
SANINDUSA
100
AcDbCircle
 10
322.262987869225
 20
529.7296110585232
 30
0.0
 40
0.0100000037131789
100
AcDbArc
 50
180.034913665583
 51
269.9650863311601
  0
LINE
  5
483
330
23
100
AcDbEntity
  8
SANINDUSA
100
AcDbLine
 10
322.7433309796203
 20
529.7196110566666
 30
0.0
 11
322.2629817756386
 21
529.7196110566666
 31
0.0
  0
LWPOLYLINE
  5
484
330
23
100
AcDbEntity
  8
SANINDUSA
100
AcDbPolyline
 90
       39
 70
   128
 43
0.0
 10
322.5031563776294
 20
529.8476402243941
 10
322.4978649973702
 20
529.8480543294739
 10
322.4925736171111
 20
529.8493295454041
 10
322.4873903788688
 20
529.8515184472628
 10
322.4825096554504
 20
529.8546254117432
 10
322.4782992571402
 20
529.8584126717369
 10
322.4746619744361
 20
529.8629500634777
 10
322.4717690629991
 20
529.868065273623
 10
322.4696701388642
 20
529.873719835785
 10
322.4684620879265
 20
529.8798149954929
 10
322.4682463943135
 20
529.8861950598375
 10
322.4690849370024
 20
529.8925767108691
 10
322.4710451980313
 20
529.8989051987105
 10
322.4739485629701
 20
529.9045721202809
 10
322.4779316542575
 20
529.9097970664003
 10
322.4823964166524
 20
529.9138798716853
 10
322.487678943526
 20
529.9172117389848
 10
322.4930035701236
 20
529.9193815978552
 10
322.4987902142733
 20
529.9206473736588
 10
322.5044363990266
 20
529.9209037593154
 10
322.5102078835216
 20
529.9201911873007
 10
322.5156274796141
 20
529.9185653005695
 10
322.5208438433917
 20
529.9159800962054
 10
322.525420756988
 20
529.9126592350126
 10
322.5295002903078
 20
529.908519976578
 10
322.5328358381064
 20
529.9037987471674
 10
322.5354428898423
 20
529.8984681648353
 10
322.5372108486618
 20
529.8926545100166
 10
322.5380519986995
 20
529.8864736782254
 10
322.5378835440923
 20
529.8801078482044
 10
322.5366321369465
 20
529.8736829307967
 10
322.5343555022801
 20
529.8676668211339
 10
322.5309638963989
 20
529.8619700884093
 10
322.5269025750845
 20
529.8572892425072
 10
322.5219111126199
 20
529.8532819841645
 10
322.5167792013482
 20
529.8504899638609
 10
322.511066137948
 20
529.8485730266545
 10
322.5071664132564
 20
529.8478773938533
 10
322.5031563776294
 20
529.8476402243941
  0
CIRCLE
  5
498
330
23
100
AcDbEntity
  8
SANINDUSA
100
AcDbCircle
 10
-322.5031563776294
 20
529.8847795669277
 30
0.0000000000018501
 40
0.0235000000000001
210
0.0
220
0.0000000000000035
230
-1.0
  0
LWPOLYLINE
  5
49B
330
23
100
AcDbEntity
  8
SANINDUSA
100
AcDbPolyline
 90
       17
 70
   128
 43
0.0
 10
323.8448417813708
 20
529.8529936438265
 10
323.8448792630971
 20
529.852998420058
 10
323.85350100519
 20
529.8549651221484
 10
323.858086272692
 20
529.8564570313273
 10
323.8625415913578
 20
529.8582267606116
 10
323.8677020253429
 20
529.8607040257991
 10
323.8720226091371
 20
529.8631672305791
 10
323.8766479365093
 20
529.8662482435251
 10
323.8814747592857
 20
529.8700303904559
 10
323.8863841381435
 20
529.874596726391
 10
323.8912221901272
 20
529.8800092738296
 10
323.895816927017
 20
529.8863129776293
 10
323.8999722632381
 20
529.893513589329
 10
323.9033912929223
 20
529.9011549255464
 10
323.90737925628
 20
529.9116908434164
 10
323.9109980620075
 20
529.9232415257895
 10
323.913625528097
 20
529.9339229737191
  0
ARC
  5
49C
330
23
100
AcDbEntity
  8
SANINDUSA
100
AcDbCircle
 10
323.768863637256
 20
529.9210471698343
 30
0.0
 40
0.0696247822328409
100
AcDbArc
 50
245.2393949096097
 51
260.9598750120485
  0
ARC
  5
49D
330
23
100
AcDbEntity
  8
SANINDUSA
100
AcDbCircle
 10
323.9185576983938
 20
529.9328232955193
 30
0.0
 40
0.0050000000116356
100
AcDbArc
 50
90.00075902426079
 51
167.3956332946138
  0
ARC
  5
49E
330
23
100
AcDbEntity
  8
SANINDUSA
100
AcDbCircle
 10
323.8466211461672
 20
529.8431702499065
 30
0.0
 40
0.0099803568052886
100
AcDbArc
 50
100.3147429850668
 51
175.1718086368332
  0
ARC
  5
49F
330
23
100
AcDbEntity
  8
SANINDUSA
100
AcDbCircle
 10
323.7562425782964
 20
529.8424022630866
 30
0.0
 40
0.0099753934867135
100
AcDbArc
 50
4.89050401410047
 51
80.34678895466845
  0
LINE
  5
4A0
330
23
100
AcDbEntity
  8
SANINDUSA
100
AcDbLine
 10
323.8364779104372
 20
529.8417361397765
 30
0.0
 11
323.8366761225548
 21
529.8440017146476
 31
0.0
  0
ARC
  5
4A1
330
23
100
AcDbEntity
  8
SANINDUSA
100
AcDbCircle
 10
323.8354817157391
 20
529.8418232955193
 30
0.0
 40
0.0009999999999999
100
AcDbArc
 50
270.0
 51
354.9999999975038
  0
LINE
  5
4A2
330
23
100
AcDbEntity
  8
SANINDUSA
100
AcDbLine
 10
323.7661854609367
 20
529.8432531643483
 30
0.0
 11
323.766318183389
 21
529.8417361397765
 31
0.0
  0
ARC
  5
4A3
330
23
100
AcDbEntity
  8
SANINDUSA
100
AcDbCircle
 10
323.7673143780871
 20
529.8418232955193
 30
0.0
 40
0.0010000000000002
100
AcDbArc
 50
185.0000000024962
 51
270.0
  0
ELLIPSE
  5
4A6
330
23
100
AcDbEntity
  8
SANINDUSA
100
AcDbEllipse
 10
323.5763980469131
 20
529.967107597025
 30
0.0
 11
0.0
 21
0.1522071088314794
 31
0.0
210
0.0
220
0.0
230
1.0
 40
0.0656999536800334
 41
1.634369530311727
 42
1.69783553619196
  0
LWPOLYLINE
  5
4A7
330
23
100
AcDbEntity
  8
SANINDUSA
100
AcDbPolyline
 90
        3
 70
   128
 43
0.0
 10
323.5663980469131
 20
529.9596901733566
 10
323.566400223653
 20
529.9592440310224
 10
323.5664182478692
 20
529.9574378200758
  0
LINE
  5
4A8
330
23
100
AcDbEntity
  8
SANINDUSA
100
AcDbLine
 10
323.5763980469131
 20
529.9478232955193
 30
0.0
 11
323.5664786332476
 21
529.9478232955193
 31
0.0
  0
LINE
  5
4AB
330
23
100
AcDbEntity
  8
SANINDUSA
100
AcDbLine
 10
323.5763980469131
 20
529.9478232955193
 30
0.0
 11
323.9572771578802
 21
529.9478232955193
 31
0.0
  0
LINE
  5
4AD
330
23
100
AcDbEntity
  8
SANINDUSA
100
AcDbLine
 10
323.9665665571741
 20
529.9679977930028
 30
0.0
 11
323.9672710661504
 21
529.9478232955193
 31
0.0
  0
LINE
  5
4AE
330
23
100
AcDbEntity
  8
SANINDUSA
100
AcDbLine
 10
323.9672710661504
 20
529.9478232955193
 30
0.0
 11
323.9572771578802
 21
529.9478232955193
 31
0.0
  0
LINE
  5
4AF
330
23
100
AcDbEntity
  8
SANINDUSA
100
AcDbLine
 10
323.5713980469131
 20
529.9728232955193
 30
0.0
 11
323.5763980469131
 21
529.9728232955193
 31
0.0
  0
ARC
  5
4B1
330
23
100
AcDbEntity
  8
SANINDUSA
100
AcDbCircle
 10
323.5713980469131
 20
529.9678232955193
 30
0.0
 40
0.005
100
AcDbArc
 50
90.0
 51
180.0
  0
LINE
  5
4B2
330
23
100
AcDbEntity
  8
SANINDUSA
100
AcDbLine
 10
323.5763980469131
 20
529.9728232955193
 30
0.0
 11
323.9565726489039
 21
529.9728232955193
 31
0.0
  0
LINE
  5
4B4
330
23
100
AcDbEntity
  8
SANINDUSA
100
AcDbLine
 10
323.9565726489039
 20
529.9728232955193
 30
0.0
 11
323.961569603039
 21
529.9728232955193
 31
0.0
  0
ARC
  5
4B5
330
23
100
AcDbEntity
  8
SANINDUSA
100
AcDbCircle
 10
323.961569603039
 20
529.9678232955193
 30
0.0
 40
0.005
100
AcDbArc
 50
1.999999997243794
 51
90.0
  0
LINE
  5
4B6
330
23
100
AcDbEntity
  8
SANINDUSA
100
AcDbLine
 10
323.5664786332476
 20
529.9478232955193
 30
0.0
 11
323.5665007629208
 21
529.9478232955193
 31
0.0
  0
LINE
  5
4B7
330
23
100
AcDbEntity
  8
SANINDUSA
100
AcDbLine
 10
323.5663980469131
 20
529.9574333857186
 30
0.0
 11
323.5663980469131
 21
529.9638232955193
 31
0.0
  0
LINE
  5
4B9
330
23
100
AcDbEntity
  8
SANINDUSA
100
AcDbLine
 10
323.9381459527856
 20
529.9478232955193
 30
0.0
 11
323.9376703837708
 21
529.9423875168056
 31
0.0
  0
LINE
  5
4BC
330
23
100
AcDbEntity
  8
SANINDUSA
100
AcDbLine
 10
323.5663980469131
 20
529.9398232955192
 30
0.0
 11
323.5663980469131
 21
529.9574333857186
 31
0.0
  0
ARC
  5
4BE
330
23
100
AcDbEntity
  8
SANINDUSA
100
AcDbCircle
 10
323.5683980469131
 20
529.9398232955192
 30
0.0
 40
0.002
100
AcDbArc
 50
180.0
 51
270.0
  0
LINE
  5
4C1
330
23
100
AcDbEntity
  8
SANINDUSA
100
AcDbLine
 10
323.9277084367898
 20
529.9378232955193
 30
0.0
 11
323.5683980469131
 21
529.9378232955193
 31
0.0
  0
ARC
  5
4C2
330
23
100
AcDbEntity
  8
SANINDUSA
100
AcDbCircle
 10
323.9326894102803
 20
529.9428232955193
 30
0.0
 40
0.005
100
AcDbArc
 50
270.0
 51
354.9999999975038
  0
LINE
  5
4C3
330
23
100
AcDbEntity
  8
SANINDUSA
100
AcDbLine
 10
323.9326894102803
 20
529.9378232955193
 30
0.0
 11
323.9277084367898
 21
529.9378232955193
 31
0.0
  0
LWPOLYLINE
  5
4CA
330
23
100
AcDbEntity
  8
SANINDUSA
100
AcDbPolyline
 90
       17
 70
   128
 43
0.0
 10
323.9117629329255
 20
529.934509347115
 10
323.9069529805086
 20
529.9230647531077
 10
323.9023089705083
 20
529.914457247157
 10
323.8969087531923
 20
529.9062163214874
 10
323.8906873232613
 20
529.8982934321144
 10
323.883774385526
 20
529.8908674271102
 10
323.876849681216
 20
529.884546409639
 10
323.8694029624282
 20
529.8787544611035
 10
323.8613617265788
 20
529.8734766951136
 10
323.8528602526994
 20
529.8688420898115
 10
323.8442843289394
 20
529.865031805275
 10
323.8353678203758
 20
529.8619116932209
 10
323.8275362213432
 20
529.85983777673
 10
323.8195339641877
 20
529.8583238557644
 10
323.8113125741403
 20
529.8573787205937
 10
323.8029992090708
 20
529.8570359359337
 10
323.7975743251082
 20
529.8571413617527
  0
ARC
  5
4CC
330
23
100
AcDbEntity
  8
SANINDUSA
100
AcDbCircle
 10
323.9164692789917
 20
529.9328244326573
 30
0.0
 40
0.0049988628731812
100
AcDbArc
 50
90.00381842108307
 51
160.3021732703584
  0
LINE
  5
4D0
330
23
100
AcDbEntity
  8
SANINDUSA
100
AcDbLine
 10
323.5663980469131
 20
529.9330675919962
 30
0.0
 11
323.5663980469131
 21
529.9398232955192
 31
0.0
  0
ARC
  5
4D1
330
23
100
AcDbEntity
  8
SANINDUSA
100
AcDbCircle
 10
323.7978643272733
 20
530.2596086655329
 30
0.0
 40
0.408985960643811
100
AcDbArc
 50
268.3653883459578
 51
274.284626115313
  0
LINE
  5
4D2
330
23
100
AcDbEntity
  8
9
100
AcDbLine
 10
323.8448407548779
 20
529.8530016992831
 30
0.0
 11
323.8448318414679
 21
529.8530008474455
 31
0.0
  0
LINE
  5
4D4
330
23
100
AcDbEntity
  8
SANINDUSA
100
AcDbLine
 10
323.5663980469131
 20
529.8627185970292
 30
0.0
 11
323.5663980469131
 21
529.9330675919962
 31
0.0
  0
ARC
  5
4D5
330
23
100
AcDbEntity
  8
SANINDUSA
100
AcDbCircle
 10
323.7700773788046
 20
529.3101803916268
 30
0.0
 40
0.547651700350694
100
AcDbArc
 50
87.12203639602931
 51
89.67525691343743
  0
ARC
  5
4D8
330
23
100
AcDbEntity
  8
SANINDUSA
100
AcDbCircle
 10
323.5683980469131
 20
529.8598232955193
 30
0.0
 40
0.0020000000000002
100
AcDbArc
 50
180.0
 51
270.0
  0
LINE
  5
4D9
330
23
100
AcDbEntity
  8
SANINDUSA
100
AcDbLine
 10
323.5663980469131
 20
529.8598232955193
 30
0.0
 11
323.5663980469131
 21
529.8627185970292
 31
0.0
  0
LINE
  5
4DA
330
23
100
AcDbEntity
  8
SANINDUSA
100
AcDbLine
 10
323.7731813622594
 20
529.8578232955192
 30
0.0
 11
323.5683980469131
 21
529.8578232955192
 31
0.0
  0
LINE
  5
4DC
330
23
100
AcDbEntity
  8
SANINDUSA
100
AcDbLine
 10
323.8354817157391
 20
529.8408232955193
 30
0.0
 11
323.7673143780871
 21
529.8408232955193
 31
0.0
  0
LINE
  5
4DD
330
23
100
AcDbEntity
  8
SANINDUSA
100
AcDbLine
 10
323.5663980469131
 20
529.9596901733566
 30
0.0
 11
323.5663980469131
 21
529.9678232955193
 31
0.0
  0
ARC
  5
4E1
330
23
100
AcDbEntity
  8
SANINDUSA
100
AcDbCircle
 10
323.8253012301651
 20
530.9530631336891
 30
0.0
 40
1.102967381790383
100
AcDbArc
 50
266.7894956655927
 51
267.9682709429766
  0
LWPOLYLINE
  5
4E2
330
23
100
AcDbEntity
  8
SANINDUSA
100
AcDbPolyline
 90
        6
 70
   128
 43
0.0
 10
323.8284201405806
 20
529.8517657321911
 10
323.8338005657089
 20
529.8521515823306
 10
323.8383887761177
 20
529.8524954053428
 10
323.8417688710466
 20
529.8527483419248
 10
323.8417688943706
 20
529.8527483436499
 10
323.8417688943706
 20
529.8527483436499
  0
ARC
  5
4E3
330
23
100
AcDbEntity
  8
SANINDUSA
100
AcDbCircle
 10
323.7693376857626
 20
529.9695719689725
 30
0.0
 40
0.1178882655562202
100
AcDbArc
 50
264.440682550874
 51
267.176235918947
  0
LWPOLYLINE
  5
4E4
330
23
100
AcDbEntity
  8
SANINDUSA
100
AcDbPolyline
 90
        5
 70
   128
 43
0.0
 10
323.8417688943706
 20
529.8527483436499
 10
323.8417689158576
 20
529.852748345122
 10
323.8439263791922
 20
529.8529175172287
 10
323.8448961613678
 20
529.8530069943758
 10
323.8448407548779
 20
529.8530016992831
  0
ARC
  5
4E5
330
23
100
AcDbEntity
  8
SANINDUSA
100
AcDbCircle
 10
324.3743216222335
 20
530.3218997846361
 30
0.0
 40
0.459587898186775
100
AcDbArc
 50
266.1000942126863
 51
275.2470260169421
  0
LINE
  5
4E6
330
23
100
AcDbEntity
  8
SANINDUSA
100
AcDbLine
 10
324.4163509035864
 20
529.8642377087889
 30
0.0
 11
324.4027115610528
 21
529.852381209212
 31
0.0
  0
LINE
  5
4E7
330
23
100
AcDbEntity
  8
SANINDUSA
100
AcDbLine
 10
324.3557115610528
 20
529.852381209212
 30
0.0
 11
324.4027115610528
 21
529.852381209212
 31
0.0
  0
LINE
  5
4E8
330
23
100
AcDbEntity
  8
SANINDUSA
100
AcDbLine
 10
324.3557115610528
 20
529.852381209212
 30
0.0
 11
324.3430633717001
 21
529.8633761124736
 31
0.0
  0
ARC
  5
4E9
330
23
100
AcDbEntity
  8
SANINDUSA
100
AcDbCircle
 10
324.496371212645
 20
529.9328232955193
 30
0.0
 40
0.005
100
AcDbArc
 50
90.0
 51
167.4727186824493
  0
ARC
  5
4EC
330
23
100
AcDbEntity
  8
SANINDUSA
100
AcDbCircle
 10
324.496371212645
 20
529.9328232955193
 30
0.0
 40
0.015
100
AcDbArc
 50
94.91709442526857
 51
101.955617351372
  0
ARC
  5
4ED
330
23
100
AcDbEntity
  8
SANINDUSA
100
AcDbCircle
 10
324.5049997857177
 20
529.9487644117971
 30
0.0
 40
0.001
100
AcDbArc
 50
274.9170944252686
 51
354.9999999975038
  0
ARC
  5
4EE
330
23
100
AcDbEntity
  8
SANINDUSA
100
AcDbCircle
 10
324.3340369618311
 20
529.8423823643262
 30
0.0
 40
0.0100000000000001
100
AcDbArc
 50
5.000000002496249
 51
80.27210530699646
  0
ARC
  5
4EF
330
23
100
AcDbEntity
  8
SANINDUSA
100
AcDbCircle
 10
324.4244536807933
 20
529.8431541273879
 30
0.0
 40
0.01
100
AcDbArc
 50
99.57981736130415
 51
174.9999999975037
  0
LINE
  5
4F1
330
23
100
AcDbEntity
  8
SANINDUSA
100
AcDbLine
 10
324.3441316975287
 20
529.8417361397765
 30
0.0
 11
324.343998908812
 21
529.8432539217536
 31
0.0
  0
LINE
  5
4F2
330
23
100
AcDbEntity
  8
SANINDUSA
100
AcDbLine
 10
324.4027115610527
 20
529.8418232955193
 30
0.0
 11
324.4027115610528
 21
529.852381209212
 31
0.0
  0
LINE
  5
4F4
330
23
100
AcDbEntity
  8
SANINDUSA
100
AcDbLine
 10
324.3557115610528
 20
529.852381209212
 30
0.0
 11
324.3557115610528
 21
529.8418232955193
 31
0.0
  0
LINE
  5
4F5
330
23
100
AcDbEntity
  8
SANINDUSA
100
AcDbLine
 10
324.4144917338124
 20
529.8440256848153
 30
0.0
 11
324.4142914245768
 21
529.8417361397765
 31
0.0
  0
ARC
  5
4F6
330
23
100
AcDbEntity
  8
SANINDUSA
100
AcDbCircle
 10
324.4037115610528
 20
529.8418232955193
 30
0.0
 40
0.001
100
AcDbArc
 50
180.0
 51
270.0
  0
LINE
  5
4F7
330
23
100
AcDbEntity
  8
SANINDUSA
100
AcDbLine
 10
324.4037115610528
 20
529.8408232955193
 30
0.0
 11
324.3547115610528
 21
529.8408232955193
 31
0.0
  0
ARC
  5
4F8
330
23
100
AcDbEntity
  8
SANINDUSA
100
AcDbCircle
 10
324.3547115610528
 20
529.8418232955193
 30
0.0
 40
0.001
100
AcDbArc
 50
270.0
 51
0.0
  0
ARC
  5
4F9
330
23
100
AcDbEntity
  8
SANINDUSA
100
AcDbCircle
 10
324.3451278922268
 20
529.8418232955193
 30
0.0
 40
0.0010000000000001
100
AcDbArc
 50
185.0000000024962
 51
270.0
  0
LINE
  5
4FA
330
23
100
AcDbEntity
  8
SANINDUSA
100
AcDbLine
 10
324.5340845802901
 20
529.9478232955193
 30
0.0
 11
324.5332590566211
 21
529.9572590742331
 31
0.0
  0
ARC
  5
4FB
330
23
100
AcDbEntity
  8
SANINDUSA
100
AcDbCircle
 10
324.5282780831306
 20
529.9568232955193
 30
0.0
 40
0.0050000000000001
100
AcDbArc
 50
5.000000002496249
 51
90.0
  0
LINE
  5
4FC
330
23
100
AcDbEntity
  8
SANINDUSA
100
AcDbLine
 10
324.5282780831306
 20
529.9618232955193
 30
0.0
 11
324.5217659640847
 21
529.9618232955193
 31
0.0
  0
ARC
  5
4FD
330
23
100
AcDbEntity
  8
SANINDUSA
100
AcDbCircle
 10
324.5217659640847
 20
529.9568232955193
 30
0.0
 40
0.0050000000000001
100
AcDbArc
 50
90.0
 51
174.9999999975037
  0
ARC
  5
4FE
330
23
100
AcDbEntity
  8
SANINDUSA
100
AcDbCircle
 10
324.5217659640847
 20
529.9568232955193
 30
0.0
 40
0.0150000000000001
100
AcDbArc
 50
161.7900431386982
 51
174.9999999975037
  0
ARC
  5
4FF
330
23
100
AcDbEntity
  8
SANINDUSA
100
AcDbCircle
 10
324.5065672799312
 20
529.9618232955193
 30
0.0
 40
0.001
100
AcDbArc
 50
341.7900431386982
 51
90.0
  0
LINE
  5
500
330
23
100
AcDbEntity
  8
SANINDUSA
100
AcDbLine
 10
324.5167849905943
 20
529.9572590742331
 30
0.0
 11
324.5154838979104
 21
529.9423875168056
 31
0.0
  0
LINE
  5
501
330
23
100
AcDbEntity
  8
SANINDUSA
100
AcDbLine
 10
324.5068230436134
 20
529.9581306316605
 30
0.0
 11
324.5059959804158
 21
529.9486772560544
 31
0.0
  0
ARC
  5
502
330
23
100
AcDbEntity
  8
SANINDUSA
100
AcDbCircle
 10
324.51050292442
 20
529.9428232955193
 30
0.0
 40
0.005
100
AcDbArc
 50
270.0
 51
354.9999999975038
  0
LWPOLYLINE
  5
503
330
23
100
AcDbEntity
  8
SANINDUSA
100
AcDbPolyline
 90
       13
 70
   128
 43
0.0
 10
324.4914902484501
 20
529.9339078177772
 10
324.4889904424671
 20
529.9236982092557
 10
324.4859835112142
 20
529.9136079275899
 10
324.4823828633396
 20
529.9037269779915
 10
324.4781019074917
 20
529.8941453656724
 10
324.4739014423184
 20
529.8867435198181
 10
324.4688851361947
 20
529.8798347914936
 10
324.4631469812656
 20
529.8735496099552
 10
324.4567326552642
 20
529.867956604257
 10
324.4497125064161
 20
529.863098171469
 10
324.442218133674
 20
529.8590659802893
 10
324.4327070760447
 20
529.8553877354314
 10
324.4227894666348
 20
529.8530146745957
  0
ARC
  5
504
330
23
100
AcDbEntity
  8
SANINDUSA
100
AcDbCircle
 10
324.4132952298788
 20
529.8418232955193
 30
0.0
 40
0.0009999999999999
100
AcDbArc
 50
270.0
 51
354.9999999975038
  0
LINE
  5
505
330
23
100
AcDbEntity
  8
SANINDUSA
100
AcDbLine
 10
324.4132952298788
 20
529.8408232955193
 30
0.0
 11
324.4037115610528
 21
529.8408232955193
 31
0.0
  0
LWPOLYLINE
  5
506
330
23
100
AcDbEntity
  8
SANINDUSA
100
AcDbPolyline
 90
       15
 70
   128
 43
0.0
 10
324.4840353832574
 20
529.9680714921631
 10
324.4826400846292
 20
529.9527768372245
 10
324.4799966618128
 20
529.9375957913715
 10
324.4761373040138
 20
529.9226774435525
 10
324.4710942004382
 20
529.9081708827154
 10
324.4679566926171
 20
529.9009286144897
 10
324.4642083494559
 20
529.8939742045368
 10
324.4596914210976
 20
529.8875382964248
 10
324.4542904254926
 20
529.881688267671
 10
324.4481826747215
 20
529.8765316260666
 10
324.4415101142002
 20
529.8721874448443
 10
324.4350772127385
 20
529.8690257327782
 10
324.4283096694328
 20
529.8665950399488
 10
324.4213351645468
 20
529.8649413424926
 10
324.4163509035864
 20
529.8642377087889
  0
LWPOLYLINE
  5
507
330
23
100
AcDbEntity
  8
SANINDUSA
100
AcDbPolyline
 90
        5
 70
   128
 43
0.0
 10
324.5065672799312
 20
529.9628232955193
 10
324.4945110526818
 20
529.9628232955193
 42
0.3878114771795638
 10
324.4935151881476
 20
529.9619141461089
 10
324.4925617233442
 20
529.951462680831
 10
324.4920715734943
 20
529.9486477746045
  0
ARC
  5
508
330
23
100
AcDbEntity
  8
SANINDUSA
100
AcDbCircle
 10
324.4890292193006
 20
529.9678232955193
 30
0.0
 40
0.0050000000000003
100
AcDbArc
 50
90.0
 51
177.1547066524875
  0
LINE
  5
509
330
23
100
AcDbEntity
  8
SANINDUSA
100
AcDbLine
 10
324.5393831171787
 20
529.9728232955193
 30
0.0
 11
324.4890292193006
 21
529.9728232955193
 31
0.0
  0
ARC
  5
50A
330
23
100
AcDbEntity
  8
SANINDUSA
100
AcDbCircle
 10
324.5393831171787
 20
529.9678232955193
 30
0.0
 40
0.005
100
AcDbArc
 50
1.999999997243794
 51
90.0
  0
LINE
  5
50B
330
23
100
AcDbEntity
  8
SANINDUSA
100
AcDbLine
 10
324.5443800713138
 20
529.9679977930028
 30
0.0
 11
324.54508458029
 21
529.9478232955193
 31
0.0
  0
LINE
  5
50C
330
23
100
AcDbEntity
  8
SANINDUSA
100
AcDbLine
 10
324.54508458029
 20
529.9478232955193
 30
0.0
 11
324.5340845802901
 21
529.9478232955193
 31
0.0
  0
LINE
  5
50D
330
23
100
AcDbEntity
  8
SANINDUSA
100
AcDbLine
 10
324.51050292442
 20
529.9378232955193
 30
0.0
 11
324.496371212645
 21
529.9378232955193
 31
0.0
  0
LWPOLYLINE
  5
50E
330
23
100
AcDbEntity
  8
SANINDUSA
100
AcDbPolyline
 90
       15
 70
   128
 43
0.0
 10
324.3357266543658
 20
529.8522385775513
 10
324.3260681152146
 20
529.8545409108767
 10
324.3181385817081
 20
529.8574631933299
 10
324.3105531440148
 20
529.8612449535453
 10
324.3034611214759
 20
529.8658355088438
 10
324.2969376006394
 20
529.8712280934946
 10
324.2910561007358
 20
529.8773541532577
 10
324.2859339541322
 20
529.8840920324733
 10
324.2814309197841
 20
529.8916879537008
 10
324.2776689312553
 20
529.8997126767853
 10
324.2744965025695
 20
529.9080171803825
 10
324.2717621477507
 20
529.9164524431492
 10
324.2683667289775
 20
529.9294680656952
 10
324.2659984196246
 20
529.9427304115564
 10
324.264678670452
 20
529.9561167736458
  0
ARC
  5
50F
330
23
100
AcDbEntity
  8
SANINDUSA
100
AcDbCircle
 10
324.2596872908241
 20
529.9558232955193
 30
0.0
 40
0.0050000000000003
100
AcDbArc
 50
3.364945632678061
 51
90.0
  0
LINE
  5
510
330
23
100
AcDbEntity
  8
SANINDUSA
100
AcDbLine
 10
324.2596872908241
 20
529.9608232955193
 30
0.0
 11
324.2427115610528
 21
529.9608232955193
 31
0.0
  0
ARC
  5
511
330
23
100
AcDbEntity
  8
SANINDUSA
100
AcDbCircle
 10
324.2427115610528
 20
529.9618232955193
 30
0.0
 40
0.0010000000000002
100
AcDbArc
 50
180.0
 51
270.0
  0
LINE
  5
512
330
23
100
AcDbEntity
  8
SANINDUSA
100
AcDbLine
 10
324.2417115610528
 20
529.9618232955193
 30
0.0
 11
324.2417115610528
 21
529.9718232955193
 31
0.0
  0
ARC
  5
513
330
23
100
AcDbEntity
  8
SANINDUSA
100
AcDbCircle
 10
324.2427115610528
 20
529.9718232955193
 30
0.0
 40
0.001
100
AcDbArc
 50
90.0
 51
180.0
  0
LINE
  5
514
330
23
100
AcDbEntity
  8
SANINDUSA
100
AcDbLine
 10
324.271277337682
 20
529.9728232955193
 30
0.0
 11
324.2427115610528
 21
529.9728232955193
 31
0.0
  0
ARC
  5
515
330
23
100
AcDbEntity
  8
SANINDUSA
100
AcDbCircle
 10
324.271277337682
 20
529.9678232955193
 30
0.0
 40
0.005
100
AcDbArc
 50
1.094392368562085
 51
90.0
  0
LWPOLYLINE
  5
516
330
23
100
AcDbEntity
  8
SANINDUSA
100
AcDbPolyline
 90
       17
 70
   128
 43
0.0
 10
324.3430633717001
 20
529.8633761124736
 10
324.3357191829248
 20
529.8644481960588
 10
324.3287558204644
 20
529.8662794674888
 10
324.3220144733361
 20
529.8688706025599
 10
324.3156186491642
 20
529.8721767731008
 10
324.3096335085642
 20
529.8762096385295
 10
324.304141888911
 20
529.8809313440082
 10
324.2992573836626
 20
529.8862442916892
 10
324.2952697801237
 20
529.8918211805556
 10
324.2918884069365
 20
529.8978154956679
 10
324.289003214891
 20
529.9040566554542
 10
324.2846803812434
 20
529.9154696592462
 10
324.2812347657866
 20
529.9272150899374
 10
324.2786926924576
 20
529.9391886156548
 10
324.2770804851938
 20
529.9512859045251
 10
324.2765236082301
 20
529.9595936119508
 10
324.2762764256131
 20
529.9679187934631
  0
LINE
  5
517
330
23
100
AcDbEntity
  8
SANINDUSA
100
AcDbLine
 10
324.3547115610528
 20
529.8408232955193
 30
0.0
 11
324.3451278922268
 21
529.8408232955193
 31
0.0
  0
ARC
  5
51C
330
23
100
AcDbEntity
  8
SANINDUSA
100
AcDbCircle
 10
324.1878045492661
 20
529.9558232955193
 30
0.0
 40
0.005
100
AcDbArc
 50
90.0
 51
174.9999999975037
  0
ARC
  5
51D
330
23
100
AcDbEntity
  8
SANINDUSA
100
AcDbCircle
 10
324.1878045492661
 20
529.9558232955193
 30
0.0
 40
0.016
100
AcDbArc
 50
162.8953648229385
 51
174.9999999975037
  0
ARC
  5
51E
330
23
100
AcDbEntity
  8
SANINDUSA
100
AcDbCircle
 10
324.1715564724568
 20
529.9608232955193
 30
0.0
 40
0.001
100
AcDbArc
 50
342.8953648229385
 51
90.0
  0
LINE
  5
51F
330
23
100
AcDbEntity
  8
SANINDUSA
100
AcDbLine
 10
324.1828235757755
 20
529.9562590742331
 30
0.0
 11
324.1746108786732
 21
529.8623875168056
 31
0.0
  0
LINE
  5
520
330
23
100
AcDbEntity
  8
SANINDUSA
100
AcDbLine
 10
324.1718654340965
 20
529.9572177874032
 30
0.0
 11
324.1642117816626
 21
529.8697361397765
 31
0.0
  0
ARC
  5
521
330
23
100
AcDbEntity
  8
SANINDUSA
100
AcDbCircle
 10
324.1632155869646
 20
529.8698232955193
 30
0.0
 40
0.001
100
AcDbArc
 50
270.0
 51
354.9999999975038
  0
ARC
  5
522
330
23
100
AcDbEntity
  8
SANINDUSA
100
AcDbCircle
 10
324.1492115610528
 20
529.9678232955193
 30
0.0
 40
0.005
100
AcDbArc
 50
90.0
 51
180.0
  0
LINE
  5
523
330
23
100
AcDbEntity
  8
SANINDUSA
100
AcDbLine
 10
324.2057115610528
 20
529.9728232955193
 30
0.0
 11
324.1492115610528
 21
529.9728232955193
 31
0.0
  0
LINE
  5
524
330
23
100
AcDbEntity
  8
SANINDUSA
100
AcDbLine
 10
324.1715564724568
 20
529.9618232955193
 30
0.0
 11
324.1562115610528
 21
529.9618232955193
 31
0.0
  0
ARC
  5
525
330
23
100
AcDbEntity
  8
SANINDUSA
100
AcDbCircle
 10
324.2057115610528
 20
529.9718232955193
 30
0.0
 40
0.0009999999999999
100
AcDbArc
 50
0.0
 51
90.0
  0
LINE
  5
526
330
23
100
AcDbEntity
  8
SANINDUSA
100
AcDbLine
 10
324.2067115610528
 20
529.9718232955193
 30
0.0
 11
324.2067115610528
 21
529.9618232955193
 31
0.0
  0
ARC
  5
527
330
23
100
AcDbEntity
  8
SANINDUSA
100
AcDbCircle
 10
324.2057115610528
 20
529.9618232955193
 30
0.0
 40
0.0009999999999999
100
AcDbArc
 50
270.0
 51
0.0
  0
LINE
  5
528
330
23
100
AcDbEntity
  8
SANINDUSA
100
AcDbLine
 10
324.2057115610528
 20
529.9608232955193
 30
0.0
 11
324.1878045492661
 21
529.9608232955193
 31
0.0
  0
LINE
  5
529
330
23
100
AcDbEntity
  8
SANINDUSA
100
AcDbLine
 10
324.1442115610528
 20
529.8598232955193
 30
0.0
 11
324.1442115610528
 21
529.9678232955193
 31
0.0
  0
LINE
  5
52A
330
23
100
AcDbEntity
  8
SANINDUSA
100
AcDbLine
 10
324.1552115610528
 20
529.8698232955193
 30
0.0
 11
324.1552115610528
 21
529.9608232955193
 31
0.0
  0
ARC
  5
52B
330
23
100
AcDbEntity
  8
SANINDUSA
100
AcDbCircle
 10
324.1562115610528
 20
529.9608232955193
 30
0.0
 40
0.001
100
AcDbArc
 50
90.0
 51
180.0
  0
ARC
  5
52C
330
23
100
AcDbEntity
  8
SANINDUSA
100
AcDbCircle
 10
324.1696299051826
 20
529.8628232955193
 30
0.0
 40
0.005
100
AcDbArc
 50
270.0
 51
354.9999999975038
  0
ARC
  5
52D
330
23
100
AcDbEntity
  8
SANINDUSA
100
AcDbCircle
 10
324.1462115610528
 20
529.8598232955193
 30
0.0
 40
0.002
100
AcDbArc
 50
180.0
 51
270.0
  0
LINE
  5
52E
330
23
100
AcDbEntity
  8
SANINDUSA
100
AcDbLine
 10
324.1696299051826
 20
529.8578232955192
 30
0.0
 11
324.1462115610528
 21
529.8578232955192
 31
0.0
  0
LINE
  5
52F
330
23
100
AcDbEntity
  8
SANINDUSA
100
AcDbLine
 10
324.1632155869646
 20
529.8688232955193
 30
0.0
 11
324.1562115610528
 21
529.8688232955193
 31
0.0
  0
ARC
  5
530
330
23
100
AcDbEntity
  8
SANINDUSA
100
AcDbCircle
 10
324.1562115610528
 20
529.8698232955193
 30
0.0
 40
0.001
100
AcDbArc
 50
180.0
 51
270.0
  0
LINE
  5
533
330
23
100
AcDbEntity
  8
SANINDUSA
100
AcDbLine
 10
324.2427115610528
 20
529.9608232955193
 30
0.0
 11
324.2057115610528
 21
529.9608232955193
 31
0.0
  0
LINE
  5
535
330
23
100
AcDbEntity
  8
SANINDUSA
100
AcDbLine
 10
324.2057115610528
 20
529.9728232955193
 30
0.0
 11
324.2427115610528
 21
529.9728232955193
 31
0.0
  0
LINE
  5
53D
330
23
100
AcDbEntity
  8
SANINDUSA
100
AcDbLine
 10
324.1796375704549
 20
529.8578232955192
 30
0.0
 11
324.1696299051826
 21
529.8578232955192
 31
0.0
  0
LINE
  5
53E
330
23
100
AcDbEntity
  8
SANINDUSA
100
AcDbLine
 10
324.3174162903504
 20
529.8578232955192
 30
0.0
 11
324.1796375704549
 21
529.8578232955192
 31
0.0
  0
LINE
  5
546
330
23
100
AcDbEntity
  8
SANINDUSA
100
AcDbLine
 10
324.2813179750496
 20
529.9728232955193
 30
0.0
 11
324.2713235767
 21
529.9728232955193
 31
0.0
  0
LINE
  5
547
330
23
100
AcDbEntity
  8
SANINDUSA
100
AcDbLine
 10
324.2813179750496
 20
529.9728232955193
 30
0.0
 11
324.4890292193006
 21
529.9728232955193
 31
0.0
  0
LINE
  5
54B
330
23
100
AcDbEntity
  8
SANINDUSA
100
AcDbLine
 10
324.5340845802901
 20
529.9478232955193
 30
0.0
 11
324.5291036067996
 21
529.9478232955193
 31
0.0
  0
LINE
  5
54C
330
23
100
AcDbEntity
  8
SANINDUSA
100
AcDbLine
 10
324.5291036067996
 20
529.9478232955193
 30
0.0
 11
324.5159594669253
 21
529.9478232955193
 31
0.0
  0
ARC
  5
554
330
23
100
AcDbEntity
  8
SANINDUSA
100
AcDbCircle
 10
324.4930567497243
 20
529.9484762292873
 30
0.0
 40
0.001
100
AcDbArc
 50
170.1223207793001
 51
281.9556173513721
  0
LINE
  5
5D7
330
23
100
AcDbEntity
  8
SANINDUSA
100
AcDbLine
 10
324.5050854999007
 20
529.9477680920298
 30
0.0
 11
324.4950854999006
 21
529.9477680920298
 31
0.0
  0
ENDSEC
  0
SECTION
  2
OBJECTS
  0
DICTIONARY
  5
C
330
0
100
AcDbDictionary
281
     1
  3
ACAD_2007HEADERVARS_RT
350
95A
  3
ACAD_COLOR
350
1C
  3
ACAD_GROUP
350
D
  3
ACAD_LAYOUT
350
1A
  3
ACAD_MATERIAL
350
1B
  3
ACAD_MLEADERSTYLE
350
93C
  3
ACAD_MLINESTYLE
350
17
  3
ACAD_PLOTSETTINGS
350
19
  3
ACAD_PLOTSTYLENAME
350
E
  3
ACAD_SCALELIST
350
92A
  3
ACAD_TABLESTYLE
350
1D
  3
ACAD_VISUALSTYLE
350
916
  3
ACDB_RECOMPOSE_DATA
350
958
  3
AcDbVariableDictionary
350
30
  3
DWGPROPS
350
959
  0
DICTIONARY
  5
941
330
10
100
AcDbDictionary
280
     1
281
     1
  3
ADSK_XREC_LAYER_RECONCILED
360
942
  0
DICTIONARY
  5
943
330
23E
100
AcDbDictionary
280
     1
281
     1
  3
ADSK_XREC_LAYER_RECONCILED
360
944
  0
DICTIONARY
  5
945
330
23F
100
AcDbDictionary
280
     1
281
     1
  3
ADSK_XREC_LAYER_RECONCILED
360
946
  0
DICTIONARY
  5
947
330
240
100
AcDbDictionary
280
     1
281
     1
  3
ADSK_XREC_LAYER_RECONCILED
360
948
  0
DICTIONARY
  5
949
330
241
100
AcDbDictionary
280
     1
281
     1
  3
ADSK_XREC_LAYER_RECONCILED
360
94A
  0
DICTIONARY
  5
94B
330
242
100
AcDbDictionary
280
     1
281
     1
  3
ADSK_XREC_LAYER_RECONCILED
360
94C
  0
DICTIONARY
  5
94D
330
243
100
AcDbDictionary
280
     1
281
     1
  3
ADSK_XREC_LAYER_RECONCILED
360
94E
  0
DICTIONARY
  5
94F
330
245
100
AcDbDictionary
280
     1
281
     1
  3
ADSK_XREC_LAYER_RECONCILED
360
950
  0
DICTIONARY
  5
95A
102
{ACAD_REACTORS
330
C
102
}
330
C
100
AcDbDictionary
281
     1
  3
DIMJOGANG
350
95B
  0
DICTIONARY
  5
1C
102
{ACAD_REACTORS
330
C
102
}
330
C
100
AcDbDictionary
281
     1
  0
DICTIONARY
  5
D
102
{ACAD_REACTORS
330
C
102
}
330
C
100
AcDbDictionary
281
     1
  0
DICTIONARY
  5
1A
102
{ACAD_REACTORS
330
C
102
}
330
C
100
AcDbDictionary
281
     1
  3
Layout1
350
22
  3
Layout2
350
2A
  3
Model
350
26
  0
DICTIONARY
  5
1B
102
{ACAD_REACTORS
330
C
102
}
330
C
100
AcDbDictionary
281
     1
  3
ByBlock
350
906
  3
ByLayer
350
8FE
  3
Global
350
90E
  0
DICTIONARY
  5
93C
102
{ACAD_REACTORS
330
C
102
}
330
C
100
AcDbDictionary
281
     1
  3
Standard
350
93D
  0
DICTIONARY
  5
17
102
{ACAD_REACTORS
330
C
102
}
330
C
100
AcDbDictionary
281
     1
  3
Standard
350
18
  0
DICTIONARY
  5
19
102
{ACAD_REACTORS
330
C
102
}
330
C
100
AcDbDictionary
281
     1
  0
ACDBDICTIONARYWDFLT
  5
E
102
{ACAD_REACTORS
330
C
102
}
330
C
100
AcDbDictionary
281
     1
  3
Normal
350
F
100
AcDbDictionaryWithDefault
340
F
  0
DICTIONARY
  5
92A
102
{ACAD_REACTORS
330
C
102
}
330
C
100
AcDbDictionary
281
     1
  3
A0
350
92B
  3
A1
350
92C
  3
A2
350
92D
  3
A3
350
92E
  3
A4
350
92F
  3
A5
350
930
  3
A6
350
931
  3
A7
350
932
  3
A8
350
933
  3
A9
350
934
  3
B0
350
935
  3
B1
350
936
  3
B2
350
937
  3
B3
350
938
  3
B4
350
939
  3
B5
350
93A
  3
B6
350
93B
  0
DICTIONARY
  5
1D
102
{ACAD_REACTORS
330
C
102
}
330
C
100
AcDbDictionary
281
     1
  3
Standard
350
1E
  0
DICTIONARY
  5
916
102
{ACAD_REACTORS
330
C
102
}
330
C
100
AcDbDictionary
281
     1
  3
2dWireframe
350
91C
  3
3D Hidden
350
91E
  3
3dWireframe
350
91D
  3
Basic
350
91B
  3
Brighten
350
922
  3
ColorChange
350
926
  3
Conceptual
350
91F
  3
Dim
350
921
  3
EdgeColorOff
350
929
  3
Facepattern
350
925
  3
Flat
350
917
  3
FlatWithEdges
350
918
  3
Gouraud
350
919
  3
GouraudWithEdges
350
91A
  3
JitterOff
350
927
  3
Linepattern
350
924
  3
OverhangOff
350
928
  3
Realistic
350
920
  3
Thicken
350
923
  0
XRECORD
  5
958
102
{ACAD_REACTORS
330
C
102
}
330
C
100
AcDbXrecord
280
     1
 90
        1
330
1E
  0
DICTIONARY
  5
30
102
{ACAD_REACTORS
330
C
102
}
330
C
100
AcDbDictionary
281
     1
  3
CANNOSCALE
350
952
  3
CMLEADERSTYLE
350
951
  3
CTABLESTYLE
350
31
  3
DIMASSOC
350
8E7
  3
HIDETEXT
350
8E6
  3
INDEXCTL
350
954
  3
PROJECTNAME
350
8E8
  3
SORTENTS
350
953
  3
XCLIPFRAME
350
955
  0
XRECORD
  5
959
102
{ACAD_REACTORS
330
C
102
}
330
C
100
AcDbXrecord
280
     1
  1
DWGPROPS COOKIE
  2

  3

  4

  6

  7

  8
Julio
  9

300
=
301
=
302
=
303
=
304
=
305
=
306
=
307
=
308
=
309
=
 40
0.0142849305555556
 41
2454119.796424514
 42
2456147.602424584
  1

 90
        0
  0
XRECORD
  5
942
102
{ACAD_REACTORS
330
941
102
}
330
941
100
AcDbXrecord
280
     1
290
     1
  0
XRECORD
  5
944
102
{ACAD_REACTORS
330
943
102
}
330
943
100
AcDbXrecord
280
     1
290
     1
  0
XRECORD
  5
946
102
{ACAD_REACTORS
330
945
102
}
330
945
100
AcDbXrecord
280
     1
290
     1
  0
XRECORD
  5
948
102
{ACAD_REACTORS
330
947
102
}
330
947
100
AcDbXrecord
280
     1
290
     1
  0
XRECORD
  5
94A
102
{ACAD_REACTORS
330
949
102
}
330
949
100
AcDbXrecord
280
     1
290
     1
  0
XRECORD
  5
94C
102
{ACAD_REACTORS
330
94B
102
}
330
94B
100
AcDbXrecord
280
     1
290
     1
  0
XRECORD
  5
94E
102
{ACAD_REACTORS
330
94D
102
}
330
94D
100
AcDbXrecord
280
     1
290
     1
  0
XRECORD
  5
950
102
{ACAD_REACTORS
330
94F
102
}
330
94F
100
AcDbXrecord
280
     1
290
     1
  0
XRECORD
  5
95B
102
{ACAD_REACTORS
330
95A
102
}
330
95A
100
AcDbXrecord
280
     1
 40
1.570796326794896
  0
LAYOUT
  5
22
102
{ACAD_XDICTIONARY
360
95D
102
}
102
{ACAD_REACTORS
330
1A
102
}
330
1A
100
AcDbPlotSettings
  1

  2
C:\Documents and Settings\Julio\Application Data\Autodesk\AutoCAD 2006\R16.2\enu\plotters\Default Windows System Printer.pc3
  4

  6

 40
0.0
 41
0.0
 42
0.0
 43
0.0
 44
0.0
 45
0.0
 46
0.0
 47
0.0
 48
0.0
 49
0.0
140
0.0
141
0.0
142
1.0
143
1.0
 70
   688
 72
     0
 73
     0
 74
     5
  7

 75
    16
147
1.0
148
0.0
149
0.0
100
AcDbLayout
  1
Layout1
 70
     1
 71
     1
 10
0.0
 20
0.0
 11
420.0
 21
297.0
 12
0.0
 22
0.0
 32
0.0
 14
1.000000000000000E+20
 24
1.000000000000000E+20
 34
1.000000000000000E+20
 15
-1.000000000000000E+20
 25
-1.000000000000000E+20
 35
-1.000000000000000E+20
146
0.0
 13
0.0
 23
0.0
 33
0.0
 16
1.0
 26
0.0
 36
0.0
 17
0.0
 27
1.0
 37
0.0
 76
     0
330
1F
  0
LAYOUT
  5
2A
102
{ACAD_XDICTIONARY
360
961
102
}
102
{ACAD_REACTORS
330
1A
102
}
330
1A
100
AcDbPlotSettings
  1

  2
C:\Documents and Settings\Julio\Application Data\Autodesk\AutoCAD 2006\R16.2\enu\plotters\Default Windows System Printer.pc3
  4

  6

 40
0.0
 41
0.0
 42
0.0
 43
0.0
 44
0.0
 45
0.0
 46
0.0
 47
0.0
 48
0.0
 49
0.0
140
0.0
141
0.0
142
1.0
143
1.0
 70
   688
 72
     0
 73
     0
 74
     5
  7

 75
    16
147
1.0
148
0.0
149
0.0
100
AcDbLayout
  1
Layout2
 70
     1
 71
     2
 10
0.0
 20
0.0
 11
12.0
 21
9.0
 12
0.0
 22
0.0
 32
0.0
 14
0.0
 24
0.0
 34
0.0
 15
0.0
 25
0.0
 35
0.0
146
0.0
 13
0.0
 23
0.0
 33
0.0
 16
1.0
 26
0.0
 36
0.0
 17
0.0
 27
1.0
 37
0.0
 76
     0
330
27
  0
LAYOUT
  5
26
102
{ACAD_XDICTIONARY
360
95F
102
}
102
{ACAD_REACTORS
330
1A
102
}
330
1A
100
AcDbPlotSettings
  1

  2
C:\Documents and Settings\Julio\Application Data\Autodesk\AutoCAD 2006\R16.2\enu\plotters\Default Windows System Printer.pc3
  4

  6

 40
0.0
 41
0.0
 42
0.0
 43
0.0
 44
0.0
 45
0.0
 46
0.0
 47
0.0
 48
0.0
 49
0.0
140
0.0
141
0.0
142
1.0
143
1.0
 70
  1712
 72
     0
 73
     0
 74
     0
  7

 75
     0
147
1.0
148
0.0
149
0.0
100
AcDbLayout
  1
Model
 70
     1
 71
     0
 10
0.0
 20
0.0
 11
12.0
 21
9.0
 12
0.0
 22
0.0
 32
0.0
 14
0.0
 24
0.0
 34
0.0
 15
0.0
 25
0.0
 35
0.0
146
0.0
 13
0.0
 23
0.0
 33
0.0
 16
1.0
 26
0.0
 36
0.0
 17
0.0
 27
1.0
 37
0.0
 76
     0
330
23
331
8F5
  0
MATERIAL
  5
906
102
{ACAD_XDICTIONARY
360
907
102
}
102
{ACAD_REACTORS
330
1B
102
}
330
1B
100
AcDbMaterial
  1
ByBlock
 72
     0
 43
0.0008202099737533
 43
0.0
 43
0.0
 43
0.0
 43
0.0
 43
0.0008202099737533
 43
0.0
 43
0.0
 43
0.0
 43
0.0
 43
1.0
 43
0.0
 43
0.0
 43
0.0
 43
0.0
 43
1.0
 77
     0
 47
0.0008202099737533
 47
0.0
 47
0.0
 47
0.0
 47
0.0
 47
0.0008202099737533
 47
0.0
 47
0.0
 47
0.0
 47
0.0
 47
1.0
 47
0.0
 47
0.0
 47
0.0
 47
0.0
 47
1.0
171
     0
 49
0.0008202099737533
 49
0.0
 49
0.0
 49
0.0
 49
0.0
 49
0.0008202099737533
 49
0.0
 49
0.0
 49
0.0
 49
0.0
 49
1.0
 49
0.0
 49
0.0
 49
0.0
 49
0.0
 49
1.0
175
     0
142
0.0008202099737533
142
0.0
142
0.0
142
0.0
142
0.0
142
0.0008202099737533
142
0.0
142
0.0
142
0.0
142
0.0
142
1.0
142
0.0
142
0.0
142
0.0
142
0.0
142
1.0
179
     0
144
0.0008202099737533
144
0.0
144
0.0
144
0.0
144
0.0
144
0.0008202099737533
144
0.0
144
0.0
144
0.0
144
0.0
144
1.0
144
0.0
144
0.0
144
0.0
144
0.0
144
1.0
147
0.0008202099737533
147
0.0
147
0.0
147
0.0
147
0.0
147
0.0008202099737533
147
0.0
147
0.0
147
0.0
147
0.0
147
1.0
147
0.0
147
0.0
147
0.0
147
0.0
147
1.0
  0
MATERIAL
  5
8FE
102
{ACAD_XDICTIONARY
360
8FF
102
}
102
{ACAD_REACTORS
330
1B
102
}
330
1B
100
AcDbMaterial
  1
ByLayer
 72
     0
 43
0.0008202099737533
 43
0.0
 43
0.0
 43
0.0
 43
0.0
 43
0.0008202099737533
 43
0.0
 43
0.0
 43
0.0
 43
0.0
 43
1.0
 43
0.0
 43
0.0
 43
0.0
 43
0.0
 43
1.0
 77
     0
 47
0.0008202099737533
 47
0.0
 47
0.0
 47
0.0
 47
0.0
 47
0.0008202099737533
 47
0.0
 47
0.0
 47
0.0
 47
0.0
 47
1.0
 47
0.0
 47
0.0
 47
0.0
 47
0.0
 47
1.0
171
     0
 49
0.0008202099737533
 49
0.0
 49
0.0
 49
0.0
 49
0.0
 49
0.0008202099737533
 49
0.0
 49
0.0
 49
0.0
 49
0.0
 49
1.0
 49
0.0
 49
0.0
 49
0.0
 49
0.0
 49
1.0
175
     0
142
0.0008202099737533
142
0.0
142
0.0
142
0.0
142
0.0
142
0.0008202099737533
142
0.0
142
0.0
142
0.0
142
0.0
142
1.0
142
0.0
142
0.0
142
0.0
142
0.0
142
1.0
179
     0
144
0.0008202099737533
144
0.0
144
0.0
144
0.0
144
0.0
144
0.0008202099737533
144
0.0
144
0.0
144
0.0
144
0.0
144
1.0
144
0.0
144
0.0
144
0.0
144
0.0
144
1.0
147
0.0008202099737533
147
0.0
147
0.0
147
0.0
147
0.0
147
0.0008202099737533
147
0.0
147
0.0
147
0.0
147
0.0
147
1.0
147
0.0
147
0.0
147
0.0
147
0.0
147
1.0
  0
MATERIAL
  5
90E
102
{ACAD_XDICTIONARY
360
90F
102
}
102
{ACAD_REACTORS
330
1B
102
}
330
1B
100
AcDbMaterial
  1
Global
 72
     0
 43
0.0008202099737533
 43
0.0
 43
0.0
 43
0.0
 43
0.0
 43
0.0008202099737533
 43
0.0
 43
0.0
 43
0.0
 43
0.0
 43
1.0
 43
0.0
 43
0.0
 43
0.0
 43
0.0
 43
1.0
 77
     0
 47
0.0008202099737533
 47
0.0
 47
0.0
 47
0.0
 47
0.0
 47
0.0008202099737533
 47
0.0
 47
0.0
 47
0.0
 47
0.0
 47
1.0
 47
0.0
 47
0.0
 47
0.0
 47
0.0
 47
1.0
171
     0
 49
0.0008202099737533
 49
0.0
 49
0.0
 49
0.0
 49
0.0
 49
0.0008202099737533
 49
0.0
 49
0.0
 49
0.0
 49
0.0
 49
1.0
 49
0.0
 49
0.0
 49
0.0
 49
0.0
 49
1.0
175
     0
142
0.0008202099737533
142
0.0
142
0.0
142
0.0
142
0.0
142
0.0008202099737533
142
0.0
142
0.0
142
0.0
142
0.0
142
1.0
142
0.0
142
0.0
142
0.0
142
0.0
142
1.0
179
     0
144
0.0008202099737533
144
0.0
144
0.0
144
0.0
144
0.0
144
0.0008202099737533
144
0.0
144
0.0
144
0.0
144
0.0
144
1.0
144
0.0
144
0.0
144
0.0
144
0.0
144
1.0
147
0.0008202099737533
147
0.0
147
0.0
147
0.0
147
0.0
147
0.0008202099737533
147
0.0
147
0.0
147
0.0
147
0.0
147
1.0
147
0.0
147
0.0
147
0.0
147
0.0
147
1.0
  0
MLEADERSTYLE
  5
93D
102
{ACAD_REACTORS
330
93C
102
}
330
93C
100
AcDbMLeaderStyle
170
     2
171
     1
172
     0
 90
        2
 40
0.0
 41
0.0
173
     1
 91
-1056964608
340
14
 92
       -2
290
     1
 42
2.0
291
     1
 43
0.36
  3
Standard
 44
4.0
300

342
11
174
     1
178
     6
175
     1
176
     0
 93
-1056964608
 45
4.0
292
     0
297
     0
 46
4.0
 94
-1056964608
 47
1.0
 49
1.0
140
1.0
293
     1
141
0.0
294
     1
177
     0
142
1.0
295
     0
296
     0
143
0.125
1001
ACAD_MLEADERVER
1070
     2
  0
MLINESTYLE
  5
18
102
{ACAD_REACTORS
330
17
102
}
330
17
100
AcDbMlineStyle
  2
STANDARD
 70
     0
  3

 62
   256
 51
90.0
 52
90.0
 71
     2
 49
0.5
 62
   256
  6
BYLAYER
 49
-0.5
 62
   256
  6
BYLAYER
  0
ACDBPLACEHOLDER
  5
F
102
{ACAD_REACTORS
330
E
102
}
330
E
  0
SCALE
  5
92B
102
{ACAD_REACTORS
330
92A
102
}
330
92A
100
AcDbScale
 70
     0
300
1:1
140
1.0
141
1.0
290
     1
  0
SCALE
  5
92C
102
{ACAD_REACTORS
330
92A
102
}
330
92A
100
AcDbScale
 70
     0
300
1:2
140
1.0
141
2.0
290
     0
  0
SCALE
  5
92D
102
{ACAD_REACTORS
330
92A
102
}
330
92A
100
AcDbScale
 70
     0
300
1:4
140
1.0
141
4.0
290
     0
  0
SCALE
  5
92E
102
{ACAD_REACTORS
330
92A
102
}
330
92A
100
AcDbScale
 70
     0
300
1:5
140
1.0
141
5.0
290
     0
  0
SCALE
  5
92F
102
{ACAD_REACTORS
330
92A
102
}
330
92A
100
AcDbScale
 70
     0
300
1:8
140
1.0
141
8.0
290
     0
  0
SCALE
  5
930
102
{ACAD_REACTORS
330
92A
102
}
330
92A
100
AcDbScale
 70
     0
300
1:10
140
1.0
141
10.0
290
     0
  0
SCALE
  5
931
102
{ACAD_REACTORS
330
92A
102
}
330
92A
100
AcDbScale
 70
     0
300
1:16
140
1.0
141
16.0
290
     0
  0
SCALE
  5
932
102
{ACAD_REACTORS
330
92A
102
}
330
92A
100
AcDbScale
 70
     0
300
1:20
140
1.0
141
20.0
290
     0
  0
SCALE
  5
933
102
{ACAD_REACTORS
330
92A
102
}
330
92A
100
AcDbScale
 70
     0
300
1:30
140
1.0
141
30.0
290
     0
  0
SCALE
  5
934
102
{ACAD_REACTORS
330
92A
102
}
330
92A
100
AcDbScale
 70
     0
300
1:40
140
1.0
141
40.0
290
     0
  0
SCALE
  5
935
102
{ACAD_REACTORS
330
92A
102
}
330
92A
100
AcDbScale
 70
     0
300
1:50
140
1.0
141
50.0
290
     0
  0
SCALE
  5
936
102
{ACAD_REACTORS
330
92A
102
}
330
92A
100
AcDbScale
 70
     0
300
1:100
140
1.0
141
100.0
290
     0
  0
SCALE
  5
937
102
{ACAD_REACTORS
330
92A
102
}
330
92A
100
AcDbScale
 70
     0
300
2:1
140
2.0
141
1.0
290
     0
  0
SCALE
  5
938
102
{ACAD_REACTORS
330
92A
102
}
330
92A
100
AcDbScale
 70
     0
300
4:1
140
4.0
141
1.0
290
     0
  0
SCALE
  5
939
102
{ACAD_REACTORS
330
92A
102
}
330
92A
100
AcDbScale
 70
     0
300
8:1
140
8.0
141
1.0
290
     0
  0
SCALE
  5
93A
102
{ACAD_REACTORS
330
92A
102
}
330
92A
100
AcDbScale
 70
     0
300
10:1
140
10.0
141
1.0
290
     0
  0
SCALE
  5
93B
102
{ACAD_REACTORS
330
92A
102
}
330
92A
100
AcDbScale
 70
     0
300
100:1
140
100.0
141
1.0
290
     0
  0
TABLESTYLE
  5
1E
102
{ACAD_XDICTIONARY
360
956
102
}
102
{ACAD_REACTORS
330
1D
102
}
330
1D
100
AcDbTableStyle
  3
Standard
 70
     0
 71
     0
 40
1.5
 41
1.5
280
     0
281
     0
  7
Standard
140
4.5
170
     2
 62
     0
 63
     7
283
     0
274
    -2
284
     1
 64
     0
275
    -2
285
     1
 65
     0
276
    -2
286
     1
 66
     0
277
    -2
287
     1
 67
     0
278
    -2
288
     1
 68
     0
279
    -2
289
     1
 69
     0
  7
Standard
140
6.0
170
     5
 62
     0
 63
     7
283
     0
274
    -2
284
     1
 64
     0
275
    -2
285
     1
 65
     0
276
    -2
286
     1
 66
     0
277
    -2
287
     1
 67
     0
278
    -2
288
     1
 68
     0
279
    -2
289
     1
 69
     0
  7
Standard
140
4.5
170
     5
 62
     0
 63
     7
283
     0
274
    -2
284
     1
 64
     0
275
    -2
285
     1
 65
     0
276
    -2
286
     1
 66
     0
277
    -2
287
     1
 67
     0
278
    -2
288
     1
 68
     0
279
    -2
289
     1
 69
     0
  0
VISUALSTYLE
  5
91C
102
{ACAD_XDICTIONARY
360
970
102
}
102
{ACAD_REACTORS
330
916
102
}
330
916
100
AcDbVisualStyle
  2
2dWireframe
 70
     4
 71
     0
 72
     2
 73
     0
 90
        0
 40
-0.6
 41
-30.0
 62
     5
 63
     7
 74
     1
 91
        4
 64
     7
 65
   257
 75
     1
175
     1
 42
1.0
 92
        0
 66
   257
 43
1.0
 76
     1
 77
     6
 78
     2
 67
     7
 79
     5
170
     0
171
     0
290
     0
174
     0
 93
        1
 44
0.0
173
     0
291
     0
 45
0.0
1001
ACAD
1000
AcDbSavedByObjectVersion
1070
     0
  0
VISUALSTYLE
  5
91E
102
{ACAD_XDICTIONARY
360
974
102
}
102
{ACAD_REACTORS
330
916
102
}
330
916
100
AcDbVisualStyle
  2
3D Hidden
 70
     6
 71
     1
 72
     2
 73
     2
 90
        0
 40
-0.6
 41
-30.0
 62
     5
 63
     7
 74
     2
 91
        2
 64
     7
 65
   257
 75
     2
175
     1
 42
179.0
 92
        0
 66
   257
 43
1.0
 76
     1
 77
     6
 78
     2
 67
     7
 79
     3
170
     0
171
     0
290
     0
174
     0
 93
        1
 44
0.0
173
     0
291
     0
 45
0.0
1001
ACAD
1000
AcDbSavedByObjectVersion
1070
     0
  0
VISUALSTYLE
  5
91D
102
{ACAD_XDICTIONARY
360
972
102
}
102
{ACAD_REACTORS
330
916
102
}
330
916
100
AcDbVisualStyle
  2
3dWireframe
 70
     5
 71
     0
 72
     2
 73
     0
 90
        0
 40
-0.6
 41
-30.0
 62
     5
 63
     7
 74
     1
 91
        4
 64
     7
 65
   257
 75
     1
175
     1
 42
1.0
 92
        0
 66
   257
 43
1.0
 76
     1
 77
     6
 78
     2
 67
     7
 79
     5
170
     0
171
     0
290
     0
174
     0
 93
        1
 44
0.0
173
     0
291
     0
 45
0.0
1001
ACAD
1000
AcDbSavedByObjectVersion
1070
     0
  0
VISUALSTYLE
  5
91B
102
{ACAD_XDICTIONARY
360
96E
102
}
102
{ACAD_REACTORS
330
916
102
}
330
916
100
AcDbVisualStyle
  2
Basic
 70
     7
 71
     1
 72
     0
 73
     1
 90
        0
 40
-0.6
 41
-30.0
 62
     5
 63
     7
 74
     0
 91
        4
 64
     7
 65
   257
 75
     1
175
     1
 42
1.0
 92
        8
 66
     7
 43
1.0
 76
     1
 77
     6
 78
     2
 67
     7
 79
     5
170
     0
171
     0
290
     0
174
     0
 93
        1
 44
0.0
173
     0
291
     1
 45
0.0
1001
ACAD
1000
AcDbSavedByObjectVersion
1070
     0
  0
VISUALSTYLE
  5
922
102
{ACAD_XDICTIONARY
360
97C
102
}
102
{ACAD_REACTORS
330
916
102
}
330
916
100
AcDbVisualStyle
  2
Brighten
 70
    12
 71
     2
 72
     2
 73
     0
 90
        0
 40
-0.6
 41
-30.0
 62
     5
 63
     7
 74
     1
 91
        4
 64
     7
 65
   257
 75
     1
175
     1
 42
1.0
 92
        8
 66
     7
 43
1.0
 76
     1
 77
     6
 78
     2
 67
     7
 79
     5
170
     0
171
     0
290
     0
174
     0
 93
        1
 44
50.0
173
     0
291
     1
 45
0.0
1001
ACAD
1000
AcDbSavedByObjectVersion
1070
     0
  0
VISUALSTYLE
  5
926
102
{ACAD_XDICTIONARY
360
984
102
}
102
{ACAD_REACTORS
330
916
102
}
330
916
100
AcDbVisualStyle
  2
ColorChange
 70
    16
 71
     2
 72
     2
 73
     3
 90
        0
 40
-0.6
 41
-30.0
 62
     5
 63
     8
 74
     1
 91
        4
 64
     7
 65
   257
 75
     1
175
     1
 42
1.0
 92
        8
 66
     8
 43
1.0
 76
     1
 77
     6
 78
     2
 67
     7
 79
     5
170
     0
171
     0
290
     0
174
     0
 93
        1
 44
0.0
173
     0
291
     1
 45
0.0
1001
ACAD
1000
AcDbSavedByObjectVersion
1070
     0
  0
VISUALSTYLE
  5
91F
102
{ACAD_XDICTIONARY
360
976
102
}
102
{ACAD_REACTORS
330
916
102
}
330
916
100
AcDbVisualStyle
  2
Conceptual
 70
     9
 71
     3
 72
     2
 73
     0
 90
        0
 40
-0.6
 41
-30.0
 62
     5
 63
     7
 74
     2
 91
        2
 64
     7
 65
   257
 75
     1
175
     1
 42
179.0
 92
        8
 66
     7
 43
1.0
 76
     1
 77
     6
 78
     2
 67
     7
 79
     3
170
     0
171
     0
290
     0
174
     0
 93
        1
 44
0.0
173
     0
291
     0
 45
0.0
1001
ACAD
1000
AcDbSavedByObjectVersion
1070
     0
  0
VISUALSTYLE
  5
921
102
{ACAD_XDICTIONARY
360
97A
102
}
102
{ACAD_REACTORS
330
916
102
}
330
916
100
AcDbVisualStyle
  2
Dim
 70
    11
 71
     2
 72
     2
 73
     0
 90
        0
 40
-0.6
 41
-30.0
 62
     5
 63
     7
 74
     1
 91
        4
 64
     7
 65
   257
 75
     1
175
     1
 42
1.0
 92
        8
 66
     7
 43
1.0
 76
     1
 77
     6
 78
     2
 67
     7
 79
     5
170
     0
171
     0
290
     0
174
     0
 93
        1
 44
-50.0
173
     0
291
     1
 45
0.0
1001
ACAD
1000
AcDbSavedByObjectVersion
1070
     0
  0
VISUALSTYLE
  5
929
102
{ACAD_XDICTIONARY
360
98A
102
}
102
{ACAD_REACTORS
330
916
102
}
330
916
100
AcDbVisualStyle
  2
EdgeColorOff
 70
    22
 71
     2
 72
     2
 73
     0
 90
        0
 40
-0.6
 41
-30.0
 62
     5
 63
     7
 74
     1
 91
        4
 64
     7
 65
   257
 75
     1
175
     1
 42
1.0
 92
        8
 66
     7
 43
1.0
 76
     1
 77
     6
 78
     2
 67
     7
 79
     5
170
     0
171
     0
290
     0
174
     0
 93
        1
 44
0.0
173
     0
291
     1
 45
0.0
1001
ACAD
1000
AcDbSavedByObjectVersion
1070
     0
  0
VISUALSTYLE
  5
925
102
{ACAD_XDICTIONARY
360
982
102
}
102
{ACAD_REACTORS
330
916
102
}
330
916
100
AcDbVisualStyle
  2
Facepattern
 70
    15
 71
     2
 72
     2
 73
     0
 90
        0
 40
-0.6
 41
-30.0
 62
     5
 63
     7
 74
     1
 91
        4
 64
     7
 65
   257
 75
     1
175
     1
 42
1.0
 92
        8
 66
     7
 43
1.0
 76
     1
 77
     6
 78
     2
 67
     7
 79
     5
170
     0
171
     0
290
     0
174
     0
 93
        1
 44
0.0
173
     0
291
     1
 45
0.0
1001
ACAD
1000
AcDbSavedByObjectVersion
1070
     0
  0
VISUALSTYLE
  5
917
102
{ACAD_XDICTIONARY
360
966
102
}
102
{ACAD_REACTORS
330
916
102
}
330
916
100
AcDbVisualStyle
  2
Flat
 70
     0
 71
     2
 72
     1
 73
     1
 90
        2
 40
-0.6
 41
30.0
 62
     5
 63
     7
 74
     0
 91
        4
 64
     7
 65
   257
 75
     1
175
     1
 42
1.0
 92
        8
 66
     7
 43
1.0
 76
     1
 77
     6
 78
     2
 67
     7
 79
     5
170
     0
171
     0
290
     0
174
     0
 93
       13
 44
0.0
173
     0
291
     1
 45
0.0
1001
ACAD
1000
AcDbSavedByObjectVersion
1070
     0
  0
VISUALSTYLE
  5
918
102
{ACAD_XDICTIONARY
360
968
102
}
102
{ACAD_REACTORS
330
916
102
}
330
916
100
AcDbVisualStyle
  2
FlatWithEdges
 70
     1
 71
     2
 72
     1
 73
     1
 90
        2
 40
-0.6
 41
30.0
 62
     5
 63
     7
 74
     1
 91
        4
 64
     7
 65
   257
 75
     1
175
     1
 42
1.0
 92
        0
 66
   257
 43
1.0
 76
     1
 77
     6
 78
     2
 67
     7
 79
     5
170
     0
171
     0
290
     0
174
     0
 93
       13
 44
0.0
173
     0
291
     1
 45
0.0
1001
ACAD
1000
AcDbSavedByObjectVersion
1070
     0
  0
VISUALSTYLE
  5
919
102
{ACAD_XDICTIONARY
360
96A
102
}
102
{ACAD_REACTORS
330
916
102
}
330
916
100
AcDbVisualStyle
  2
Gouraud
 70
     2
 71
     2
 72
     2
 73
     1
 90
        2
 40
-0.6
 41
30.0
 62
     5
 63
     7
 74
     0
 91
        4
 64
     7
 65
   257
 75
     1
175
     1
 42
1.0
 92
        0
 66
     7
 43
1.0
 76
     1
 77
     6
 78
     2
 67
     7
 79
     5
170
     0
171
     0
290
     0
174
     0
 93
       13
 44
0.0
173
     0
291
     1
 45
0.0
1001
ACAD
1000
AcDbSavedByObjectVersion
1070
     0
  0
VISUALSTYLE
  5
91A
102
{ACAD_XDICTIONARY
360
96C
102
}
102
{ACAD_REACTORS
330
916
102
}
330
916
100
AcDbVisualStyle
  2
GouraudWithEdges
 70
     3
 71
     2
 72
     2
 73
     1
 90
        2
 40
-0.6
 41
30.0
 62
     5
 63
     7
 74
     1
 91
        4
 64
     7
 65
   257
 75
     1
175
     1
 42
1.0
 92
        0
 66
   257
 43
1.0
 76
     1
 77
     6
 78
     2
 67
     7
 79
     5
170
     0
171
     0
290
     0
174
     0
 93
       13
 44
0.0
173
     0
291
     1
 45
0.0
1001
ACAD
1000
AcDbSavedByObjectVersion
1070
     0
  0
VISUALSTYLE
  5
927
102
{ACAD_XDICTIONARY
360
986
102
}
102
{ACAD_REACTORS
330
916
102
}
330
916
100
AcDbVisualStyle
  2
JitterOff
 70
    20
 71
     2
 72
     2
 73
     0
 90
        0
 40
-0.6
 41
-30.0
 62
     5
 63
     7
 74
     1
 91
        4
 64
     7
 65
   257
 75
     1
175
     1
 42
1.0
 92
       10
 66
     7
 43
1.0
 76
     1
 77
     6
 78
     2
 67
     7
 79
     5
170
     0
171
     0
290
     0
174
     0
 93
        1
 44
0.0
173
     0
291
     1
 45
0.0
1001
ACAD
1000
AcDbSavedByObjectVersion
1070
     0
  0
VISUALSTYLE
  5
924
102
{ACAD_XDICTIONARY
360
980
102
}
102
{ACAD_REACTORS
330
916
102
}
330
916
100
AcDbVisualStyle
  2
Linepattern
 70
    14
 71
     2
 72
     2
 73
     0
 90
        0
 40
-0.6
 41
-30.0
 62
     5
 63
     7
 74
     1
 91
        4
 64
     7
 65
   257
 75
     7
175
     7
 42
1.0
 92
        8
 66
     7
 43
1.0
 76
     1
 77
     6
 78
     2
 67
     7
 79
     5
170
     0
171
     0
290
     0
174
     0
 93
        1
 44
0.0
173
     0
291
     1
 45
0.0
1001
ACAD
1000
AcDbSavedByObjectVersion
1070
     0
  0
VISUALSTYLE
  5
928
102
{ACAD_XDICTIONARY
360
988
102
}
102
{ACAD_REACTORS
330
916
102
}
330
916
100
AcDbVisualStyle
  2
OverhangOff
 70
    21
 71
     2
 72
     2
 73
     0
 90
        0
 40
-0.6
 41
-30.0
 62
     5
 63
     7
 74
     1
 91
        4
 64
     7
 65
   257
 75
     1
175
     1
 42
1.0
 92
        9
 66
     7
 43
1.0
 76
     1
 77
     6
 78
     2
 67
     7
 79
     5
170
     0
171
     0
290
     0
174
     0
 93
        1
 44
0.0
173
     0
291
     1
 45
0.0
1001
ACAD
1000
AcDbSavedByObjectVersion
1070
     0
  0
VISUALSTYLE
  5
920
102
{ACAD_XDICTIONARY
360
978
102
}
102
{ACAD_REACTORS
330
916
102
}
330
916
100
AcDbVisualStyle
  2
Realistic
 70
     8
 71
     2
 72
     2
 73
     0
 90
        0
 40
-0.6
 41
-30.0
 62
     5
 63
     7
 74
     1
 91
        0
 64
     7
 65
   257
 75
     1
175
     1
 42
1.0
 92
        8
 66
     8
 43
1.0
 76
     1
 77
     6
 78
     2
 67
     7
 79
     5
170
     0
171
     0
290
     0
174
     0
 93
       13
 44
0.0
173
     0
291
     0
 45
0.0
1001
ACAD
1000
AcDbSavedByObjectVersion
1070
     0
  0
VISUALSTYLE
  5
923
102
{ACAD_XDICTIONARY
360
97E
102
}
102
{ACAD_REACTORS
330
916
102
}
330
916
100
AcDbVisualStyle
  2
Thicken
 70
    13
 71
     2
 72
     2
 73
     0
 90
        0
 40
-0.6
 41
-30.0
 62
     5
 63
     7
 74
     1
 91
        4
 64
     7
 65
   257
 75
     1
175
     1
 42
1.0
 92
       12
 66
     7
 43
1.0
 76
     1
 77
     6
 78
     2
 67
     7
 79
     5
170
     0
171
     0
290
     0
174
     0
 93
        1
 44
0.0
173
     0
291
     1
 45
0.0
1001
ACAD
1000
AcDbSavedByObjectVersion
1070
     0
  0
DICTIONARYVAR
  5
952
102
{ACAD_REACTORS
330
30
102
}
330
30
100
DictionaryVariables
280
     0
  1
1:1
  0
DICTIONARYVAR
  5
951
102
{ACAD_REACTORS
330
30
102
}
330
30
100
DictionaryVariables
280
     0
  1
STANDARD
  0
DICTIONARYVAR
  5
31
102
{ACAD_REACTORS
330
30
102
}
330
30
100
DictionaryVariables
280
     0
  1
STANDARD
  0
DICTIONARYVAR
  5
8E7
102
{ACAD_REACTORS
330
30
102
}
330
30
100
DictionaryVariables
280
     0
  1
2
  0
DICTIONARYVAR
  5
8E6
102
{ACAD_REACTORS
330
30
102
}
330
30
100
DictionaryVariables
280
     0
  1
1
  0
DICTIONARYVAR
  5
954
102
{ACAD_REACTORS
330
30
102
}
330
30
100
DictionaryVariables
280
     0
  1
0
  0
DICTIONARYVAR
  5
8E8
102
{ACAD_REACTORS
330
30
102
}
330
30
100
DictionaryVariables
280
     0
  1

  0
DICTIONARYVAR
  5
953
102
{ACAD_REACTORS
330
30
102
}
330
30
100
DictionaryVariables
280
     0
  1
127
  0
DICTIONARYVAR
  5
955
102
{ACAD_REACTORS
330
30
102
}
330
30
100
DictionaryVariables
280
     0
  1
2
  0
DICTIONARY
  5
95D
330
22
100
AcDbDictionary
280
     1
281
     1
  3
ACAD_XREC_ROUNDTRIP
360
95E
  0
DICTIONARY
  5
961
330
2A
100
AcDbDictionary
280
     1
281
     1
  3
ACAD_XREC_ROUNDTRIP
360
962
  0
DICTIONARY
  5
95F
330
26
100
AcDbDictionary
280
     1
281
     1
  3
ACAD_XREC_ROUNDTRIP
360
960
  0
DICTIONARY
  5
907
330
906
100
AcDbDictionary
280
     1
281
     1
  3
ACAD_XREC_ROUNDTRIP
360
964
  3
BUMPTILE
360
909
  3
DIFFUSETILE
360
908
  3
OPACITYTILE
360
90C
  3
REFLECTIONTILE
360
90B
  3
REFRACTIONTILE
360
90D
  3
SPECULARTILE
360
90A
  0
DICTIONARY
  5
8FF
330
8FE
100
AcDbDictionary
280
     1
281
     1
  3
ACAD_XREC_ROUNDTRIP
360
963
  3
BUMPTILE
360
901
  3
DIFFUSETILE
360
900
  3
OPACITYTILE
360
904
  3
REFLECTIONTILE
360
903
  3
REFRACTIONTILE
360
905
  3
SPECULARTILE
360
902
  0
DICTIONARY
  5
90F
330
90E
100
AcDbDictionary
280
     1
281
     1
  3
ACAD_XREC_ROUNDTRIP
360
965
  3
BUMPTILE
360
911
  3
DIFFUSETILE
360
910
  3
OPACITYTILE
360
914
  3
REFLECTIONTILE
360
913
  3
REFRACTIONTILE
360
915
  3
SPECULARTILE
360
912
  0
DICTIONARY
  5
956
330
1E
100
AcDbDictionary
280
     1
281
     1
  3
ACAD_ROUNDTRIP_2008_TABLESTYLE_CELLSTYLEMAP
360
957
  3
ACAD_XREC_ROUNDTRIP
360
95C
  0
DICTIONARY
  5
970
330
91C
100
AcDbDictionary
280
     1
281
     1
  3
ACAD_XREC_ROUNDTRIP
360
971
  0
DICTIONARY
  5
974
330
91E
100
AcDbDictionary
280
     1
281
     1
  3
ACAD_XREC_ROUNDTRIP
360
975
  0
DICTIONARY
  5
972
330
91D
100
AcDbDictionary
280
     1
281
     1
  3
ACAD_XREC_ROUNDTRIP
360
973
  0
DICTIONARY
  5
96E
330
91B
100
AcDbDictionary
280
     1
281
     1
  3
ACAD_XREC_ROUNDTRIP
360
96F
  0
DICTIONARY
  5
97C
330
922
100
AcDbDictionary
280
     1
281
     1
  3
ACAD_XREC_ROUNDTRIP
360
97D
  0
DICTIONARY
  5
984
330
926
100
AcDbDictionary
280
     1
281
     1
  3
ACAD_XREC_ROUNDTRIP
360
985
  0
DICTIONARY
  5
976
330
91F
100
AcDbDictionary
280
     1
281
     1
  3
ACAD_XREC_ROUNDTRIP
360
977
  0
DICTIONARY
  5
97A
330
921
100
AcDbDictionary
280
     1
281
     1
  3
ACAD_XREC_ROUNDTRIP
360
97B
  0
DICTIONARY
  5
98A
330
929
100
AcDbDictionary
280
     1
281
     1
  3
ACAD_XREC_ROUNDTRIP
360
98B
  0
DICTIONARY
  5
982
330
925
100
AcDbDictionary
280
     1
281
     1
  3
ACAD_XREC_ROUNDTRIP
360
983
  0
DICTIONARY
  5
966
330
917
100
AcDbDictionary
280
     1
281
     1
  3
ACAD_XREC_ROUNDTRIP
360
967
  0
DICTIONARY
  5
968
330
918
100
AcDbDictionary
280
     1
281
     1
  3
ACAD_XREC_ROUNDTRIP
360
969
  0
DICTIONARY
  5
96A
330
919
100
AcDbDictionary
280
     1
281
     1
  3
ACAD_XREC_ROUNDTRIP
360
96B
  0
DICTIONARY
  5
96C
330
91A
100
AcDbDictionary
280
     1
281
     1
  3
ACAD_XREC_ROUNDTRIP
360
96D
  0
DICTIONARY
  5
986
330
927
100
AcDbDictionary
280
     1
281
     1
  3
ACAD_XREC_ROUNDTRIP
360
987
  0
DICTIONARY
  5
980
330
924
100
AcDbDictionary
280
     1
281
     1
  3
ACAD_XREC_ROUNDTRIP
360
981
  0
DICTIONARY
  5
988
330
928
100
AcDbDictionary
280
     1
281
     1
  3
ACAD_XREC_ROUNDTRIP
360
989
  0
DICTIONARY
  5
978
330
920
100
AcDbDictionary
280
     1
281
     1
  3
ACAD_XREC_ROUNDTRIP
360
979
  0
DICTIONARY
  5
97E
330
923
100
AcDbDictionary
280
     1
281
     1
  3
ACAD_XREC_ROUNDTRIP
360
97F
  0
XRECORD
  5
95E
102
{ACAD_REACTORS
330
95D
102
}
330
95D
100
AcDbXrecord
280
     1
102
SHADEPLOT
 70
     0
102
SHADEPLOTRESLEVEL
 70
     2
102
SHADEPLOTCUSTOMDPI
 70
   300
  0
XRECORD
  5
962
102
{ACAD_REACTORS
330
961
102
}
330
961
100
AcDbXrecord
280
     1
102
SHADEPLOT
 70
     0
102
SHADEPLOTRESLEVEL
 70
     2
102
SHADEPLOTCUSTOMDPI
 70
   300
  0
XRECORD
  5
960
102
{ACAD_REACTORS
330
95F
102
}
330
95F
100
AcDbXrecord
280
     1
102
SHADEPLOT
 70
     0
102
SHADEPLOTRESLEVEL
 70
     2
102
SHADEPLOTCUSTOMDPI
 70
   300
  0
XRECORD
  5
964
102
{ACAD_REACTORS
330
907
102
}
330
907
100
AcDbXrecord
280
     1
102
MATERIAL
148
0.0
149
0.0
149
0.0
 93
        0
 94
      127
282
     0
 72
     0
 77
     0
171
     0
175
     0
179
     0
273
     0
  0
XRECORD
  5
909
102
{ACAD_REACTORS
330
907
102
}
330
907
100
AcDbXrecord
280
     1
270
     1
271
     1
  0
XRECORD
  5
908
102
{ACAD_REACTORS
330
907
102
}
330
907
100
AcDbXrecord
280
     1
270
     1
271
     1
  0
XRECORD
  5
90C
102
{ACAD_REACTORS
330
907
102
}
330
907
100
AcDbXrecord
280
     1
270
     1
271
     1
  0
XRECORD
  5
90B
102
{ACAD_REACTORS
330
907
102
}
330
907
100
AcDbXrecord
280
     1
270
     1
271
     1
  0
XRECORD
  5
90D
102
{ACAD_REACTORS
330
907
102
}
330
907
100
AcDbXrecord
280
     1
270
     1
271
     1
  0
XRECORD
  5
90A
102
{ACAD_REACTORS
330
907
102
}
330
907
100
AcDbXrecord
280
     1
270
     1
271
     1
  0
XRECORD
  5
963
102
{ACAD_REACTORS
330
8FF
102
}
330
8FF
100
AcDbXrecord
280
     1
102
MATERIAL
148
0.0
149
0.0
149
0.0
 93
        0
 94
      127
282
     0
 72
     0
 77
     0
171
     0
175
     0
179
     0
273
     0
  0
XRECORD
  5
901
102
{ACAD_REACTORS
330
8FF
102
}
330
8FF
100
AcDbXrecord
280
     1
270
     1
271
     1
  0
XRECORD
  5
900
102
{ACAD_REACTORS
330
8FF
102
}
330
8FF
100
AcDbXrecord
280
     1
270
     1
271
     1
  0
XRECORD
  5
904
102
{ACAD_REACTORS
330
8FF
102
}
330
8FF
100
AcDbXrecord
280
     1
270
     1
271
     1
  0
XRECORD
  5
903
102
{ACAD_REACTORS
330
8FF
102
}
330
8FF
100
AcDbXrecord
280
     1
270
     1
271
     1
  0
XRECORD
  5
905
102
{ACAD_REACTORS
330
8FF
102
}
330
8FF
100
AcDbXrecord
280
     1
270
     1
271
     1
  0
XRECORD
  5
902
102
{ACAD_REACTORS
330
8FF
102
}
330
8FF
100
AcDbXrecord
280
     1
270
     1
271
     1
  0
XRECORD
  5
965
102
{ACAD_REACTORS
330
90F
102
}
330
90F
100
AcDbXrecord
280
     1
102
MATERIAL
148
0.0
149
0.0
149
0.0
 93
        0
 94
      127
282
     0
 72
     0
 77
     0
171
     0
175
     0
179
     0
273
     0
  0
XRECORD
  5
911
102
{ACAD_REACTORS
330
90F
102
}
330
90F
100
AcDbXrecord
280
     1
270
     1
271
     1
  0
XRECORD
  5
910
102
{ACAD_REACTORS
330
90F
102
}
330
90F
100
AcDbXrecord
280
     1
270
     1
271
     1
  0
XRECORD
  5
914
102
{ACAD_REACTORS
330
90F
102
}
330
90F
100
AcDbXrecord
280
     1
270
     1
271
     1
  0
XRECORD
  5
913
102
{ACAD_REACTORS
330
90F
102
}
330
90F
100
AcDbXrecord
280
     1
270
     1
271
     1
  0
XRECORD
  5
915
102
{ACAD_REACTORS
330
90F
102
}
330
90F
100
AcDbXrecord
280
     1
270
     1
271
     1
  0
XRECORD
  5
912
102
{ACAD_REACTORS
330
90F
102
}
330
90F
100
AcDbXrecord
280
     1
270
     1
271
     1
  0
CELLSTYLEMAP
  5
957
102
{ACAD_REACTORS
330
956
102
}
330
956
100
AcDbCellStyleMap
 90
        3
300
CELLSTYLE
  1
TABLEFORMAT_BEGIN
 90
        5
170
     1
 91
        0
 92
    32768
 62
   257
 93
        1
300
CONTENTFORMAT
  1
CONTENTFORMAT_BEGIN
 90
        0
 91
        0
 92
        4
 93
        0
300

 40
0.0
140
1.0
 94
        5
 62
     0
340
11
144
6.0
309
CONTENTFORMAT_END
171
     1
301
MARGIN
  1
CELLMARGIN_BEGIN
 40
1.5
 40
1.5
 40
1.5
 40
1.5
 40
0.18
 40
0.18
309
CELLMARGIN_END
 94
        6
 95
        1
302
GRIDFORMAT
  1
GRIDFORMAT_BEGIN
 90
        0
 91
        1
 62
     0
 92
       -2
340
0
 93
        0
 40
0.045
309
GRIDFORMAT_END
 95
        2
302
GRIDFORMAT
  1
GRIDFORMAT_BEGIN
 90
        0
 91
        1
 62
     0
 92
       -2
340
0
 93
        0
 40
0.045
309
GRIDFORMAT_END
 95
        4
302
GRIDFORMAT
  1
GRIDFORMAT_BEGIN
 90
        0
 91
        1
 62
     0
 92
       -2
340
0
 93
        0
 40
0.045
309
GRIDFORMAT_END
 95
        8
302
GRIDFORMAT
  1
GRIDFORMAT_BEGIN
 90
        0
 91
        1
 62
     0
 92
       -2
340
0
 93
        0
 40
0.045
309
GRIDFORMAT_END
 95
       16
302
GRIDFORMAT
  1
GRIDFORMAT_BEGIN
 90
        0
 91
        1
 62
     0
 92
       -2
340
0
 93
        0
 40
0.045
309
GRIDFORMAT_END
 95
       32
302
GRIDFORMAT
  1
GRIDFORMAT_BEGIN
 90
        0
 91
        1
 62
     0
 92
       -2
340
0
 93
        0
 40
0.045
309
GRIDFORMAT_END
309
TABLEFORMAT_END
  1
CELLSTYLE_BEGIN
 90
        1
 91
        1
300
_TITLE
309
CELLSTYLE_END
300
CELLSTYLE
  1
TABLEFORMAT_BEGIN
 90
        5
170
     1
 91
        0
 92
        0
 62
   257
 93
        1
300
CONTENTFORMAT
  1
CONTENTFORMAT_BEGIN
 90
        0
 91
        0
 92
        4
 93
        0
300

 40
0.0
140
1.0
 94
        5
 62
     0
340
11
144
4.5
309
CONTENTFORMAT_END
171
     1
301
MARGIN
  1
CELLMARGIN_BEGIN
 40
1.5
 40
1.5
 40
1.5
 40
1.5
 40
0.18
 40
0.18
309
CELLMARGIN_END
 94
        6
 95
        1
302
GRIDFORMAT
  1
GRIDFORMAT_BEGIN
 90
        0
 91
        1
 62
     0
 92
       -2
340
0
 93
        0
 40
0.045
309
GRIDFORMAT_END
 95
        2
302
GRIDFORMAT
  1
GRIDFORMAT_BEGIN
 90
        0
 91
        1
 62
     0
 92
       -2
340
0
 93
        0
 40
0.045
309
GRIDFORMAT_END
 95
        4
302
GRIDFORMAT
  1
GRIDFORMAT_BEGIN
 90
        0
 91
        1
 62
     0
 92
       -2
340
0
 93
        0
 40
0.045
309
GRIDFORMAT_END
 95
        8
302
GRIDFORMAT
  1
GRIDFORMAT_BEGIN
 90
        0
 91
        1
 62
     0
 92
       -2
340
0
 93
        0
 40
0.045
309
GRIDFORMAT_END
 95
       16
302
GRIDFORMAT
  1
GRIDFORMAT_BEGIN
 90
        0
 91
        1
 62
     0
 92
       -2
340
0
 93
        0
 40
0.045
309
GRIDFORMAT_END
 95
       32
302
GRIDFORMAT
  1
GRIDFORMAT_BEGIN
 90
        0
 91
        1
 62
     0
 92
       -2
340
0
 93
        0
 40
0.045
309
GRIDFORMAT_END
309
TABLEFORMAT_END
  1
CELLSTYLE_BEGIN
 90
        2
 91
        1
300
_HEADER
309
CELLSTYLE_END
300
CELLSTYLE
  1
TABLEFORMAT_BEGIN
 90
        5
170
     1
 91
        0
 92
        0
 62
   257
 93
        1
300
CONTENTFORMAT
  1
CONTENTFORMAT_BEGIN
 90
        0
 91
        0
 92
        4
 93
        0
300

 40
0.0
140
1.0
 94
        2
 62
     0
340
11
144
4.5
309
CONTENTFORMAT_END
171
     1
301
MARGIN
  1
CELLMARGIN_BEGIN
 40
1.5
 40
1.5
 40
1.5
 40
1.5
 40
0.18
 40
0.18
309
CELLMARGIN_END
 94
        6
 95
        1
302
GRIDFORMAT
  1
GRIDFORMAT_BEGIN
 90
        0
 91
        1
 62
     0
 92
       -2
340
0
 93
        0
 40
0.045
309
GRIDFORMAT_END
 95
        2
302
GRIDFORMAT
  1
GRIDFORMAT_BEGIN
 90
        0
 91
        1
 62
     0
 92
       -2
340
0
 93
        0
 40
0.045
309
GRIDFORMAT_END
 95
        4
302
GRIDFORMAT
  1
GRIDFORMAT_BEGIN
 90
        0
 91
        1
 62
     0
 92
       -2
340
0
 93
        0
 40
0.045
309
GRIDFORMAT_END
 95
        8
302
GRIDFORMAT
  1
GRIDFORMAT_BEGIN
 90
        0
 91
        1
 62
     0
 92
       -2
340
0
 93
        0
 40
0.045
309
GRIDFORMAT_END
 95
       16
302
GRIDFORMAT
  1
GRIDFORMAT_BEGIN
 90
        0
 91
        1
 62
     0
 92
       -2
340
0
 93
        0
 40
0.045
309
GRIDFORMAT_END
 95
       32
302
GRIDFORMAT
  1
GRIDFORMAT_BEGIN
 90
        0
 91
        1
 62
     0
 92
       -2
340
0
 93
        0
 40
0.045
309
GRIDFORMAT_END
309
TABLEFORMAT_END
  1
CELLSTYLE_BEGIN
 90
        3
 91
        2
300
_DATA
309
CELLSTYLE_END
  0
XRECORD
  5
95C
102
{ACAD_REACTORS
330
956
102
}
330
956
100
AcDbXrecord
280
     1
102
ACAD_ROUNDTRIP_PRE2007_TABLESTYLE
 90
        4
 91
        0
  1

 92
        4
 93
        0
  2

 94
        4
 95
        0
  3

  0
XRECORD
  5
971
102
{ACAD_REACTORS
330
970
102
}
330
970
100
AcDbXrecord
280
     1
102
RTVSPropertyOp0
 70
     1
102
RTVSPropertyOp1
 70
     1
102
RTVSPropertyOp2
 70
     1
102
RTVSPropertyOp3
 70
     1
102
RTVSPropertyOp4
 70
     1
102
RTVSPropertyOp5
 70
     1
102
RTVSPropertyOp6
 70
     1
102
RTVSPropertyOp7
 70
     1
102
RTVSPropertyOp8
 70
     1
102
RTVSPropertyOp9
 70
     1
102
RTVSPropertyOp10
 70
     1
102
RTVSPropertyOp11
 70
     1
102
RTVSPropertyOp12
 70
     1
102
RTVSPropertyOp13
 70
     1
102
RTVSPropertyOp14
 70
     1
102
RTVSPropertyOp15
 70
     1
102
RTVSPropertyOp16
 70
     1
102
RTVSPropertyOp17
 70
     1
102
RTVSPropertyOp18
 70
     1
102
RTVSPropertyOp19
 70
     1
102
RTVSPropertyOp20
 70
     1
102
RTVSPropertyOp21
 70
     1
102
RTVSPropertyOp22
 70
     1
102
RTVSPropertyOp23
 70
     1
102
RTVSPropertyOp24
 70
     1
102
RTVSPropertyOp25
 70
     1
102
RTVSPropertyOp26
 70
     1
102
RTVSPropertyOp27
 70
     1
  0
XRECORD
  5
975
102
{ACAD_REACTORS
330
974
102
}
330
974
100
AcDbXrecord
280
     1
102
RTVSPropertyOp0
 70
     1
102
RTVSPropertyOp1
 70
     1
102
RTVSPropertyOp2
 70
     1
102
RTVSPropertyOp3
 70
     1
102
RTVSPropertyOp4
 70
     1
102
RTVSPropertyOp5
 70
     1
102
RTVSPropertyOp6
 70
     1
102
RTVSPropertyOp7
 70
     1
102
RTVSPropertyOp8
 70
     1
102
RTVSPropertyOp9
 70
     1
102
RTVSPropertyOp10
 70
     1
102
RTVSPropertyOp11
 70
     1
102
RTVSPropertyOp12
 70
     1
102
RTVSPropertyOp13
 70
     1
102
RTVSPropertyOp14
 70
     1
102
RTVSPropertyOp15
 70
     1
102
RTVSPropertyOp16
 70
     1
102
RTVSPropertyOp17
 70
     1
102
RTVSPropertyOp18
 70
     1
102
RTVSPropertyOp19
 70
     1
102
RTVSPropertyOp20
 70
     1
102
RTVSPropertyOp21
 70
     1
102
RTVSPropertyOp22
 70
     1
102
RTVSPropertyOp23
 70
     1
102
RTVSPropertyOp24
 70
     1
102
RTVSPropertyOp25
 70
     1
102
RTVSPropertyOp26
 70
     1
102
RTVSPropertyOp27
 70
     1
  0
XRECORD
  5
973
102
{ACAD_REACTORS
330
972
102
}
330
972
100
AcDbXrecord
280
     1
102
RTVSPropertyOp0
 70
     1
102
RTVSPropertyOp1
 70
     1
102
RTVSPropertyOp2
 70
     1
102
RTVSPropertyOp3
 70
     1
102
RTVSPropertyOp4
 70
     1
102
RTVSPropertyOp5
 70
     1
102
RTVSPropertyOp6
 70
     1
102
RTVSPropertyOp7
 70
     1
102
RTVSPropertyOp8
 70
     1
102
RTVSPropertyOp9
 70
     1
102
RTVSPropertyOp10
 70
     1
102
RTVSPropertyOp11
 70
     1
102
RTVSPropertyOp12
 70
     1
102
RTVSPropertyOp13
 70
     1
102
RTVSPropertyOp14
 70
     1
102
RTVSPropertyOp15
 70
     1
102
RTVSPropertyOp16
 70
     1
102
RTVSPropertyOp17
 70
     1
102
RTVSPropertyOp18
 70
     1
102
RTVSPropertyOp19
 70
     1
102
RTVSPropertyOp20
 70
     1
102
RTVSPropertyOp21
 70
     1
102
RTVSPropertyOp22
 70
     1
102
RTVSPropertyOp23
 70
     1
102
RTVSPropertyOp24
 70
     1
102
RTVSPropertyOp25
 70
     1
102
RTVSPropertyOp26
 70
     1
102
RTVSPropertyOp27
 70
     1
  0
XRECORD
  5
96F
102
{ACAD_REACTORS
330
96E
102
}
330
96E
100
AcDbXrecord
280
     1
102
RTVSPropertyOp0
 70
     1
102
RTVSPropertyOp1
 70
     1
102
RTVSPropertyOp2
 70
     1
102
RTVSPropertyOp3
 70
     1
102
RTVSPropertyOp4
 70
     1
102
RTVSPropertyOp5
 70
     1
102
RTVSPropertyOp6
 70
     1
102
RTVSPropertyOp7
 70
     1
102
RTVSPropertyOp8
 70
     1
102
RTVSPropertyOp9
 70
     1
102
RTVSPropertyOp10
 70
     1
102
RTVSPropertyOp11
 70
     1
102
RTVSPropertyOp12
 70
     1
102
RTVSPropertyOp13
 70
     1
102
RTVSPropertyOp14
 70
     1
102
RTVSPropertyOp15
 70
     1
102
RTVSPropertyOp16
 70
     1
102
RTVSPropertyOp17
 70
     1
102
RTVSPropertyOp18
 70
     1
102
RTVSPropertyOp19
 70
     1
102
RTVSPropertyOp20
 70
     1
102
RTVSPropertyOp21
 70
     1
102
RTVSPropertyOp22
 70
     1
102
RTVSPropertyOp23
 70
     1
102
RTVSPropertyOp24
 70
     1
102
RTVSPropertyOp25
 70
     1
102
RTVSPropertyOp26
 70
     1
102
RTVSPropertyOp27
 70
     1
  0
XRECORD
  5
97D
102
{ACAD_REACTORS
330
97C
102
}
330
97C
100
AcDbXrecord
280
     1
102
RTVSPropertyOp0
 70
     1
102
RTVSPropertyOp1
 70
     1
102
RTVSPropertyOp2
 70
     1
102
RTVSPropertyOp3
 70
     1
102
RTVSPropertyOp4
 70
     1
102
RTVSPropertyOp5
 70
     1
102
RTVSPropertyOp6
 70
     1
102
RTVSPropertyOp7
 70
     1
102
RTVSPropertyOp8
 70
     1
102
RTVSPropertyOp9
 70
     1
102
RTVSPropertyOp10
 70
     1
102
RTVSPropertyOp11
 70
     1
102
RTVSPropertyOp12
 70
     1
102
RTVSPropertyOp13
 70
     1
102
RTVSPropertyOp14
 70
     1
102
RTVSPropertyOp15
 70
     1
102
RTVSPropertyOp16
 70
     1
102
RTVSPropertyOp17
 70
     1
102
RTVSPropertyOp18
 70
     1
102
RTVSPropertyOp19
 70
     1
102
RTVSPropertyOp20
 70
     1
102
RTVSPropertyOp21
 70
     1
102
RTVSPropertyOp22
 70
     1
102
RTVSPropertyOp23
 70
     1
102
RTVSPropertyOp24
 70
     1
102
RTVSPropertyOp25
 70
     1
102
RTVSPropertyOp26
 70
     1
102
RTVSPropertyOp27
 70
     1
  0
XRECORD
  5
985
102
{ACAD_REACTORS
330
984
102
}
330
984
100
AcDbXrecord
280
     1
102
RTVSPropertyOp0
 70
     1
102
RTVSPropertyOp1
 70
     1
102
RTVSPropertyOp2
 70
     1
102
RTVSPropertyOp3
 70
     1
102
RTVSPropertyOp4
 70
     1
102
RTVSPropertyOp5
 70
     1
102
RTVSPropertyOp6
 70
     1
102
RTVSPropertyOp7
 70
     1
102
RTVSPropertyOp8
 70
     1
102
RTVSPropertyOp9
 70
     1
102
RTVSPropertyOp10
 70
     1
102
RTVSPropertyOp11
 70
     1
102
RTVSPropertyOp12
 70
     1
102
RTVSPropertyOp13
 70
     1
102
RTVSPropertyOp14
 70
     1
102
RTVSPropertyOp15
 70
     1
102
RTVSPropertyOp16
 70
     1
102
RTVSPropertyOp17
 70
     1
102
RTVSPropertyOp18
 70
     1
102
RTVSPropertyOp19
 70
     1
102
RTVSPropertyOp20
 70
     1
102
RTVSPropertyOp21
 70
     1
102
RTVSPropertyOp22
 70
     1
102
RTVSPropertyOp23
 70
     1
102
RTVSPropertyOp24
 70
     1
102
RTVSPropertyOp25
 70
     1
102
RTVSPropertyOp26
 70
     1
102
RTVSPropertyOp27
 70
     1
  0
XRECORD
  5
977
102
{ACAD_REACTORS
330
976
102
}
330
976
100
AcDbXrecord
280
     1
102
RTVSPropertyOp0
 70
     1
102
RTVSPropertyOp1
 70
     1
102
RTVSPropertyOp2
 70
     1
102
RTVSPropertyOp3
 70
     1
102
RTVSPropertyOp4
 70
     1
102
RTVSPropertyOp5
 70
     1
102
RTVSPropertyOp6
 70
     1
102
RTVSPropertyOp7
 70
     1
102
RTVSPropertyOp8
 70
     1
102
RTVSPropertyOp9
 70
     1
102
RTVSPropertyOp10
 70
     1
102
RTVSPropertyOp11
 70
     1
102
RTVSPropertyOp12
 70
     1
102
RTVSPropertyOp13
 70
     1
102
RTVSPropertyOp14
 70
     1
102
RTVSPropertyOp15
 70
     1
102
RTVSPropertyOp16
 70
     1
102
RTVSPropertyOp17
 70
     1
102
RTVSPropertyOp18
 70
     1
102
RTVSPropertyOp19
 70
     1
102
RTVSPropertyOp20
 70
     1
102
RTVSPropertyOp21
 70
     1
102
RTVSPropertyOp22
 70
     1
102
RTVSPropertyOp23
 70
     1
102
RTVSPropertyOp24
 70
     1
102
RTVSPropertyOp25
 70
     1
102
RTVSPropertyOp26
 70
     1
102
RTVSPropertyOp27
 70
     1
  0
XRECORD
  5
97B
102
{ACAD_REACTORS
330
97A
102
}
330
97A
100
AcDbXrecord
280
     1
102
RTVSPropertyOp0
 70
     1
102
RTVSPropertyOp1
 70
     1
102
RTVSPropertyOp2
 70
     1
102
RTVSPropertyOp3
 70
     1
102
RTVSPropertyOp4
 70
     1
102
RTVSPropertyOp5
 70
     1
102
RTVSPropertyOp6
 70
     1
102
RTVSPropertyOp7
 70
     1
102
RTVSPropertyOp8
 70
     1
102
RTVSPropertyOp9
 70
     1
102
RTVSPropertyOp10
 70
     1
102
RTVSPropertyOp11
 70
     1
102
RTVSPropertyOp12
 70
     1
102
RTVSPropertyOp13
 70
     1
102
RTVSPropertyOp14
 70
     1
102
RTVSPropertyOp15
 70
     1
102
RTVSPropertyOp16
 70
     1
102
RTVSPropertyOp17
 70
     1
102
RTVSPropertyOp18
 70
     1
102
RTVSPropertyOp19
 70
     1
102
RTVSPropertyOp20
 70
     1
102
RTVSPropertyOp21
 70
     1
102
RTVSPropertyOp22
 70
     1
102
RTVSPropertyOp23
 70
     1
102
RTVSPropertyOp24
 70
     1
102
RTVSPropertyOp25
 70
     1
102
RTVSPropertyOp26
 70
     1
102
RTVSPropertyOp27
 70
     1
  0
XRECORD
  5
98B
102
{ACAD_REACTORS
330
98A
102
}
330
98A
100
AcDbXrecord
280
     1
102
RTVSPropertyOp0
 70
     0
102
RTVSPropertyOp1
 70
     0
102
RTVSPropertyOp2
 70
     0
102
RTVSPropertyOp3
 70
     0
102
RTVSPropertyOp4
 70
     0
102
RTVSPropertyOp5
 70
     0
102
RTVSPropertyOp6
 70
     0
102
RTVSPropertyOp7
 70
     0
102
RTVSPropertyOp8
 70
     0
102
RTVSPropertyOp9
 70
     0
102
RTVSPropertyOp10
 70
     0
102
RTVSPropertyOp11
 70
     0
102
RTVSPropertyOp12
 70
     0
102
RTVSPropertyOp13
 70
     0
102
RTVSPropertyOp14
 70
     2
102
RTVSPropertyOp15
 70
     0
102
RTVSPropertyOp16
 70
     0
102
RTVSPropertyOp17
 70
     0
102
RTVSPropertyOp18
 70
     0
102
RTVSPropertyOp19
 70
     0
102
RTVSPropertyOp20
 70
     0
102
RTVSPropertyOp21
 70
     0
102
RTVSPropertyOp22
 70
     0
102
RTVSPropertyOp23
 70
     0
102
RTVSPropertyOp24
 70
     0
102
RTVSPropertyOp25
 70
     0
102
RTVSPropertyOp26
 70
     0
102
RTVSPropertyOp27
 70
     0
  0
XRECORD
  5
983
102
{ACAD_REACTORS
330
982
102
}
330
982
100
AcDbXrecord
280
     1
102
RTVSPropertyOp0
 70
     1
102
RTVSPropertyOp1
 70
     1
102
RTVSPropertyOp2
 70
     1
102
RTVSPropertyOp3
 70
     1
102
RTVSPropertyOp4
 70
     1
102
RTVSPropertyOp5
 70
     1
102
RTVSPropertyOp6
 70
     1
102
RTVSPropertyOp7
 70
     1
102
RTVSPropertyOp8
 70
     1
102
RTVSPropertyOp9
 70
     1
102
RTVSPropertyOp10
 70
     1
102
RTVSPropertyOp11
 70
     1
102
RTVSPropertyOp12
 70
     1
102
RTVSPropertyOp13
 70
     1
102
RTVSPropertyOp14
 70
     1
102
RTVSPropertyOp15
 70
     1
102
RTVSPropertyOp16
 70
     1
102
RTVSPropertyOp17
 70
     1
102
RTVSPropertyOp18
 70
     1
102
RTVSPropertyOp19
 70
     1
102
RTVSPropertyOp20
 70
     1
102
RTVSPropertyOp21
 70
     1
102
RTVSPropertyOp22
 70
     1
102
RTVSPropertyOp23
 70
     1
102
RTVSPropertyOp24
 70
     1
102
RTVSPropertyOp25
 70
     1
102
RTVSPropertyOp26
 70
     1
102
RTVSPropertyOp27
 70
     1
  0
XRECORD
  5
967
102
{ACAD_REACTORS
330
966
102
}
330
966
100
AcDbXrecord
280
     1
102
RTVSPropertyOp0
 70
     1
102
RTVSPropertyOp1
 70
     1
102
RTVSPropertyOp2
 70
     1
102
RTVSPropertyOp3
 70
     1
102
RTVSPropertyOp4
 70
     1
102
RTVSPropertyOp5
 70
     1
102
RTVSPropertyOp6
 70
     1
102
RTVSPropertyOp7
 70
     1
102
RTVSPropertyOp8
 70
     1
102
RTVSPropertyOp9
 70
     1
102
RTVSPropertyOp10
 70
     1
102
RTVSPropertyOp11
 70
     1
102
RTVSPropertyOp12
 70
     1
102
RTVSPropertyOp13
 70
     1
102
RTVSPropertyOp14
 70
     1
102
RTVSPropertyOp15
 70
     1
102
RTVSPropertyOp16
 70
     1
102
RTVSPropertyOp17
 70
     1
102
RTVSPropertyOp18
 70
     1
102
RTVSPropertyOp19
 70
     1
102
RTVSPropertyOp20
 70
     1
102
RTVSPropertyOp21
 70
     1
102
RTVSPropertyOp22
 70
     1
102
RTVSPropertyOp23
 70
     1
102
RTVSPropertyOp24
 70
     1
102
RTVSPropertyOp25
 70
     1
102
RTVSPropertyOp26
 70
     1
102
RTVSPropertyOp27
 70
     1
  0
XRECORD
  5
969
102
{ACAD_REACTORS
330
968
102
}
330
968
100
AcDbXrecord
280
     1
102
RTVSPropertyOp0
 70
     1
102
RTVSPropertyOp1
 70
     1
102
RTVSPropertyOp2
 70
     1
102
RTVSPropertyOp3
 70
     1
102
RTVSPropertyOp4
 70
     1
102
RTVSPropertyOp5
 70
     1
102
RTVSPropertyOp6
 70
     1
102
RTVSPropertyOp7
 70
     1
102
RTVSPropertyOp8
 70
     1
102
RTVSPropertyOp9
 70
     1
102
RTVSPropertyOp10
 70
     1
102
RTVSPropertyOp11
 70
     1
102
RTVSPropertyOp12
 70
     1
102
RTVSPropertyOp13
 70
     1
102
RTVSPropertyOp14
 70
     1
102
RTVSPropertyOp15
 70
     1
102
RTVSPropertyOp16
 70
     1
102
RTVSPropertyOp17
 70
     1
102
RTVSPropertyOp18
 70
     1
102
RTVSPropertyOp19
 70
     1
102
RTVSPropertyOp20
 70
     1
102
RTVSPropertyOp21
 70
     1
102
RTVSPropertyOp22
 70
     1
102
RTVSPropertyOp23
 70
     1
102
RTVSPropertyOp24
 70
     1
102
RTVSPropertyOp25
 70
     1
102
RTVSPropertyOp26
 70
     1
102
RTVSPropertyOp27
 70
     1
  0
XRECORD
  5
96B
102
{ACAD_REACTORS
330
96A
102
}
330
96A
100
AcDbXrecord
280
     1
102
RTVSPropertyOp0
 70
     1
102
RTVSPropertyOp1
 70
     1
102
RTVSPropertyOp2
 70
     1
102
RTVSPropertyOp3
 70
     1
102
RTVSPropertyOp4
 70
     1
102
RTVSPropertyOp5
 70
     1
102
RTVSPropertyOp6
 70
     1
102
RTVSPropertyOp7
 70
     1
102
RTVSPropertyOp8
 70
     1
102
RTVSPropertyOp9
 70
     1
102
RTVSPropertyOp10
 70
     1
102
RTVSPropertyOp11
 70
     1
102
RTVSPropertyOp12
 70
     1
102
RTVSPropertyOp13
 70
     1
102
RTVSPropertyOp14
 70
     1
102
RTVSPropertyOp15
 70
     1
102
RTVSPropertyOp16
 70
     1
102
RTVSPropertyOp17
 70
     1
102
RTVSPropertyOp18
 70
     1
102
RTVSPropertyOp19
 70
     1
102
RTVSPropertyOp20
 70
     1
102
RTVSPropertyOp21
 70
     1
102
RTVSPropertyOp22
 70
     1
102
RTVSPropertyOp23
 70
     1
102
RTVSPropertyOp24
 70
     1
102
RTVSPropertyOp25
 70
     1
102
RTVSPropertyOp26
 70
     1
102
RTVSPropertyOp27
 70
     1
  0
XRECORD
  5
96D
102
{ACAD_REACTORS
330
96C
102
}
330
96C
100
AcDbXrecord
280
     1
102
RTVSPropertyOp0
 70
     1
102
RTVSPropertyOp1
 70
     1
102
RTVSPropertyOp2
 70
     1
102
RTVSPropertyOp3
 70
     1
102
RTVSPropertyOp4
 70
     1
102
RTVSPropertyOp5
 70
     1
102
RTVSPropertyOp6
 70
     1
102
RTVSPropertyOp7
 70
     1
102
RTVSPropertyOp8
 70
     1
102
RTVSPropertyOp9
 70
     1
102
RTVSPropertyOp10
 70
     1
102
RTVSPropertyOp11
 70
     1
102
RTVSPropertyOp12
 70
     1
102
RTVSPropertyOp13
 70
     1
102
RTVSPropertyOp14
 70
     1
102
RTVSPropertyOp15
 70
     1
102
RTVSPropertyOp16
 70
     1
102
RTVSPropertyOp17
 70
     1
102
RTVSPropertyOp18
 70
     1
102
RTVSPropertyOp19
 70
     1
102
RTVSPropertyOp20
 70
     1
102
RTVSPropertyOp21
 70
     1
102
RTVSPropertyOp22
 70
     1
102
RTVSPropertyOp23
 70
     1
102
RTVSPropertyOp24
 70
     1
102
RTVSPropertyOp25
 70
     1
102
RTVSPropertyOp26
 70
     1
102
RTVSPropertyOp27
 70
     1
  0
XRECORD
  5
987
102
{ACAD_REACTORS
330
986
102
}
330
986
100
AcDbXrecord
280
     1
102
RTVSPropertyOp0
 70
     0
102
RTVSPropertyOp1
 70
     0
102
RTVSPropertyOp2
 70
     0
102
RTVSPropertyOp3
 70
     0
102
RTVSPropertyOp4
 70
     0
102
RTVSPropertyOp5
 70
     0
102
RTVSPropertyOp6
 70
     0
102
RTVSPropertyOp7
 70
     0
102
RTVSPropertyOp8
 70
     0
102
RTVSPropertyOp9
 70
     0
102
RTVSPropertyOp10
 70
     0
102
RTVSPropertyOp11
 70
     0
102
RTVSPropertyOp12
 70
     0
102
RTVSPropertyOp13
 70
     0
102
RTVSPropertyOp14
 70
     2
102
RTVSPropertyOp15
 70
     0
102
RTVSPropertyOp16
 70
     0
102
RTVSPropertyOp17
 70
     0
102
RTVSPropertyOp18
 70
     0
102
RTVSPropertyOp19
 70
     0
102
RTVSPropertyOp20
 70
     0
102
RTVSPropertyOp21
 70
     0
102
RTVSPropertyOp22
 70
     0
102
RTVSPropertyOp23
 70
     0
102
RTVSPropertyOp24
 70
     0
102
RTVSPropertyOp25
 70
     0
102
RTVSPropertyOp26
 70
     0
102
RTVSPropertyOp27
 70
     0
  0
XRECORD
  5
981
102
{ACAD_REACTORS
330
980
102
}
330
980
100
AcDbXrecord
280
     1
102
RTVSPropertyOp0
 70
     1
102
RTVSPropertyOp1
 70
     1
102
RTVSPropertyOp2
 70
     1
102
RTVSPropertyOp3
 70
     1
102
RTVSPropertyOp4
 70
     1
102
RTVSPropertyOp5
 70
     1
102
RTVSPropertyOp6
 70
     1
102
RTVSPropertyOp7
 70
     1
102
RTVSPropertyOp8
 70
     1
102
RTVSPropertyOp9
 70
     1
102
RTVSPropertyOp10
 70
     1
102
RTVSPropertyOp11
 70
     1
102
RTVSPropertyOp12
 70
     1
102
RTVSPropertyOp13
 70
     1
102
RTVSPropertyOp14
 70
     1
102
RTVSPropertyOp15
 70
     1
102
RTVSPropertyOp16
 70
     1
102
RTVSPropertyOp17
 70
     1
102
RTVSPropertyOp18
 70
     1
102
RTVSPropertyOp19
 70
     1
102
RTVSPropertyOp20
 70
     1
102
RTVSPropertyOp21
 70
     1
102
RTVSPropertyOp22
 70
     1
102
RTVSPropertyOp23
 70
     1
102
RTVSPropertyOp24
 70
     1
102
RTVSPropertyOp25
 70
     1
102
RTVSPropertyOp26
 70
     1
102
RTVSPropertyOp27
 70
     1
  0
XRECORD
  5
989
102
{ACAD_REACTORS
330
988
102
}
330
988
100
AcDbXrecord
280
     1
102
RTVSPropertyOp0
 70
     0
102
RTVSPropertyOp1
 70
     0
102
RTVSPropertyOp2
 70
     0
102
RTVSPropertyOp3
 70
     0
102
RTVSPropertyOp4
 70
     0
102
RTVSPropertyOp5
 70
     0
102
RTVSPropertyOp6
 70
     0
102
RTVSPropertyOp7
 70
     0
102
RTVSPropertyOp8
 70
     0
102
RTVSPropertyOp9
 70
     0
102
RTVSPropertyOp10
 70
     0
102
RTVSPropertyOp11
 70
     0
102
RTVSPropertyOp12
 70
     0
102
RTVSPropertyOp13
 70
     0
102
RTVSPropertyOp14
 70
     2
102
RTVSPropertyOp15
 70
     0
102
RTVSPropertyOp16
 70
     0
102
RTVSPropertyOp17
 70
     0
102
RTVSPropertyOp18
 70
     0
102
RTVSPropertyOp19
 70
     0
102
RTVSPropertyOp20
 70
     0
102
RTVSPropertyOp21
 70
     0
102
RTVSPropertyOp22
 70
     0
102
RTVSPropertyOp23
 70
     0
102
RTVSPropertyOp24
 70
     0
102
RTVSPropertyOp25
 70
     0
102
RTVSPropertyOp26
 70
     0
102
RTVSPropertyOp27
 70
     0
  0
XRECORD
  5
979
102
{ACAD_REACTORS
330
978
102
}
330
978
100
AcDbXrecord
280
     1
102
RTVSPropertyOp0
 70
     1
102
RTVSPropertyOp1
 70
     1
102
RTVSPropertyOp2
 70
     1
102
RTVSPropertyOp3
 70
     1
102
RTVSPropertyOp4
 70
     1
102
RTVSPropertyOp5
 70
     1
102
RTVSPropertyOp6
 70
     1
102
RTVSPropertyOp7
 70
     1
102
RTVSPropertyOp8
 70
     1
102
RTVSPropertyOp9
 70
     1
102
RTVSPropertyOp10
 70
     1
102
RTVSPropertyOp11
 70
     1
102
RTVSPropertyOp12
 70
     1
102
RTVSPropertyOp13
 70
     1
102
RTVSPropertyOp14
 70
     1
102
RTVSPropertyOp15
 70
     1
102
RTVSPropertyOp16
 70
     1
102
RTVSPropertyOp17
 70
     1
102
RTVSPropertyOp18
 70
     1
102
RTVSPropertyOp19
 70
     1
102
RTVSPropertyOp20
 70
     1
102
RTVSPropertyOp21
 70
     1
102
RTVSPropertyOp22
 70
     1
102
RTVSPropertyOp23
 70
     1
102
RTVSPropertyOp24
 70
     1
102
RTVSPropertyOp25
 70
     1
102
RTVSPropertyOp26
 70
     1
102
RTVSPropertyOp27
 70
     1
  0
XRECORD
  5
97F
102
{ACAD_REACTORS
330
97E
102
}
330
97E
100
AcDbXrecord
280
     1
102
RTVSPropertyOp0
 70
     1
102
RTVSPropertyOp1
 70
     1
102
RTVSPropertyOp2
 70
     1
102
RTVSPropertyOp3
 70
     1
102
RTVSPropertyOp4
 70
     1
102
RTVSPropertyOp5
 70
     1
102
RTVSPropertyOp6
 70
     1
102
RTVSPropertyOp7
 70
     1
102
RTVSPropertyOp8
 70
     1
102
RTVSPropertyOp9
 70
     1
102
RTVSPropertyOp10
 70
     1
102
RTVSPropertyOp11
 70
     1
102
RTVSPropertyOp12
 70
     1
102
RTVSPropertyOp13
 70
     1
102
RTVSPropertyOp14
 70
     1
102
RTVSPropertyOp15
 70
     1
102
RTVSPropertyOp16
 70
     1
102
RTVSPropertyOp17
 70
     1
102
RTVSPropertyOp18
 70
     1
102
RTVSPropertyOp19
 70
     1
102
RTVSPropertyOp20
 70
     1
102
RTVSPropertyOp21
 70
     1
102
RTVSPropertyOp22
 70
     1
102
RTVSPropertyOp23
 70
     1
102
RTVSPropertyOp24
 70
     1
102
RTVSPropertyOp25
 70
     1
102
RTVSPropertyOp26
 70
     1
102
RTVSPropertyOp27
 70
     1
  0
ENDSEC
  0
EOF
