  0
SECTION
  2
HEADER
  9
$ACADVER
  1
AC1015
  9
$ACADMAINTVER
 70
    20
  9
$DWGCODEPAGE
  3
ANSI_1252
  9
$INSBASE
 10
0.0
 20
0.0
 30
0.0
  9
$EXTMIN
 10
5229.684265709185
 20
2766.408393875649
 30
0.0
  9
$EXTMAX
 10
5232.488904473479
 20
2766.86248608022
 30
0.0
  9
$LIMMIN
 10
0.0
 20
0.0
  9
$LIMMAX
 10
420.0
 20
297.0
  9
$ORTHOMODE
 70
     1
  9
$REGENMODE
 70
     1
  9
$FILLMODE
 70
     1
  9
$QTEXTMODE
 70
     0
  9
$MIRRTEXT
 70
     1
  9
$LTSCALE
 40
1.0
  9
$ATTMODE
 70
     1
  9
$TEXTSIZE
 40
2.5
  9
$TRACEWID
 40
1.0
  9
$TEXTSTYLE
  7
SANINDUSA
  9
$CLAYER
  8
0
  9
$CELTYPE
  6
ByLayer
  9
$CECOLOR
 62
   256
  9
$CELTSCALE
 40
1.0
  9
$DISPSILH
 70
     0
  9
$DIMSCALE
 40
1.0
  9
$DIMASZ
 40
2.0
  9
$DIMEXO
 40
1.0
  9
$DIMDLI
 40
1.0
  9
$DIMRND
 40
0.0
  9
$DIMDLE
 40
0.0
  9
$DIMEXE
 40
1.0
  9
$DIMTP
 40
0.0
  9
$DIMTM
 40
0.0
  9
$DIMTXT
 40
2.0
  9
$DIMCEN
 40
0.0
  9
$DIMTSZ
 40
0.0
  9
$DIMTOL
 70
     0
  9
$DIMLIM
 70
     0
  9
$DIMTIH
 70
     0
  9
$DIMTOH
 70
     0
  9
$DIMSE1
 70
     0
  9
$DIMSE2
 70
     0
  9
$DIMTAD
 70
     1
  9
$DIMZIN
 70
     8
  9
$DIMBLK
  1

  9
$DIMASO
 70
     1
  9
$DIMSHO
 70
     1
  9
$DIMPOST
  1

  9
$DIMAPOST
  1

  9
$DIMALT
 70
     0
  9
$DIMALTD
 70
     3
  9
$DIMALTF
 40
0.03937007874016
  9
$DIMLFAC
 40
1.0
  9
$DIMTOFL
 70
     1
  9
$DIMTVP
 40
0.0
  9
$DIMTIX
 70
     0
  9
$DIMSOXD
 70
     0
  9
$DIMSAH
 70
     0
  9
$DIMBLK1
  1

  9
$DIMBLK2
  1

  9
$DIMSTYLE
  2
SANINDUSA
  9
$DIMCLRD
 70
   256
  9
$DIMCLRE
 70
   256
  9
$DIMCLRT
 70
   256
  9
$DIMTFAC
 40
1.0
  9
$DIMGAP
 40
1.0
  9
$DIMJUST
 70
     0
  9
$DIMSD1
 70
     0
  9
$DIMSD2
 70
     0
  9
$DIMTOLJ
 70
     0
  9
$DIMTZIN
 70
     8
  9
$DIMALTZ
 70
     0
  9
$DIMALTTZ
 70
     0
  9
$DIMUPT
 70
     0
  9
$DIMDEC
 70
     1
  9
$DIMTDEC
 70
     1
  9
$DIMALTU
 70
     2
  9
$DIMALTTD
 70
     3
  9
$DIMTXSTY
  7
SANINDUSA
  9
$DIMAUNIT
 70
     0
  9
$DIMADEC
 70
     1
  9
$DIMALTRND
 40
0.0
  9
$DIMAZIN
 70
     0
  9
$DIMDSEP
 70
    44
  9
$DIMATFIT
 70
     3
  9
$DIMFRAC
 70
     0
  9
$DIMLDRBLK
  1

  9
$DIMLUNIT
 70
     2
  9
$DIMLWD
 70
    -1
  9
$DIMLWE
 70
    -1
  9
$DIMTMOVE
 70
     0
  9
$LUNITS
 70
     2
  9
$LUPREC
 70
     4
  9
$SKETCHINC
 40
1.0
  9
$FILLETRAD
 40
0.0
  9
$AUNITS
 70
     0
  9
$AUPREC
 70
     0
  9
$MENU
  1
.
  9
$ELEVATION
 40
0.0
  9
$PELEVATION
 40
0.0
  9
$THICKNESS
 40
0.0
  9
$LIMCHECK
 70
     0
  9
$CHAMFERA
 40
10.0
  9
$CHAMFERB
 40
10.0
  9
$CHAMFERC
 40
20.0
  9
$CHAMFERD
 40
0.0
  9
$SKPOLY
 70
     0
  9
$TDCREATE
 40
2455604.519731435
  9
$TDUCREATE
 40
2455604.478064769
  9
$TDUPDATE
 40
2456142.467060185
  9
$TDUUPDATE
 40
2456142.425393519
  9
$TDINDWG
 40
0.0032345949
  9
$TDUSRTIMER
 40
0.0032345949
  9
$USRTIMER
 70
     1
  9
$ANGBASE
 50
0.0
  9
$ANGDIR
 70
     0
  9
$PDMODE
 70
     0
  9
$PDSIZE
 40
0.0
  9
$PLINEWID
 40
0.0
  9
$SPLFRAME
 70
     0
  9
$SPLINETYPE
 70
     6
  9
$SPLINESEGS
 70
     8
  9
$HANDSEED
  5
1B38
  9
$SURFTAB1
 70
     6
  9
$SURFTAB2
 70
     6
  9
$SURFTYPE
 70
     6
  9
$SURFU
 70
     6
  9
$SURFV
 70
     6
  9
$UCSBASE
  2

  9
$UCSNAME
  2

  9
$UCSORG
 10
0.0
 20
0.0
 30
0.0
  9
$UCSXDIR
 10
1.0
 20
0.0
 30
0.0
  9
$UCSYDIR
 10
0.0
 20
1.0
 30
0.0
  9
$UCSORTHOREF
  2

  9
$UCSORTHOVIEW
 70
     0
  9
$UCSORGTOP
 10
0.0
 20
0.0
 30
0.0
  9
$UCSORGBOTTOM
 10
0.0
 20
0.0
 30
0.0
  9
$UCSORGLEFT
 10
0.0
 20
0.0
 30
0.0
  9
$UCSORGRIGHT
 10
0.0
 20
0.0
 30
0.0
  9
$UCSORGFRONT
 10
0.0
 20
0.0
 30
0.0
  9
$UCSORGBACK
 10
0.0
 20
0.0
 30
0.0
  9
$PUCSBASE
  2

  9
$PUCSNAME
  2

  9
$PUCSORG
 10
0.0
 20
0.0
 30
0.0
  9
$PUCSXDIR
 10
1.0
 20
0.0
 30
0.0
  9
$PUCSYDIR
 10
0.0
 20
1.0
 30
0.0
  9
$PUCSORTHOREF
  2

  9
$PUCSORTHOVIEW
 70
     0
  9
$PUCSORGTOP
 10
0.0
 20
0.0
 30
0.0
  9
$PUCSORGBOTTOM
 10
0.0
 20
0.0
 30
0.0
  9
$PUCSORGLEFT
 10
0.0
 20
0.0
 30
0.0
  9
$PUCSORGRIGHT
 10
0.0
 20
0.0
 30
0.0
  9
$PUCSORGFRONT
 10
0.0
 20
0.0
 30
0.0
  9
$PUCSORGBACK
 10
0.0
 20
0.0
 30
0.0
  9
$USERI1
 70
     0
  9
$USERI2
 70
     0
  9
$USERI3
 70
     0
  9
$USERI4
 70
     0
  9
$USERI5
 70
     0
  9
$USERR1
 40
0.0
  9
$USERR2
 40
0.0
  9
$USERR3
 40
0.0
  9
$USERR4
 40
0.0
  9
$USERR5
 40
0.0
  9
$WORLDVIEW
 70
     1
  9
$SHADEDGE
 70
     3
  9
$SHADEDIF
 70
    70
  9
$TILEMODE
 70
     1
  9
$MAXACTVP
 70
    64
  9
$PINSBASE
 10
0.0
 20
0.0
 30
0.0
  9
$PLIMCHECK
 70
     0
  9
$PEXTMIN
 10
1.000000000000000E+20
 20
1.000000000000000E+20
 30
1.000000000000000E+20
  9
$PEXTMAX
 10
-1.000000000000000E+20
 20
-1.000000000000000E+20
 30
-1.000000000000000E+20
  9
$PLIMMIN
 10
0.0
 20
0.0
  9
$PLIMMAX
 10
420.0
 20
297.0
  9
$UNITMODE
 70
     0
  9
$VISRETAIN
 70
     1
  9
$PLINEGEN
 70
     0
  9
$PSLTSCALE
 70
     1
  9
$TREEDEPTH
 70
  3020
  9
$CMLSTYLE
  2
Standard
  9
$CMLJUST
 70
     0
  9
$CMLSCALE
 40
20.0
  9
$PROXYGRAPHICS
 70
     1
  9
$MEASUREMENT
 70
     1
  9
$CELWEIGHT
370
    -1
  9
$ENDCAPS
280
     0
  9
$JOINSTYLE
280
     0
  9
$LWDISPLAY
290
     0
  9
$INSUNITS
 70
     4
  9
$HYPERLINKBASE
  1

  9
$STYLESHEET
  1
sanindusa.ctb
  9
$XEDIT
290
     1
  9
$CEPSNTYPE
380
     0
  9
$PSTYLEMODE
290
     1
  9
$FINGERPRINTGUID
  2
{3B73D920-57BE-4211-918F-2EBDB6670B22}
  9
$VERSIONGUID
  2
{10C2FC6D-B129-43CA-A596-A201CB0DA457}
  9
$EXTNAMES
290
     1
  9
$PSVPSCALE
 40
0.0
  9
$OLESTARTUP
290
     0
  0
ENDSEC
  0
SECTION
  2
CLASSES
  0
CLASS
  1
ACDBDICTIONARYWDFLT
  2
AcDbDictionaryWithDefault
  3
ObjectDBX Classes
 90
        0
280
     0
281
     0
  0
CLASS
  1
ACDBPLACEHOLDER
  2
AcDbPlaceHolder
  3
ObjectDBX Classes
 90
        0
280
     0
281
     0
  0
CLASS
  1
LAYOUT
  2
AcDbLayout
  3
ObjectDBX Classes
 90
        0
280
     0
281
     0
  0
CLASS
  1
DICTIONARYVAR
  2
AcDbDictionaryVar
  3
ObjectDBX Classes
 90
        0
280
     0
281
     0
  0
CLASS
  1
DIMASSOC
  2
AcDbDimAssoc
  3
"AcDbDimAssoc|Product Desc:     AcDim ARX App For Dimension|Company:          Autodesk, Inc.|WEB Address:      www.autodesk.com"
 90
    32768
280
     0
281
     0
  0
CLASS
  1
TABLESTYLE
  2
AcDbTableStyle
  3
ObjectDBX Classes
 90
     4095
280
     0
281
     0
  0
CLASS
  1
MATERIAL
  2
AcDbMaterial
  3
ObjectDBX Classes
 90
     1153
280
     0
281
     0
  0
CLASS
  1
VISUALSTYLE
  2
AcDbVisualStyle
  3
ObjectDBX Classes
 90
     4095
280
     0
281
     0
  0
CLASS
  1
SCALE
  2
AcDbScale
  3
ObjectDBX Classes
 90
     1153
280
     0
281
     0
  0
CLASS
  1
MLEADERSTYLE
  2
AcDbMLeaderStyle
  3
ACDB_MLEADERSTYLE_CLASS
 90
     4095
280
     0
281
     0
  0
CLASS
  1
BREAKDATA
  2
AcDbBreakData
  3
ObjectDBX Classes
 90
    33792
280
     0
281
     0
  0
CLASS
  1
SORTENTSTABLE
  2
AcDbSortentsTable
  3
ObjectDBX Classes
 90
    32768
280
     0
281
     0
  0
CLASS
  1
AEC_REFEDIT_STATUS_TRACKER
  2
AecDbRefEditStatusTracker
  3
AecArchBase60|Product Desc: Autodesk Architectural Desktop 2007 |Company: Autodesk,Inc. |WEB Address: www.autodesk.com
 90
    32897
280
     0
281
     0
  0
CLASS
  1
NPOCOLLECTION
  2
AcDbImpNonPersistentObjectsCollection
  3
ObjectDBX Classes
 90
    33921
280
     0
281
     0
  0
CLASS
  1
CELLSTYLEMAP
  2
AcDbCellStyleMap
  3
ObjectDBX Classes
 90
     1152
280
     0
281
     0
  0
ENDSEC
  0
SECTION
  2
TABLES
  0
TABLE
  2
VPORT
  5
8
102
{ACAD_XDICTIONARY
360
1A96
102
}
330
0
100
AcDbSymbolTable
 70
     1
  0
VPORT
  5
1068
330
8
100
AcDbSymbolTableRecord
100
AcDbViewportTableRecord
  2
*Active
 70
     0
 10
0.0
 20
0.0
 11
1.0
 21
1.0
 12
5231.086562303873
 22
2766.642576215806
 13
0.0
 23
0.0
 14
10.0
 24
10.0
 15
10.0
 25
10.0
 16
0.0
 26
0.0
 36
1.0
 17
0.0
 27
0.0
 37
0.0
 40
1.710913029677042
 41
1.645464025026068
 42
50.0
 43
0.0
 44
0.0
 50
0.0
 51
0.0
 71
     0
 72
   100
 73
     1
 74
     2
 75
     0
 76
     0
 77
     0
 78
     0
281
     0
 65
     1
110
0.0
120
0.0
130
0.0
111
1.0
121
0.0
131
0.0
112
0.0
122
1.0
132
0.0
 79
     0
146
0.0
  0
ENDTAB
  0
TABLE
  2
LTYPE
  5
5
330
0
100
AcDbSymbolTable
 70
     5
  0
LTYPE
  5
14
330
5
100
AcDbSymbolTableRecord
100
AcDbLinetypeTableRecord
  2
ByBlock
 70
     0
  3

 72
    65
 73
     0
 40
0.0
  0
LTYPE
  5
15
330
5
100
AcDbSymbolTableRecord
100
AcDbLinetypeTableRecord
  2
ByLayer
 70
     0
  3

 72
    65
 73
     0
 40
0.0
  0
LTYPE
  5
16
330
5
100
AcDbSymbolTableRecord
100
AcDbLinetypeTableRecord
  2
Continuous
 70
     0
  3
Solid line
 72
    65
 73
     0
 40
0.0
  0
LTYPE
  5
2D
330
5
100
AcDbSymbolTableRecord
100
AcDbLinetypeTableRecord
  2
DASHDOT
 70
     0
  3
Dash dot __ . __ . __ . __ . __ . __ . __ . __
 72
    65
 73
     4
 40
25.4
 49
12.7
 74
     0
 49
-6.349999999999999
 74
     0
 49
0.0
 74
     0
 49
-6.349999999999999
 74
     0
  0
LTYPE
  5
2E
330
5
100
AcDbSymbolTableRecord
100
AcDbLinetypeTableRecord
  2
HIDDEN
 70
     0
  3
Hidden __ __ __ __ __ __ __ __ __ __ __ __ __ _
 72
    65
 73
     2
 40
9.524999999999998
 49
6.349999999999999
 74
     0
 49
-3.174999999999999
 74
     0
  0
LTYPE
  5
C75
330
5
100
AcDbSymbolTableRecord
100
AcDbLinetypeTableRecord
  2
AM_ISO02W050
 70
     0
  3
__ __ __ __ __ __ __ __ __ __ __ __ __ __ __
 72
    65
 73
     2
 40
7.5
 49
6.0
 74
     0
 49
-1.5
 74
     0
  0
LTYPE
  5
C76
330
5
100
AcDbSymbolTableRecord
100
AcDbLinetypeTableRecord
  2
AM_ISO08W050
 70
     0
  3
____ . ____ . ____ . ____ . ____ . ____ . ____
 72
    65
 73
     4
 40
18.0
 49
12.0
 74
     0
 49
-1.5
 74
     0
 49
3.0
 74
     0
 49
-1.5
 74
     0
  0
ENDTAB
  0
TABLE
  2
LAYER
  5
2
102
{ACAD_XDICTIONARY
360
1051
102
}
330
0
100
AcDbSymbolTable
 70
    17
  0
LAYER
  5
10
102
{ACAD_XDICTIONARY
360
1A70
102
}
330
2
100
AcDbSymbolTableRecord
100
AcDbLayerTableRecord
  2
0
 70
     0
 62
     7
  6
Continuous
370
    -3
390
F
  0
LAYER
  5
2F
102
{ACAD_XDICTIONARY
360
1A72
102
}
330
2
100
AcDbSymbolTableRecord
100
AcDbLayerTableRecord
  2
1
 70
     0
 62
     1
  6
Continuous
370
    -3
390
F
  0
LAYER
  5
30
102
{ACAD_XDICTIONARY
360
1A74
102
}
330
2
100
AcDbSymbolTableRecord
100
AcDbLayerTableRecord
  2
2
 70
     0
 62
     2
  6
Continuous
370
    -3
390
F
  0
LAYER
  5
31
102
{ACAD_XDICTIONARY
360
1A76
102
}
330
2
100
AcDbSymbolTableRecord
100
AcDbLayerTableRecord
  2
3
 70
     0
 62
     3
  6
Continuous
370
    -3
390
F
  0
LAYER
  5
32
102
{ACAD_XDICTIONARY
360
1A78
102
}
330
2
100
AcDbSymbolTableRecord
100
AcDbLayerTableRecord
  2
4
 70
     0
 62
     4
  6
Continuous
370
    -3
390
F
  0
LAYER
  5
33
102
{ACAD_XDICTIONARY
360
1A7A
102
}
330
2
100
AcDbSymbolTableRecord
100
AcDbLayerTableRecord
  2
5
 70
     0
 62
     5
  6
Continuous
370
    -3
390
F
  0
LAYER
  5
34
102
{ACAD_XDICTIONARY
360
1A7C
102
}
330
2
100
AcDbSymbolTableRecord
100
AcDbLayerTableRecord
  2
6
 70
     0
 62
     6
  6
Continuous
370
    -3
390
F
  0
LAYER
  5
35
102
{ACAD_XDICTIONARY
360
1A7E
102
}
330
2
100
AcDbSymbolTableRecord
100
AcDbLayerTableRecord
  2
7
 70
     0
 62
     7
  6
Continuous
370
    -3
390
F
  0
LAYER
  5
36
102
{ACAD_XDICTIONARY
360
1A80
102
}
330
2
100
AcDbSymbolTableRecord
100
AcDbLayerTableRecord
  2
cen
 70
     0
 62
     7
  6
DASHDOT
370
    -3
390
F
  0
LAYER
  5
37
102
{ACAD_XDICTIONARY
360
1A82
102
}
330
2
100
AcDbSymbolTableRecord
100
AcDbLayerTableRecord
  2
hid
 70
     0
 62
     7
  6
HIDDEN
370
    -3
390
F
  0
LAYER
  5
5D6
102
{ACAD_XDICTIONARY
360
1A84
102
}
330
2
100
AcDbSymbolTableRecord
100
AcDbLayerTableRecord
  2
hatch
 70
     0
 62
     9
  6
Continuous
370
    -3
390
F
  0
LAYER
  5
8AF
102
{ACAD_XDICTIONARY
360
1A86
102
}
330
2
100
AcDbSymbolTableRecord
100
AcDbLayerTableRecord
  2
9
 70
     0
 62
     9
  6
Continuous
370
    -3
390
F
  0
LAYER
  5
8F8
102
{ACAD_XDICTIONARY
360
1A88
102
}
330
2
100
AcDbSymbolTableRecord
100
AcDbLayerTableRecord
  2
leg fin
 70
     0
 62
     9
  6
Continuous
370
    -3
390
F
  0
LAYER
  5
91D
102
{ACAD_XDICTIONARY
360
1A8A
102
}
330
2
100
AcDbSymbolTableRecord
100
AcDbLayerTableRecord
  2
cotas
 70
     0
 62
     1
  6
Continuous
370
    -3
390
F
  0
LAYER
  5
92F
330
2
100
AcDbSymbolTableRecord
100
AcDbLayerTableRecord
  2
Defpoints
 70
     0
 62
     7
  6
Continuous
290
     0
370
    -3
390
F
  0
LAYER
  5
C7B
102
{ACAD_XDICTIONARY
360
1A8C
102
}
330
2
100
AcDbSymbolTableRecord
100
AcDbLayerTableRecord
  2
SANINDUSA
 70
     0
 62
     3
  6
Continuous
370
    -3
390
F
  0
LAYER
  5
1060
102
{ACAD_XDICTIONARY
360
1A8E
102
}
330
2
100
AcDbSymbolTableRecord
100
AcDbLayerTableRecord
  2
hid1
 70
     0
 62
     9
  6
HIDDEN
370
    -3
390
F
1001
AcAecLayerStandard
1000

1000

  0
ENDTAB
  0
TABLE
  2
STYLE
  5
3
330
0
100
AcDbSymbolTable
 70
     4
  0
STYLE
  5
11
330
3
100
AcDbSymbolTableRecord
100
AcDbTextStyleTableRecord
  2
Standard
 70
     0
 40
0.0
 41
1.0
 50
0.0
 71
     0
 42
2.5
  3
Avgardn.ttf
  4

1001
ACAD
1000
AvantGarde Bk BT
1071
       34
  0
STYLE
  5
2C
330
3
100
AcDbSymbolTableRecord
100
AcDbTextStyleTableRecord
  2

 70
     1
 40
0.0
 41
1.0
 50
0.0
 71
     0
 42
2.5
  3
ltypeshp.shx
  4

  0
STYLE
  5
91F
330
3
100
AcDbSymbolTableRecord
100
AcDbTextStyleTableRecord
  2
SANINDUSA
 70
     0
 40
0.0
 41
1.0
 50
0.0
 71
     0
 42
2.5
  3
verdana.TTF
  4

1001
ACAD
1000
Verdana
1071
       34
  0
STYLE
  5
C7C
330
3
100
AcDbSymbolTableRecord
100
AcDbTextStyleTableRecord
  2
futura
 70
     0
 40
0.0
 41
1.0
 50
0.0
 71
     0
 42
2.5
  3
ZURCHN.TTF
  4

1001
ACAD
1000
Zurich BT
1071
       34
  0
ENDTAB
  0
TABLE
  2
VIEW
  5
6
330
0
100
AcDbSymbolTable
 70
     0
  0
ENDTAB
  0
TABLE
  2
UCS
  5
7
330
0
100
AcDbSymbolTable
 70
     0
  0
ENDTAB
  0
TABLE
  2
APPID
  5
9
330
0
100
AcDbSymbolTable
 70
    13
  0
APPID
  5
12
330
9
100
AcDbSymbolTableRecord
100
AcDbRegAppTableRecord
  2
ACAD
 70
     0
  0
APPID
  5
3A
330
9
100
AcDbSymbolTableRecord
100
AcDbRegAppTableRecord
  2
DCO15
 70
     0
  0
APPID
  5
EEE
330
9
100
AcDbSymbolTableRecord
100
AcDbRegAppTableRecord
  2
ACAD_DSTYLE_DIMTEXT_FILL
 70
     0
  0
APPID
  5
EEF
330
9
100
AcDbSymbolTableRecord
100
AcDbRegAppTableRecord
  2
ACAD_DSTYLE_DIMEXT_LENGTH
 70
     0
  0
APPID
  5
EF0
330
9
100
AcDbSymbolTableRecord
100
AcDbRegAppTableRecord
  2
ACAD_DSTYLE_DIMEXT_ENABLED
 70
     0
  0
APPID
  5
EF1
330
9
100
AcDbSymbolTableRecord
100
AcDbRegAppTableRecord
  2
ACAD_DSTYLE_DIM_LINETYPE
 70
     0
  0
APPID
  5
EF2
330
9
100
AcDbSymbolTableRecord
100
AcDbRegAppTableRecord
  2
ACAD_DSTYLE_DIM_EXT1_LINETYPE
 70
     0
  0
APPID
  5
EF3
330
9
100
AcDbSymbolTableRecord
100
AcDbRegAppTableRecord
  2
ACAD_DSTYLE_DIM_EXT2_LINETYPE
 70
     0
  0
APPID
  5
FAF
330
9
100
AcDbSymbolTableRecord
100
AcDbRegAppTableRecord
  2
ACAD_DSTYLE_DIMJOGGED_JOGANGLE_SYMBOL
 70
     0
  0
APPID
  5
1013
330
9
100
AcDbSymbolTableRecord
100
AcDbRegAppTableRecord
  2
ACAD_DSTYLE_DIMARC_LENGTH_SYMBOL
 70
     0
  0
APPID
  5
1061
330
9
100
AcDbSymbolTableRecord
100
AcDbRegAppTableRecord
  2
AcAecLayerStandard
 70
     0
  0
APPID
  5
127C
330
9
100
AcDbSymbolTableRecord
100
AcDbRegAppTableRecord
  2
ACAD_DSTYLE_DIMRADIAL_EXTENSION
 70
     0
  0
APPID
  5
1AC8
330
9
100
AcDbSymbolTableRecord
100
AcDbRegAppTableRecord
  2
ACAD_MLEADERVER
 70
     0
  0
ENDTAB
  0
TABLE
  2
DIMSTYLE
  5
A
330
0
100
AcDbSymbolTable
 70
     3
100
AcDbDimStyleTable
 71
     1
340
921
  0
DIMSTYLE
105
45
330
A
100
AcDbSymbolTableRecord
100
AcDbDimStyleTableRecord
  2
STANDARD
 70
     0
289
     0
340
11
  0
DIMSTYLE
105
921
330
A
100
AcDbSymbolTableRecord
100
AcDbDimStyleTableRecord
  2
SANINDUSA
 70
     0
 41
2.0
 42
1.0
 43
1.0
 44
1.0
 73
     0
 74
     0
 77
     1
 78
     8
140
2.0
141
0.0
143
0.03937007874016
147
1.0
171
     3
172
     1
176
   256
177
   256
178
   256
179
     1
271
     1
272
     1
274
     3
278
    44
283
     0
284
     8
340
91F
371
    -1
372
    -1
1001
ACAD_DSTYLE_DIMJOGGED_JOGANGLE_SYMBOL
1070
   384
1040
1.570796326794896
  0
DIMSTYLE
105
C7D
330
A
100
AcDbSymbolTableRecord
100
AcDbDimStyleTableRecord
  2
AM_ISO
 70
     0
  4
"
 41
2.5
 42
1.0
 43
10.0
 44
1.0
 47
0.1
 48
0.1
 73
     0
 74
     0
 77
     1
 78
     8
 79
     2
140
3.5
141
0.0
143
0.0393701
146
0.71
147
1.5
172
     1
176
   256
177
   256
178
     2
271
     2
272
     3
274
     4
283
     0
284
     8
340
11
371
    -1
372
    -1
  0
ENDTAB
  0
TABLE
  2
BLOCK_RECORD
  5
1
330
0
100
AcDbSymbolTable
 70
    96
  0
BLOCK_RECORD
  5
1F
330
1
100
AcDbSymbolTableRecord
100
AcDbBlockTableRecord
  2
*Model_Space
340
22
  0
BLOCK_RECORD
  5
1B
330
1
100
AcDbSymbolTableRecord
100
AcDbBlockTableRecord
  2
*Paper_Space
340
1E
  0
BLOCK_RECORD
  5
23
330
1
100
AcDbSymbolTableRecord
100
AcDbBlockTableRecord
  2
*Paper_Space0
340
26
  0
BLOCK_RECORD
  5
919
330
1
100
AcDbSymbolTableRecord
100
AcDbBlockTableRecord
  2
_DotSmall
340
0
  0
BLOCK_RECORD
  5
922
330
1
100
AcDbSymbolTableRecord
100
AcDbBlockTableRecord
  2
base para cotas
340
0
310
2800000020000000200000000100080000000000000400000000000000000000000000000000000000000000000080000080000000808000800000008000800080800000C0C0C000C0DCC000F0CAA6000020400000206000002080000020A0000020C0000020E00000400000004020000040400000406000004080000040A0
310
000040C0000040E00000600000006020000060400000606000006080000060A0000060C0000060E00000800000008020000080400000806000008080000080A0000080C0000080E00000A0000000A0200000A0400000A0600000A0800000A0A00000A0C00000A0E00000C0000000C0200000C0400000C0600000C0800000C0
310
A00000C0C00000C0E00000E0000000E0200000E0400000E0600000E0800000E0A00000E0C00000E0E00040000000400020004000400040006000400080004000A0004000C0004000E00040200000402020004020400040206000402080004020A0004020C0004020E000404000004040200040404000404060004040800040
310
40A0004040C0004040E00040600000406020004060400040606000406080004060A0004060C0004060E00040800000408020004080400040806000408080004080A0004080C0004080E00040A0000040A0200040A0400040A0600040A0800040A0A00040A0C00040A0E00040C0000040C0200040C0400040C0600040C08000
310
40C0A00040C0C00040C0E00040E0000040E0200040E0400040E0600040E0800040E0A00040E0C00040E0E00080000000800020008000400080006000800080008000A0008000C0008000E00080200000802020008020400080206000802080008020A0008020C0008020E00080400000804020008040400080406000804080
310
008040A0008040C0008040E00080600000806020008060400080606000806080008060A0008060C0008060E00080800000808020008080400080806000808080008080A0008080C0008080E00080A0000080A0200080A0400080A0600080A0800080A0A00080A0C00080A0E00080C0000080C0200080C0400080C0600080C0
310
800080C0A00080C0C00080C0E00080E0000080E0200080E0400080E0600080E0800080E0A00080E0C00080E0E000C0000000C0002000C0004000C0006000C0008000C000A000C000C000C000E000C0200000C0202000C0204000C0206000C0208000C020A000C020C000C020E000C0400000C0402000C0404000C0406000C0
310
408000C040A000C040C000C040E000C0600000C0602000C0604000C0606000C0608000C060A000C060C000C060E000C0800000C0802000C0804000C0806000C0808000C080A000C080C000C080E000C0A00000C0A02000C0A04000C0A06000C0A08000C0A0A000C0A0C000C0A0E000C0C00000C0C02000C0C04000C0C06000
310
C0C08000C0C0A000F0FBFF00A4A0A000808080000000FF0000FF000000FFFF00FF000000FF00FF00FFFF0000FFFFFF00A4A4A4A4A4A4A4A4A4A4A4A4A4A4A4A4A4A4A4A4A4A4A4A4A4A4A4A4A4A4A4A4A4A4A4A4A4A4A4A4A4A4A4A4A4A4A4A4A4A4A4A4A4A4A4A4A4A4A4A4A4A4A4A4A4A4A4A4A4A4A4A4A4A4A4A4A4A4A4
310
A4A4A4A4A4A4A4A4A4A4A4A4A4A4A4A4A4A4A4A4A4A4A4A4A4A4A4A4A4A4A4A4A4A4A4A4A4A4A4A4A4A4A4A4A4A4A4A4A4A4A4A4A4A4A4A4A4A4A4A4A4A4A4A4A4A4A4A4A4A4A4A4A4A4A4A4A4A4A4A4A4A4A4A4A4A4A4A4A4A4A4A4A4A4A4A4A4A4A4A4A4A4A4A4A4A4A4A4A4A4A4A4A4A4A4A4A4A4A4A4A4A4A4A4A4A4A4
310
A4A4A4A4A4A4A4A4A4A4A4A4A4A4A4A4A4A4A4A4A4A4A4A4A4A4A4A4A4A4A4A4A4A4A4A4A4A4A4A4A4A4A4A4A4A4A4A4A4A4A4A4A4A4A4A4A4A4A4A4A4A4A4A4A4A4A4A4A4A4A4A4A4A4A4A4A4A4A4A4A4A4A4A4A4A4A4A4A4A4A4A4A4A4A4A4A4A4A4A4A4A4A4A4A4A4A4A4A4A4A4A4A4A4A4A4A4A4A4A4A4A4A4A4A4A4A4
310
A4A4A4A4A4A4A4A4A4A4A4A4A4A4A4A4A4A4A4A4A4A4A4A4A4A4A4A4A4A4A4A4A4A4A4A4A4A4A4A4A4A4A4A4A4A4A4A4A4A4A4A4A4A4A4A4A4A4A4A4A4A4A4A4A4A4A4A4A4A4A4A4A4A4A4A4A4A4A4A4A4A4A4A4A4A4A4A4A4A4A4A4A4A4A4A4A4A4A4A4A4A4A4A4A4A4A4A4A4A4A4A4A4A4A4A4F9F9F9F9F9F9F9F9F9F9F9
310
F9F9F9F9F9F9F9F9F9F9F9F9F9F9F9F9F9F9F9A4A4F9F9F9F9F9F9F9F9F9F9F9F9F9F9F9F9F9F9F9F9F9F9F9F9F9F9F9F9F9F9A4A4F9F9F9F9F9F9F9F9F9F9F9F9F9F9F9F9F9F9F9F9F9F9F9F9F9F9F9F9F9F9A4A4F9A4A4A4A4A4A4A4A4A4A4A4A4A4A4A4A4A4A4A4A4A4A4A4A4A4A4A4A4F9A4A4A4A4A4A4A4A4A4A4A4A4
310
A4A4A4A4A4A4A4A4A4A4A4A4A4A4A4A4A4A4A4A4A4A4A4A4A4A4A4A4A4A4A4A4A4A4A4A4A4A4A4A4A4A4A4A4A4A4A4A4A4A4A4A4A4A4A4A4A4A4A4A4A4A4A4A4A4A4A4A4A4A4A4A4A4A4A4A4A4A4A4A4A4A4A4A4A4A4A4A4A4A4A4A4A4A4A4A4A4A4A4A4A4A4A4A4A4A4A4A4A4A4A4A4A4A4A4A4A4A4A4A4A4A4A4A4A4A4A4
310
A4A4A4A4A4A4A4A4A4A4A4A4A4A4A4A4A4A4A4A4A4A4A4A4A4A4A4A4A4A4A4A4A4A4A4A4A4A4A4A4A4A4A4A4A4A4A4A4A4A4A4A4A4A4A4A4A4A4A4A4A4A4A4A4A4A4A4A4A4A4A4A4A4A4A4A4A4A4A4A4A4A4A4A4A4A4A4A4A4A4A4A4A4A4A4A4A4A4A4A4A4A4A4A4A4A4A4A4A4A4A4A4A4A4A4A4A4A4A4A4A4A4A4A4A4A4A4
310
A4A4A4A4A4A4A4A4A4A4A4A4A4A4A4A4A4A4A4A4A4A4A4A4A4A4A4A4A4A4A4A4A4A4A4A4A4A4A4A4A4A4A4A4A4A4A4A4A4A4A4A4A4A4A4A4A4A4A4A4A4A4A4A4A4A4A4A4A4A4A4A4A4A4A4A4A4A4A4A4A4A4A4A4A4A4A4A4A4A4A4A4A4A4A4A4A4A4A4A4A4A4A4A4A4A4A4A4A4A4A4A4A4A4A4A4A4A4A4A4A4A4A4A4A4A4A4
310
A4A4A4A4A4A4A4A4A4A4A4A4A4A4A4A4A4A4A4A4A4A4A4A4A4A4A4A4A4A4A4A4A4A4A4A4A4A4A4A4A4A4A4A4A4A4A4A4A4A4A4A4A4A4A4A4
1001
ACAD
1000
DesignCenter Data
1002
{
1070
     1
1070
     4
1002
}
  0
BLOCK_RECORD
  5
AA8
330
1
100
AcDbSymbolTableRecord
100
AcDbBlockTableRecord
  2
_CLOSED
340
0
  0
BLOCK_RECORD
  5
B79
330
1
100
AcDbSymbolTableRecord
100
AcDbBlockTableRecord
  2
nota revisoes
340
0
1001
ACAD
1000
DesignCenter Data
1002
{
1070
     1
1070
     4
1002
}
  0
BLOCK_RECORD
  5
B8E
330
1
100
AcDbSymbolTableRecord
100
AcDbBlockTableRecord
  2
a3l
340
0
1001
ACAD
1000
DesignCenter Data
1002
{
1070
     1
1070
     4
1002
}
  0
BLOCK_RECORD
  5
B9E
330
1
100
AcDbSymbolTableRecord
100
AcDbBlockTableRecord
  2
legenda desenvolvimento
340
0
1001
ACAD
1000
DesignCenter Data
1002
{
1070
     1
1070
     4
1002
}
  0
ENDTAB
  0
ENDSEC
  0
SECTION
  2
BLOCKS
  0
BLOCK
  5
20
330
1F
100
AcDbEntity
  8
0
100
AcDbBlockBegin
  2
*Model_Space
 70
     0
 10
0.0
 20
0.0
 30
0.0
  3
*Model_Space
  1

  0
ENDBLK
  5
21
330
1F
100
AcDbEntity
  8
0
100
AcDbBlockEnd
  0
BLOCK
  5
1C
330
1B
100
AcDbEntity
 67
     1
  8
0
100
AcDbBlockBegin
  2
*Paper_Space
 70
     0
 10
0.0
 20
0.0
 30
0.0
  3
*Paper_Space
  1

  0
ENDBLK
  5
1D
330
1B
100
AcDbEntity
 67
     1
  8
0
100
AcDbBlockEnd
  0
BLOCK
  5
24
330
23
100
AcDbEntity
 67
     1
  8
0
100
AcDbBlockBegin
  2
*Paper_Space0
 70
     0
 10
0.0
 20
0.0
 30
0.0
  3
*Paper_Space0
  1

  0
ENDBLK
  5
25
330
23
100
AcDbEntity
 67
     1
  8
0
100
AcDbBlockEnd
  0
BLOCK
  5
91B
330
919
100
AcDbEntity
  8
0
100
AcDbBlockBegin
  2
_DotSmall
 70
     0
 10
0.0
 20
0.0
 30
0.0
  3
_DotSmall
  1

  0
LWPOLYLINE
  5
91A
330
919
100
AcDbEntity
  8
0
  6
ByBlock
 62
     0
100
AcDbPolyline
 90
        2
 70
     1
 43
0.5
 10
-0.0625
 20
0.0
 42
1.0
 10
0.0625
 20
0.0
 42
1.0
  0
ENDBLK
  5
91C
330
919
100
AcDbEntity
  8
0
100
AcDbBlockEnd
  0
BLOCK
  5
92A
330
922
100
AcDbEntity
  8
0
100
AcDbBlockBegin
  2
base para cotas
 70
     0
 10
0.0
 20
0.0
 30
0.0
  3
base para cotas
  1

  0
LINE
  5
B36
330
922
100
AcDbEntity
  8
cotas
100
AcDbLine
 10
0.0
 20
-30.0
 30
0.0
 11
327.1260136525398
 21
-30.0
 31
0.0
  0
LINE
  5
B37
330
922
100
AcDbEntity
  8
cotas
100
AcDbLine
 10
0.0
 20
-25.0
 30
0.0
 11
327.1260136525398
 21
-25.0
 31
0.0
  0
LINE
  5
B38
330
922
100
AcDbEntity
  8
cotas
100
AcDbLine
 10
0.0
 20
-20.0
 30
0.0
 11
327.1260136525398
 21
-20.0
 31
0.0
  0
LINE
  5
B39
330
922
100
AcDbEntity
  8
cotas
100
AcDbLine
 10
0.0
 20
-15.0
 30
0.0
 11
327.1260136525398
 21
-15.0
 31
0.0
  0
LINE
  5
B3A
330
922
100
AcDbEntity
  8
cotas
100
AcDbLine
 10
0.0
 20
-10.0
 30
0.0
 11
327.1260136525398
 21
-10.0
 31
0.0
  0
LINE
  5
B3B
330
922
100
AcDbEntity
  8
cotas
100
AcDbLine
 10
0.0
 20
0.0
 30
0.0
 11
0.0
 21
-30.0
 31
0.0
  0
LINE
  5
B3C
330
922
100
AcDbEntity
  8
cotas
100
AcDbLine
 10
327.1260136525398
 20
-30.0
 30
0.0
 11
327.1260136525398
 21
0.0
 31
0.0
  0
ENDBLK
  5
92B
330
922
100
AcDbEntity
  8
0
100
AcDbBlockEnd
  0
BLOCK
  5
AAD
330
AA8
100
AcDbEntity
  8
0
100
AcDbBlockBegin
  2
_CLOSED
 70
     0
 10
0.0
 20
0.0
 30
0.0
  3
_CLOSED
  1

  0
LINE
  5
AA9
330
AA8
100
AcDbEntity
  8
0
100
AcDbLine
 10
-1.0
 20
0.166667
 30
0.0
 11
0.0
 21
0.0
 31
0.0
  0
LINE
  5
AAA
330
AA8
100
AcDbEntity
  8
0
100
AcDbLine
 10
0.0
 20
0.0
 30
0.0
 11
-1.0
 21
-0.166667
 31
0.0
  0
LINE
  5
AAB
330
AA8
100
AcDbEntity
  8
0
100
AcDbLine
 10
-1.0
 20
0.166667
 30
0.0
 11
-1.0
 21
-0.166667
 31
0.0
  0
LINE
  5
AAC
330
AA8
100
AcDbEntity
  8
0
100
AcDbLine
 10
0.0
 20
0.0
 30
0.0
 11
-1.0
 21
0.0
 31
0.0
  0
ENDBLK
  5
AAE
330
AA8
100
AcDbEntity
  8
0
100
AcDbBlockEnd
  0
BLOCK
  5
B7C
330
B79
100
AcDbEntity
  8
0
100
AcDbBlockBegin
  2
nota revisoes
 70
     0
 10
0.0
 20
0.0
 30
0.0
  3
nota revisoes
  1

  0
CIRCLE
  5
B7A
330
B79
100
AcDbEntity
  8
4
100
AcDbCircle
 10
0.0
 20
0.0
 30
0.0
 40
13.69426055101189
  0
TEXT
  5
B7B
330
B79
100
AcDbEntity
  8
4
100
AcDbText
 10
-5.496248358154345
 20
-5.354545554066362
 30
0.0
 40
12.0
  1
1
  7
SANINDUSA
 72
     1
 11
-0.249774214433728
 21
-5.354545554066362
 31
0.0
100
AcDbText
  0
ENDBLK
  5
B7D
330
B79
100
AcDbEntity
  8
0
100
AcDbBlockEnd
  0
BLOCK
  5
B9C
330
B8E
100
AcDbEntity
  8
0
100
AcDbBlockBegin
  2
a3l
 70
     0
 10
0.0
 20
0.0
 30
0.0
  3
a3l
  1

  0
LINE
  5
B8F
330
B8E
100
AcDbEntity
  8
1
100
AcDbLine
 10
-364.2925296599447
 20
-362.1188951399395
 30
0.0
 11
-364.2925296599447
 21
-65.11889513993946
 31
0.0
  0
LINE
  5
B90
330
B8E
100
AcDbEntity
  8
4
100
AcDbLine
 10
-369.2925296599447
 20
-357.1188951399395
 30
0.0
 11
-369.2925296599447
 21
-70.11889513993946
 31
0.0
  0
LINE
  5
B91
330
B8E
100
AcDbEntity
  8
1
100
AcDbLine
 10
-784.2925296599446
 20
-65.11889513993946
 30
0.0
 11
-784.2925296599446
 21
-362.1188951399395
 31
0.0
  0
LINE
  5
B92
330
B8E
100
AcDbEntity
  8
4
100
AcDbLine
 10
-759.2925296599446
 20
-357.1188951399395
 30
0.0
 11
-759.2925296599446
 21
-70.11889513993946
 31
0.0
  0
LINE
  5
B93
330
B8E
100
AcDbEntity
  8
1
100
AcDbLine
 10
-784.2925296599446
 20
-362.1188951399395
 30
0.0
 11
-364.2925296599447
 21
-362.1188951399395
 31
0.0
  0
LINE
  5
B94
330
B8E
100
AcDbEntity
  8
4
100
AcDbLine
 10
-759.2925296599446
 20
-357.1188951399395
 30
0.0
 11
-369.2925296599447
 21
-357.1188951399395
 31
0.0
  0
LINE
  5
B95
330
B8E
100
AcDbEntity
  8
1
100
AcDbLine
 10
-654.2925296599446
 20
-357.1188951399395
 30
0.0
 11
-654.2925296599446
 21
-362.1188951399395
 31
0.0
  0
LINE
  5
B96
330
B8E
100
AcDbEntity
  8
1
100
AcDbLine
 10
-364.2925296599447
 20
-65.11889513993946
 30
0.0
 11
-784.2925296599446
 21
-65.11889513993946
 31
0.0
  0
LINE
  5
B97
330
B8E
100
AcDbEntity
  8
4
100
AcDbLine
 10
-369.2925296599447
 20
-70.11889513993946
 30
0.0
 11
-759.2925296599446
 21
-70.11889513993946
 31
0.0
  0
LINE
  5
B98
330
B8E
100
AcDbEntity
  8
1
100
AcDbLine
 10
-654.2925296599446
 20
-65.11889513993946
 30
0.0
 11
-654.2925296599446
 21
-70.11889513993946
 31
0.0
  0
LINE
  5
B99
330
B8E
100
AcDbEntity
  8
1
100
AcDbLine
 10
-549.2925296599446
 20
-70.11889513993946
 30
0.0
 11
-549.2925296599446
 21
-65.11889513993946
 31
0.0
  0
LINE
  5
B9A
330
B8E
100
AcDbEntity
  8
1
100
AcDbLine
 10
-369.2925296599447
 20
-65.11889513993946
 30
0.0
 11
-364.2925296599447
 21
-65.11889513993946
 31
0.0
  0
LINE
  5
B9B
330
B8E
100
AcDbEntity
  8
1
100
AcDbLine
 10
-549.2925296599446
 20
-357.1188951399395
 30
0.0
 11
-549.2925296599446
 21
-362.1188951399395
 31
0.0
  0
ENDBLK
  5
B9D
330
B8E
100
AcDbEntity
  8
0
100
AcDbBlockEnd
  0
BLOCK
  5
C13
330
B9E
100
AcDbEntity
  8
0
100
AcDbBlockBegin
  2
legenda desenvolvimento
 70
     2
 10
0.0
 20
0.0
 30
0.0
  3
legenda desenvolvimento
  1

  0
ATTDEF
  5
B9F
330
B9E
100
AcDbEntity
  8
1
100
AcDbText
 10
-108.606245802552
 20
55.5
 30
0.0
 40
4.0
  1
XXXXXXXXXXXXXX
 41
0.8
  7
SANINDUSA
 72
     4
 11
-87.5
 21
57.5
 31
0.0
100
AcDbAttributeDefinition
  3
Nome do Produto:
  2
PRODUTO
 70
     0
  0
ATTDEF
  5
BA0
330
B9E
100
AcDbEntity
  8
1
100
AcDbText
 10
-97.9997966101695
 20
41.25
 30
0.0
 40
3.0
  1
XXXXXXXXX
 41
0.8
  7
futura
 72
     4
 11
-87.5
 21
42.75
 31
0.0
100
AcDbAttributeDefinition
  3
Nome da Peça:
  2
PECA
 70
     0
  0
ATTDEF
  5
BA1
330
B9E
100
AcDbEntity
  8
1
100
AcDbText
 10
-133.4422431161853
 20
21.11745296763252
 30
0.0
 40
2.5
  1
X
 41
0.8
  7
SANINDUSA
 72
     4
 11
-132.5
 21
22.36745296763252
 31
0.0
100
AcDbAttributeDefinition
  3
Cod. TESTE:
  2
TESTE
 70
     0
  0
ATTDEF
  5
BA2
330
B9E
100
AcDbEntity
  8
1
100
AcDbText
 10
-124.3844862323707
 20
21.11745296763252
 30
0.0
 40
2.5
  1
XX
 41
0.8
  7
SANINDUSA
 72
     4
 11
-122.5
 21
22.36745296763252
 31
0.0
100
AcDbAttributeDefinition
  3
Cod. Ano:
  2
ANO
 70
     0
  0
ATTDEF
  5
BA3
330
B9E
100
AcDbEntity
  8
1
100
AcDbText
 10
-112.526889953052
 20
21.11745296763252
 30
0.0
 40
2.5
  1
XXX
 41
0.8
  7
SANINDUSA
 72
     4
 11
-109.700160604496
 21
22.36745296763252
 31
0.0
100
AcDbAttributeDefinition
  3
Cod. Sequência:
  2
SEQUENCIA
 70
     0
  0
ATTDEF
  5
BA4
330
B9E
100
AcDbEntity
  8
1
100
AcDbText
 10
-99.35382430979316
 20
21.11745296763252
 30
0.0
 40
2.5
  1
XX
 41
0.8
  7
SANINDUSA
 72
     4
 11
-97.46933807742244
 21
22.36745296763252
 31
0.0
100
AcDbAttributeDefinition
  3
Cod. Tipo:
  2
TIPO
 70
     0
  0
ATTDEF
  5
BA5
330
B9E
100
AcDbEntity
  8
1
100
AcDbText
 10
-87.42035911468438
 20
21.11745296763252
 30
0.0
 40
2.5
  1
XXX
 41
0.8
  7
SANINDUSA
 72
     4
 11
-84.59362976612828
 21
22.36745296763252
 31
0.0
100
AcDbAttributeDefinition
  3
Cod. Produto:
  2
PRODUTO
 70
     0
  0
ATTDEF
  5
BA6
330
B9E
100
AcDbEntity
  8
1
100
AcDbText
 10
-74.62051971917853
 20
21.11745296763252
 30
0.0
 40
2.5
  1
XXX
 41
0.8
  7
SANINDUSA
 72
     4
 11
-71.79379037062244
 21
22.36745296763252
 31
0.0
100
AcDbAttributeDefinition
  3
Cod. Peça:
  2
PECA
 70
     0
  0
ATTDEF
  5
BA7
330
B9E
100
AcDbEntity
  8
1
100
AcDbText
 10
-61.10603446650329
 20
21.11745296763252
 30
0.0
 40
2.5
  1
XX
 41
0.8
  7
SANINDUSA
 72
     4
 11
-59.22154823413257
 21
22.36745296763252
 31
0.0
100
AcDbAttributeDefinition
  3
Cod. Revisão:
  2
REV
 70
     0
  0
ATTDEF
  5
BA8
330
B9E
100
AcDbEntity
  8
1
100
AcDbText
 10
-48.43615325006194
 20
21.11745296763252
 30
0.0
 40
2.5
  1
XX
 41
0.8
  7
SANINDUSA
 72
     4
 11
-46.55166701769121
 21
22.36745296763252
 31
0.0
100
AcDbAttributeDefinition
  3
Cod. Alteração:
  2
ALT
 70
     0
  0
ATTDEF
  5
BA9
330
B9E
100
AcDbEntity
  8
1
100
AcDbText
 10
-35.19086635325722
 20
23.98875083948959
 30
0.0
 40
3.0
  1
1/XXX
 41
0.8
  7
SANINDUSA
 72
     4
 11
-30.0
 21
25.25
 31
0.0
100
AcDbAttributeDefinition
  3
Escala geral:
  2
ESCALA
 70
     0
  0
ATTDEF
  5
BAA
330
B9E
100
AcDbEntity
  8
1
100
AcDbText
 10
-15.65345869711215
 20
23.75
 30
0.0
 40
3.0
  1
XXXXX
 41
0.8
  7
SANINDUSA
 72
     4
 11
-10.0
 21
25.25
 31
0.0
100
AcDbAttributeDefinition
  3
Folha:
  2
FOLHA
 70
     0
  0
ATTDEF
  5
BAB
330
B9E
100
AcDbEntity
  8
1
100
AcDbText
 10
-178.5146998822042
 20
56.9531347542807
 30
0.0
 40
2.0
  1
xx
 41
0.8
  7
SANINDUSA
 72
     4
 11
-177.2123493113513
 21
57.70330265219877
 31
0.0
100
AcDbAttributeDefinition
  3
revisão
  2
REV.
 70
     0
  0
ATTDEF
  5
BAC
330
B9E
100
AcDbEntity
  8
1
100
AcDbText
 10
-172.7849640077129
 20
56.9531347542807
 30
0.0
 40
2.0
  1
xx
 41
0.8
  7
SANINDUSA
 72
     4
 11
-171.48261343686
 21
57.70330265219877
 31
0.0
100
AcDbAttributeDefinition
  3
alteração
  2
ALT.
 70
     0
  0
ATTDEF
  5
BAD
330
B9E
100
AcDbEntity
  8
1
100
AcDbText
 10
-168.007199951307
 20
56.70330265219877
 30
0.0
 40
2.0
  1
xx/xx/xxxx
 41
0.8
  7
SANINDUSA
 11
-168.007199951307
 21
57.70330265219877
 31
0.0
100
AcDbAttributeDefinition
  3
data
  2
DATA
 70
     0
 74
     2
  0
ATTDEF
  5
BAE
330
B9E
100
AcDbEntity
  8
1
100
AcDbText
 10
-168.5396372253371
 20
13.15916722632639
 30
0.0
 40
2.0
  1
XX/XX/XXXX
 41
0.8
  7
SANINDUSA
 72
     4
 11
-161.5099528734231
 21
14.0
 31
0.0
100
AcDbAttributeDefinition
  3
Data projecto
  2
DATA_PROJ
 70
     0
  0
ATTDEF
  5
BAF
330
B9E
100
AcDbEntity
  8
1
100
AcDbText
 10
-150.8658110728766
 20
13.24983210208193
 30
0.0
 40
2.0
  1
xxxxxxxx
 41
0.8
  7
SANINDUSA
 72
     4
 11
-145.6564087894649
 21
14.0
 31
0.0
100
AcDbAttributeDefinition
  3
nome de quem projectou
  2
NOME
 70
     0
  0
ATTDEF
  5
BB0
330
B9E
100
AcDbEntity
  8
1
100
AcDbText
 10
-168.5396372253371
 20
9.159167226326394
 30
0.0
 40
2.0
  1
XX/XX/XXXX
 41
0.8
  7
SANINDUSA
 72
     4
 11
-161.5099528734231
 21
10.0
 31
0.0
100
AcDbAttributeDefinition
  3
Data desenhou
  2
DATA_DES
 70
     0
  0
ATTDEF
  5
BB1
330
B9E
100
AcDbEntity
  8
1
100
AcDbText
 10
-151.516986358303
 20
9.249832102081933
 30
0.0
 40
2.0
  1
xxxxxxxxx
 41
0.8
  7
SANINDUSA
 72
     4
 11
-145.6564087894649
 21
10.0
 31
0.0
100
AcDbAttributeDefinition
  3
nome
  2
NOME
 70
     0
  0
ATTDEF
  5
BB2
330
B9E
100
AcDbEntity
  8
1
100
AcDbText
 10
-127.2924214135946
 20
14.1979876583216
 30
0.0
 40
2.0
  1
Vitreous China
 41
0.8
  7
SANINDUSA
 72
     4
 11
-119.231709526422
 21
15.22216495852308
 31
0.0
100
AcDbAttributeDefinition
  3
Nome do Material:
  2
MATERIAL
 70
     0
  0
ATTDEF
  5
BB3
330
B9E
100
AcDbEntity
  8
1
100
AcDbText
 10
-103.1563452122093
 20
14.38019043949261
 30
0.0
 40
2.0
  1
Branco
 41
0.8
  7
SANINDUSA
 72
     4
 11
-99.33418268702462
 21
15.35937109765245
 31
0.0
100
AcDbAttributeDefinition
  3
cor da peça
  2
COR
 70
     0
  0
ATTDEF
  5
BB4
330
B9E
100
AcDbEntity
  8
1
100
AcDbText
 10
-116.7235057085292
 20
5.975822699798522
 30
0.0
 40
2.0
  1
Vidrado
 41
0.8
  7
SANINDUSA
 72
     4
 11
-112.5
 21
7.0
 31
0.0
100
AcDbAttributeDefinition
  3
Tipo de acabamento:
  2
ACABAMENTO
 70
     0
  0
ATTDEF
  5
BB5
330
B9E
100
AcDbEntity
  8
1
100
AcDbText
 10
-79.18527869967246
 20
16.65066409850533
 30
0.0
 40
2.0
  1
XXXXXXX
 41
0.8
  7
SANINDUSA
 72
     4
 11
-73.90871724903445
 21
17.65066409850533
 31
0.0
100
AcDbAttributeDefinition
  3
Normas
  2
NORMAS
 70
     0
  0
ATTDEF
  5
BB6
330
B9E
100
AcDbEntity
  8
1
100
AcDbText
 10
-30.55312290127603
 20
14.0
 30
0.0
 40
2.0
  1
XXXXXXXXXXXXXX
 41
0.8
  7
SANINDUSA
 72
     4
 11
-20.0
 21
15.0
 31
0.0
100
AcDbAttributeDefinition
  3
Substitui o desenho:
  2
SUBSTITUI
 70
     0
  0
ATTDEF
  5
BB7
330
B9E
100
AcDbEntity
  8
1
100
AcDbText
 10
-31.30691739422431
 20
6.0
 30
0.0
 40
2.0
  1
XXXXXXXXXXXXXXX
 41
0.8
  7
SANINDUSA
 72
     4
 11
-20.0
 21
7.0
 31
0.0
100
AcDbAttributeDefinition
  3
Substituido por:
  2
SUBSTITUIDO
 70
     0
  0
ATTDEF
  5
BB8
330
B9E
100
AcDbEntity
  8
1
100
AcDbText
 10
-110.0220608548302
 20
1.478208457928303
 30
0.0
 40
2.0
  1
XXXXXXXXXXXXXXXXXXXXXXXXXXXXXXXXXX
 41
0.8
  7
SANINDUSA
 11
-110.0220608548302
 21
2.478208457928303
 31
0.0
100
AcDbAttributeDefinition
  3
Localização do desenho:
  2
LOC-DWG
 70
     0
 74
     2
  0
LINE
  5
BB9
330
B9E
100
AcDbEntity
  8
3
100
AcDbLine
 10
-135.0
 20
4.0
 30
0.0
 11
0.0000000000004547
 21
4.0
 31
0.0
  0
LINE
  5
BBA
330
B9E
100
AcDbEntity
  8
3
100
AcDbLine
 10
-90.00000000000046
 20
12.0
 30
0.0
 11
-135.0
 21
12.0
 31
0.0
  0
LINE
  5
BBB
330
B9E
100
AcDbEntity
  8
3
100
AcDbLine
 10
-135.0
 20
32.5
 30
0.0
 11
-40.0
 21
32.5
 31
0.0
  0
TEXT
  5
BBC
330
B9E
100
AcDbEntity
  8
1
100
AcDbText
 10
-134.0
 20
1.25
 30
0.0
 40
2.0
  1
Localização do des.:
 41
0.8
  7
SANINDUSA
 11
-134.0
 21
2.25
 31
0.0
100
AcDbText
 73
     2
  0
LINE
  5
BBD
330
B9E
100
AcDbEntity
  8
3
100
AcDbLine
 10
-180.0
 20
65.0
 30
0.0
 11
0.0
 21
65.0
 31
0.0
  0
LINE
  5
BBE
330
B9E
100
AcDbEntity
  8
leg fin
100
AcDbLine
 10
-40.0
 20
25.05956924886846
 30
0.0
 11
-135.0
 21
25.05956924886846
 31
0.0
  0
LINE
  5
BBF
330
B9E
100
AcDbEntity
  8
leg fin
100
AcDbLine
 10
-40.0
 20
28.5
 30
0.0
 11
-135.0
 21
28.5
 31
0.0
  0
LINE
  5
BC0
330
B9E
100
AcDbEntity
  8
3
100
AcDbLine
 10
-135.0
 20
50.0
 30
0.0
 11
-40.0
 21
50.0
 31
0.0
  0
TEXT
  5
BC1
330
B9E
100
AcDbEntity
  8
1
100
AcDbText
 10
-134.0
 20
29.75
 30
0.0
 40
2.0
  1
Desenho nº:
 41
0.8
  7
SANINDUSA
 11
-134.0
 21
30.75
 31
0.0
100
AcDbText
 73
     2
  0
TEXT
  5
BC2
330
B9E
100
AcDbEntity
  8
1
100
AcDbText
 10
-134.0
 20
9.25
 30
0.0
 40
2.0
  1
Acabamento:
 41
0.8
  7
SANINDUSA
 11
-134.0
 21
10.25
 31
0.0
100
AcDbText
 73
     2
  0
LINE
  5
BC3
330
B9E
100
AcDbEntity
  8
3
100
AcDbLine
 10
-180.0
 20
20.0
 30
0.0
 11
0.0
 21
20.0
 31
0.0
  0
LINE
  5
BC4
330
B9E
100
AcDbEntity
  8
1
100
AcDbLine
 10
-174.5810776056337
 20
55.5
 30
0.0
 11
-174.5810776056337
 21
65.0
 31
0.0
  0
LINE
  5
BC5
330
B9E
100
AcDbEntity
  8
1
100
AcDbLine
 10
-168.9210461879161
 20
55.5
 30
0.0
 11
-168.9210461879161
 21
65.0
 31
0.0
  0
LINE
  5
BC6
330
B9E
100
AcDbEntity
  8
1
100
AcDbLine
 10
-154.0988595589306
 20
55.5
 30
0.0
 11
-154.0988595589306
 21
65.0
 31
0.0
  0
LINE
  5
BC7
330
B9E
100
AcDbEntity
  8
3
100
AcDbLine
 10
-180.0
 20
65.0
 30
0.0
 11
-180.0
 21
0.0
 31
0.0
  0
LINE
  5
BC8
330
B9E
100
AcDbEntity
  8
3
100
AcDbLine
 10
-135.0
 20
0.0
 30
0.0
 11
-135.0
 21
65.0
 31
0.0
  0
TEXT
  5
BC9
330
B9E
100
AcDbEntity
  8
1
100
AcDbText
 10
-179.0
 20
9.75
 30
0.0
 40
1.5
  1
Des.
 41
0.8
  7
SANINDUSA
 11
-179.0
 21
10.5
 31
0.0
100
AcDbText
 73
     2
  0
LINE
  5
BCA
330
B9E
100
AcDbEntity
  8
1
100
AcDbLine
 10
-168.9210461879161
 20
20.0
 30
0.0
 11
-168.9210461879161
 21
0.0
 31
0.0
  0
LINE
  5
BCB
330
B9E
100
AcDbEntity
  8
1
100
AcDbLine
 10
-154.0988595589306
 20
20.0
 30
0.0
 11
-154.0988595589306
 21
0.0
 31
0.0
  0
LINE
  5
BCC
330
B9E
100
AcDbEntity
  8
1
100
AcDbLine
 10
-180.0
 20
4.0
 30
0.0
 11
-135.0
 21
4.0
 31
0.0
  0
LINE
  5
BCD
330
B9E
100
AcDbEntity
  8
1
100
AcDbLine
 10
-180.0
 20
8.0
 30
0.0
 11
-135.0
 21
8.0
 31
0.0
  0
TEXT
  5
BCE
330
B9E
100
AcDbEntity
  8
1
100
AcDbText
 10
-179.0
 20
1.73257823687436
 30
0.0
 40
1.5
  1
Aprov.
 41
0.8
  7
SANINDUSA
 11
-179.0
 21
2.48257823687436
 31
0.0
100
AcDbText
 73
     2
  0
TEXT
  5
BCF
330
B9E
100
AcDbEntity
  8
1
100
AcDbText
 10
-179.0
 20
5.75
 30
0.0
 40
1.5
  1
Ver.
 41
0.8
  7
SANINDUSA
 11
-179.0
 21
6.5
 31
0.0
100
AcDbText
 73
     2
  0
LINE
  5
BD0
330
B9E
100
AcDbEntity
  8
1
100
AcDbLine
 10
-180.0
 20
16.0
 30
0.0
 11
-135.0
 21
16.0
 31
0.0
  0
LINE
  5
BD1
330
B9E
100
AcDbEntity
  8
1
100
AcDbLine
 10
-180.0
 20
12.0
 30
0.0
 11
-135.0
 21
12.0
 31
0.0
  0
TEXT
  5
BD2
330
B9E
100
AcDbEntity
  8
1
100
AcDbText
 10
-179.0
 20
13.75
 30
0.0
 40
1.5
  1
Proj.
 41
0.8
  7
SANINDUSA
 11
-179.0
 21
14.5
 31
0.0
100
AcDbText
 73
     2
  0
TEXT
  5
BD3
330
B9E
100
AcDbEntity
  8
1
100
AcDbText
 10
-167.9210461879161
 20
17.75
 30
0.0
 40
1.5
  1
Data
 41
0.8
  7
SANINDUSA
 11
-167.9210461879161
 21
18.5
 31
0.0
100
AcDbText
 73
     2
  0
TEXT
  5
BD4
330
B9E
100
AcDbEntity
  8
1
100
AcDbText
 10
-153.0988595589306
 20
17.75
 30
0.0
 40
1.5
  1
Nome
 41
0.8
  7
SANINDUSA
 11
-153.0988595589306
 21
18.5
 31
0.0
100
AcDbText
 73
     2
  0
LINE
  5
BD5
330
B9E
100
AcDbEntity
  8
leg fin
100
AcDbLine
 10
-130.0
 20
20.0
 30
0.0
 11
-130.0
 21
28.5
 31
0.0
  0
TEXT
  5
BD6
330
B9E
100
AcDbEntity
  8
1
100
AcDbText
 10
-134.0
 20
17.25
 30
0.0
 40
2.0
  1
Material:
 41
0.8
  7
SANINDUSA
 11
-134.0
 21
18.25
 31
0.0
100
AcDbText
 73
     2
  0
TEXT
  5
BD7
330
B9E
100
AcDbEntity
  8
1
100
AcDbText
 10
-129.0
 20
26.43288406845113
 30
0.0
 40
1.5
  1
Ano:
 41
0.8
  7
SANINDUSA
 11
-129.0
 21
27.18288406845113
 31
0.0
100
AcDbText
 73
     2
  0
LINE
  5
BD8
330
B9E
100
AcDbEntity
  8
1
100
AcDbLine
 10
-180.0
 20
55.5
 30
0.0
 11
-135.0
 21
55.5
 31
0.0
  0
TEXT
  5
BD9
330
B9E
100
AcDbEntity
  8
1
100
AcDbText
 10
-179.0
 20
52.67772246885193
 30
0.0
 40
1.5
  1
descrição
 41
0.8
  7
SANINDUSA
 11
-179.0
 21
53.42772246885193
 31
0.0
100
AcDbText
 73
     2
  0
TEXT
  5
BDA
330
B9E
100
AcDbEntity
  8
1
100
AcDbText
 10
-134.0
 20
47.25
 30
0.0
 40
2.0
  1
Peça:
 41
0.8
  7
SANINDUSA
 11
-134.0
 21
48.25
 31
0.0
100
AcDbText
 73
     2
  0
LINE
  5
BDB
330
B9E
100
AcDbEntity
  8
1
100
AcDbLine
 10
-180.0
 20
59.5
 30
0.0
 11
-135.0
 21
59.5
 31
0.0
  0
TEXT
  5
BDC
330
B9E
100
AcDbEntity
  8
1
100
AcDbText
 10
-173.5810776056337
 20
62.75
 30
0.0
 40
1.5
  1
Alt.
 41
0.8
  7
SANINDUSA
 11
-173.5810776056337
 21
63.5
 31
0.0
100
AcDbText
 73
     2
  0
TEXT
  5
BDD
330
B9E
100
AcDbEntity
  8
1
100
AcDbText
 10
-179.0
 20
62.75
 30
0.0
 40
1.5
  1
Rev.
 41
0.8
  7
SANINDUSA
 11
-179.0
 21
63.5
 31
0.0
100
AcDbText
 73
     2
  0
TEXT
  5
BDE
330
B9E
100
AcDbEntity
  8
1
100
AcDbText
 10
-167.9210461879161
 20
62.75
 30
0.0
 40
1.5
  1
Data
 41
0.8
  7
SANINDUSA
 11
-167.9210461879161
 21
63.5
 31
0.0
100
AcDbText
 73
     2
  0
TEXT
  5
BDF
330
B9E
100
AcDbEntity
  8
1
100
AcDbText
 10
-153.0988595589306
 20
62.75
 30
0.0
 40
1.5
  1
Nome
 41
0.8
  7
SANINDUSA
 11
-153.0988595589306
 21
63.5
 31
0.0
100
AcDbText
 73
     2
  0
TEXT
  5
BE0
330
B9E
100
AcDbEntity
  8
1
100
AcDbText
 10
-134.0
 20
62.25
 30
0.0
 40
2.0
  1
Produto:
 41
0.8
  7
SANINDUSA
 11
-134.0
 21
63.25
 31
0.0
100
AcDbText
 73
     2
  0
LINE
  5
BE1
330
B9E
100
AcDbEntity
  8
3
100
AcDbLine
 10
-40.0
 20
4.0
 30
0.0
 11
-40.0
 21
65.0
 31
0.0
  0
LWPOLYLINE
  5
BE2
102
{ACAD_REACTORS
330
BEC
102
}
330
B9E
100
AcDbEntity
  8
9
100
AcDbPolyline
 90
       12
 70
     1
 43
0.0
 10
-3.038714600644652
 20
58.90010174665076
 10
-5.726962862472191
 20
58.90010174665076
 10
-5.726962862472191
 20
58.5001017466509
 10
-3.038748516195028
 20
58.5001017466509
 42
-0.4142135623731731
 10
-2.638748516194482
 20
58.1001017466508
 10
-2.638748516194482
 20
57.42799728675596
 10
-5.21497371544865
 20
57.42799728675596
 42
0.4142135623731289
 10
-6.014973715448377
 20
56.627997286756
 10
-6.014973715448377
 20
55.92380871629643
 42
0.4142135623731132
 10
-5.21497371544865
 20
55.12380871629648
 10
-2.23871460064447
 20
55.12380871629648
 10
-2.23871460064447
 20
58.10010174665103
 42
0.4142135623730717
  0
LWPOLYLINE
  5
BE3
102
{ACAD_REACTORS
330
BEC
102
}
330
B9E
100
AcDbEntity
  8
9
100
AcDbPolyline
 90
       20
 70
     1
 43
0.0
 10
-10.01531287095122
 20
57.82799728675581
 10
-10.01531287095122
 20
58.10010174665103
 42
-0.4142135623730744
 10
-9.615312870951584
 20
58.5001017466509
 10
-6.92703069357276
 20
58.5001017466509
 10
-6.92703069357276
 20
58.90010174665076
 10
-9.615346786501959
 20
58.90010174665076
 42
0.4142135623730883
 10
-10.41534678650168
 20
58.1001017466508
 10
-10.41534678650168
 20
57.82796337120567
 42
0.4142135623730717
 10
-9.615346786501959
 20
57.02796337120571
 10
-7.423079531965413
 20
57.02796337120571
 42
-0.4142135623730847
 10
-7.023079531965322
 20
56.62796337120562
 10
-7.023079531965322
 20
55.90786840766487
 42
-0.4142135623730744
 10
-7.423079531965413
 20
55.507868407665
 10
-10.41534678650168
 20
55.507868407665
 10
-10.41534678650168
 20
55.12380871629648
 10
-7.445787917283723
 20
55.12380871629648
 42
0.4114777732064574
 10
-6.645822882998345
 20
55.9163291493976
 10
-6.639238813324936
 20
56.62051771985716
 42
0.4169546541682913
 10
-7.439203847610315
 20
57.42799728675596
 10
-9.615312870951584
 20
57.42799728675596
 42
-0.4142135623731576
  0
LWPOLYLINE
  5
BE4
102
{ACAD_REACTORS
330
BEC
102
}
330
B9E
100
AcDbEntity
  8
9
100
AcDbPolyline
 90
       12
 70
     1
 43
0.0
 10
-14.41561811090378
 20
58.90010174665076
 10
-14.79964388672215
 20
58.90010174665076
 10
-14.79964388672215
 20
55.92380871629643
 42
0.4142135623731133
 10
-13.99964388672242
 20
55.12380871629648
 10
-11.8233508563676
 20
55.12380871629648
 42
0.4142135623730872
 10
-11.02335085636741
 20
55.92380871629643
 10
-11.02335085636741
 20
58.90010174665076
 10
-11.42338477191788
 20
58.90010174665076
 10
-11.42338477191788
 20
55.91567577726095
 42
-0.4131711701795318
 10
-11.82196067063523
 20
55.51567831234956
 10
-14.0141940096214
 20
55.50787335710947
 42
-0.4152567234624407
 10
-14.41561811090378
 20
55.90787082202087
  0
LWPOLYLINE
  5
BE5
102
{ACAD_REACTORS
330
BEC
102
}
330
B9E
100
AcDbEntity
  8
9
100
AcDbPolyline
 90
        6
 70
     1
 43
0.0
 10
-15.80771578768872
 20
55.507868407665
 10
-18.39994912667453
 20
55.507868407665
 42
-0.4142135623731731
 10
-18.79994912667462
 20
55.90786840766487
 10
-18.79994912667462
 20
58.10010174665103
 42
-0.4142135623730744
 10
-18.39994912667453
 20
58.5001017466509
 10
-15.80771578768872
 20
58.5001017466509
  0
LWPOLYLINE
  5
BE6
102
{ACAD_REACTORS
330
BEC
102
}
330
B9E
100
AcDbEntity
  8
9
100
AcDbPolyline
 90
        8
 70
     1
 43
0.0
 10
-15.4236900118708
 20
59.87619128370352
 10
-15.80771578768872
 20
59.87619128370352
 10
-15.80771578768872
 20
58.90010174665076
 10
-18.39176256411201
 20
58.90010174665076
 42
0.4131164467977967
 10
-19.19175694739761
 20
58.1030995310698
 10
-19.1999120763262
 20
55.92680650071542
 42
0.4153115297271718
 10
-18.39991769304061
 20
55.12380871629648
 10
-15.4236900118708
 20
55.12380871629648
  0
LWPOLYLINE
  5
BE7
102
{ACAD_REACTORS
330
BEC
102
}
330
B9E
100
AcDbEntity
  8
9
100
AcDbPolyline
 90
       10
 70
     1
 43
0.0
 10
-20.59201288790928
 20
58.90010174665076
 10
-23.56830591826338
 20
58.90010174665076
 10
-23.56830591826338
 20
55.12380871629648
 10
-23.18424622689509
 20
55.12380871629648
 10
-23.18424622689509
 20
58.5001017466509
 10
-20.59204680345965
 20
58.5001017466509
 42
-0.4142135623730898
 10
-20.19204680345956
 20
58.1001017466508
 10
-20.19204680345956
 20
55.12380871629648
 10
-19.79201288790909
 20
55.12380871629648
 10
-19.79201288790909
 20
58.10010174665103
 42
0.4142135623731132
  0
LWPOLYLINE
  5
BE8
102
{ACAD_REACTORS
330
BEC
102
}
330
B9E
100
AcDbEntity
  8
9
100
AcDbPolyline
 90
        4
 70
     1
 43
0.0
 10
-24.19231812786165
 20
58.90010174665076
 10
-24.57637781922995
 20
58.90010174665076
 10
-24.57637781922995
 20
55.12380871629648
 10
-24.19231812786165
 20
55.12380871629648
  0
LWPOLYLINE
  5
BE9
102
{ACAD_REACTORS
330
BEC
102
}
330
B9E
100
AcDbEntity
  8
9
100
AcDbPolyline
 90
       10
 70
     1
 43
0.0
 10
-28.57661522808212
 20
58.5001017466509
 10
-25.98444972019706
 20
58.5001017466509
 42
-0.4142135623731731
 10
-25.58444972019652
 20
58.1001017466508
 10
-25.58444972019652
 20
55.12380871629648
 10
-25.2004239443786
 20
55.12380871629648
 10
-25.2004239443786
 20
58.10010174665103
 42
0.4142135623730717
 10
-26.00042394437833
 20
58.90010174665076
 10
-28.97664914363259
 20
58.90010174665076
 10
-28.97664914363259
 20
55.12380871629648
 10
-28.57661522808212
 20
55.12380871629648
  0
LWPOLYLINE
  5
BEA
102
{ACAD_REACTORS
330
BEC
102
}
330
B9E
100
AcDbEntity
  8
9
100
AcDbPolyline
 90
       12
 70
     1
 43
0.0
 10
-29.58465321349832
 20
58.10010174665103
 42
0.4142135623730716
 10
-30.3846532134985
 20
58.90010174665076
 10
-33.07296930642724
 20
58.90010174665076
 10
-33.07296930642724
 20
58.5001017466509
 10
-30.38468712904842
 20
58.5001017466509
 42
-0.4142135623730067
 10
-29.98468712904878
 20
58.1001017466508
 10
-29.98468712904878
 20
57.42799728675618
 10
-32.56098015940324
 20
57.42799728675596
 42
0.4142135623731289
 10
-33.36098015940343
 20
56.627997286756
 10
-33.36098015940343
 20
55.92380871629643
 42
0.4142135623731132
 10
-32.56098015940324
 20
55.12380871629648
 10
-29.58465321349832
 20
55.12380871629648
  0
LWPOLYLINE
  5
BEB
102
{ACAD_REACTORS
330
BEC
102
}
330
B9E
100
AcDbEntity
  8
9
100
AcDbPolyline
 90
       20
 70
     1
 43
0.0
 10
-34.7850262845518
 20
57.42799728675596
 10
-36.96125148380543
 20
57.42799728675596
 42
-0.4142135623730898
 10
-37.36125148380552
 20
57.82799728675604
 10
-37.36125148380552
 20
58.10010174665103
 42
-0.4142135623730744
 10
-36.96125148380543
 20
58.5001017466509
 10
-34.27303713752781
 20
58.50010174665067
 10
-34.27303713752781
 20
58.90010174665076
 10
-36.96128539935535
 20
58.90010174665076
 42
0.4142135623731289
 10
-37.76128539935553
 20
58.1001017466508
 10
-37.76128539935553
 20
57.82796337120567
 42
0.4142135623730716
 10
-36.9612853993558
 20
57.02796337120571
 10
-34.76901814481926
 20
57.02796337120571
 42
-0.414213562373168
 10
-34.36901814481962
 20
56.62796337120562
 10
-34.36901814481962
 20
55.90786840766487
 42
-0.4142135623730744
 10
-34.76901814481926
 20
55.507868407665
 10
-37.76128539935553
 20
55.507868407665
 10
-37.76128539935553
 20
55.12380871629648
 10
-34.7850262845518
 20
55.12380871629648
 42
0.4142135623731289
 10
-33.98502628455162
 20
55.92380871629643
 10
-33.98502628455162
 20
56.627997286756
 42
0.4142135623731132
  0
HATCH
  5
BEC
330
B9E
100
AcDbEntity
  8
9
100
AcDbHatch
 10
0.0
 20
0.0
 30
0.0
210
0.0
220
0.0
230
1.0
  2
SOLID
 70
     1
 71
     1
 91
       13
 92
        7
 72
     1
 73
     1
 93
       20
 10
-34.36901814481962
 20
55.90786840766487
 42
-0.414213562372991
 10
-34.76901814481926
 20
55.507868407665
 42
0.0
 10
-37.76128539935553
 20
55.507868407665
 42
0.0
 10
-37.76128539935553
 20
55.12380871629648
 42
0.0
 10
-34.7850262845518
 20
55.12380871629648
 42
0.4142135623731705
 10
-33.98502628455162
 20
55.92380871629666
 42
0.0
 10
-33.98502628455162
 20
56.627997286756
 42
0.4142135623731547
 10
-34.7850262845518
 20
57.42799728675596
 42
0.0
 10
-36.96125148380543
 20
57.42799728675596
 42
-0.4142135623730898
 10
-37.36125148380552
 20
57.82799728675604
 42
0.0
 10
-37.36125148380552
 20
58.1001017466508
 42
-0.4142135623731575
 10
-36.96125148380543
 20
58.5001017466509
 42
0.0
 10
-34.27303713752781
 20
58.50010174665067
 42
0.0
 10
-34.27303713752781
 20
58.90010174665076
 42
0.0
 10
-36.96128539935535
 20
58.90010174665076
 42
0.4142135623731705
 10
-37.76128539935553
 20
58.10010174665058
 42
0.0
 10
-37.76128539935553
 20
57.82796337120544
 42
0.4142135623730299
 10
-36.9612853993558
 20
57.02796337120571
 42
0.0
 10
-34.76901814481926
 20
57.02796337120571
 42
-0.4142135623730015
 10
-34.36901814481962
 20
56.62796337120608
 42
0.0
 97
        1
330
BEB
 92
        7
 72
     1
 73
     1
 93
       12
 10
-33.36098015940343
 20
55.92380871629666
 42
0.4142135623731547
 10
-32.56098015940324
 20
55.12380871629648
 42
0.0
 10
-29.58465321349877
 20
55.12380871629648
 42
0.0
 10
-29.58465321349832
 20
58.10010174665058
 42
0.4142135623731964
 10
-30.3846532134985
 20
58.90010174665076
 42
0.0
 10
-33.07296930642724
 20
58.90010174665076
 42
0.0
 10
-33.07296930642724
 20
58.50010174665067
 42
0.0
 10
-30.38468712904887
 20
58.5001017466509
 42
-0.4142135623732564
 10
-29.98468712904878
 20
58.10010174665103
 42
0.0
 10
-29.98468712904923
 20
57.42799728675596
 42
0.0
 10
-32.56098015940324
 20
57.42799728675596
 42
0.4142135623731705
 10
-33.36098015940343
 20
56.627997286756
 42
0.0
 97
        1
330
BEA
 92
       22
 72
     1
 73
     1
 93
        6
 10
-32.97692046803468
 20
56.62796337120562
 42
-0.4142135623731576
 10
-32.57692046803459
 20
57.02796337120571
 42
0.0
 10
-29.98468712904878
 20
57.02796337120571
 42
0.0
 10
-29.98468712904878
 20
55.507868407665
 42
0.0
 10
-32.57692046803459
 20
55.507868407665
 42
-0.4142135623731731
 10
-32.97692046803468
 20
55.90786840766487
 42
0.0
 97
        1
330
C11
 92
        7
 72
     1
 73
     1
 93
       10
 10
-28.57661522808212
 20
58.5001017466509
 42
0.0
 10
-25.98444972019661
 20
58.5001017466509
 42
-0.4142135623730067
 10
-25.58444972019652
 20
58.10010174665058
 42
0.0
 10
-25.58444972019606
 20
55.12380871629648
 42
0.0
 10
-25.20042394437906
 20
55.12380871629648
 42
0.0
 10
-25.2004239443786
 20
58.1001017466508
 42
0.4142135623731134
 10
-26.00042394437833
 20
58.90010174665076
 42
0.0
 10
-28.97664914363259
 20
58.90010174665076
 42
0.0
 10
-28.97664914363259
 20
55.12380871629648
 42
0.0
 10
-28.57661522808212
 20
55.12380871629648
 42
0.0
 97
        1
330
BE9
 92
        7
 72
     0
 73
     1
 93
        4
 10
-24.57637781922995
 20
55.12380871629648
 10
-24.19231812786165
 20
55.12380871629648
 10
-24.19231812786165
 20
58.90010174665076
 10
-24.57637781922995
 20
58.90010174665076
 97
        1
330
BE8
 92
        7
 72
     0
 73
     1
 93
        4
 10
-24.19231812786165
 20
59.87619128370352
 10
-24.5763778192304
 20
59.87619128370352
 10
-24.5763778192304
 20
59.28412752246913
 10
-24.1923181278612
 20
59.28412752246913
 97
        1
330
C12
 92
        7
 72
     1
 73
     1
 93
       10
 10
-23.18424622689509
 20
58.5001017466509
 42
0.0
 10
-20.59204680345965
 20
58.5001017466509
 42
-0.4142135623730898
 10
-20.19204680345956
 20
58.1001017466508
 42
0.0
 10
-20.19204680345956
 20
55.12380871629648
 42
0.0
 10
-19.79201288790909
 20
55.12380871629648
 42
0.0
 10
-19.79201288790909
 20
58.1001017466508
 42
0.4142135623731547
 10
-20.59201288790928
 20
58.90010174665076
 42
0.0
 10
-23.56830591826338
 20
58.90010174665076
 42
0.0
 10
-23.56830591826338
 20
55.12380871629648
 42
0.0
 10
-23.18424622689463
 20
55.12380871629648
 42
0.0
 97
        1
330
BE7
 92
        7
 72
     1
 73
     1
 93
        8
 10
-19.1999120763262
 20
55.92680650071542
 42
0.4153115297271299
 10
-18.39991769304061
 20
55.12380871629648
 42
0.0
 10
-15.4236900118708
 20
55.12380871629648
 42
0.0
 10
-15.4236900118708
 20
59.87619128370352
 42
0.0
 10
-15.80771578768872
 20
59.87619128370352
 42
0.0
 10
-15.80771578768872
 20
58.90010174665076
 42
0.0
 10
-18.39176256411201
 20
58.90010174665076
 42
0.4131164467977965
 10
-19.19175694739761
 20
58.1030995310698
 42
0.0
 97
        1
330
BE6
 92
       22
 72
     1
 73
     1
 93
        6
 10
-18.79994912667462
 20
58.1001017466508
 42
-0.4142135623731575
 10
-18.39994912667453
 20
58.5001017466509
 42
0.0
 10
-15.80771578768872
 20
58.50010174665067
 42
0.0
 10
-15.80771578768827
 20
55.507868407665
 42
0.0
 10
-18.39994912667453
 20
55.507868407665
 42
-0.4142135623731731
 10
-18.79994912667462
 20
55.90786840766487
 42
0.0
 97
        1
330
BE5
 92
        7
 72
     1
 73
     1
 93
       12
 10
-14.79964388672215
 20
55.92380871629621
 42
0.4142135623729885
 10
-13.99964388672242
 20
55.12380871629648
 42
0.0
 10
-11.8233508563676
 20
55.12380871629648
 42
0.4142135623731289
 10
-11.02335085636741
 20
55.92380871629666
 42
0.0
 10
-11.02335085636741
 20
58.90010174665076
 42
0.0
 10
-11.42338477191788
 20
58.90010174665076
 42
0.0
 10
-11.42338477191788
 20
55.91567577726095
 42
-0.4131711701795319
 10
-11.82196067063523
 20
55.51567831234956
 42
0.0
 10
-14.01419400962095
 20
55.50787335710947
 42
-0.4152567234626918
 10
-14.41561811090378
 20
55.90787082202087
 42
0.0
 10
-14.41561811090378
 20
58.90010174665076
 42
0.0
 10
-14.7996438867226
 20
58.90010174665076
 42
0.0
 97
        1
330
BE4
 92
        7
 72
     1
 73
     1
 93
       20
 10
-7.423079531965413
 20
57.02796337120571
 42
-0.414213562373168
 10
-7.023079531965322
 20
56.62796337120562
 42
0.0
 10
-7.023079531965322
 20
55.90786840766487
 42
-0.4142135623731575
 10
-7.423079531965413
 20
55.507868407665
 42
0.0
 10
-10.41534678650168
 20
55.507868407665
 42
0.0
 10
-10.41534678650168
 20
55.12380871629648
 42
0.0
 10
-7.445787917283723
 20
55.12380871629648
 42
0.4114777732065809
 10
-6.645822882998345
 20
55.91632914939783
 42
0.0
 10
-6.639238813324936
 20
56.62051771985716
 42
0.4169546541682913
 10
-7.439203847610315
 20
57.42799728675596
 42
0.0
 10
-9.615312870951584
 20
57.42799728675596
 42
-0.4142135623729911
 10
-10.01531287095122
 20
57.82799728675581
 42
0.0
 10
-10.01531287095122
 20
58.10010174665103
 42
-0.414213562372991
 10
-9.615312870951584
 20
58.5001017466509
 42
0.0
 10
-6.92703069357276
 20
58.50010174665067
 42
0.0
 10
-6.927030693572305
 20
58.90010174665076
 42
0.0
 10
-9.615346786501959
 20
58.90010174665076
 42
0.4142135623730467
 10
-10.41534678650168
 20
58.10010174665103
 42
0.0
 10
-10.41534678650168
 20
57.82796337120544
 42
0.4142135623730301
 10
-9.615346786501959
 20
57.02796337120571
 42
0.0
 97
        1
330
BE3
 92
        7
 72
     1
 73
     1
 93
       12
 10
-5.21497371544865
 20
57.42799728675596
 42
0.4142135623730871
 10
-6.014973715448377
 20
56.627997286756
 42
0.0
 10
-6.014973715448377
 20
55.92380871629621
 42
0.4142135623730715
 10
-5.21497371544865
 20
55.12380871629648
 42
0.0
 10
-2.23871460064447
 20
55.12380871629648
 42
0.0
 10
-2.23871460064447
 20
58.10010174665058
 42
0.414213562373155
 10
-3.038714600644652
 20
58.90010174665076
 42
0.0
 10
-5.726962862471737
 20
58.90010174665076
 42
0.0
 10
-5.726962862472191
 20
58.5001017466509
 42
0.0
 10
-3.038748516194573
 20
58.5001017466509
 42
-0.4142135623730067
 10
-2.638748516194482
 20
58.10010174665058
 42
0.0
 10
-2.638748516194482
 20
57.42799728675596
 42
0.0
 97
        1
330
BE2
 92
       22
 72
     1
 73
     1
 93
        6
 10
-2.638748516194937
 20
57.02796337120571
 42
0.0
 10
-2.638748516194482
 20
55.50786840766477
 42
0.0
 10
-5.21497371544865
 20
55.507868407665
 42
-0.4142135623731731
 10
-5.614973715448741
 20
55.90786840766509
 42
0.0
 10
-5.614973715448741
 20
56.62796337120562
 42
-0.4142135623731576
 10
-5.21497371544865
 20
57.02796337120571
 42
0.0
 97
        1
330
C0D
 75
     0
 76
     1
 47
0.0407044778999864
 98
       13
 10
-34.18710075113677
 20
56.16907953933765
 10
-33.12851374392494
 20
56.49471602641233
 10
-33.12851374392494
 20
56.49471602641233
 10
-28.77202873835904
 20
57.51232930166111
 10
-24.41554807250941
 20
57.91937341678636
 10
-24.41554807250941
 20
59.384734621186
 10
-23.31624584658039
 20
58.3264175319116
 10
-19.04119127844888
 20
57.75655517324913
 10
-19.04119127844888
 20
57.75655517324913
 10
-14.64399105416578
 20
57.43091868617466
 10
-8.048195057457178
 20
57.22739662861204
 10
-4.017427461911665
 20
57.18669281458665
 10
-4.017427461911665
 20
57.18669281458665
  0
TEXT
  5
BED
330
B9E
100
AcDbEntity
  8
leg fin
100
AcDbText
 10
3.391127401597259
 20
2.107634911895729
 30
0.0
 40
1.5
  1
Este desenho é propriedade da Sanindusa, S.A., e não pode ser copiado nem divulgado sem nossa autorização.
 50
90.0
 41
0.8
  7
SANINDUSA
100
AcDbText
  0
LINE
  5
BEE
330
B9E
100
AcDbEntity
  8
3
100
AcDbLine
 10
-90.0
 20
4.0
 30
0.0
 11
-90.0
 21
12.0
 31
0.0
  0
TEXT
  5
BEF
330
B9E
100
AcDbEntity
  8
1
100
AcDbText
 10
-39.0
 20
9.25
 30
0.0
 40
2.0
  1
Substituido por:
 41
0.8
  7
SANINDUSA
 11
-39.0
 21
10.25
 31
0.0
100
AcDbText
 73
     2
  0
POINT
  5
BF0
330
B9E
100
AcDbEntity
  8
SANINDUSA
100
AcDbPoint
 10
0.0
 20
0.0
 30
0.0
  0
TEXT
  5
BF1
330
B9E
100
AcDbEntity
  8
1
100
AcDbText
 10
-89.0
 20
16.74927010445663
 30
0.0
 40
2.0
  1
Normas:
 41
0.8
  7
SANINDUSA
 11
-89.0
 21
17.74927010445663
 31
0.0
100
AcDbText
 73
     2
  0
LINE
  5
BF2
330
B9E
100
AcDbEntity
  8
3
100
AcDbLine
 10
-90.0
 20
12.0
 30
0.0
 11
-90.0
 21
20.0
 31
0.0
  0
LINE
  5
BF3
330
B9E
100
AcDbEntity
  8
3
100
AcDbLine
 10
-110.546019464768
 20
12.0
 30
0.0
 11
-110.546019464768
 21
20.0
 31
0.0
  0
TEXT
  5
BF4
330
B9E
100
AcDbEntity
  8
1
100
AcDbText
 10
-109.6177520618648
 20
17.25
 30
0.0
 40
2.0
  1
Cor:
 41
0.8
  7
SANINDUSA
 11
-109.6177520618648
 21
18.25
 31
0.0
100
AcDbText
 73
     2
  0
LINE
  5
BF5
330
B9E
100
AcDbEntity
  8
leg fin
100
AcDbLine
 10
-91.42857142857156
 20
20.0
 30
0.0
 11
-91.42857142857156
 21
28.5
 31
0.0
  0
LINE
  5
BF6
330
B9E
100
AcDbEntity
  8
leg fin
100
AcDbLine
 10
-104.2857142857142
 20
20.0
 30
0.0
 11
-104.2857142857142
 21
28.5
 31
0.0
  0
LINE
  5
BF7
330
B9E
100
AcDbEntity
  8
leg fin
100
AcDbLine
 10
-117.1428571428573
 20
20.0
 30
0.0
 11
-117.1428571428573
 21
28.5
 31
0.0
  0
POINT
  5
BF8
330
B9E
100
AcDbEntity
  8
SANINDUSA
100
AcDbPoint
 10
-117.1428571428573
 20
28.5
 30
0.0
  0
POINT
  5
BF9
330
B9E
100
AcDbEntity
  8
SANINDUSA
100
AcDbPoint
 10
-104.2857142857142
 20
28.5
 30
0.0
  0
POINT
  5
BFA
330
B9E
100
AcDbEntity
  8
SANINDUSA
100
AcDbPoint
 10
-91.42857142857156
 20
28.5
 30
0.0
  0
TEXT
  5
BFB
330
B9E
100
AcDbEntity
  8
1
100
AcDbText
 10
-116.200160604496
 20
26.43288406845113
 30
0.0
 40
1.5
  1
Nº Seq.:
 41
0.8
  7
SANINDUSA
 11
-116.200160604496
 21
27.18288406845113
 31
0.0
100
AcDbText
 73
     2
  0
TEXT
  5
BFC
330
B9E
100
AcDbEntity
  8
1
100
AcDbText
 10
-103.2106584078738
 20
26.43288406845113
 30
0.0
 40
1.5
  1
Tipo:
 41
0.8
  7
SANINDUSA
 11
-103.2106584078738
 21
27.18288406845113
 31
0.0
100
AcDbText
 73
     2
  0
TEXT
  5
BFD
330
B9E
100
AcDbEntity
  8
1
100
AcDbText
 10
-90.22114672289353
 20
26.43288406845113
 30
0.0
 40
1.5
  1
Prod.:
 41
0.8
  7
SANINDUSA
 11
-90.22114672289353
 21
27.18288406845113
 31
0.0
100
AcDbText
 73
     2
  0
TEXT
  5
BFE
330
B9E
100
AcDbEntity
  8
1
100
AcDbText
 10
-64.77320576346574
 20
26.43288406845113
 30
0.0
 40
1.5
  1
Rev.:
 41
0.8
  7
SANINDUSA
 11
-64.77320576346574
 21
27.18288406845113
 31
0.0
100
AcDbText
 73
     2
  0
LINE
  5
BFF
330
B9E
100
AcDbEntity
  8
leg fin
100
AcDbLine
 10
-52.85714285714266
 20
20.0
 30
0.0
 11
-52.85714285714266
 21
28.5
 31
0.0
  0
LINE
  5
C00
330
B9E
100
AcDbEntity
  8
leg fin
100
AcDbLine
 10
-65.71428571428578
 20
20.0
 30
0.0
 11
-65.71428571428578
 21
28.5
 31
0.0
  0
LINE
  5
C01
330
B9E
100
AcDbEntity
  8
leg fin
100
AcDbLine
 10
-78.57142857142844
 20
20.0
 30
0.0
 11
-78.57142857142844
 21
28.5
 31
0.0
  0
POINT
  5
C02
330
B9E
100
AcDbEntity
  8
SANINDUSA
100
AcDbPoint
 10
-78.57142857142844
 20
28.5
 30
0.0
  0
POINT
  5
C03
330
B9E
100
AcDbEntity
  8
SANINDUSA
100
AcDbPoint
 10
-65.71428571428578
 20
28.5
 30
0.0
  0
POINT
  5
C04
330
B9E
100
AcDbEntity
  8
SANINDUSA
100
AcDbPoint
 10
-52.85714285714266
 20
28.5
 30
0.0
  0
TEXT
  5
C05
330
B9E
100
AcDbEntity
  8
1
100
AcDbText
 10
-77.61097961686573
 20
26.43288406845113
 30
0.0
 40
1.5
  1
Peça:
 41
0.8
  7
SANINDUSA
 11
-77.61097961686573
 21
27.18288406845113
 31
0.0
100
AcDbText
 73
     2
  0
TEXT
  5
C06
330
B9E
100
AcDbEntity
  8
1
100
AcDbText
 10
-52.06538060077036
 20
26.43288406845113
 30
0.0
 40
1.5
  1
Alt.:
 41
0.8
  7
SANINDUSA
 11
-52.06538060077036
 21
27.18288406845113
 31
0.0
100
AcDbText
 73
     2
  0
LINE
  5
C07
330
B9E
100
AcDbEntity
  8
3
100
AcDbLine
 10
0.0
 20
12.0
 30
0.0
 11
-40.0
 21
12.0
 31
0.0
  0
LINE
  5
C08
330
B9E
100
AcDbEntity
  8
3
100
AcDbLine
 10
-40.0
 20
32.5
 30
0.0
 11
0.0
 21
32.5
 31
0.0
  0
TEXT
  5
C09
330
B9E
100
AcDbEntity
  8
1
100
AcDbText
 10
-19.0
 20
29.75
 30
0.0
 40
2.0
  1
Folha:
 41
0.8
  7
SANINDUSA
 11
-19.0
 21
30.75
 31
0.0
100
AcDbText
 73
     2
  0
LINE
  5
C0A
330
B9E
100
AcDbEntity
  8
3
100
AcDbLine
 10
-20.0
 20
32.5
 30
0.0
 11
-20.0
 21
20.0
 31
0.0
  0
TEXT
  5
C0B
330
B9E
100
AcDbEntity
  8
1
100
AcDbText
 10
-39.0
 20
29.75
 30
0.0
 40
2.0
  1
Escala:
 41
0.8
  7
SANINDUSA
 11
-39.0
 21
30.75
 31
0.0
100
AcDbText
 73
     2
  0
TEXT
  5
C0C
330
B9E
100
AcDbEntity
  8
1
100
AcDbText
 10
-39.0
 20
17.25
 30
0.0
 40
2.0
  1
Substitui:
 41
0.8
  7
SANINDUSA
 11
-39.0
 21
18.25
 31
0.0
100
AcDbText
 73
     2
  0
LWPOLYLINE
  5
C0D
102
{ACAD_REACTORS
330
BEC
102
}
330
B9E
100
AcDbEntity
  8
9
100
AcDbPolyline
 90
        6
 70
     1
 43
0.0
 10
-2.638748516194482
 20
57.02796337120571
 10
-2.638748516194482
 20
55.50786840766477
 10
-5.21497371544865
 20
55.507868407665
 42
-0.4142135623730898
 10
-5.614973715448741
 20
55.90786840766487
 10
-5.614973715448741
 20
56.62796337120562
 42
-0.4142135623731576
 10
-5.21497371544865
 20
57.02796337120571
  0
LINE
  5
C0E
330
B9E
100
AcDbEntity
  8
3
100
AcDbLine
 10
-40.0
 20
50.0
 30
0.0
 11
0.0
 21
50.0
 31
0.0
  0
ATTDEF
  5
C0F
330
B9E
100
AcDbEntity
  8
1
100
AcDbText
 10
-31.30691739422431
 20
40.25
 30
0.0
 40
2.0
  1
XXXXXXXXXXXXXXX
 41
0.8
  7
SANINDUSA
 72
     4
 11
-20.0
 21
41.25
 31
0.0
100
AcDbAttributeDefinition
  3
Observações:
  2
OBS
 70
     0
  0
TEXT
  5
C10
330
B9E
100
AcDbEntity
  8
1
100
AcDbText
 10
-39.0
 20
47.25
 30
0.0
 40
2.0
  1
Observações:
 41
0.8
  7
SANINDUSA
 11
-39.0
 21
48.25
 31
0.0
100
AcDbText
 73
     2
  0
LWPOLYLINE
  5
C11
102
{ACAD_REACTORS
330
BEC
102
}
330
B9E
100
AcDbEntity
  8
9
100
AcDbPolyline
 90
        6
 70
     1
 43
0.0
 10
-29.98468712904878
 20
57.02796337120571
 10
-29.98468712904878
 20
55.507868407665
 10
-32.57692046803459
 20
55.507868407665
 42
-0.4142135623731731
 10
-32.97692046803468
 20
55.90786840766487
 10
-32.97692046803468
 20
56.62796337120562
 42
-0.4142135623731576
 10
-32.57692046803459
 20
57.02796337120571
  0
LWPOLYLINE
  5
C12
102
{ACAD_REACTORS
330
BEC
102
}
330
B9E
100
AcDbEntity
  8
9
100
AcDbPolyline
 90
        4
 70
     1
 43
0.0
 10
-24.19231812786165
 20
59.87619128370352
 10
-24.57637781922995
 20
59.87619128370352
 10
-24.57637781922995
 20
59.28412752246913
 10
-24.19231812786165
 20
59.28412752246913
  0
ENDBLK
  5
C14
330
B9E
100
AcDbEntity
  8
0
100
AcDbBlockEnd
  0
ENDSEC
  0
SECTION
  2
ENTITIES
  0
SPLINE
  5
14B8
330
1F
100
AcDbEntity
  8
SANINDUSA
100
AcDbSpline
210
0.0
220
0.0
230
1.0
 70
     8
 71
     3
 72
    31
 73
    27
 74
     0
 42
0.0000000001
 43
0.0000000001
 40
0.0
 40
0.0
 40
0.0
 40
0.0
 40
0.0247370724319958
 40
0.0717607155046159
 40
0.1188005955729485
 40
0.1658616095381669
 40
0.2129564897776227
 40
0.2601010772808381
 40
0.3073140996736723
 40
0.354618675667819
 40
0.4020454921783698
 40
0.4496364161774879
 40
0.4974491109808555
 40
0.5455665072426538
 40
0.5941151982449643
 40
0.6432896792868044
 40
0.6934094553630139
 40
0.7450095766838368
 40
0.798948237835165
 40
0.8452107120794543
 40
0.8820664939503751
 40
0.9138375255775487
 40
0.9426528559912382
 40
0.969869107695349
 40
0.9964257549943244
 40
1.0
 40
1.0
 40
1.0
 40
1.0
 10
5231.15949804024
 20
2766.467619867888
 30
0.0
 10
5231.160240225595
 20
2766.467621417858
 30
0.0
 10
5231.162393259361
 20
2766.467625914224
 30
0.0
 10
5231.165950643255
 20
2766.467675905749
 30
0.0
 10
5231.170140158958
 20
2766.467787875607
 30
0.0
 10
5231.1742727005
 20
2766.467955539346
 30
0.0
 10
5231.178326120003
 20
2766.4681771849
 30
0.0
 10
5231.182279351574
 20
2766.468452162199
 30
0.0
 10
5231.186112122783
 20
2766.468779309735
 30
0.0
 10
5231.189805209453
 20
2766.469157545505
 30
0.0
 10
5231.193340754458
 20
2766.469585679109
 30
0.0
 10
5231.196702586119
 20
2766.470062792047
 30
0.0
 10
5231.19987667385
 20
2766.470588366785
 30
0.0
 10
5231.20285168786
 20
2766.471162827289
 30
0.0
 10
5231.205620100961
 20
2766.471788259934
 30
0.0
 10
5231.20817954759
 20
2766.472470191803
 30
0.0
 10
5231.210535660473
 20
2766.473220800093
 30
0.0
 10
5231.212705472145
 20
2766.474066394442
 30
0.0
 10
5231.214582953888
 20
2766.474995128333
 30
0.0
 10
5231.216111709365
 20
2766.475990684089
 30
0.0
 10
5231.217294513839
 20
2766.477020331112
 30
0.0
 10
5231.218207559802
 20
2766.478103856417
 30
0.0
 10
5231.218901195954
 20
2766.479293585645
 30
0.0
 10
5231.219357476732
 20
2766.480597520335
 30
0.0
 10
5231.219492832209
 20
2766.481586259233
 30
0.0
 10
5231.219497490087
 20
2766.482108559236
 30
0.0
 10
5231.219498042624
 20
2766.482170516518
 30
0.0
  0
SPLINE
  5
14B9
330
1F
100
AcDbEntity
  8
SANINDUSA
100
AcDbSpline
210
0.0
220
0.0
230
1.0
 70
     8
 71
     3
 72
    30
 73
    26
 74
     0
 42
0.0000000001
 43
0.0000000001
 40
0.0
 40
0.0
 40
0.0
 40
0.0
 40
0.0292591563507908
 40
0.0567870916146548
 40
0.0848767945371017
 40
0.1148763727388062
 40
0.148537811659578
 40
0.1882067171898365
 40
0.2362887333278653
 40
0.2912024213339069
 40
0.3450952058135911
 40
0.3966225720146519
 40
0.4466133986432606
 40
0.4956537429264789
 40
0.5440800272115937
 40
0.5920923555954161
 40
0.6398160206974493
 40
0.6873325328440611
 40
0.7346982457369573
 40
0.7819527904618531
 40
0.8291256924597851
 40
0.8762392724955581
 40
0.9233115855203092
 40
0.9703574826154016
 40
1.0
 40
1.0
 40
1.0
 40
1.0
 10
5230.569498066466
 20
2766.482170516518
 30
0.0
 10
5230.569532165612
 20
2766.481663111683
 30
0.0
 10
5230.56959834631
 20
2766.480678324406
 30
0.0
 10
5230.570081244355
 20
2766.479333856119
 30
0.0
 10
5230.570746459826
 20
2766.478167216425
 30
0.0
 10
5230.571599800423
 20
2766.477131690681
 30
0.0
 10
5230.572651952856
 20
2766.476178554955
 30
0.0
 10
5230.573982291272
 20
2766.475255965218
 30
0.0
 10
5230.575688358777
 20
2766.474340389545
 30
0.0
 10
5230.577791481994
 20
2766.473459098651
 30
0.0
 10
5230.580221986347
 20
2766.472644161125
 30
0.0
 10
5230.582856723497
 20
2766.471916171029
 30
0.0
 10
5230.585671133511
 20
2766.471262122658
 30
0.0
 10
5230.588672027907
 20
2766.470668827188
 30
0.0
 10
5230.591859728722
 20
2766.470129713809
 30
0.0
 10
5230.595227728489
 20
2766.469642171168
 30
0.0
 10
5230.598764814064
 20
2766.469205403812
 30
0.0
 10
5230.602456774331
 20
2766.468819692066
 30
0.0
 10
5230.606286882242
 20
2766.468485718974
 30
0.0
 10
5230.610236882583
 20
2766.468204348716
 30
0.0
 10
5230.614287038101
 20
2766.467976593593
 30
0.0
 10
5230.618416684102
 20
2766.467802944782
 30
0.0
 10
5230.622604257249
 20
2766.467685158409
 30
0.0
 10
5230.626307749093
 20
2766.467627760297
 30
0.0
 10
5230.628608684104
 20
2766.467622068103
 30
0.0
 10
5230.62949806885
 20
2766.467619867888
 30
0.0
  0
SPLINE
  5
14BA
330
1F
100
AcDbEntity
  8
SANINDUSA
100
AcDbSpline
210
0.0
220
0.0
230
1.0
 70
    24
 71
     1
 72
     4
 73
     2
 74
     0
 42
0.0000000001
 43
0.0000000001
 40
0.0
 40
0.0
 40
1.0
 40
1.0
 10
5230.62949806885
 20
2766.467619867888
 30
0.0
 10
5231.15949804024
 20
2766.467619867888
 30
0.0
  0
LINE
  5
14BC
330
1F
100
AcDbEntity
  8
SANINDUSA
100
AcDbLine
 10
5230.569498066466
 20
2766.534576246408
 30
0.0
 11
5230.569498066466
 21
2766.482170516518
 31
0.0
  0
SPLINE
  5
14BD
330
1F
100
AcDbEntity
  8
SANINDUSA
100
AcDbSpline
210
0.0
220
0.0
230
1.0
 70
     8
 71
     3
 72
    25
 73
    21
 74
     0
 42
0.0000000001
 43
0.0000000001
 40
0.0
 40
0.0
 40
0.0
 40
0.0
 40
0.0710030810348367
 40
0.1429485771825216
 40
0.1951813663954018
 40
0.2474145287732285
 40
0.301123315925198
 40
0.3548316179084021
 40
0.40781001081109
 40
0.4607881581832437
 40
0.5153465049275816
 40
0.569905045106545
 40
0.6221431579340289
 40
0.6743820452838944
 40
0.728093401041325
 40
0.7818040115991389
 40
0.8355308520652055
 40
0.8892570856532548
 40
0.9446285732830792
 40
0.9999999999999998
 40
0.9999999999999998
 40
0.9999999999999998
 40
0.9999999999999998
 10
5230.569498066466
 20
2766.534576246408
 30
0.0
 10
5230.56956997547
 20
2766.534226694711
 30
0.0
 10
5230.569714747918
 20
2766.533522951763
 30
0.0
 10
5230.570783674842
 20
2766.532392184988
 30
0.0
 10
5230.572233090921
 20
2766.531345311146
 30
0.0
 10
5230.573928852065
 20
2766.530406500673
 30
0.0
 10
5230.57602644565
 20
2766.529493864537
 30
0.0
 10
5230.578511502925
 20
2766.528638829345
 30
0.0
 10
5230.581344399933
 20
2766.527876865966
 30
0.0
 10
5230.584527530893
 20
2766.52721431451
 30
0.0
 10
5230.588065966777
 20
2766.526667415352
 30
0.0
 10
5230.591885242874
 20
2766.526243026298
 30
0.0
 10
5230.595911162449
 20
2766.525937183847
 30
0.0
 10
5230.600141117416
 20
2766.525721466077
 30
0.0
 10
5230.604615323653
 20
2766.525572971551
 30
0.0
 10
5230.609308031954
 20
2766.525468479454
 30
0.0
 10
5230.614147329499
 20
2766.525387963915
 30
0.0
 10
5230.619147902388
 20
2766.525323076492
 30
0.0
 10
5230.624277606024
 20
2766.525268993881
 30
0.0
 10
5230.627757915213
 20
2766.525235447825
 30
0.0
 10
5230.62949806885
 20
2766.525218674806
 30
0.0
  0
SPLINE
  5
14BF
330
1F
100
AcDbEntity
  8
SANINDUSA
100
AcDbSpline
210
0.0
220
0.0
230
1.0
 70
     8
 71
     3
 72
    25
 73
    21
 74
     0
 42
0.0000000001
 43
0.0000000001
 40
0.0
 40
0.0
 40
0.0
 40
0.0
 40
0.0710030810348367
 40
0.1429485771825216
 40
0.1951813663954018
 40
0.2474145287732285
 40
0.301123315925198
 40
0.3548316179084021
 40
0.40781001081109
 40
0.4607881581832437
 40
0.5153465049275816
 40
0.569905045106545
 40
0.6221431579340289
 40
0.6743820452838944
 40
0.728093401041325
 40
0.7818040115991389
 40
0.8355308520652055
 40
0.8892570856532548
 40
0.9446285732830792
 40
0.9999999999999998
 40
0.9999999999999998
 40
0.9999999999999998
 40
0.9999999999999998
 10
5231.219498042624
 20
2766.534576246408
 30
0.0
 10
5231.219426133619
 20
2766.534226694711
 30
0.0
 10
5231.219281361171
 20
2766.533522951763
 30
0.0
 10
5231.218212434246
 20
2766.532392184988
 30
0.0
 10
5231.216763018168
 20
2766.531345311146
 30
0.0
 10
5231.215067257024
 20
2766.530406500673
 30
0.0
 10
5231.212969663438
 20
2766.529493864537
 30
0.0
 10
5231.210484606165
 20
2766.528638829345
 30
0.0
 10
5231.207651709156
 20
2766.527876865966
 30
0.0
 10
5231.204468578194
 20
2766.52721431451
 30
0.0
 10
5231.200930142312
 20
2766.526667415352
 30
0.0
 10
5231.197110866215
 20
2766.526243026298
 30
0.0
 10
5231.19308494664
 20
2766.525937183847
 30
0.0
 10
5231.188854991674
 20
2766.525721466077
 30
0.0
 10
5231.184380785435
 20
2766.525572971551
 30
0.0
 10
5231.179688077134
 20
2766.525468479454
 30
0.0
 10
5231.174848779589
 20
2766.525387963915
 30
0.0
 10
5231.169848206701
 20
2766.525323076492
 30
0.0
 10
5231.164718503065
 20
2766.525268993881
 30
0.0
 10
5231.161238193877
 20
2766.525235447825
 30
0.0
 10
5231.15949804024
 20
2766.525218674806
 30
0.0
  0
LINE
  5
14C0
330
1F
100
AcDbEntity
  8
SANINDUSA
100
AcDbLine
 10
5231.219498042624
 20
2766.534576246408
 30
0.0
 11
5231.219498042624
 21
2766.482170516518
 31
0.0
  0
SPLINE
  5
14CA
330
1F
100
AcDbEntity
  8
SANINDUSA
100
AcDbSpline
210
0.0
220
0.0
230
1.0
 70
     8
 71
     3
 72
     8
 73
     4
 74
     0
 42
0.0000000001
 43
0.0000000001
 40
0.0
 40
0.0
 40
0.0
 40
0.0
 40
1.0
 40
1.0
 40
1.0
 40
1.0
 10
5230.629498068856
 20
2766.525218674788
 30
0.0
 10
5230.717828451897
 20
2766.524269786958
 30
0.0
 10
5230.806162230754
 20
2766.523673450945
 30
0.0
 10
5230.894498054545
 20
2766.523673450945
 30
0.0
  0
SPLINE
  5
14CB
330
1F
100
AcDbEntity
  8
SANINDUSA
100
AcDbSpline
210
0.0
220
0.0
230
1.0
 70
     8
 71
     3
 72
     8
 73
     4
 74
     0
 42
0.0000000001
 43
0.0000000001
 40
0.0
 40
0.0
 40
0.0
 40
0.0
 40
1.0
 40
1.0
 40
1.0
 40
1.0
 10
5231.159498040232
 20
2766.525218674788
 30
0.0
 10
5231.071167657192
 20
2766.524269786958
 30
0.0
 10
5230.982833878335
 20
2766.523673450945
 30
0.0
 10
5230.894498054545
 20
2766.523673450945
 30
0.0
  0
SPLINE
  5
14DF
330
1F
100
AcDbEntity
  8
SANINDUSA
100
AcDbSpline
210
0.0
220
0.0
230
1.0
 70
    24
 71
     3
 72
    10
 73
     6
 74
     0
 42
0.0000000001
 43
0.0000000001
 40
0.0
 40
0.0
 40
0.0
 40
0.0
 40
0.2909274378513416
 40
0.8581868577991556
 40
0.9999999999999998
 40
0.9999999999999998
 40
0.9999999999999998
 40
0.9999999999999998
 10
5231.219498042624
 20
2766.562745014099
 30
0.0
 10
5231.219498042624
 20
2766.559922536408
 30
0.0
 10
5231.219498042624
 20
2766.551596703414
 30
0.0
 10
5231.219498042624
 20
2766.542133287409
 30
0.0
 10
5231.219498042624
 20
2766.5358357431
 30
0.0
 10
5231.219498042624
 20
2766.534576246408
 30
0.0
  0
SPLINE
  5
14E0
330
1F
100
AcDbEntity
  8
SANINDUSA
100
AcDbSpline
210
0.0
220
0.0
230
1.0
 70
    24
 71
     3
 72
    10
 73
     6
 74
     0
 42
0.0000000001
 43
0.0000000001
 40
0.0
 40
0.0
 40
0.0
 40
0.0
 40
0.2909274378513416
 40
0.8581868577991556
 40
0.9999999999999998
 40
0.9999999999999998
 40
0.9999999999999998
 40
0.9999999999999998
 10
5230.569498066466
 20
2766.562745014099
 30
0.0
 10
5230.569498066466
 20
2766.559922536408
 30
0.0
 10
5230.569498066466
 20
2766.551596703414
 30
0.0
 10
5230.569498066466
 20
2766.542133287409
 30
0.0
 10
5230.569498066466
 20
2766.5358357431
 30
0.0
 10
5230.569498066466
 20
2766.534576246408
 30
0.0
  0
SPLINE
  5
14E1
330
1F
100
AcDbEntity
  8
SANINDUSA
100
AcDbSpline
210
0.0
220
0.0
230
1.0
 70
    24
 71
     3
 72
    12
 73
     8
 74
     0
 42
0.0000000001
 43
0.0000000001
 40
0.0
 40
0.0
 40
0.0
 40
0.0
 40
0.185428762665169
 40
0.3708603425578553
 40
0.5589734876480912
 40
0.7470896044118893
 40
1.0
 40
1.0
 40
1.0
 40
1.0
 10
5230.569498066466
 20
2766.573093274501
 30
0.0
 10
5230.569498066466
 20
2766.572167508145
 30
0.0
 10
5230.569498066466
 20
2766.570315961367
 30
0.0
 10
5230.569498066466
 20
2766.567971873248
 30
0.0
 10
5230.569498066466
 20
2766.565964361769
 30
0.0
 10
5230.569498066466
 20
2766.564108531606
 30
0.0
 10
5230.569498066466
 20
2766.563241958055
 30
0.0
 10
5230.569498066466
 20
2766.562745014099
 30
0.0
  0
SPLINE
  5
14E2
330
1F
100
AcDbEntity
  8
SANINDUSA
100
AcDbSpline
210
0.0
220
0.0
230
1.0
 70
    24
 71
     3
 72
    12
 73
     8
 74
     0
 42
0.0000000001
 43
0.0000000001
 40
0.0
 40
0.0
 40
0.0
 40
0.0
 40
0.185428762665169
 40
0.3708603425578553
 40
0.5589734876480912
 40
0.7470896044118893
 40
1.0
 40
1.0
 40
1.0
 40
1.0
 10
5231.219498042624
 20
2766.573093274501
 30
0.0
 10
5231.219498042624
 20
2766.572167508145
 30
0.0
 10
5231.219498042624
 20
2766.570315961367
 30
0.0
 10
5231.219498042624
 20
2766.567971873248
 30
0.0
 10
5231.219498042624
 20
2766.565964361769
 30
0.0
 10
5231.219498042624
 20
2766.564108531606
 30
0.0
 10
5231.219498042624
 20
2766.563241958055
 30
0.0
 10
5231.219498042624
 20
2766.562745014099
 30
0.0
  0
SPLINE
  5
14E4
330
1F
100
AcDbEntity
  8
SANINDUSA
100
AcDbSpline
210
0.0
220
0.0
230
1.0
 70
    24
 71
     3
 72
    12
 73
     8
 74
     0
 42
0.0000000001
 43
0.0000000001
 40
0.0
 40
0.0
 40
0.0
 40
0.0
 40
0.1381661256836723
 40
0.3515360489156557
 40
0.5649534668922777
 40
0.7824715935971463
 40
0.9999999999999998
 40
0.9999999999999998
 40
0.9999999999999998
 40
0.9999999999999998
 10
5230.569498066466
 20
2766.590382883218
 30
0.0
 10
5230.569498066466
 20
2766.589415665071
 30
0.0
 10
5230.569498066466
 20
2766.586954772111
 30
0.0
 10
5230.569498066466
 20
2766.583342744047
 30
0.0
 10
5230.569498066466
 20
2766.579577663869
 30
0.0
 10
5230.569498066466
 20
2766.576119224384
 30
0.0
 10
5230.569498066466
 20
2766.574101940351
 30
0.0
 10
5230.569498066466
 20
2766.573093274501
 30
0.0
  0
SPLINE
  5
14E6
330
1F
100
AcDbEntity
  8
SANINDUSA
100
AcDbSpline
210
0.0
220
0.0
230
1.0
 70
    24
 71
     3
 72
    12
 73
     8
 74
     0
 42
0.0000000001
 43
0.0000000001
 40
0.0
 40
0.0
 40
0.0
 40
0.0
 40
0.1381661256836723
 40
0.3515360489156557
 40
0.5649534668922777
 40
0.7824715935971463
 40
0.9999999999999998
 40
0.9999999999999998
 40
0.9999999999999998
 40
0.9999999999999998
 10
5231.219498042624
 20
2766.590382883218
 30
0.0
 10
5231.219498042624
 20
2766.589415665071
 30
0.0
 10
5231.219498042624
 20
2766.586954772111
 30
0.0
 10
5231.219498042624
 20
2766.583342744047
 30
0.0
 10
5231.219498042624
 20
2766.579577663869
 30
0.0
 10
5231.219498042624
 20
2766.576119224384
 30
0.0
 10
5231.219498042624
 20
2766.574101940351
 30
0.0
 10
5231.219498042624
 20
2766.573093274501
 30
0.0
  0
SPLINE
  5
14E8
330
1F
100
AcDbEntity
  8
SANINDUSA
100
AcDbSpline
210
0.0
220
0.0
230
1.0
 70
    24
 71
     3
 72
    19
 73
    15
 74
     0
 42
0.0000000001
 43
0.0000000001
 40
0.0
 40
0.0
 40
0.0
 40
0.0
 40
0.0728225039312726
 40
0.1456159790194852
 40
0.2191193490058492
 40
0.2926220031464346
 40
0.3996239208817732
 40
0.5066216208806936
 40
0.6167881762591219
 40
0.7269463431599349
 40
0.7946769938076152
 40
0.8624041844033504
 40
0.9312095212088983
 40
1.0
 40
1.0
 40
1.0
 40
1.0
 10
5230.569498066466
 20
2766.671174684432
 30
0.0
 10
5230.569498066466
 20
2766.669033516993
 30
0.0
 10
5230.569498066466
 20
2766.664752035635
 30
0.0
 10
5230.569498066466
 20
2766.658309183265
 30
0.0
 10
5230.569498066466
 20
2766.651872771451
 30
0.0
 10
5230.569498066466
 20
2766.644484977089
 30
0.0
 10
5230.569498066466
 20
2766.636224522966
 30
0.0
 10
5230.569498066466
 20
2766.62711304816
 30
0.0
 10
5230.569498066466
 20
2766.618189686429
 30
0.0
 10
5230.569498066466
 20
2766.610649306713
 30
0.0
 10
5230.569498066466
 20
2766.60448541935
 30
0.0
 10
5230.569498066466
 20
2766.599556283722
 30
0.0
 10
5230.569498066466
 20
2766.594798329756
 30
0.0
 10
5230.569498066466
 20
2766.591854592773
 30
0.0
 10
5230.569498066466
 20
2766.590382883218
 30
0.0
  0
SPLINE
  5
14EA
330
1F
100
AcDbEntity
  8
SANINDUSA
100
AcDbSpline
210
0.0
220
0.0
230
1.0
 70
    24
 71
     3
 72
    19
 73
    15
 74
     0
 42
0.0000000001
 43
0.0000000001
 40
0.0
 40
0.0
 40
0.0
 40
0.0
 40
0.0728225039312726
 40
0.1456159790194852
 40
0.2191193490058492
 40
0.2926220031464346
 40
0.3996239208817732
 40
0.5066216208806936
 40
0.6167881762591219
 40
0.7269463431599349
 40
0.7946769938076152
 40
0.8624041844033504
 40
0.9312095212088983
 40
1.0
 40
1.0
 40
1.0
 40
1.0
 10
5231.219498042624
 20
2766.671174684432
 30
0.0
 10
5231.219498042624
 20
2766.669033516993
 30
0.0
 10
5231.219498042624
 20
2766.664752035635
 30
0.0
 10
5231.219498042624
 20
2766.658309183265
 30
0.0
 10
5231.219498042624
 20
2766.651872771451
 30
0.0
 10
5231.219498042624
 20
2766.644484977089
 30
0.0
 10
5231.219498042624
 20
2766.636224522966
 30
0.0
 10
5231.219498042624
 20
2766.62711304816
 30
0.0
 10
5231.219498042624
 20
2766.618189686429
 30
0.0
 10
5231.219498042624
 20
2766.610649306713
 30
0.0
 10
5231.219498042624
 20
2766.60448541935
 30
0.0
 10
5231.219498042624
 20
2766.599556283722
 30
0.0
 10
5231.219498042624
 20
2766.594798329756
 30
0.0
 10
5231.219498042624
 20
2766.591854592773
 30
0.0
 10
5231.219498042624
 20
2766.590382883218
 30
0.0
  0
SPLINE
  5
14EB
330
1F
100
AcDbEntity
  8
SANINDUSA
100
AcDbSpline
210
0.0
220
0.0
230
1.0
 70
    11
 71
     3
 72
   115
 73
   111
 74
     0
 42
0.0000000001
 43
0.0000000001
 40
0.0
 40
0.0
 40
0.0
 40
0.0
 40
0.0312499999999983
 40
0.0312499999999983
 40
0.0468749999999981
 40
0.0468749999999981
 40
0.0624999999999979
 40
0.0624999999999979
 40
0.0937499999999975
 40
0.0937499999999975
 40
0.1093749999999971
 40
0.1093749999999971
 40
0.1249999999999968
 40
0.1249999999999968
 40
0.1562499999999956
 40
0.1562499999999956
 40
0.1874999999999944
 40
0.1874999999999944
 40
0.2031249999999939
 40
0.2031249999999939
 40
0.2187499999999933
 40
0.2187499999999933
 40
0.2499999999999917
 40
0.2499999999999917
 40
0.2656249999999913
 40
0.2656249999999913
 40
0.2812499999999909
 40
0.2812499999999909
 40
0.3124999999999903
 40
0.3124999999999903
 40
0.3203124999999904
 40
0.3203124999999904
 40
0.3281249999999906
 40
0.3281249999999906
 40
0.3437499999999914
 40
0.3437499999999914
 40
0.3593749999999922
 40
0.3593749999999922
 40
0.3671874999999924
 40
0.3671874999999924
 40
0.3749999999999926
 40
0.3749999999999926
 40
0.4062499999999934
 40
0.4062499999999934
 40
0.421874999999993
 40
0.421874999999993
 40
0.4296874999999933
 40
0.4296874999999933
 40
0.4374999999999937
 40
0.4374999999999937
 40
0.4687499999999942
 40
0.4687499999999942
 40
0.484374999999995
 40
0.484374999999995
 40
0.4999999999999958
 40
0.4999999999999958
 40
0.5156249999999966
 40
0.5156249999999966
 40
0.5312499999999975
 40
0.5312499999999975
 40
0.5624999999999992
 40
0.5624999999999992
 40
0.5703124999999996
 40
0.5703124999999996
 40
0.578125
 40
0.578125
 40
0.5937500000000006
 40
0.6093750000000011
 40
0.6093750000000011
 40
0.6250000000000018
 40
0.6250000000000018
 40
0.656250000000004
 40
0.656250000000004
 40
0.671875000000005
 40
0.671875000000005
 40
0.6875000000000062
 40
0.6875000000000062
 40
0.7187500000000084
 40
0.7187500000000084
 40
0.734375000000009
 40
0.734375000000009
 40
0.7500000000000098
 40
0.7500000000000098
 40
0.7656250000000105
 40
0.7656250000000105
 40
0.7812500000000112
 40
0.7812500000000112
 40
0.8125000000000122
 40
0.8125000000000122
 40
0.8281250000000124
 40
0.8281250000000124
 40
0.8437500000000127
 40
0.8437500000000127
 40
0.8750000000000126
 40
0.8750000000000126
 40
0.882812500000012
 40
0.882812500000012
 40
0.8906250000000117
 40
0.8906250000000117
 40
0.9062500000000099
 40
0.9062500000000099
 40
0.9375000000000067
 40
0.9375000000000067
 40
0.945312500000006
 40
0.945312500000006
 40
0.9531250000000055
 40
0.9531250000000055
 40
0.968750000000004
 40
0.968750000000004
 40
1.0
 40
1.0
 40
1.0
 40
1.0
 10
5231.041498064786
 20
2766.711195430948
 30
0.0
 10
5231.041496694242
 20
2766.709807681601
 30
0.0
 10
5231.041631561058
 20
2766.708440938085
 30
0.0
 10
5231.042031584764
 20
2766.706421313164
 30
0.0
 10
5231.042198121263
 20
2766.705753223524
 30
0.0
 10
5231.042599415427
 20
2766.704427561148
 30
0.0
 10
5231.042832446743
 20
2766.703776420359
 30
0.0
 10
5231.043619546291
 20
2766.701875008508
 30
0.0
 10
5231.044263104078
 20
2766.700668483621
 30
0.0
 10
5231.045408378317
 20
2766.698951090342
 30
0.0
 10
5231.045822692943
 20
2766.698391622125
 30
0.0
 10
5231.046696295841
 20
2766.697326263089
 30
0.0
 10
5231.047156569012
 20
2766.696818284057
 30
0.0
 10
5231.048606287806
 20
2766.695366805647
 30
0.0
 10
5231.049664545316
 20
2766.69449464976
 30
0.0
 10
5231.051969172758
 20
2766.692952029772
 30
0.0
 10
5231.053178235645
 20
2766.692306375877
 30
0.0
 10
5231.055073703045
 20
2766.691518977331
 30
0.0
 10
5231.055719272032
 20
2766.691286915719
 30
0.0
 10
5231.057038570592
 20
2766.690885049982
 30
0.0
 10
5231.057714027681
 20
2766.690715298807
 30
0.0
 10
5231.059738795525
 20
2766.690311299664
 30
0.0
 10
5231.061100360801
 20
2766.690176306776
 30
0.0
 10
5231.063160172276
 20
2766.690173905025
 30
0.0
 10
5231.063852517377
 20
2766.690206988497
 30
0.0
 10
5231.065230335101
 20
2766.690341694074
 30
0.0
 10
5231.065910635539
 20
2766.690442504505
 30
0.0
 10
5231.06792650703
 20
2766.690842229049
 30
0.0
 10
5231.069237285119
 20
2766.691237511805
 30
0.0
 10
5231.07083332198
 20
2766.691896657485
 30
0.0
 10
5231.071151173699
 20
2766.692037215169
 30
0.0
 10
5231.071776280281
 20
2766.692332345613
 30
0.0
 10
5231.072084036568
 20
2766.692487076323
 30
0.0
 10
5231.072993179898
 20
2766.69297237367
 30
0.0
 10
5231.073580474804
 20
2766.693323995518
 30
0.0
 10
5231.074718032018
 20
2766.694082601629
 30
0.0
 10
5231.075268294243
 20
2766.694489585956
 30
0.0
 10
5231.076065533384
 20
2766.695142178779
 30
0.0
 10
5231.076326579067
 20
2766.695366741601
 30
0.0
 10
5231.076839100264
 20
2766.695830188315
 30
0.0
 10
5231.077090923908
 20
2766.696069482678
 30
0.0
 10
5231.078312391122
 20
2766.697288965029
 30
0.0
 10
5231.079180699381
 20
2766.698346440341
 30
0.0
 10
5231.080324051241
 20
2766.700052528443
 30
0.0
 10
5231.080678458896
 20
2766.700641347471
 30
0.0
 10
5231.081168756483
 20
2766.701555725801
 30
0.0
 10
5231.081325174478
 20
2766.701865641947
 30
0.0
 10
5231.081620585399
 20
2766.702488630131
 30
0.0
 10
5231.081760073889
 20
2766.7028025956
 30
0.0
 10
5231.082417193217
 20
2766.704384556284
 30
0.0
 10
5231.082814998147
 20
2766.705688612415
 30
0.0
 10
5231.083220301723
 20
2766.707702330947
 30
0.0
 10
5231.083323371337
 20
2766.708384151245
 30
0.0
 10
5231.083462104709
 20
2766.709764182826
 30
0.0
 10
5231.083497089649
 20
2766.710454786901
 30
0.0
 10
5231.083498980164
 20
2766.711837157027
 30
0.0
 10
5231.083465561289
 20
2766.712531689934
 30
0.0
 10
5231.083330942492
 20
2766.713907558691
 30
0.0
 10
5231.08323023321
 20
2766.714587273244
 30
0.0
 10
5231.082830673209
 20
2766.716602435652
 30
0.0
 10
5231.082435323635
 20
2766.717914134495
 30
0.0
 10
5231.081774877719
 20
2766.719512782411
 30
0.0
 10
5231.081634252661
 20
2766.719830623619
 30
0.0
 10
5231.081339315447
 20
2766.720455107796
 30
0.0
 10
5231.081184653988
 20
2766.720762648262
 30
0.0
 10
5231.080699450545
 20
2766.721671399778
 30
0.0
 10
5231.079996024002
 20
2766.722846144578
 30
0.0
 10
5231.079180935394
 20
2766.723947901292
 30
0.0
 10
5231.078309049497
 20
2766.725012532374
 30
0.0
 10
5231.077841877751
 20
2766.725528897768
 30
0.0
 10
5231.076378763425
 20
2766.726993368043
 30
0.0
 10
5231.075320619996
 20
2766.72786185873
 30
0.0
 10
5231.073611727024
 20
2766.729006018238
 30
0.0
 10
5231.073021672298
 20
2766.729360787526
 30
0.0
 10
5231.071799313554
 20
2766.730015264736
 30
0.0
 10
5231.071174948722
 20
2766.730310579061
 30
0.0
 10
5231.069273687037
 20
2766.731098886954
 30
0.0
 10
5231.067964524896
 20
2766.731497506071
 30
0.0
 10
5231.065937485508
 20
2766.731902573253
 30
0.0
 10
5231.065248281083
 20
2766.732005219322
 30
0.0
 10
5231.063877070707
 20
2766.732140686582
 30
0.0
 10
5231.063192155242
 20
2766.732174367721
 30
0.0
 10
5231.061823675696
 20
2766.732175010315
 30
0.0
 10
5231.061140111654
 20
2766.732141969794
 30
0.0
 10
5231.059774346261
 20
2766.732008610507
 30
0.0
 10
5231.059090704064
 20
2766.731908007631
 30
0.0
 10
5231.057051051713
 20
2766.731503290108
 30
0.0
 10
5231.055739493384
 20
2766.731104468102
 30
0.0
 10
5231.053841799446
 20
2766.730319867891
 30
0.0
 10
5231.053220927597
 20
2766.730027044388
 30
0.0
 10
5231.052003153063
 20
2766.729377255521
 30
0.0
 10
5231.051405866139
 20
2766.729019484589
 30
0.0
 10
5231.049689632975
 20
2766.727873119305
 30
0.0
 10
5231.048631730779
 20
2766.727005425027
 30
0.0
 10
5231.047416649263
 20
2766.725792117791
 30
0.0
 10
5231.047179046032
 20
2766.725542963992
 30
0.0
 10
5231.046714850674
 20
2766.72503144985
 30
0.0
 10
5231.046487678551
 20
2766.72476834773
 30
0.0
 10
5231.045829203089
 20
2766.723966404501
 30
0.0
 10
5231.045419816098
 20
2766.72341409379
 30
0.0
 10
5231.044277859893
 20
2766.721705660453
 30
0.0
 10
5231.043630671909
 20
2766.720498528628
 30
0.0
 10
5231.042968371722
 20
2766.718901980197
 30
0.0
 10
5231.042843126392
 20
2766.71857760308
 30
0.0
 10
5231.042610301375
 20
2766.717927215074
 30
0.0
 10
5231.042502364843
 20
2766.71760043084
 30
0.0
 10
5231.042203483465
 20
2766.716615401213
 30
0.0
 10
5231.042037409147
 20
2766.715952492385
 30
0.0
 10
5231.041636979972
 20
2766.713945456479
 30
0.0
 10
5231.041499435328
 20
2766.712583180295
 30
0.0
 10
5231.041498064786
 20
2766.711195430948
 30
0.0
  0
SPLINE
  5
14EC
330
1F
100
AcDbEntity
  8
SANINDUSA
100
AcDbSpline
210
0.0
220
0.0
230
1.0
 70
    24
 71
     3
 72
    11
 73
     7
 74
     0
 42
0.0000000001
 43
0.0000000001
 40
0.0
 40
0.0
 40
0.0
 40
0.0
 40
0.5989083365470895
 40
0.7593442621982868
 40
0.9197805590322836
 40
1.0
 40
1.0
 40
1.0
 40
1.0
 10
5230.894498054545
 20
2766.801174679664
 30
0.0
 10
5230.9583818789
 20
2766.801174679664
 30
0.0
 10
5231.039378940572
 20
2766.801174679664
 30
0.0
 10
5231.137488651231
 20
2766.801174679664
 30
0.0
 10
5231.180272543465
 20
2766.801174679664
 30
0.0
 10
5231.205941602476
 20
2766.801174679664
 30
0.0
 10
5231.214498047393
 20
2766.801174679664
 30
0.0
  0
SPLINE
  5
14EE
330
1F
100
AcDbEntity
  8
SANINDUSA
100
AcDbSpline
210
0.0
220
0.0
230
1.0
 70
    24
 71
     3
 72
    11
 73
     7
 74
     0
 42
0.0000000001
 43
0.0000000001
 40
0.0
 40
0.0
 40
0.0
 40
0.0
 40
0.5989083365470895
 40
0.7593442621982868
 40
0.9197805590322836
 40
1.0
 40
1.0
 40
1.0
 40
1.0
 10
5230.894498054545
 20
2766.801174679664
 30
0.0
 10
5230.830614230189
 20
2766.801174679664
 30
0.0
 10
5230.749617168517
 20
2766.801174679664
 30
0.0
 10
5230.651507457857
 20
2766.801174679664
 30
0.0
 10
5230.608723565623
 20
2766.801174679664
 30
0.0
 10
5230.583054506612
 20
2766.801174679664
 30
0.0
 10
5230.574498061697
 20
2766.801174679664
 30
0.0
  0
SPLINE
  5
14F1
330
1F
100
AcDbEntity
  8
SANINDUSA
100
AcDbSpline
210
0.0
220
0.0
230
1.0
 70
    24
 71
     3
 72
    10
 73
     6
 74
     0
 42
0.0000000001
 43
0.0000000001
 40
0.0
 40
0.0
 40
0.0
 40
0.0
 40
0.47997939045213
 40
0.6853294364492383
 40
1.0
 40
1.0
 40
1.0
 40
1.0
 10
5231.219498042624
 20
2766.796174684432
 30
0.0
 10
5231.219498042624
 20
2766.776175019736
 30
0.0
 10
5231.219498042624
 20
2766.747618879184
 30
0.0
 10
5231.219498042624
 20
2766.705949806996
 30
0.0
 10
5231.219498042624
 20
2766.684284571978
 30
0.0
 10
5231.219498042624
 20
2766.671174684432
 30
0.0
  0
SPLINE
  5
14F3
330
1F
100
AcDbEntity
  8
SANINDUSA
100
AcDbSpline
210
0.0
220
0.0
230
1.0
 70
    24
 71
     3
 72
    10
 73
     6
 74
     0
 42
0.0000000001
 43
0.0000000001
 40
0.0
 40
0.0
 40
0.0
 40
0.0
 40
0.47997939045213
 40
0.6853294364492383
 40
1.0
 40
1.0
 40
1.0
 40
1.0
 10
5230.569498066466
 20
2766.796174684432
 30
0.0
 10
5230.569498066466
 20
2766.776175019736
 30
0.0
 10
5230.569498066466
 20
2766.747618879184
 30
0.0
 10
5230.569498066466
 20
2766.705949806996
 30
0.0
 10
5230.569498066466
 20
2766.684284571978
 30
0.0
 10
5230.569498066466
 20
2766.671174684432
 30
0.0
  0
SPLINE
  5
14F5
330
1F
100
AcDbEntity
  8
SANINDUSA
100
AcDbSpline
210
0.0
220
0.0
230
1.0
 70
     8
 71
     3
 72
    17
 73
    13
 74
     0
 42
0.0000000001
 43
0.0000000001
 40
0.0
 40
0.0
 40
0.0
 40
0.0
 40
0.0336627686566997
 40
0.141043526567047
 40
0.2484556665517949
 40
0.355848275111983
 40
0.4632041231326125
 40
0.5705495161307115
 40
0.6779128598216257
 40
0.7852752812297023
 40
0.8926374641648159
 40
1.0
 40
1.0
 40
1.0
 40
1.0
 10
5230.922598055239
 20
2766.702024677661
 30
0.0
 10
5230.922919132329
 20
2766.702035132443
 30
0.0
 10
5230.924264412202
 20
2766.7020789369
 30
0.0
 10
5230.926594976248
 20
2766.702754774187
 30
0.0
 10
5230.929157107224
 20
2766.704544785865
 30
0.0
 10
5230.930981621749
 20
2766.707091431644
 30
0.0
 10
5230.931860511646
 20
2766.710095687337
 30
0.0
 10
5230.931695759879
 20
2766.713221003062
 30
0.0
 10
5230.930505388868
 20
2766.716121124142
 30
0.0
 10
5230.928423459617
 20
2766.718443917024
 30
0.0
 10
5230.925684749259
 20
2766.720021174757
 30
0.0
 10
5230.923626954372
 20
2766.720223527685
 30
0.0
 10
5230.922598055239
 20
2766.720324704316
 30
0.0
  0
SPLINE
  5
14F7
330
1F
100
AcDbEntity
  8
SANINDUSA
100
AcDbSpline
210
0.0
220
0.0
230
1.0
 70
     8
 71
     3
 72
    17
 73
    13
 74
     0
 42
0.0000000001
 43
0.0000000001
 40
0.0
 40
0.0
 40
0.0
 40
0.0
 40
0.0337534388069696
 40
0.141115770834485
 40
0.2484735170324675
 40
0.3558154789618342
 40
0.4631761998575595
 40
0.5705760352982802
 40
0.6779864138220237
 40
0.7853528102069757
 40
0.8926775702025674
 40
0.9999999999999998
 40
0.9999999999999998
 40
0.9999999999999998
 40
0.9999999999999998
 10
5230.866398053851
 20
2766.720324704316
 30
0.0
 10
5230.866076111207
 20
2766.720314196442
 30
0.0
 10
5230.864730139185
 20
2766.720270265306
 30
0.0
 10
5230.862399502495
 20
2766.719593750345
 30
0.0
 10
5230.859838125212
 20
2766.717803615137
 30
0.0
 10
5230.85801387417
 20
2766.715256773129
 30
0.0
 10
5230.857135217368
 20
2766.712251609608
 30
0.0
 10
5230.857300915054
 20
2766.709125386272
 30
0.0
 10
5230.858492461094
 20
2766.706225539076
 30
0.0
 10
5230.860574603502
 20
2766.703904080184
 30
0.0
 10
5230.863312475921
 20
2766.702327991923
 30
0.0
 10
5230.865369535318
 20
2766.702125781683
 30
0.0
 10
5230.866398053851
 20
2766.702024677661
 30
0.0
  0
ARC
  5
14FA
330
1F
100
AcDbEntity
  8
SANINDUSA
100
AcDbCircle
 10
5230.574498054544
 20
2766.796174691333
 30
0.0
 40
0.005
100
AcDbArc
 50
90.0
 51
180.0
  0
ARC
  5
14FB
330
1F
100
AcDbEntity
  8
SANINDUSA
100
AcDbCircle
 10
5231.214498054544
 20
2766.796174691333
 30
0.0
 40
0.005
100
AcDbArc
 50
0.0
 51
90.0
  0
SPLINE
  5
14FC
330
1F
100
AcDbEntity
  8
SANINDUSA
100
AcDbSpline
210
0.0
220
0.0
230
1.0
 70
    24
 71
     3
 72
     9
 73
     5
 74
     0
 42
0.0000000001
 43
0.0000000001
 40
0.0
 40
0.0
 40
0.0
 40
0.0
 40
0.418689832349839
 40
1.0
 40
1.0
 40
1.0
 40
1.0
 10
5230.922598055239
 20
2766.720324704316
 30
0.0
 10
5230.914754598853
 20
2766.720324704316
 30
0.0
 10
5230.896021265057
 20
2766.720324704316
 30
0.0
 10
5230.87728793126
 20
2766.720324704316
 30
0.0
 10
5230.866398053851
 20
2766.720324704316
 30
0.0
  0
SPLINE
  5
14FD
330
1F
100
AcDbEntity
  8
SANINDUSA
100
AcDbSpline
210
0.0
220
0.0
230
1.0
 70
    24
 71
     3
 72
     9
 73
     5
 74
     0
 42
0.0000000001
 43
0.0000000001
 40
0.0
 40
0.0
 40
0.0
 40
0.0
 40
0.4186898324992109
 40
1.0
 40
1.0
 40
1.0
 40
1.0
 10
5230.866398053851
 20
2766.702024677661
 30
0.0
 10
5230.874241510235
 20
2766.702024677661
 30
0.0
 10
5230.892974844021
 20
2766.702024677661
 30
0.0
 10
5230.911708177827
 20
2766.702024677661
 30
0.0
 10
5230.922598055239
 20
2766.702024677661
 30
0.0
  0
ARC
  5
1505
330
1F
100
AcDbEntity
  8
SANINDUSA
100
AcDbCircle
 10
5229.689265709185
 20
2766.732398564588
 30
0.0
 40
0.0050000000000001
100
AcDbArc
 50
180.0
 51
269.1251401997771
  0
ARC
  5
1506
330
1F
100
AcDbEntity
  8
SANINDUSA
100
AcDbCircle
 10
5230.329265709185
 20
2766.732398564588
 30
0.0
 40
0.0050000000000003
100
AcDbArc
 50
270.8748598002229
 51
0.0
  0
SPLINE
  5
1507
330
1F
100
AcDbEntity
  8
SANINDUSA
100
AcDbSpline
210
0.0
220
0.0
230
1.0
 70
     8
 71
     3
 72
    24
 73
    20
 74
     0
 42
0.0000000001
 43
0.0000000001
 40
0.0
 40
0.0
 40
0.0
 40
0.0
 40
0.0369698285946536
 40
0.0982099823631369
 40
0.1595961425021289
 40
0.2209783059491936
 40
0.2822261888056912
 40
0.3432352803776061
 40
0.4040206786006801
 40
0.4642984376726735
 40
0.5254145416287046
 40
0.5871366768678274
 40
0.6491796987591613
 40
0.7111624302019949
 40
0.7727282846544267
 40
0.8335550203418138
 40
0.8937464795823489
 40
0.9546728468995151
 40
1.0
 40
1.0
 40
1.0
 40
1.0
 10
5229.688790160679
 20
2766.44535543113
 30
0.0
 10
5229.689119348162
 20
2766.444559669782
 30
0.0
 10
5229.689993831438
 20
2766.442445737667
 30
0.0
 10
5229.691735457187
 20
2766.439149920362
 30
0.0
 10
5229.693970798101
 20
2766.435477132364
 30
0.0
 10
5229.696481925103
 20
2766.431973101285
 30
0.0
 10
5229.699234562868
 20
2766.428655494186
 30
0.0
 10
5229.702213448807
 20
2766.425544524495
 30
0.0
 10
5229.705396721345
 20
2766.422663870227
 30
0.0
 10
5229.708782437729
 20
2766.420011706478
 30
0.0
 10
5229.712365939705
 20
2766.417587450844
 30
0.0
 10
5229.716148532776
 20
2766.415398327854
 30
0.0
 10
5229.72009608514
 20
2766.413472859272
 30
0.0
 10
5229.724168715954
 20
2766.411836386578
 30
0.0
 10
5229.728322573539
 20
2766.410509772603
 30
0.0
 10
5229.732522803166
 20
2766.409504188365
 30
0.0
 10
5229.736770158147
 20
2766.408821279661
 30
0.0
 10
5229.740691190041
 20
2766.408442494562
 30
0.0
 10
5229.74320295205
 20
2766.408436156791
 30
0.0
 10
5229.74427445557
 20
2766.408433453133
 30
0.0
  0
SPLINE
  5
1508
330
1F
100
AcDbEntity
  8
SANINDUSA
100
AcDbSpline
210
0.0
220
0.0
230
1.0
 70
     8
 71
     3
 72
    24
 73
    20
 74
     0
 42
0.0000000001
 43
0.0000000001
 40
0.0
 40
0.0
 40
0.0
 40
0.0
 40
0.0522565067212385
 40
0.1129015866293866
 40
0.1737424934496736
 40
0.2346603618568215
 40
0.2948536581917902
 40
0.3556753165143072
 40
0.4171367262124351
 40
0.478953002114903
 40
0.5407586370606116
 40
0.6021892992194614
 40
0.6629481476185298
 40
0.72287906552793
 40
0.7833334285910052
 40
0.8442121429315431
 40
0.905418234810034
 40
0.9668357262943301
 40
1.0
 40
1.0
 40
1.0
 40
1.0
 10
5230.274257886671
 20
2766.408420995762
 30
0.0
 10
5230.275496523836
 20
2766.408433952646
 30
0.0
 10
5230.278172632707
 20
2766.408461946341
 30
0.0
 10
5230.282273450384
 20
2766.408886026738
 30
0.0
 10
5230.286536934912
 20
2766.409611760975
 30
0.0
 10
5230.290724018937
 20
2766.410657084813
 30
0.0
 10
5230.294821972023
 20
2766.412006058604
 30
0.0
 10
5230.298824951028
 20
2766.413648876872
 30
0.0
 10
5230.302735493522
 20
2766.415587726216
 30
0.0
 10
5230.306518430039
 20
2766.417809083508
 30
0.0
 10
5230.310132222555
 20
2766.420290874374
 30
0.0
 10
5230.313538258323
 20
2766.423004951545
 30
0.0
 10
5230.316702944956
 20
2766.425923551376
 30
0.0
 10
5230.319631010456
 20
2766.429035204549
 30
0.0
 10
5230.322328619337
 20
2766.432339331703
 30
0.0
 10
5230.324800445106
 20
2766.435841957382
 30
0.0
 10
5230.327007513281
 20
2766.439530417086
 30
0.0
 10
5230.328692276177
 20
2766.442766610626
 30
0.0
 10
5230.32952144602
 20
2766.44481399363
 30
0.0
 10
5230.329812187218
 20
2766.445531890681
 30
0.0
  0
SPLINE
  5
1509
330
1F
100
AcDbEntity
  8
SANINDUSA
100
AcDbSpline
210
0.0
220
0.0
230
1.0
 70
     8
 71
     3
 72
    12
 73
     8
 74
     0
 42
0.0000000001
 43
0.0000000001
 40
0.0
 40
0.0
 40
0.0
 40
0.0
 40
0.0434432429861521
 40
0.3419082665184567
 40
0.6583430853679945
 40
0.9975142958543761
 40
1.0
 40
1.0
 40
1.0
 40
1.0
 10
5230.009265728524
 20
2766.408663944295
 30
0.0
 10
5230.013103152756
 20
2766.408664669371
 30
0.0
 10
5230.043304559853
 20
2766.40867037589
 30
0.0
 10
5230.101457206244
 20
2766.408631642522
 30
0.0
 10
5230.185730580146
 20
2766.408544380585
 30
0.0
 10
5230.243858956267
 20
2766.408453513622
 30
0.0
 10
5230.274036336219
 20
2766.408396140805
 30
0.0
 10
5230.274255889916
 20
2766.408395723393
 30
0.0
  0
SPLINE
  5
150A
330
1F
100
AcDbEntity
  8
SANINDUSA
100
AcDbSpline
210
0.0
220
0.0
230
1.0
 70
     8
 71
     3
 72
    11
 73
     7
 74
     0
 42
0.0000000001
 43
0.0000000001
 40
0.0
 40
0.0
 40
0.0
 40
0.0
 40
0.0799710632451569
 40
0.4190409306078732
 40
0.7322291282875641
 40
1.0
 40
1.0
 40
1.0
 40
1.0
 10
5229.744275647663
 20
2766.408393875649
 30
0.0
 10
5229.751339227385
 20
2766.40840725699
 30
0.0
 10
5229.788351727907
 20
2766.408477373975
 30
0.0
 10
5229.853028942273
 20
2766.408568425163
 30
0.0
 10
5229.934295754787
 20
2766.408649555127
 30
0.0
 10
5229.985613019064
 20
2766.408660220563
 30
0.0
 10
5230.009265750063
 20
2766.408665136387
 30
0.0
  0
SPLINE
  5
1515
330
1F
100
AcDbEntity
  8
SANINDUSA
100
AcDbSpline
210
0.0
220
0.0
230
1.0
 70
     8
 71
     3
 72
    11
 73
     7
 74
     0
 42
0.0000000001
 43
0.0000000001
 40
0.0
 40
0.0
 40
0.0
 40
0.0
 40
0.0803870987275922
 40
0.2408245062414884
 40
0.4012631730099253
 40
0.9999999999999998
 40
0.9999999999999998
 40
0.9999999999999998
 40
0.9999999999999998
 10
5229.689189362787
 20
2766.727399156382
 30
0.0
 10
5229.697765735116
 20
2766.727319335238
 30
0.0
 10
5229.723458920513
 20
2766.727080206225
 30
0.0
 10
5229.766271323425
 20
2766.727193416654
 30
0.0
 10
5229.864386555707
 20
2766.727349178156
 30
0.0
 10
5229.945384939179
 20
2766.727425713745
 30
0.0
 10
5230.009265709185
 20
2766.727486074855
 30
0.0
  0
SPLINE
  5
1516
330
1F
100
AcDbEntity
  8
SANINDUSA
100
AcDbSpline
210
0.0
220
0.0
230
1.0
 70
     8
 71
     3
 72
    11
 73
     7
 74
     0
 42
0.0000000001
 43
0.0000000001
 40
0.0
 40
0.0
 40
0.0
 40
0.0
 40
0.0803870987275922
 40
0.2408245062414884
 40
0.4012631730099253
 40
0.9999999999999998
 40
0.9999999999999998
 40
0.9999999999999998
 40
0.9999999999999998
 10
5230.329342055582
 20
2766.727399156382
 30
0.0
 10
5230.320765683254
 20
2766.727319335238
 30
0.0
 10
5230.295072497856
 20
2766.727080206225
 30
0.0
 10
5230.252260094944
 20
2766.727193416654
 30
0.0
 10
5230.154144862662
 20
2766.727349178156
 30
0.0
 10
5230.073146479191
 20
2766.727425713745
 30
0.0
 10
5230.009265709185
 20
2766.727486074855
 30
0.0
  0
LINE
  5
1519
330
1F
100
AcDbEntity
  8
SANINDUSA
100
AcDbLine
 10
5229.734265703224
 20
2766.857486080331
 30
0.0
 11
5229.734265703224
 21
2766.797486082604
 31
0.0
  0
ARC
  5
1527
330
1F
100
AcDbEntity
  8
SANINDUSA
100
AcDbCircle
 10
5230.279265709185
 20
2766.857486080219
 30
0.0
 40
0.005
100
AcDbArc
 50
0.0
 51
90.0
  0
LINE
  5
1528
330
1F
100
AcDbEntity
  8
SANINDUSA
100
AcDbLine
 10
5230.284265715145
 20
2766.857486080331
 30
0.0
 11
5230.284265715145
 21
2766.797486082604
 31
0.0
  0
LINE
  5
152B
330
1F
100
AcDbEntity
  8
SANINDUSA
100
AcDbLine
 10
5229.739265698455
 20
2766.86248608022
 30
0.0
 11
5230.279265719913
 21
2766.86248608022
 31
0.0
  0
ARC
  5
152C
330
1F
100
AcDbEntity
  8
SANINDUSA
100
AcDbCircle
 10
5229.739265709184
 20
2766.857486080219
 30
0.0
 40
0.005
100
AcDbArc
 50
90.0
 51
180.0
  0
ARC
  5
152E
330
1F
100
AcDbEntity
  8
SANINDUSA
100
AcDbCircle
 10
5229.729265709185
 20
2766.79748608022
 30
0.0
 40
0.005
100
AcDbArc
 50
270.0
 51
0.0
  0
ARC
  5
1531
330
1F
100
AcDbEntity
  8
SANINDUSA
100
AcDbCircle
 10
5229.689265709185
 20
2766.787486080219
 30
0.0
 40
0.0050000000000001
100
AcDbArc
 50
90.0
 51
180.0
  0
ARC
  5
1532
330
1F
100
AcDbEntity
  8
SANINDUSA
100
AcDbCircle
 10
5230.289265709185
 20
2766.79748608022
 30
0.0
 40
0.005
100
AcDbArc
 50
180.0
 51
270.0
  0
LINE
  5
1534
330
1F
100
AcDbEntity
  8
SANINDUSA
100
AcDbLine
 10
5229.729265707993
 20
2766.792486079922
 30
0.0
 11
5229.689265716337
 21
2766.792486079922
 31
0.0
  0
ARC
  5
1537
330
1F
100
AcDbEntity
  8
SANINDUSA
100
AcDbCircle
 10
5230.329265709185
 20
2766.787486080219
 30
0.0
 40
0.0050000000000001
100
AcDbArc
 50
0.0
 51
90.0
  0
LINE
  5
1538
330
1F
100
AcDbEntity
  8
SANINDUSA
100
AcDbLine
 10
5230.289265710377
 20
2766.792486079922
 30
0.0
 11
5230.329265702032
 21
2766.792486079922
 31
0.0
  0
LINE
  5
1539
330
1F
100
AcDbEntity
  8
SANINDUSA
100
AcDbLine
 10
5229.684265721106
 20
2766.78748607724
 30
0.0
 11
5229.684265721106
 21
2766.732398570468
 31
0.0
  0
LINE
  5
153B
330
1F
100
AcDbEntity
  8
SANINDUSA
100
AcDbLine
 10
5230.334265697264
 20
2766.78748607724
 30
0.0
 11
5230.334265697264
 21
2766.732398570468
 31
0.0
  0
SPLINE
  5
153F
330
1F
100
AcDbEntity
  8
SANINDUSA
100
AcDbSpline
210
0.0
220
0.0
230
1.0
 70
    24
 71
     3
 72
    16
 73
    12
 74
     0
 42
0.0000000001
 43
0.0000000001
 40
0.0
 40
0.0
 40
0.0
 40
0.0
 40
0.0906949307769263
 40
0.2282414570275517
 40
0.3657825615529851
 40
0.5073970982081116
 40
0.6490008518232618
 40
0.7360657934098773
 40
0.8231262872432584
 40
0.9115726933022205
 40
1.0
 40
1.0
 40
1.0
 40
1.0
 10
5229.684265721106
 20
2766.732223541429
 30
0.0
 10
5229.684265721106
 20
2766.731934915141
 30
0.0
 10
5229.684265721106
 20
2766.731208562699
 30
0.0
 10
5229.684265721106
 20
2766.729350777794
 30
0.0
 10
5229.684265721106
 20
2766.726526244619
 30
0.0
 10
5229.684265721106
 20
2766.722885124172
 30
0.0
 10
5229.684265721106
 20
2766.719002407436
 30
0.0
 10
5229.684265721106
 20
2766.715231270353
 30
0.0
 10
5229.684265721106
 20
2766.711795640683
 30
0.0
 10
5229.684265721106
 20
2766.708067728603
 30
0.0
 10
5229.684265721106
 20
2766.705289666299
 30
0.0
 10
5229.684265721106
 20
2766.703900785139
 30
0.0
  0
SPLINE
  5
1541
330
1F
100
AcDbEntity
  8
SANINDUSA
100
AcDbSpline
210
0.0
220
0.0
230
1.0
 70
    24
 71
     3
 72
    16
 73
    12
 74
     0
 42
0.0000000001
 43
0.0000000001
 40
0.0
 40
0.0
 40
0.0
 40
0.0
 40
0.0906949307769263
 40
0.2282414570275517
 40
0.3657825615529851
 40
0.5073970982081116
 40
0.6490008518232618
 40
0.7360657934098773
 40
0.8231262872432584
 40
0.9115726933022205
 40
1.0
 40
1.0
 40
1.0
 40
1.0
 10
5230.334265697264
 20
2766.732223541429
 30
0.0
 10
5230.334265697264
 20
2766.731934915141
 30
0.0
 10
5230.334265697264
 20
2766.731208562699
 30
0.0
 10
5230.334265697264
 20
2766.729350777794
 30
0.0
 10
5230.334265697264
 20
2766.726526244619
 30
0.0
 10
5230.334265697264
 20
2766.722885124172
 30
0.0
 10
5230.334265697264
 20
2766.719002407436
 30
0.0
 10
5230.334265697264
 20
2766.715231270353
 30
0.0
 10
5230.334265697264
 20
2766.711795640683
 30
0.0
 10
5230.334265697264
 20
2766.708067728603
 30
0.0
 10
5230.334265697264
 20
2766.705289666299
 30
0.0
 10
5230.334265697264
 20
2766.703900785139
 30
0.0
  0
SPLINE
  5
1543
330
1F
100
AcDbEntity
  8
SANINDUSA
100
AcDbSpline
210
0.0
220
0.0
230
1.0
 70
    24
 71
     3
 72
    12
 73
     8
 74
     0
 42
0.0000000001
 43
0.0000000001
 40
0.0
 40
0.0
 40
0.0
 40
0.0
 40
0.1381661256836723
 40
0.3515360489156557
 40
0.5649534668922777
 40
0.7824715935971463
 40
0.9999999999999998
 40
0.9999999999999998
 40
0.9999999999999998
 40
0.9999999999999998
 10
5230.334265697264
 20
2766.703900785139
 30
0.0
 10
5230.334265697264
 20
2766.702912750372
 30
0.0
 10
5230.334265697264
 20
2766.700398893692
 30
0.0
 10
5230.334265697264
 20
2766.696040094903
 30
0.0
 10
5230.334265697264
 20
2766.690804406955
 30
0.0
 10
5230.334265697264
 20
2766.685306807439
 30
0.0
 10
5230.334265697264
 20
2766.681448348243
 30
0.0
 10
5230.334265697264
 20
2766.67951907306
 30
0.0
  0
SPLINE
  5
1544
330
1F
100
AcDbEntity
  8
SANINDUSA
100
AcDbSpline
210
0.0
220
0.0
230
1.0
 70
    24
 71
     3
 72
    12
 73
     8
 74
     0
 42
0.0000000001
 43
0.0000000001
 40
0.0
 40
0.0
 40
0.0
 40
0.0
 40
0.1381661256836723
 40
0.3515360489156557
 40
0.5649534668922777
 40
0.7824715935971463
 40
0.9999999999999998
 40
0.9999999999999998
 40
0.9999999999999998
 40
0.9999999999999998
 10
5229.684265721106
 20
2766.703900785139
 30
0.0
 10
5229.684265721106
 20
2766.702912750372
 30
0.0
 10
5229.684265721106
 20
2766.700398893692
 30
0.0
 10
5229.684265721106
 20
2766.696040094903
 30
0.0
 10
5229.684265721106
 20
2766.690804406955
 30
0.0
 10
5229.684265721106
 20
2766.685306807439
 30
0.0
 10
5229.684265721106
 20
2766.681448348243
 30
0.0
 10
5229.684265721106
 20
2766.67951907306
 30
0.0
  0
SPLINE
  5
1545
330
1F
100
AcDbEntity
  8
SANINDUSA
100
AcDbSpline
210
0.0
220
0.0
230
1.0
 70
    24
 71
     3
 72
    12
 73
     8
 74
     0
 42
0.0000000001
 43
0.0000000001
 40
0.0
 40
0.0
 40
0.0
 40
0.0
 40
0.185428762665169
 40
0.3708603425578553
 40
0.5589734876480912
 40
0.7470896044118893
 40
1.0
 40
1.0
 40
1.0
 40
1.0
 10
5229.684265721106
 20
2766.67951907306
 30
0.0
 10
5229.684265721106
 20
2766.677584636296
 30
0.0
 10
5229.684265721106
 20
2766.673715733379
 30
0.0
 10
5229.684265721106
 20
2766.667686343803
 30
0.0
 10
5229.684265721106
 20
2766.661508305067
 30
0.0
 10
5229.684265721106
 20
2766.654467519926
 30
0.0
 10
5229.684265721106
 20
2766.649439973875
 30
0.0
 10
5229.684265721106
 20
2766.646556884935
 30
0.0
  0
SPLINE
  5
1547
330
1F
100
AcDbEntity
  8
SANINDUSA
100
AcDbSpline
210
0.0
220
0.0
230
1.0
 70
    24
 71
     3
 72
    12
 73
     8
 74
     0
 42
0.0000000001
 43
0.0000000001
 40
0.0
 40
0.0
 40
0.0
 40
0.0
 40
0.185428762665169
 40
0.3708603425578553
 40
0.5589734876480912
 40
0.7470896044118893
 40
1.0
 40
1.0
 40
1.0
 40
1.0
 10
5230.334265697264
 20
2766.67951907306
 30
0.0
 10
5230.334265697264
 20
2766.677584636296
 30
0.0
 10
5230.334265697264
 20
2766.673715733379
 30
0.0
 10
5230.334265697264
 20
2766.667686343803
 30
0.0
 10
5230.334265697264
 20
2766.661508305067
 30
0.0
 10
5230.334265697264
 20
2766.654467519926
 30
0.0
 10
5230.334265697264
 20
2766.649439973875
 30
0.0
 10
5230.334265697264
 20
2766.646556884935
 30
0.0
  0
SPLINE
  5
1549
330
1F
100
AcDbEntity
  8
SANINDUSA
100
AcDbSpline
210
0.0
220
0.0
230
1.0
 70
    24
 71
     3
 72
    10
 73
     6
 74
     0
 42
0.0000000001
 43
0.0000000001
 40
0.0
 40
0.0
 40
0.0
 40
0.0
 40
0.2909274378513416
 40
0.8581868577991556
 40
0.9999999999999998
 40
0.9999999999999998
 40
0.9999999999999998
 40
0.9999999999999998
 10
5230.334265697264
 20
2766.646556884935
 30
0.0
 10
5230.334265697264
 20
2766.629231672156
 30
0.0
 10
5230.334265697264
 20
2766.578125217483
 30
0.0
 10
5230.334265697264
 20
2766.518533522497
 30
0.0
 10
5230.334265697264
 20
2766.47621626034
 30
0.0
 10
5230.334265697264
 20
2766.467752889683
 30
0.0
  0
SPLINE
  5
154B
330
1F
100
AcDbEntity
  8
SANINDUSA
100
AcDbSpline
210
0.0
220
0.0
230
1.0
 70
    24
 71
     3
 72
    10
 73
     6
 74
     0
 42
0.0000000001
 43
0.0000000001
 40
0.0
 40
0.0
 40
0.0
 40
0.0
 40
0.2909274378513416
 40
0.8581868577991556
 40
0.9999999999999998
 40
0.9999999999999998
 40
0.9999999999999998
 40
0.9999999999999998
 10
5229.684265721106
 20
2766.646556884935
 30
0.0
 10
5229.684265721106
 20
2766.629231672156
 30
0.0
 10
5229.684265721106
 20
2766.578125217483
 30
0.0
 10
5229.684265721106
 20
2766.518533522497
 30
0.0
 10
5229.684265721106
 20
2766.47621626034
 30
0.0
 10
5229.684265721106
 20
2766.467752889683
 30
0.0
  0
SPLINE
  5
154C
330
1F
100
AcDbEntity
  8
SANINDUSA
100
AcDbSpline
210
0.0
220
0.0
230
1.0
 70
     8
 71
     3
 72
    11
 73
     7
 74
     0
 42
0.0000000001
 43
0.0000000001
 40
0.0
 40
0.0
 40
0.0
 40
0.0
 40
0.2890729042625995
 40
0.578165535256972
 40
0.8634541645306645
 40
0.9999999999999998
 40
0.9999999999999998
 40
0.9999999999999998
 40
0.9999999999999998
 10
5229.684265721106
 20
2766.467752889683
 30
0.0
 10
5229.684337462397
 20
2766.465533250261
 30
0.0
 10
5229.684480949875
 20
2766.461093819946
 30
0.0
 10
5229.685675777385
 20
2766.454594174921
 30
0.0
 10
5229.687111195865
 20
2766.449345773127
 30
0.0
 10
5229.688407843759
 20
2766.446395144541
 30
0.0
 10
5229.688827562593
 20
2766.445440039924
 30
0.0
  0
SPLINE
  5
154D
330
1F
100
AcDbEntity
  8
SANINDUSA
100
AcDbSpline
210
0.0
220
0.0
230
1.0
 70
     8
 71
     3
 72
    11
 73
     7
 74
     0
 42
0.0000000001
 43
0.0000000001
 40
0.0
 40
0.0
 40
0.0
 40
0.0
 40
0.2895695988178812
 40
0.5829826191066352
 40
0.7960019359739102
 40
1.0
 40
1.0
 40
1.0
 40
1.0
 10
5230.334265697264
 20
2766.467752889683
 30
0.0
 10
5230.334194434724
 20
2766.465548236503
 30
0.0
 10
5230.334050963785
 20
2766.461109668052
 30
0.0
 10
5230.332973080727
 20
2766.455159715909
 30
0.0
 10
5230.331566916746
 20
2766.449965788186
 30
0.0
 10
5230.330420360175
 20
2766.447023568691
 30
0.0
 10
5230.329859483504
 20
2766.445584283164
 30
0.0
  0
SPLINE
  5
15CC
330
1F
100
AcDbEntity
  8
SANINDUSA
370
    15
100
AcDbSpline
210
0.0
220
0.0
230
1.0
 70
     8
 71
     3
 72
    19
 73
    15
 74
     0
 42
0.0000000001
 43
0.0000000001
 40
0.0
 40
0.0
 40
0.0
 40
0.0
 40
0.0609517445508835
 40
0.1504688196903383
 40
0.2416032351399449
 40
0.3339993141924882
 40
0.42734175409796
 40
0.5213075935269084
 40
0.6155865088050789
 40
0.7100402908473244
 40
0.8031744233599285
 40
0.8977051339936334
 40
0.9926950645622339
 40
1.0
 40
1.0
 40
1.0
 40
1.0
 10
5232.469659038304
 20
2766.532478846757
 30
0.0
 10
5232.469031415508
 20
2766.532569931378
 30
0.0
 10
5232.46748203145
 20
2766.532794787869
 30
0.0
 10
5232.464759445519
 20
2766.533273071846
 30
0.0
 10
5232.461537184245
 20
2766.533881939017
 30
0.0
 10
5232.458098213511
 20
2766.534576056454
 30
0.0
 10
5232.454479388126
 20
2766.535334965011
 30
0.0
 10
5232.450705045829
 20
2766.536143573219
 30
0.0
 10
5232.446804068805
 20
2766.536985383126
 30
0.0
 10
5232.442819296911
 20
2766.537836316994
 30
0.0
 10
5232.438754484379
 20
2766.538660855072
 30
0.0
 10
5232.434625452158
 20
2766.53943165777
 30
0.0
 10
5232.431727411943
 20
2766.539948250525
 30
0.0
 10
5232.430215730381
 20
2766.540172227465
 30
0.0
 10
5232.430107780327
 20
2766.540188221787
 30
0.0
  0
SPLINE
  5
15CD
330
1F
100
AcDbEntity
  8
SANINDUSA
370
    15
100
AcDbSpline
210
0.0
220
0.0
230
1.0
 70
     8
 71
     3
 72
    14
 73
    10
 74
     0
 42
0.0000000001
 43
0.0000000001
 40
0.0
 40
0.0
 40
0.0
 40
0.0
 40
0.0228241914243284
 40
0.2167228936495796
 40
0.3795564420069473
 40
0.5328941251149218
 40
0.695678098474657
 40
0.8738166377499732
 40
1.0
 40
1.0
 40
1.0
 40
1.0
 10
5232.251537867991
 20
2766.56968944599
 30
0.0
 10
5232.25129474909
 20
2766.569730888229
 30
0.0
 10
5232.248986258474
 20
2766.570124395359
 30
0.0
 10
5232.244967731944
 20
2766.570952194652
 30
0.0
 10
5232.239607513546
 20
2766.572241677563
 30
0.0
 10
5232.234653867443
 20
2766.573751900434
 30
0.0
 10
5232.229637641225
 20
2766.575588411196
 30
0.0
 10
5232.224974066804
 20
2766.577530930124
 30
0.0
 10
5232.222038733104
 20
2766.579014728727
 30
0.0
 10
5232.220821632812
 20
2766.579629967708
 30
0.0
  0
SPLINE
  5
15CE
330
1F
100
AcDbEntity
  8
SANINDUSA
370
    15
100
AcDbSpline
210
0.0
220
0.0
230
1.0
 70
     8
 71
     3
 72
    23
 73
    19
 74
     0
 42
0.0000000001
 43
0.0000000001
 40
0.0
 40
0.0
 40
0.0
 40
0.0
 40
0.0126246484407759
 40
0.075875933331557
 40
0.1387533362829646
 40
0.2051881805940611
 40
0.2725988174120779
 40
0.3409369343389084
 40
0.410087869742528
 40
0.4798963796371951
 40
0.5502147804204365
 40
0.6207276880819883
 40
0.6915416600244319
 40
0.7627837344779353
 40
0.8342867520910621
 40
0.9058741301325214
 40
0.9779030271213072
 40
1.0
 40
1.0
 40
1.0
 40
1.0
 10
5232.198200835942
 20
2766.595772502772
 30
0.0
 10
5232.197950981741
 20
2766.596006344336
 30
0.0
 10
5232.196449322451
 20
2766.597411765412
 30
0.0
 10
5232.193925367317
 20
2766.600208358657
 30
0.0
 10
5232.190581840676
 20
2766.604216198955
 30
0.0
 10
5232.187417711646
 20
2766.60851267175
 30
0.0
 10
5232.18441410696
 20
2766.613099151806
 30
0.0
 10
5232.181634265985
 20
2766.617910361333
 30
0.0
 10
5232.179093471209
 20
2766.622924756018
 30
0.0
 10
5232.176808738723
 20
2766.628119612004
 30
0.0
 10
5232.174797588579
 20
2766.633465911434
 30
0.0
 10
5232.173076291396
 20
2766.638941015947
 30
0.0
 10
5232.171648558441
 20
2766.6445256937
 30
0.0
 10
5232.170520177929
 20
2766.650205792461
 30
0.0
 10
5232.169696143517
 20
2766.655959268358
 30
0.0
 10
5232.169188308025
 20
2766.661770491752
 30
0.0
 10
5232.169027383202
 20
2766.666260999512
 30
0.0
 10
5232.169008614453
 20
2766.668812106978
 30
0.0
 10
5232.169029212555
 20
2766.669363640346
 30
0.0
  0
SPLINE
  5
15CF
330
1F
100
AcDbEntity
  8
SANINDUSA
370
    15
100
AcDbSpline
210
0.0
220
0.0
230
1.0
 70
     8
 71
     3
 72
    14
 73
    10
 74
     0
 42
0.0000000001
 43
0.0000000001
 40
0.0
 40
0.0
 40
0.0
 40
0.0
 40
0.0027520776209217
 40
0.2041252493451789
 40
0.4044291933093308
 40
0.5813053780566929
 40
0.7681739545138382
 40
0.9527348559362424
 40
1.0
 40
1.0
 40
1.0
 40
1.0
 10
5232.22082123872
 20
2766.579629122336
 30
0.0
 10
5232.220798302881
 20
2766.579640460849
 30
0.0
 10
5232.219097121203
 20
2766.580481453432
 30
0.0
 10
5232.215816313273
 20
2766.582326324235
 30
0.0
 10
5232.211248431985
 20
2766.585168112169
 30
0.0
 10
5232.206954025348
 20
2766.588184008631
 30
0.0
 10
5232.202978471739
 20
2766.591377169675
 30
0.0
 10
5232.200059699273
 20
2766.59395948236
 30
0.0
 10
5232.198546094096
 20
2766.595493976691
 30
0.0
 10
5232.198237497335
 20
2766.595806832373
 30
0.0
  0
SPLINE
  5
15D0
330
1F
100
AcDbEntity
  8
SANINDUSA
370
    15
100
AcDbSpline
210
0.0
220
0.0
230
1.0
 70
     8
 71
     3
 72
    13
 73
     9
 74
     0
 42
0.0000000001
 43
0.0000000001
 40
0.0
 40
0.0
 40
0.0
 40
0.0
 40
0.0359505830011062
 40
0.3335831472031344
 40
0.6684428640755811
 40
0.9176086271531133
 40
0.9798988199209958
 40
1.0
 40
1.0
 40
1.0
 40
1.0
 10
5232.430112601673
 20
2766.540219221431
 30
0.0
 10
5232.427970172377
 20
2766.540557111431
 30
0.0
 10
5232.408090708741
 20
2766.543692371003
 30
0.0
 10
5232.368288156683
 20
2766.550178718626
 30
0.0
 10
5232.315807921345
 20
2766.558843855043
 30
0.0
 10
5232.277358644244
 20
2766.565328822597
 30
0.0
 10
5232.257626141917
 20
2766.568608007322
 30
0.0
 10
5232.252729502802
 20
2766.569462908268
 30
0.0
 10
5232.251534860437
 20
2766.569671480079
 30
0.0
  0
SPLINE
  5
15D2
330
1F
100
AcDbEntity
  8
SANINDUSA
370
    15
100
AcDbSpline
210
0.0
220
0.0
230
1.0
 70
    24
 71
     3
 72
     8
 73
     4
 74
     0
 42
0.0000000001
 43
0.0000000001
 40
0.0
 40
0.0
 40
0.0
 40
0.0
 40
1.0
 40
1.0
 40
1.0
 40
1.0
 10
5232.158437078003
 20
2766.72030505423
 30
0.0
 10
5232.158437078003
 20
2766.741594929375
 30
0.0
 10
5232.158437078003
 20
2766.762884804519
 30
0.0
 10
5232.158437078003
 20
2766.784174679664
 30
0.0
  0
SPLINE
  5
15D3
330
1F
100
AcDbEntity
  8
SANINDUSA
370
    15
100
AcDbSpline
210
0.0
220
0.0
230
1.0
 70
     8
 71
     3
 72
    17
 73
    13
 74
     0
 42
0.0000000001
 43
0.0000000001
 40
0.0
 40
0.0
 40
0.0
 40
0.0
 40
0.0935885482188081
 40
0.2035709038491372
 40
0.3135873429673
 40
0.4236417782978835
 40
0.5336905720675228
 40
0.6437090600810662
 40
0.7537109039100627
 40
0.8637210917154956
 40
0.9737378262116692
 40
1.0
 40
1.0
 40
1.0
 40
1.0
 10
5232.158195335979
 20
2766.702135307784
 30
0.0
 10
5232.158198924571
 20
2766.702247756316
 30
0.0
 10
5232.158206730361
 20
2766.70249235087
 30
0.0
 10
5232.158254567197
 20
2766.7040744531
 30
0.0
 10
5232.158315437554
 20
2766.706436932041
 30
0.0
 10
5232.158374067993
 20
2766.709361595959
 30
0.0
 10
5232.158415850989
 20
2766.712483806331
 30
0.0
 10
5232.158436400212
 20
2766.715459513182
 30
0.0
 10
5232.158437290308
 20
2766.717953424893
 30
0.0
 10
5232.15843728639
 20
2766.719675571495
 30
0.0
 10
5232.158437333932
 20
2766.720267197124
 30
0.0
 10
5232.158437314371
 20
2766.720298937562
 30
0.0
 10
5232.158437310601
 20
2766.72030505423
 30
0.0
  0
SPLINE
  5
15D4
330
1F
100
AcDbEntity
  8
SANINDUSA
370
    15
100
AcDbSpline
210
0.0
220
0.0
230
1.0
 70
     8
 71
     3
 72
    62
 73
    58
 74
     0
 42
0.0000000001
 43
0.0000000001
 40
0.0
 40
0.0
 40
0.0
 40
0.0
 40
0.0156250000000005
 40
0.0156250000000005
 40
0.0312500000000009
 40
0.0312500000000009
 40
0.0625000000000018
 40
0.0625000000000018
 40
0.0781250000000023
 40
0.0781250000000023
 40
0.0859375000000025
 40
0.0859375000000025
 40
0.0937500000000028
 40
0.0937500000000028
 40
0.1093750000000031
 40
0.1093750000000031
 40
0.1171875000000032
 40
0.1171875000000032
 40
0.1250000000000033
 40
0.1250000000000033
 40
0.1406250000000035
 40
0.1406250000000035
 40
0.1484375000000036
 40
0.1484375000000036
 40
0.1562500000000037
 40
0.1562500000000037
 40
0.1875000000000038
 40
0.1875000000000038
 40
0.1953125000000038
 40
0.1953125000000038
 40
0.2031250000000039
 40
0.2031250000000039
 40
0.2187500000000038
 40
0.2187500000000038
 40
0.2500000000000036
 40
0.2500000000000036
 40
0.2812500000000035
 40
0.2812500000000035
 40
0.3125000000000033
 40
0.3125000000000033
 40
0.3437500000000031
 40
0.3437500000000031
 40
0.3750000000000029
 40
0.3750000000000029
 40
0.4375000000000026
 40
0.4375000000000026
 40
0.5000000000000023
 40
0.5000000000000023
 40
0.562500000000002
 40
0.562500000000002
 40
0.6250000000000016
 40
0.6250000000000016
 40
0.7500000000000009
 40
0.7500000000000009
 40
0.8750000000000003
 40
0.8750000000000003
 40
1.0
 40
1.0
 40
1.0
 40
1.0
 10
5232.139470611523
 20
2766.447315392773
 30
0.0
 10
5232.138025874338
 20
2766.447614755317
 30
0.0
 10
5232.136587244869
 20
2766.447945613157
 30
0.0
 10
5232.133725249672
 20
2766.448686038501
 30
0.0
 10
5232.132300784818
 20
2766.449096839128
 30
0.0
 10
5232.128097621595
 20
2766.450464400222
 30
0.0
 10
5232.125375794058
 20
2766.451556299804
 30
0.0
 10
5232.121475547666
 20
2766.45360376096
 30
0.0
 10
5232.12020613952
 20
2766.4543550961
 30
0.0
 10
5232.118359139593
 20
2766.455610287954
 30
0.0
 10
5232.117757359596
 20
2766.456047323001
 30
0.0
 10
5232.116589918123
 20
2766.456955802043
 30
0.0
 10
5232.1160231923
 20
2766.457427967369
 30
0.0
 10
5232.114376344075
 20
2766.458900713688
 30
0.0
 10
5232.113349605981
 20
2766.459957603104
 30
0.0
 10
5232.111927842653
 20
2766.461667763297
 30
0.0
 10
5232.1114716823
 20
2766.462261398614
 30
0.0
 10
5232.110613422094
 20
2766.463474802708
 30
0.0
 10
5232.110210865633
 20
2766.464094851722
 30
0.0
 10
5232.109080854747
 20
2766.465994003781
 30
0.0
 10
5232.108430586703
 20
2766.467311874718
 30
0.0
 10
5232.107607247177
 20
2766.469365056564
 30
0.0
 10
5232.107358019405
 20
2766.470062116961
 30
0.0
 10
5232.106909354918
 20
2766.471481245977
 30
0.0
 10
5232.106711043979
 20
2766.472200637587
 30
0.0
 10
5232.105853706654
 20
2766.475799615241
 30
0.0
 10
5232.10558097088
 20
2766.478727386936
 30
0.0
 10
5232.105608684488
 20
2766.482430457299
 30
0.0
 10
5232.105633046064
 20
2766.483174841256
 30
0.0
 10
5232.105715183807
 20
2766.484653322296
 30
0.0
 10
5232.105772889673
 20
2766.485388857339
 30
0.0
 10
5232.105989352872
 20
2766.487585808308
 30
0.0
 10
5232.106190564316
 20
2766.489037768634
 30
0.0
 10
5232.106925445265
 20
2766.493364417683
 30
0.0
 10
5232.107589180277
 20
2766.496210137539
 30
0.0
 10
5232.109116286647
 20
2766.501857113206
 30
0.0
 10
5232.109980588293
 20
2766.504658161818
 30
0.0
 10
5232.11182243324
 20
2766.51023503727
 30
0.0
 10
5232.112799803885
 20
2766.513008405812
 30
0.0
 10
5232.114808898424
 20
2766.518530244443
 30
0.0
 10
5232.115841736245
 20
2766.521280677403
 30
0.0
 10
5232.117930000096
 20
2766.526773170632
 30
0.0
 10
5232.118985562183
 20
2766.52951518047
 30
0.0
 10
5232.122152966637
 20
2766.537740943775
 30
0.0
 10
5232.124263711871
 20
2766.543225103911
 30
0.0
 10
5232.128378035684
 20
2766.554233147261
 30
0.0
 10
5232.130382944212
 20
2766.559756537505
 30
0.0
 10
5232.134232272881
 20
2766.570862805644
 30
0.0
 10
5232.136072951285
 20
2766.57643345107
 30
0.0
 10
5232.139552187297
 20
2766.587605567169
 30
0.0
 10
5232.141191589846
 20
2766.593208505915
 30
0.0
 10
5232.145785313474
 20
2766.610071979558
 30
0.0
 10
5232.148412781715
 20
2766.621387570871
 30
0.0
 10
5232.152755659297
 20
2766.644172384391
 30
0.0
 10
5232.15447243206
 20
2766.655641376939
 30
0.0
 10
5232.157002728889
 20
2766.678731508903
 30
0.0
 10
5232.157818148819
 20
2766.690352328973
 30
0.0
 10
5232.158193716129
 20
2766.7020472396
 30
0.0
  0
SPLINE
  5
15D5
330
1F
100
AcDbEntity
  8
SANINDUSA
370
    15
100
AcDbSpline
210
0.0
220
0.0
230
1.0
 70
     8
 71
     3
 72
    22
 73
    18
 74
     0
 42
0.0000000001
 43
0.0000000001
 40
0.0
 40
0.0
 40
0.0
 40
0.0
 40
0.1250000000000005
 40
0.1250000000000005
 40
0.2500000000000011
 40
0.2500000000000011
 40
0.3750000000000017
 40
0.3750000000000017
 40
0.4375000000000016
 40
0.4375000000000016
 40
0.5000000000000015
 40
0.5000000000000015
 40
0.6250000000000013
 40
0.6250000000000013
 40
0.750000000000001
 40
0.750000000000001
 40
1.0
 40
1.0
 40
1.0
 40
1.0
 10
5232.419072972942
 20
2766.476229525242
 30
0.0
 10
5232.41165976827
 20
2766.473298900053
 30
0.0
 10
5232.404143075733
 20
2766.470743664984
 30
0.0
 10
5232.388960797858
 20
2766.466173286065
 30
0.0
 10
5232.381294773183
 20
2766.464159735862
 30
0.0
 10
5232.365849425509
 20
2766.460543611876
 30
0.0
 10
5232.358069889595
 20
2766.458941810411
 30
0.0
 10
5232.346333435361
 20
2766.456782688308
 30
0.0
 10
5232.34241373243
 20
2766.456104573474
 30
0.0
 10
5232.334571162768
 20
2766.454824202825
 30
0.0
 10
5232.330646599145
 20
2766.454221614863
 30
0.0
 10
5232.318864101237
 20
2766.452514839836
 30
0.0
 10
5232.310997366156
 20
2766.451511570062
 30
0.0
 10
5232.295244738637
 20
2766.449724704747
 30
0.0
 10
5232.287358786855
 20
2766.448941789708
 30
0.0
 10
5232.263676732682
 20
2766.446870528536
 30
0.0
 10
5232.247856514377
 20
2766.445858715617
 30
0.0
 10
5232.232012925638
 20
2766.445114887595
 30
0.0
  0
LINE
  5
15DA
330
1F
100
AcDbEntity
  8
SANINDUSA
370
    15
100
AcDbLine
 10
5232.221727193234
 20
2766.433630596355
 30
0.0
 11
5232.232012925638
 21
2766.445114887595
 31
0.0
  0
LINE
  5
15DB
330
1F
100
AcDbEntity
  8
SANINDUSA
370
    15
100
AcDbLine
 10
5232.139470611523
 20
2766.447315392773
 30
0.0
 11
5232.151727193234
 21
2766.433630596355
 31
0.0
  0
SPLINE
  5
15DC
330
1F
100
AcDbEntity
  8
SANINDUSA
370
    15
100
AcDbSpline
210
0.0
220
0.0
230
1.0
 70
     8
 71
     3
 72
    72
 73
    68
 74
     0
 42
0.0000000001
 43
0.0000000001
 40
0.0
 40
0.0
 40
0.0
 40
0.0
 40
0.0625
 40
0.0625
 40
0.0937499999999999
 40
0.0937499999999999
 40
0.1093749999999998
 40
0.1093749999999998
 40
0.1249999999999997
 40
0.1249999999999997
 40
0.1874999999999992
 40
0.1874999999999992
 40
0.2031249999999992
 40
0.2031249999999992
 40
0.218749999999999
 40
0.218749999999999
 40
0.2499999999999989
 40
0.2499999999999989
 40
0.3124999999999987
 40
0.3124999999999987
 40
0.328124999999999
 40
0.328124999999999
 40
0.3437499999999993
 40
0.3437499999999993
 40
0.3749999999999999
 40
0.3749999999999999
 40
0.4062500000000006
 40
0.4062500000000006
 40
0.4218750000000008
 40
0.4218750000000008
 40
0.4375000000000012
 40
0.4375000000000012
 40
0.5000000000000023
 40
0.5000000000000023
 40
0.5312500000000034
 40
0.5312500000000034
 40
0.5468750000000035
 40
0.5468750000000035
 40
0.5625000000000035
 40
0.5625000000000035
 40
0.6250000000000026
 40
0.6250000000000026
 40
0.6406250000000026
 40
0.6406250000000026
 40
0.6562500000000026
 40
0.6562500000000026
 40
0.6875000000000023
 40
0.6875000000000023
 40
0.7187500000000023
 40
0.7187500000000023
 40
0.7500000000000022
 40
0.7500000000000022
 40
0.8125000000000014
 40
0.8125000000000014
 40
0.8437500000000012
 40
0.8437500000000012
 40
0.859375000000001
 40
0.859375000000001
 40
0.875000000000001
 40
0.875000000000001
 40
0.9375000000000007
 40
0.9375000000000007
 40
0.9531250000000003
 40
0.9531250000000003
 40
0.9687500000000001
 40
0.9687500000000001
 40
1.0
 40
1.0
 40
1.0
 40
1.0
 10
5232.150632511872
 20
2766.456630596355
 30
0.0
 10
5232.150632511872
 20
2766.456630596355
 30
0.0
 10
5232.15086676337
 20
2766.456626893934
 30
0.0
 10
5232.151553973444
 20
2766.456617077436
 30
0.0
 10
5232.151839393235
 20
2766.456613131012
 30
0.0
 10
5232.152353504446
 20
2766.456606632771
 30
0.0
 10
5232.152539665012
 20
2766.456604366873
 30
0.0
 10
5232.15293919578
 20
2766.456599756936
 30
0.0
 10
5232.153151849527
 20
2766.456597421071
 30
0.0
 10
5232.154278072621
 20
2766.456585822502
 30
0.0
 10
5232.15537864572
 20
2766.456576910087
 30
0.0
 10
5232.156999200199
 20
2766.45656919645
 30
0.0
 10
5232.157335671607
 20
2766.456567814879
 30
0.0
 10
5232.158033677713
 20
2766.456565429905
 30
0.0
 10
5232.158396240204
 20
2766.456564425711
 30
0.0
 10
5232.159512954045
 20
2766.456562073258
 30
0.0
 10
5232.160295961268
 20
2766.456561389322
 30
0.0
 10
5232.162757138056
 20
2766.456561987857
 30
0.0
 10
5232.164546440625
 20
2766.456565897267
 30
0.0
 10
5232.16697439993
 20
2766.456573678297
 30
0.0
 10
5232.167471052591
 20
2766.456575379167
 30
0.0
 10
5232.168475168843
 20
2766.456578949716
 30
0.0
 10
5232.168982843728
 20
2766.456580817712
 30
0.0
 10
5232.170522464683
 20
2766.456586527033
 30
0.0
 10
5232.171570959962
 20
2766.456590492352
 30
0.0
 10
5232.173711703605
 20
2766.456598045363
 30
0.0
 10
5232.174803955523
 20
2766.456601623663
 30
0.0
 10
5232.17647584377
 20
2766.456606044293
 30
0.0
 10
5232.177038732963
 20
2766.456607363913
 30
0.0
 10
5232.178175933453
 20
2766.456609595973
 30
0.0
 10
5232.178751939429
 20
2766.456610509864
 30
0.0
 10
5232.181635911953
 20
2766.456613751813
 30
0.0
 10
5232.183955370262
 20
2766.456612075359
 30
0.0
 10
5232.187452604691
 20
2766.456599187723
 30
0.0
 10
5232.188621380276
 20
2766.456593143509
 30
0.0
 10
5232.190379235351
 20
2766.456581143354
 30
0.0
 10
5232.19096754271
 20
2766.456576638989
 30
0.0
 10
5232.19213356617
 20
2766.456566702786
 30
0.0
 10
5232.192712204366
 20
2766.456561295112
 30
0.0
 10
5232.195583658548
 20
2766.45653128943
 30
0.0
 10
5232.197812041269
 20
2766.456498190323
 30
0.0
 10
5232.2005118987
 20
2766.456446863708
 30
0.0
 10
5232.201047549555
 20
2766.456436100976
 30
0.0
 10
5232.202110056217
 20
2766.456413618243
 30
0.0
 10
5232.202636385301
 20
2766.456401906859
 30
0.0
 10
5232.204184197724
 20
2766.456365824518
 30
0.0
 10
5232.205180664857
 20
2766.456340372893
 30
0.0
 10
5232.207104833849
 20
2766.4562872135
 30
0.0
 10
5232.208032530769
 20
2766.456259504789
 30
0.0
 10
5232.209819182203
 20
2766.4562024412
 30
0.0
 10
5232.210679292677
 20
2766.456173043359
 30
0.0
 10
5232.213146392563
 20
2766.45608371335
 30
0.0
 10
5232.21459682787
 20
2766.456024299246
 30
0.0
 10
5232.216496855162
 20
2766.455940963983
 30
0.0
 10
5232.217083900621
 20
2766.455914142919
 30
0.0
 10
5232.217893881229
 20
2766.455876026069
 30
0.0
 10
5232.218152709014
 20
2766.455863642585
 30
0.0
 10
5232.218642200106
 20
2766.455839899863
 30
0.0
 10
5232.218873111367
 20
2766.455828530165
 30
0.0
 10
5232.219959955685
 20
2766.455774369875
 30
0.0
 10
5232.220614657478
 20
2766.455739644201
 30
0.0
 10
5232.221167998862
 20
2766.455709782765
 30
0.0
 10
5232.221265297371
 20
2766.455704488041
 30
0.0
 10
5232.221432761417
 20
2766.455695326546
 30
0.0
 10
5232.2215029764
 20
2766.455691457002
 30
0.0
 10
5232.221671113897
 20
2766.455682154211
 30
0.0
 10
5232.221727193234
 20
2766.455678996008
 30
0.0
 10
5232.221727193234
 20
2766.455678996008
 30
0.0
  0
LINE
  5
15DD
330
1F
100
AcDbEntity
  8
SANINDUSA
370
    15
100
AcDbLine
 10
5232.221727193234
 20
2766.455678996008
 30
0.0
 11
5232.210227193235
 21
2766.445682110736
 31
0.0
  0
LINE
  5
15DE
330
1F
100
AcDbEntity
  8
SANINDUSA
370
    15
100
AcDbLine
 10
5232.210227193235
 20
2766.445682110736
 30
0.0
 11
5232.163227193234
 21
2766.445682110736
 31
0.0
  0
LINE
  5
15DF
330
1F
100
AcDbEntity
  8
SANINDUSA
370
    15
100
AcDbLine
 10
5232.163227193234
 20
2766.445682110736
 30
0.0
 11
5232.150632511872
 21
2766.456630596355
 31
0.0
  0
SPLINE
  5
15E2
330
1F
100
AcDbEntity
  8
SANINDUSA
370
    15
100
AcDbSpline
210
0.0
220
0.0
230
1.0
 70
     8
 71
     3
 72
    45
 73
    41
 74
     0
 42
0.0000000001
 43
0.0000000001
 40
0.0139473050021923
 40
0.0139473050021923
 40
0.0139473050021923
 40
0.0139473050021923
 40
0.0234366191769814
 40
0.0333910589242657
 40
0.04334549867155
 40
0.0483227185451921
 40
0.0532999384188343
 40
0.0582771582924764
 40
0.0632543781661186
 40
0.0682315980397607
 40
0.0732088179134029
 40
0.0781860377870451
 40
0.0831632576606872
 40
0.0881404775343293
 40
0.0931176974079715
 40
0.1030721371552558
 40
0.11302657690254
 40
0.1229810166498243
 40
0.1329354563971087
 40
0.142889896144393
 40
0.1528443358916772
 40
0.1627987756389616
 40
0.172753215386246
 40
0.1827076551335302
 40
0.1926620948808145
 40
0.2026165346280988
 40
0.2125709743753831
 40
0.2225254141226674
 40
0.2324798538699517
 40
0.242434293617236
 40
0.2623431731118046
 40
0.2623431731118046
 40
0.2801689719070779
 40
0.2979947707023514
 40
0.3158205694976246
 40
0.333646368292898
 40
0.3514721670881713
 40
0.3692979658834447
 40
0.387123764678718
 40
0.3910022584717991
 40
0.3910022584717991
 40
0.3910022584717991
 40
0.3910022584717991
 10
5232.150632511872
 20
2766.456630596355
 30
0.0
 10
5232.148810404665
 20
2766.456860508573
 30
0.0
 10
5232.145086961967
 20
2766.457400425844
 30
0.0
 10
5232.139506482621
 20
2766.45849985844
 30
0.0
 10
5232.134858178155
 20
2766.45977199373
 30
0.0
 10
5232.131233422764
 20
2766.461088190207
 30
0.0
 10
5232.128586690652
 20
2766.462259286333
 30
0.0
 10
5232.126045489312
 20
2766.463652173147
 30
0.0
 10
5232.123663791622
 20
2766.465310763829
 30
0.0
 10
5232.121516672148
 20
2766.467271921924
 30
0.0
 10
5232.119697289222
 20
2766.469548165606
 30
0.0
 10
5232.118287625599
 20
2766.472103854832
 30
0.0
 10
5232.117321131312
 20
2766.474861351476
 30
0.0
 10
5232.116767027437
 20
2766.477731759174
 30
0.0
 10
5232.116495905535
 20
2766.481626761261
 30
0.0
 10
5232.11684767012
 20
2766.486514603479
 30
0.0
 10
5232.117939550042
 20
2766.49230907101
 30
0.0
 10
5232.11944941687
 20
2766.49804047719
 30
0.0
 10
5232.121228170766
 20
2766.503730399771
 30
0.0
 10
5232.123185562486
 20
2766.509405260919
 30
0.0
 10
5232.125262497697
 20
2766.515086533601
 30
0.0
 10
5232.127419223366
 20
2766.520793752335
 30
0.0
 10
5232.129627276645
 20
2766.526543226866
 30
0.0
 10
5232.131865829808
 20
2766.532349898077
 30
0.0
 10
5232.134118911924
 20
2766.538227255782
 30
0.0
 10
5232.136374005481
 20
2766.544188323923
 30
0.0
 10
5232.13862092707
 20
2766.550245671482
 30
0.0
 10
5232.14085121025
 20
2766.556412336421
 30
0.0
 10
5232.143057539081
 20
2766.562701330516
 30
0.0
 10
5232.145958836496
 20
2766.571269606773
 30
0.0
 10
5232.148080353077
 20
2766.577923429296
 30
0.0
 10
5232.150701528867
 20
2766.586569940681
 30
0.0
 10
5232.153173207839
 20
2766.595090487858
 30
0.0
 10
5232.156793937014
 20
2766.609063997645
 30
0.0
 10
5232.160229039293
 20
2766.624354757555
 30
0.0
 10
5232.163347375457
 20
2766.641031185072
 30
0.0
 10
5232.165987323466
 20
2766.659040349556
 30
0.0
 10
5232.167977581418
 20
2766.67812608963
 30
0.0
 10
5232.168869307218
 20
2766.692663580344
 30
0.0
 10
5232.169154669335
 20
2766.700626051046
 30
0.0
 10
5232.169199255935
 20
2766.7020472396
 30
0.0
  0
SPLINE
  5
15E3
330
1F
100
AcDbEntity
  8
SANINDUSA
370
    15
100
AcDbSpline
210
0.0
220
0.0
230
1.0
 70
     8
 71
     3
 72
    50
 73
    46
 74
     0
 42
0.0000000001
 43
0.0000000001
 40
0.0
 40
0.0
 40
0.0
 40
0.0
 40
0.0624999999999962
 40
0.0624999999999962
 40
0.0937499999999944
 40
0.0937499999999944
 40
0.1249999999999924
 40
0.1249999999999924
 40
0.187499999999991
 40
0.187499999999991
 40
0.2499999999999896
 40
0.2499999999999896
 40
0.3124999999999882
 40
0.3124999999999882
 40
0.34374999999999
 40
0.34374999999999
 40
0.3749999999999918
 40
0.4062499999999936
 40
0.4062499999999936
 40
0.4374999999999954
 40
0.4374999999999954
 40
0.4999999999999987
 40
0.4999999999999987
 40
0.5312500000000004
 40
0.5312500000000004
 40
0.562500000000002
 40
0.562500000000002
 40
0.6250000000000054
 40
0.6250000000000054
 40
0.6562500000000071
 40
0.6562500000000071
 40
0.6875000000000087
 40
0.6875000000000087
 40
0.7500000000000076
 40
0.7500000000000076
 40
0.7812500000000071
 40
0.7812500000000071
 40
0.8125000000000063
 40
0.8437500000000058
 40
0.8437500000000058
 40
0.8750000000000053
 40
0.8750000000000053
 40
0.9375000000000026
 40
0.9375000000000026
 40
1.0
 40
1.0
 40
1.0
 40
1.0
 10
5232.169198166905
 20
2766.7020472396
 30
0.0
 10
5232.169198598733
 20
2766.702062408579
 30
0.0
 10
5232.169200864536
 20
2766.702135555759
 30
0.0
 10
5232.169206789311
 20
2766.702328670482
 30
0.0
 10
5232.169209186665
 20
2766.7024070429
 30
0.0
 10
5232.169214803732
 20
2766.70259240546
 30
0.0
 10
5232.169218039658
 20
2766.702699950474
 30
0.0
 10
5232.169228708055
 20
2766.703059161761
 30
0.0
 10
5232.169237139205
 20
2766.703348440103
 30
0.0
 10
5232.169256070401
 20
2766.704025488066
 30
0.0
 10
5232.169266663923
 20
2766.704417156281
 30
0.0
 10
5232.169288458949
 20
2766.705268707602
 30
0.0
 10
5232.169299743785
 20
2766.705731265754
 30
0.0
 10
5232.16931679897
 20
2766.706481358227
 30
0.0
 10
5232.169322515723
 20
2766.70674140966
 30
0.0
 10
5232.169333675909
 20
2766.707269223849
 30
0.0
 10
5232.169344625074
 20
2766.70780739682
 30
0.0
 10
5232.169355043671
 20
2766.708365926842
 30
0.0
 10
5232.169365146685
 20
2766.708934745043
 30
0.0
 10
5232.169370057836
 20
2766.709225394848
 30
0.0
 10
5232.169384126986
 20
2766.710105926395
 30
0.0
 10
5232.169392471668
 20
2766.710694573978
 30
0.0
 10
5232.169403412607
 20
2766.71157990546
 30
0.0
 10
5232.169406796955
 20
2766.711875412108
 30
0.0
 10
5232.169413036655
 20
2766.712467238376
 30
0.0
 10
5232.169415887033
 20
2766.712763449825
 30
0.0
 10
5232.169423492587
 20
2766.713633838706
 30
0.0
 10
5232.169427377791
 20
2766.714196563211
 30
0.0
 10
5232.16943170038
 20
2766.715014429893
 30
0.0
 10
5232.16943289416
 20
2766.715283908638
 30
0.0
 10
5232.169434800191
 20
2766.715807501483
 30
0.0
 10
5232.169435510805
 20
2766.716060414536
 30
0.0
 10
5232.169437039495
 20
2766.716793269012
 30
0.0
 10
5232.169437077136
 20
2766.717247568932
 30
0.0
 10
5232.169437147286
 20
2766.717876192745
 30
0.0
 10
5232.16943716868
 20
2766.71807611732
 30
0.0
 10
5232.169437206863
 20
2766.718449627854
 30
0.0
 10
5232.169437240695
 20
2766.718799057218
 30
0.0
 10
5232.169437266335
 20
2766.719100983202
 30
0.0
 10
5232.169437288097
 20
2766.719378809978
 30
0.0
 10
5232.169437297073
 20
2766.719506261072
 30
0.0
 10
5232.16943731818
 20
2766.719846006273
 30
0.0
 10
5232.169437324591
 20
2766.720015960632
 30
0.0
 10
5232.169437325712
 20
2766.72024565785
 30
0.0
 10
5232.169437320313
 20
2766.72030505423
 30
0.0
 10
5232.169437310634
 20
2766.72030505423
 30
0.0
  0
SPLINE
  5
15E4
330
1F
100
AcDbEntity
  8
SANINDUSA
370
    15
100
AcDbSpline
210
0.0
220
0.0
230
1.0
 70
    24
 71
     3
 72
     8
 73
     4
 74
     0
 42
0.0000000001
 43
0.0000000001
 40
-0.0731109401984923
 40
-0.0731109401984923
 40
-0.0731109401984923
 40
-0.0731109401984923
 40
-0.0028169059751406
 40
-0.0028169059751406
 40
-0.0028169059751406
 40
-0.0028169059751406
 10
5232.169437078002
 20
2766.72030505423
 30
0.0
 10
5232.169437078002
 20
2766.745594929375
 30
0.0
 10
5232.169437078002
 20
2766.77088480452
 30
0.0
 10
5232.169437078002
 20
2766.796174679664
 30
0.0
  0
SPLINE
  5
15E6
330
1F
100
AcDbEntity
  8
SANINDUSA
370
    15
100
AcDbSpline
210
0.0
220
0.0
230
1.0
 70
     8
 71
     3
 72
     9
 73
     5
 74
     0
 42
0.0000000001
 43
0.0000000001
 40
0.0
 40
0.0
 40
0.0
 40
0.0
 40
0.8386832895185175
 40
1.0
 40
1.0
 40
1.0
 40
1.0
 10
5232.169050032911
 20
2766.671142839875
 30
0.0
 10
5232.169213105583
 20
2766.68292466915
 30
0.0
 10
5232.169407544502
 20
2766.696972676808
 30
0.0
 10
5232.169417107216
 20
2766.711022507767
 30
0.0
 10
5232.169418649842
 20
2766.71328898028
 30
0.0
  0
SPLINE
  5
15E7
330
1F
100
AcDbEntity
  8
SANINDUSA
370
    15
100
AcDbSpline
210
0.0
220
0.0
230
1.0
 70
    24
 71
     3
 72
    11
 73
     7
 74
     0
 42
0.0000000001
 43
0.0000000001
 40
-0.0000000599933156
 40
-0.0000000599933156
 40
-0.0000000599933156
 40
-0.0000000599933156
 40
0.0
 40
0.0
 40
0.0
 40
0.0017793357363379
 40
0.0017793357363379
 40
0.0017793357363379
 40
0.0017793357363379
 10
5232.169029212555
 20
2766.669363640346
 30
0.0
 10
5232.16902921279
 20
2766.669363660342
 30
0.0
 10
5232.169029213024
 20
2766.669363680338
 30
0.0
 10
5232.169029213259
 20
2766.669363700334
 30
0.0
 10
5232.169036166209
 20
2766.669956746935
 30
0.0
 10
5232.169043101856
 20
2766.670549793531
 30
0.0
 10
5232.169050032911
 20
2766.671142839875
 30
0.0
  0
SPLINE
  5
15EC
330
1F
100
AcDbEntity
  8
SANINDUSA
370
    15
100
AcDbSpline
210
0.0
220
0.0
230
1.0
 70
     8
 71
     3
 72
    14
 73
    10
 74
     0
 42
0.0000000001
 43
0.0000000001
 40
0.0
 40
0.0
 40
0.0
 40
0.0
 40
0.1426424538076421
 40
0.2858120874799113
 40
0.4285385467220446
 40
0.5713030438398988
 40
0.7144800003092805
 40
0.8572188912749364
 40
1.0
 40
1.0
 40
1.0
 40
1.0
 10
5232.486015247202
 20
2766.531079929503
 30
0.0
 10
5232.485953407813
 20
2766.531093228268
 30
0.0
 10
5232.48582950049
 20
2766.531119874948
 30
0.0
 10
5232.484701444235
 20
2766.53120153046
 30
0.0
 10
5232.482937198851
 20
2766.531305069551
 30
0.0
 10
5232.48050018524
 20
2766.531418279934
 30
0.0
 10
5232.477458111976
 20
2766.531601771735
 30
0.0
 10
5232.473884525125
 20
2766.531893593158
 30
0.0
 10
5232.471054721175
 20
2766.532267012098
 30
0.0
 10
5232.469639609989
 20
2766.532453749175
 30
0.0
  0
SPLINE
  5
15EE
330
1F
100
AcDbEntity
  8
SANINDUSA
370
    15
100
AcDbSpline
210
0.0
220
0.0
230
1.0
 70
     8
 71
     3
 72
    42
 73
    38
 74
     0
 42
0.0000000001
 43
0.0000000001
 40
0.5119915540089545
 40
0.5119915540089545
 40
0.5119915540089545
 40
0.5119915540089545
 40
0.5129982790451523
 40
0.5214178343221009
 40
0.5235227231413381
 40
0.5256276119605753
 40
0.5298373895990497
 40
0.5382569448759983
 40
0.5466765001529469
 40
0.5550960554298957
 40
0.55930583306837
 40
0.5635156107068444
 40
0.5677253883453189
 40
0.5719351659837932
 40
0.5803547212607418
 40
0.5887742765376906
 40
0.605613387091588
 40
0.6224524976454852
 40
0.6392916081993824
 40
0.6561307187532801
 40
0.6645502740302286
 40
0.6729698293071773
 40
0.6898089398610746
 40
0.706648050414972
 40
0.7234871609688693
 40
0.7403262715227667
 40
0.757165382076664
 40
0.7740044926305615
 40
0.790843603184459
 40
0.8076827137383562
 40
0.8245218242922534
 40
0.8413609348461509
 40
0.8750391559539455
 40
0.90871737706174
 40
0.942395598169535
 40
0.9760738192773297
 40
0.9925871697592491
 40
0.9925871697592491
 40
0.9925871697592491
 40
0.9925871697592491
 10
5232.48517794147
 20
2766.530409411397
 30
0.0
 10
5232.484988107678
 20
2766.530369358557
 30
0.0
 10
5232.483216516191
 20
2766.529966842956
 30
0.0
 10
5232.481126487335
 20
2766.529153297758
 30
0.0
 10
5232.478996530222
 20
2766.527976953888
 30
0.0
 10
5232.477608606217
 20
2766.527131552535
 30
0.0
 10
5232.475274745141
 20
2766.525508061264
 30
0.0
 10
5232.472137518392
 20
2766.522927200406
 30
0.0
 10
5232.468505531087
 20
2766.519681791891
 30
0.0
 10
5232.465484842158
 20
2766.516968762248
 30
0.0
 10
5232.463040023159
 20
2766.514830655042
 30
0.0
 10
5232.461187745427
 20
2766.513248182077
 30
0.0
 10
5232.459313345517
 20
2766.511692014733
 30
0.0
 10
5232.456782419351
 20
2766.509655498843
 30
0.0
 10
5232.453555727559
 20
2766.507189179214
 30
0.0
 10
5232.448258432977
 20
2766.503424010654
 30
0.0
 10
5232.441396067822
 20
2766.499067316435
 30
0.0
 10
5232.432842815036
 20
2766.494374691998
 30
0.0
 10
5232.424038553179
 20
2766.490166757391
 30
0.0
 10
5232.416538003991
 20
2766.487018949547
 30
0.0
 10
5232.410460676685
 20
2766.48469029953
 30
0.0
 10
5232.404337401984
 20
2766.482480588436
 30
0.0
 10
5232.396607232931
 20
2766.479927274906
 30
0.0
 10
5232.387233541762
 20
2766.477158518701
 30
0.0
 10
5232.377780710954
 20
2766.474651789945
 30
0.0
 10
5232.368262728527
 20
2766.472378886299
 30
0.0
 10
5232.358690341934
 20
2766.47031574499
 30
0.0
 10
5232.349071858028
 20
2766.468441886692
 30
0.0
 10
5232.339413777316
 20
2766.466739556364
 30
0.0
 10
5232.329721143448
 20
2766.465193749745
 30
0.0
 10
5232.3199980272
 20
2766.463790837669
 30
0.0
 10
5232.306997273856
 20
2766.462096385393
 30
0.0
 10
5232.290684419368
 20
2766.460280837601
 30
0.0
 10
5232.271023885615
 20
2766.458521331793
 30
0.0
 10
5232.251286666389
 20
2766.457124921945
 30
0.0
 10
5232.234842742039
 20
2766.456236862307
 30
0.0
 10
5232.224976183442
 20
2766.455808025346
 30
0.0
 10
5232.221727193234
 20
2766.455678996008
 30
0.0
  0
LINE
  5
15EF
330
1F
100
AcDbEntity
  8
SANINDUSA
370
    15
100
AcDbLine
 10
5232.044437078002
 20
2766.771174679664
 30
0.0
 11
5232.044437078002
 21
2766.791174679664
 31
0.0
  0
LINE
  5
15F0
330
1F
100
AcDbEntity
  8
SANINDUSA
370
    15
100
AcDbLine
 10
5232.057633514334
 20
2766.771174679664
 30
0.0
 11
5232.044437078002
 21
2766.771174679664
 31
0.0
  0
LINE
  5
15F1
330
1F
100
AcDbEntity
  8
SANINDUSA
370
    15
100
AcDbLine
 10
5232.06491291902
 20
2766.791174679664
 30
0.0
 11
5232.057633514334
 21
2766.771174679664
 31
0.0
  0
LINE
  5
15F2
330
1F
100
AcDbEntity
  8
SANINDUSA
370
    15
100
AcDbLine
 10
5232.06491291902
 20
2766.791174679664
 30
0.0
 11
5232.044437078002
 21
2766.791174679664
 31
0.0
  0
ARC
  5
15F3
330
1F
100
AcDbEntity
  8
SANINDUSA
370
    15
100
AcDbCircle
 10
5232.078327793966
 20
2766.784174679664
 30
0.0
 40
0.005
100
AcDbArc
 50
90.0
 51
159.999999999395
  0
LINE
  5
15F4
330
1F
100
AcDbEntity
  8
SANINDUSA
370
    15
100
AcDbLine
 10
5232.073629330862
 20
2766.785884780381
 30
0.0
 11
5232.065833015129
 21
2766.764464578947
 31
0.0
  0
ARC
  5
15F5
330
1F
100
AcDbEntity
  8
SANINDUSA
370
    15
100
AcDbCircle
 10
5232.061134552025
 20
2766.766174679664
 30
0.0
 40
0.005
100
AcDbArc
 50
270.0
 51
339.999999999395
  0
LINE
  5
15F6
330
1F
100
AcDbEntity
  8
SANINDUSA
370
    15
100
AcDbLine
 10
5232.061134552025
 20
2766.761174679664
 30
0.0
 11
5232.038437078003
 21
2766.761174679664
 31
0.0
  0
ARC
  5
15F7
330
1F
100
AcDbEntity
  8
SANINDUSA
370
    15
100
AcDbCircle
 10
5232.038437078003
 20
2766.765174679664
 30
0.0
 40
0.0039999999999998
100
AcDbArc
 50
180.0
 51
270.0
  0
ARC
  5
15F8
330
1F
100
AcDbEntity
  8
SANINDUSA
370
    15
100
AcDbCircle
 10
5232.039437078004
 20
2766.796174679664
 30
0.0
 40
0.005
100
AcDbArc
 50
90.0
 51
180.0
  0
LINE
  5
15F9
330
1F
100
AcDbEntity
  8
SANINDUSA
370
    15
100
AcDbLine
 10
5232.164437078004
 20
2766.801174679664
 30
0.0
 11
5232.039437078004
 21
2766.801174679664
 31
0.0
  0
ARC
  5
15FA
330
1F
100
AcDbEntity
  8
SANINDUSA
370
    15
100
AcDbCircle
 10
5232.164437078004
 20
2766.796174679664
 30
0.0
 40
0.005
100
AcDbArc
 50
0.0
 51
90.0
  0
LINE
  5
15FB
330
1F
100
AcDbEntity
  8
SANINDUSA
370
    15
100
AcDbLine
 10
5232.169437078002
 20
2766.72030505423
 30
0.0
 11
5232.158437078003
 21
2766.72030505423
 31
0.0
  0
ARC
  5
15FC
330
1F
100
AcDbEntity
  8
SANINDUSA
370
    15
100
AcDbCircle
 10
5232.153437078003
 20
2766.784174679664
 30
0.0
 40
0.0050000000000003
100
AcDbArc
 50
0.0
 51
90.0
  0
LINE
  5
15FD
330
1F
100
AcDbEntity
  8
SANINDUSA
370
    15
100
AcDbLine
 10
5232.153437078003
 20
2766.789174679664
 30
0.0
 11
5232.078327793966
 21
2766.789174679664
 31
0.0
  0
LINE
  5
15FE
330
1F
100
AcDbEntity
  8
SANINDUSA
370
    15
100
AcDbLine
 10
5232.034437078003
 20
2766.765174679664
 30
0.0
 11
5232.034437078003
 21
2766.796174679664
 31
0.0
  0
LINE
  5
15FF
330
1F
100
AcDbEntity
  8
SANINDUSA
370
    15
100
AcDbLine
 10
5232.158193716129
 20
2766.7020472396
 30
0.0
 11
5232.169199255935
 21
2766.7020472396
 31
0.0
  0
LINE
  5
1600
330
1F
100
AcDbEntity
  8
SANINDUSA
370
    15
100
AcDbLine
 10
5232.163227193234
 20
2766.433630596355
 30
0.0
 11
5232.163227193234
 21
2766.445682110736
 31
0.0
  0
LINE
  5
1601
330
1F
100
AcDbEntity
  8
SANINDUSA
370
    15
100
AcDbLine
 10
5232.151727193234
 20
2766.433630596355
 30
0.0
 11
5232.163227193234
 21
2766.433630596355
 31
0.0
  0
SPLINE
  5
1602
330
1F
100
AcDbEntity
  8
SANINDUSA
370
    15
100
AcDbSpline
210
0.0
220
0.0
230
1.0
 70
     8
 71
     3
 72
    20
 73
    16
 74
     0
 42
0.0000000001
 43
0.0000000001
 40
0.0
 40
0.0
 40
0.0
 40
0.0
 40
0.1250000000000009
 40
0.1250000000000009
 40
0.2500000000000017
 40
0.2500000000000017
 40
0.3750000000000026
 40
0.3750000000000026
 40
0.5000000000000035
 40
0.5000000000000035
 40
0.7500000000000019
 40
0.7500000000000019
 40
0.875000000000001
 40
0.875000000000001
 40
1.0
 40
1.0
 40
1.0
 40
1.0
 10
5232.476155644524
 20
2766.513105035327
 30
0.0
 10
5232.474597883507
 20
2766.511715467708
 30
0.0
 10
5232.473048155378
 20
2766.51031555257
 30
0.0
 10
5232.469919421656
 20
2766.507555001045
 30
0.0
 10
5232.468341176471
 20
2766.506193585752
 30
0.0
 10
5232.465139509645
 20
2766.503532149418
 30
0.0
 10
5232.463516554368
 20
2766.502231494597
 30
0.0
 10
5232.460219794245
 20
2766.499699288888
 30
0.0
 10
5232.458546314781
 20
2766.498467295813
 30
0.0
 10
5232.45344874094
 20
2766.494876142717
 30
0.0
 10
5232.449946926514
 20
2766.492622603289
 30
0.0
 10
5232.444550344013
 20
2766.489437799297
 30
0.0
 10
5232.44272433256
 20
2766.488407068054
 30
0.0
 10
5232.439047581147
 20
2766.486417633782
 30
0.0
 10
5232.437196326736
 20
2766.485458415266
 30
0.0
 10
5232.435333327474
 20
2766.484531570041
 30
0.0
  0
LINE
  5
1604
330
1F
100
AcDbEntity
  8
SANINDUSA
370
    15
100
AcDbLine
 10
5232.210227193235
 20
2766.445682110736
 30
0.0
 11
5232.210227193235
 21
2766.433630596355
 31
0.0
  0
LINE
  5
1605
330
1F
100
AcDbEntity
  8
SANINDUSA
370
    15
100
AcDbLine
 10
5232.210227193235
 20
2766.433630596355
 30
0.0
 11
5232.163227193234
 21
2766.433630596355
 31
0.0
  0
LINE
  5
1606
330
1F
100
AcDbEntity
  8
SANINDUSA
370
    15
100
AcDbLine
 10
5232.470038350701
 20
2766.478412138081
 30
0.0
 11
5232.435333327474
 21
2766.484531570041
 31
0.0
  0
LINE
  5
1607
330
1F
100
AcDbEntity
  8
SANINDUSA
370
    15
100
AcDbLine
 10
5232.476155644524
 20
2766.513105035327
 30
0.0
 11
5232.470038350701
 21
2766.478412138081
 31
0.0
  0
ARC
  5
1608
330
1F
100
AcDbEntity
  8
SANINDUSA
370
    15
100
AcDbCircle
 10
5232.474094148578
 20
2766.472619858427
 30
0.0
 40
0.0050000000000001
100
AcDbArc
 50
260.0000000244362
 51
350.0000000033014
  0
LINE
  5
1609
330
1F
100
AcDbEntity
  8
SANINDUSA
370
    15
100
AcDbLine
 10
5232.473225907689
 20
2766.467695819662
 30
0.0
 11
5232.42377668887
 21
2766.476415051115
 31
0.0
  0
ARC
  5
160B
330
1F
100
AcDbEntity
  8
SANINDUSA
370
    15
100
AcDbCircle
 10
5232.421646451008
 20
2766.469719747163
 30
0.0
 40
0.0070000000000001
100
AcDbArc
 50
75.52998932741406
 51
111.570126380349
  0
ARC
  5
160C
330
1F
100
AcDbEntity
  8
SANINDUSA
370
    15
100
AcDbCircle
 10
5232.485797273333
 20
2766.527474036115
 30
0.0
 40
0.0030000000000005
100
AcDbArc
 50
350.0000000033014
 51
101.9140398190732
  0
LINE
  5
160D
330
1F
100
AcDbEntity
  8
SANINDUSA
370
    15
100
AcDbLine
 10
5232.488751696592
 20
2766.526953091582
 30
0.0
 11
5232.479018187343
 21
2766.471751617539
 31
0.0
  0
LINE
  5
160E
330
1F
100
AcDbEntity
  8
SANINDUSA
370
    15
100
AcDbLine
 10
5232.210227193235
 20
2766.433630596355
 30
0.0
 11
5232.221727193234
 21
2766.433630596355
 31
0.0
  0
ARC
  5
160F
330
1F
100
AcDbEntity
  8
SANINDUSA
370
    15
100
AcDbCircle
 10
5232.485904512479
 20
2766.528081994946
 30
0.0
 40
0.0029999609996379
100
AcDbArc
 50
350.0001352454606
 51
49.21701855886745
  0
SPLINE
  5
1610
330
1F
100
AcDbEntity
  8
SANINDUSA
370
    15
100
AcDbSpline
210
0.0
220
0.0
230
1.0
 70
    24
 71
     3
 72
    10
 73
     6
 74
     0
 42
0.0000000001
 43
0.0000000001
 40
0.0
 40
0.0
 40
0.0
 40
0.0
 40
0.5
 40
0.5
 40
1.0
 40
1.0
 40
1.0
 40
1.0
 10
5232.488858898561
 20
2766.527561064159
 30
0.0
 10
5232.48882236333
 20
2766.527353862568
 30
0.0
 10
5232.488796422082
 20
2766.527206742441
 30
0.0
 10
5232.488761117347
 20
2766.527006519345
 30
0.0
 10
5232.488751696592
 20
2766.526953091582
 30
0.0
 10
5232.488751696592
 20
2766.526953091582
 30
0.0
  0
LINE
  5
1613
330
1F
100
AcDbEntity
  8
SANINDUSA
370
    15
100
AcDbLine
 10
5232.034437078003
 20
2766.752558754839
 30
0.0
 11
5232.034437078003
 21
2766.765174679664
 31
0.0
  0
LINE
  5
161A
330
1F
100
AcDbEntity
  8
SANINDUSA
370
    15
100
AcDbLine
 10
5232.034437078003
 20
2766.724310349365
 30
0.0
 11
5232.034437078003
 21
2766.752558754839
 31
0.0
  0
LINE
  5
1621
330
1F
100
AcDbEntity
  8
SANINDUSA
370
    15
100
AcDbLine
 10
5232.034437078003
 20
2766.715174679664
 30
0.0
 11
5232.034437078003
 21
2766.724310349365
 31
0.0
  0
LINE
  5
1629
330
1F
100
AcDbEntity
  8
SANINDUSA
370
    15
100
AcDbLine
 10
5232.034437078003
 20
2766.69071127915
 30
0.0
 11
5232.034437078003
 21
2766.715174679664
 31
0.0
  0
LINE
  5
1637
330
1F
100
AcDbEntity
  8
SANINDUSA
370
    15
100
AcDbLine
 10
5232.034437078003
 20
2766.513524965952
 30
0.0
 11
5232.034437078003
 21
2766.69071127915
 31
0.0
  0
LINE
  5
163A
330
1F
100
AcDbEntity
  8
SANINDUSA
370
    15
100
AcDbLine
 10
5232.111322512028
 20
2766.508681400417
 30
0.0
 11
5232.038437078003
 21
2766.508681400417
 31
0.0
  0
ARC
  5
163B
330
1F
100
AcDbEntity
  8
SANINDUSA
370
    15
100
AcDbCircle
 10
5232.038437078003
 20
2766.512681400417
 30
0.0
 40
0.0040000000000001
100
AcDbArc
 50
180.0
 51
270.0
  0
ARC
  5
1640
330
1F
100
AcDbEntity
  8
SANINDUSA
370
    15
100
AcDbCircle
 10
5232.485904465293
 20
2766.528081949041
 30
0.0
 40
0.0030000265801731
100
AcDbArc
 50
49.2169088444642
 51
87.88375901271628
  0
SPLINE
  5
164A
330
1F
100
AcDbEntity
  8
SANINDUSA
370
    15
100
AcDbSpline
210
0.0
220
0.0
230
1.0
 70
     8
 71
     3
 72
    20
 73
    16
 74
     0
 42
0.0000000001
 43
0.0000000001
 40
0.0
 40
0.0
 40
0.0
 40
0.0
 40
0.0522662336860864
 40
0.1357921615362028
 40
0.2177573304032683
 40
0.2997140737686737
 40
0.3795662719642809
 40
0.4594200181750717
 40
0.538181769643419
 40
0.6169507837553178
 40
0.6968044088142933
 40
0.7766686724672899
 40
0.8586655246422001
 40
0.9406688250427276
 40
1.0
 40
1.0
 40
1.0
 40
1.0
 10
5230.040760278217
 20
2766.72745674937
 30
0.0
 10
5230.041390058161
 20
2766.726333131631
 30
0.0
 10
5230.043026280512
 20
2766.723413876297
 30
0.0
 10
5230.044587686457
 20
2766.718237860843
 30
0.0
 10
5230.045453281676
 20
2766.712193670734
 30
0.0
 10
5230.045250065558
 20
2766.706164471179
 30
0.0
 10
5230.044011980954
 20
2766.700321579857
 30
0.0
 10
5230.041844125491
 20
2766.694839396325
 30
0.0
 10
5230.038782114143
 20
2766.689836067767
 30
0.0
 10
5230.034949921511
 20
2766.685395861215
 30
0.0
 10
5230.030404840407
 20
2766.681646680222
 30
0.0
 10
5230.025249572562
 20
2766.678630060825
 30
0.0
 10
5230.019614060126
 20
2766.676508543019
 30
0.0
 10
5230.014205122682
 20
2766.675366561603
 30
0.0
 10
5230.010726154487
 20
2766.67524640425
 30
0.0
 10
5230.009265709185
 20
2766.675195963075
 30
0.0
  0
SPLINE
  5
164B
330
1F
100
AcDbEntity
  8
SANINDUSA
370
    15
100
AcDbSpline
210
0.0
220
0.0
230
1.0
 70
     8
 71
     3
 72
    20
 73
    16
 74
     0
 42
0.0000000001
 43
0.0000000001
 40
0.0
 40
0.0
 40
0.0
 40
0.0
 40
0.0522662336860864
 40
0.1357921615362028
 40
0.2177573304032683
 40
0.2997140737686737
 40
0.3795662719642809
 40
0.4594200181750717
 40
0.538181769643419
 40
0.6169507837553178
 40
0.6968044088142933
 40
0.7766686724672899
 40
0.8586655246422001
 40
0.9406688250427276
 40
1.0
 40
1.0
 40
1.0
 40
1.0
 10
5229.977771140151
 20
2766.72745674937
 30
0.0
 10
5229.977141360208
 20
2766.726333131631
 30
0.0
 10
5229.975505137858
 20
2766.723413876297
 30
0.0
 10
5229.973943731913
 20
2766.718237860843
 30
0.0
 10
5229.973078136692
 20
2766.712193670734
 30
0.0
 10
5229.973281352812
 20
2766.706164471179
 30
0.0
 10
5229.974519437416
 20
2766.700321579857
 30
0.0
 10
5229.976687292879
 20
2766.694839396325
 30
0.0
 10
5229.979749304227
 20
2766.689836067767
 30
0.0
 10
5229.983581496858
 20
2766.685395861215
 30
0.0
 10
5229.988126577963
 20
2766.681646680222
 30
0.0
 10
5229.993281845807
 20
2766.678630060825
 30
0.0
 10
5229.998917358244
 20
2766.676508543019
 30
0.0
 10
5230.004326295689
 20
2766.675366561603
 30
0.0
 10
5230.007805263883
 20
2766.67524640425
 30
0.0
 10
5230.009265709185
 20
2766.675195963075
 30
0.0
  0
ARC
  5
164C
330
1F
100
AcDbEntity
  8
SANINDUSA
370
    15
100
AcDbCircle
 10
5230.009265709185
 20
2766.710195964988
 30
0.0
 40
0.0235000000000001
100
AcDbArc
 50
270.0
 51
47.56618795139103
  0
ARC
  5
164D
330
1F
100
AcDbEntity
  8
SANINDUSA
370
    15
100
AcDbCircle
 10
5230.009265709185
 20
2766.710195964988
 30
0.0
 40
0.0235000000000003
100
AcDbArc
 50
132.5069542423042
 51
270.0
  0
SPLINE
  5
1654
330
1F
100
AcDbEntity
  8
SANINDUSA
370
    15
100
AcDbSpline
210
0.0
220
0.0
230
1.0
 70
     8
 71
     3
 72
    40
 73
    36
 74
     0
 42
0.0000000001
 43
0.0000000001
 40
0.0
 40
0.0
 40
0.0
 40
0.0
 40
0.0114375455048663
 40
0.0239387427135412
 40
0.0383546416904294
 40
0.0539738258365543
 40
0.0695496791681182
 40
0.0850791454871841
 40
0.1005709849643225
 40
0.1369859305918855
 40
0.1733621700044334
 40
0.2167798878664308
 40
0.26051648788266
 40
0.3047744712349492
 40
0.344892581849462
 40
0.3856273735699565
 40
0.4258722618765041
 40
0.4652604011247944
 40
0.5037924785738431
 40
0.5414262282185618
 40
0.6034787181843356
 40
0.6629104309828321
 40
0.7197221930203144
 40
0.7739034983136861
 40
0.7913618201732301
 40
0.8085285984562505
 40
0.8255606737058885
 40
0.8512026229658143
 40
0.8774483723039521
 40
0.9081572434781621
 40
0.9408231820099411
 40
0.9588884688750685
 40
0.9766520977965292
 40
0.9911837361020058
 40
1.0
 40
1.0
 40
1.0
 40
1.0
 10
5230.752095986765
 20
2766.467619867888
 30
0.0
 10
5230.753189447567
 20
2766.467283257423
 30
0.0
 10
5230.755478057201
 20
2766.466578732897
 30
0.0
 10
5230.75900736329
 20
2766.465529914488
 30
0.0
 10
5230.762747660022
 20
2766.464454871254
 30
0.0
 10
5230.766669313647
 20
2766.463372644243
 30
0.0
 10
5230.770782024379
 20
2766.462279918166
 30
0.0
 10
5230.774927302936
 20
2766.46122193084
 30
0.0
 10
5230.781005295712
 20
2766.459731718339
 30
0.0
 10
5230.789120311881
 20
2766.457874938074
 30
0.0
 10
5230.800057639537
 20
2766.455614351035
 30
0.0
 10
5230.8119379176
 20
2766.453435618025
 30
0.0
 10
5230.824800012112
 20
2766.451393092648
 30
0.0
 10
5230.837489108473
 20
2766.449685138275
 30
0.0
 10
5230.849959774618
 20
2766.448297746948
 30
0.0
 10
5230.862045043116
 20
2766.447216490204
 30
0.0
 10
5230.874082054711
 20
2766.446463223205
 30
0.0
 10
5230.885920003243
 20
2766.446049639597
 30
0.0
 10
5230.897504870478
 20
2766.445969941851
 30
0.0
 10
5230.91135898974
 20
2766.446262008555
 30
0.0
 10
5230.927287018586
 20
2766.44715833437
 30
0.0
 10
5230.945066442615
 20
2766.448883048346
 30
0.0
 10
5230.961974645719
 20
2766.451150769562
 30
0.0
 10
5230.974636103946
 20
2766.453277862646
 30
0.0
 10
5230.983355759807
 20
2766.454925545826
 30
0.0
 10
5230.988449066447
 20
2766.455912703332
 30
0.0
 10
5230.994298768184
 20
2766.457081990211
 30
0.0
 10
5231.000892739428
 20
2766.458452650342
 30
0.0
 10
5231.008415665212
 20
2766.460101009311
 30
0.0
 10
5231.016015042249
 20
2766.461874792895
 30
0.0
 10
5231.022314985892
 20
2766.463461172775
 30
0.0
 10
5231.027216750262
 20
2766.464775279207
 30
0.0
 10
5231.030650242398
 20
2766.465740170856
 30
0.0
 10
5231.033924385412
 20
2766.466705680081
 30
0.0
 10
5231.036079750642
 20
2766.467369287135
 30
0.0
 10
5231.036893625419
 20
2766.467619867888
 30
0.0
  0
SPLINE
  5
1655
330
1F
100
AcDbEntity
  8
SANINDUSA
370
    15
100
AcDbSpline
210
0.0
220
0.0
230
1.0
 70
    24
 71
     1
 72
     4
 73
     2
 74
     0
 42
0.0000000001
 43
0.0000000001
 40
0.0
 40
0.0
 40
1.0
 40
1.0
 10
5230.84789922894
 20
2766.446581000355
 30
0.0
 10
5230.859498054396
 20
2766.433630609778
 30
0.0
  0
SPLINE
  5
1656
330
1F
100
AcDbEntity
  8
SANINDUSA
370
    15
100
AcDbSpline
210
0.0
220
0.0
230
1.0
 70
    24
 71
     1
 72
     4
 73
     2
 74
     0
 42
0.0000000001
 43
0.0000000001
 40
0.0
 40
0.0
 40
1.0
 40
1.0
 10
5230.929498054694
 20
2766.433630609778
 30
0.0
 10
5230.941096880148
 20
2766.446581000355
 30
0.0
  0
LINE
  5
1657
330
1F
100
AcDbEntity
  8
SANINDUSA
370
    15
100
AcDbLine
 10
5230.894498054545
 20
2766.433630609778
 30
0.0
 11
5230.929498054694
 21
2766.433630609778
 31
0.0
  0
LINE
  5
1658
330
1F
100
AcDbEntity
  8
SANINDUSA
370
    15
100
AcDbLine
 10
5230.859498054396
 20
2766.433630609778
 30
0.0
 11
5230.894498054545
 21
2766.433630609778
 31
0.0
  0
SPLINE
  5
198E
330
1F
100
AcDbEntity
  8
SANINDUSA
100
AcDbSpline
210
0.0
220
0.0
230
1.0
 70
     8
 71
     3
 72
    17
 73
    13
 74
     0
 42
0.0000000001
 43
0.0000000001
 40
0.0
 40
0.0
 40
0.0
 40
0.0
 40
0.1352321969383088
 40
0.244270061912743
 40
0.3118401079359598
 40
0.3782407965376268
 40
0.4579080603670834
 40
0.5513353695891576
 40
0.6546685339699917
 40
0.7678234203720117
 40
0.8867530664924773
 40
1.0
 40
1.0
 40
1.0
 40
1.0
 10
5231.850747487641
 20
2766.53115379564
 30
0.0
 10
5231.850811831685
 20
2766.531150606156
 30
0.0
 10
5231.850928056402
 20
2766.531144844988
 30
0.0
 10
5231.851215203093
 20
2766.531121422698
 30
0.0
 10
5231.85165195639
 20
2766.531053981574
 30
0.0
 10
5231.852206593756
 20
2766.530915496121
 30
0.0
 10
5231.852897692339
 20
2766.530644134991
 30
0.0
 10
5231.853662435621
 20
2766.530185726556
 30
0.0
 10
5231.854418247432
 20
2766.529509138508
 30
0.0
 10
5231.855061848747
 20
2766.528615966276
 30
0.0
 10
5231.855523351533
 20
2766.52756841378
 30
0.0
 10
5231.855611102154
 20
2766.526810886102
 30
0.0
 10
5231.855653903579
 20
2766.52644139282
 30
0.0
  0
SPLINE
  5
198F
330
1F
100
AcDbEntity
  8
SANINDUSA
100
AcDbSpline
210
0.0
220
0.0
230
1.0
 70
     8
 71
     3
 72
    24
 73
    20
 74
     0
 42
0.0000000001
 43
0.0000000001
 40
0.0
 40
0.0
 40
0.0
 40
0.0
 40
0.0113874723497895
 40
0.0780296910647578
 40
0.1446360513605339
 40
0.2110871006003029
 40
0.2766719680566907
 40
0.3410024577695941
 40
0.4064221297625882
 40
0.4715952475605967
 40
0.5363000805131547
 40
0.6002929646312757
 40
0.6633202457899068
 40
0.7252704386292247
 40
0.7884405638240422
 40
0.8537114284756595
 40
0.9202027963151135
 40
0.98767394858962
 40
1.0
 40
1.0
 40
1.0
 40
1.0
 10
5231.797046742535
 20
2766.539501008908
 30
0.0
 10
5231.797283178096
 20
2766.539468446313
 30
0.0
 10
5231.798903291259
 20
2766.539245319601
 30
0.0
 10
5231.801894969186
 20
2766.538747065878
 30
0.0
 10
5231.805990883135
 20
2766.538024979119
 30
0.0
 10
5231.81000608365
 20
2766.537248865942
 30
0.0
 10
5231.813895520309
 20
2766.536464222145
 30
0.0
 10
5231.817670664545
 20
2766.535693605325
 30
0.0
 10
5231.821324079188
 20
2766.534946848276
 30
0.0
 10
5231.824849833777
 20
2766.534238079097
 30
0.0
 10
5231.82819619764
 20
2766.533589369551
 30
0.0
 10
5231.831333461642
 20
2766.533018032648
 30
0.0
 10
5231.834235146824
 20
2766.532537816223
 30
0.0
 10
5231.836913081707
 20
2766.532159594841
 30
0.0
 10
5231.839415072551
 20
2766.531865229734
 30
0.0
 10
5231.841748628152
 20
2766.531640274798
 30
0.0
 10
5231.84385745608
 20
2766.531479350876
 30
0.0
 10
5231.84528039092
 20
2766.531391393323
 30
0.0
 10
5231.845910254244
 20
2766.5313619269
 30
0.0
 10
5231.846007547474
 20
2766.531357375304
 30
0.0
  0
SPLINE
  5
1990
330
1F
100
AcDbEntity
  8
SANINDUSA
100
AcDbSpline
210
0.0
220
0.0
230
1.0
 70
     8
 71
     3
 72
     9
 73
     5
 74
     0
 42
0.0000000001
 43
0.0000000001
 40
0.0
 40
0.0
 40
0.0
 40
0.0
 40
0.4016548799805147
 40
1.0
 40
1.0
 40
1.0
 40
1.0
 10
5231.536675683355
 20
2766.692150820969
 30
0.0
 10
5231.536114261321
 20
2766.679986311594
 30
0.0
 10
5231.536029326108
 20
2766.676562149532
 30
0.0
 10
5231.536009433909
 20
2766.673136951498
 30
0.0
 10
5231.535997531509
 20
2766.67108750097
 30
0.0
  0
LINE
  5
1994
330
1F
100
AcDbEntity
  8
SANINDUSA
100
AcDbLine
 10
5231.846169880724
 20
2766.471751620392
 30
0.0
 11
5231.855597547388
 21
2766.525218663137
 31
0.0
  0
LWPOLYLINE
  5
1995
330
1F
100
AcDbEntity
  8
SANINDUSA
100
AcDbPolyline
 90
        3
 70
   128
 43
0.0
 10
5231.855597547388
 20
2766.525218663137
 10
5231.855667821264
 20
2766.526325074355
 10
5231.855660907125
 20
2766.526441512029
  0
SPLINE
  5
1996
330
1F
100
AcDbEntity
  8
SANINDUSA
100
AcDbSpline
210
0.0
220
0.0
230
1.0
 70
     8
 71
     3
 72
    12
 73
     8
 74
     0
 42
0.0000000001
 43
0.0000000001
 40
0.0
 40
0.0
 40
0.0
 40
0.0
 40
0.0033927634118112
 40
0.2575324785713031
 40
0.5205261462095958
 40
0.7835415518135287
 40
1.0
 40
1.0
 40
1.0
 40
1.0
 10
5231.850747487641
 20
2766.53115379564
 30
0.0
 10
5231.850747487641
 20
2766.53115379564
 30
0.0
 10
5231.850327033803
 20
2766.531159374133
 30
0.0
 10
5231.849826406473
 20
2766.531175123546
 30
0.0
 10
5231.84884816476
 20
2766.531225153001
 30
0.0
 10
5231.847510237281
 20
2766.531278603809
 30
0.0
 10
5231.846372886766
 20
2766.531331262885
 30
0.0
 10
5231.846007547474
 20
2766.531357375304
 30
0.0
  0
ARC
  5
199A
330
1F
100
AcDbEntity
  8
SANINDUSA
100
AcDbCircle
 10
5231.636588759517
 20
2766.671174679664
 30
0.0
 40
0.165
100
AcDbArc
 50
180.0
 51
260.0000000244362
  0
ARC
  5
199D
330
1F
100
AcDbEntity
  8
SANINDUSA
100
AcDbCircle
 10
5231.476588759518
 20
2766.796174679664
 30
0.0
 40
0.005
100
AcDbArc
 50
90.0
 51
180.0
  0
LINE
  5
19A0
330
1F
100
AcDbEntity
  8
SANINDUSA
100
AcDbLine
 10
5231.471588759816
 20
2766.796174672763
 30
0.0
 11
5231.471588759816
 21
2766.671174672763
 31
0.0
  0
LINE
  5
19A1
330
1F
100
AcDbEntity
  8
SANINDUSA
100
AcDbLine
 10
5231.53167626927
 20
2766.801174667995
 30
0.0
 11
5231.476588762498
 21
2766.801174667995
 31
0.0
  0
ARC
  5
19AA
330
1F
100
AcDbEntity
  8
SANINDUSA
100
AcDbCircle
 10
5231.531676028936
 20
2766.796175010157
 30
0.0
 40
0.004999657843741
100
AcDbArc
 50
359.9329499104714
 51
89.99724576707052
  0
LINE
  5
19AB
330
1F
100
AcDbEntity
  8
SANINDUSA
100
AcDbLine
 10
5231.607936806178
 20
2766.508681399147
 30
0.0
 11
5231.786213151313
 21
2766.477246468286
 31
0.0
  0
LWPOLYLINE
  5
19AD
330
1F
100
AcDbEntity
  8
SANINDUSA
100
AcDbPolyline
 90
       20
 70
   128
 43
0.0
 10
5231.786213151313
 20
2766.477246468286
 10
5231.790686032868
 20
2766.476457779627
 10
5231.79512833724
 20
2766.475674485187
 10
5231.799509755468
 20
2766.474901927035
 10
5231.803800336218
 20
2766.474145380179
 10
5231.807970754004
 20
2766.473410015325
 10
5231.81199257741
 20
2766.472700861613
 10
5231.815838298893
 20
2766.472022761921
 10
5231.819481632805
 20
2766.471380335609
 10
5231.822897724009
 20
2766.470777993421
 10
5231.826063237286
 20
2766.470219825726
 10
5231.828956506348
 20
2766.46970966212
 10
5231.831557802057
 20
2766.469250982027
 10
5231.833849362231
 20
2766.46884692214
 10
5231.835815510845
 20
2766.468500239174
 10
5231.837442807055
 20
2766.468213302414
 10
5231.838720164394
 20
2766.467988063912
 10
5231.839638850784
 20
2766.467826080839
 10
5231.840192577934
 20
2766.467728440981
 10
5231.840377590752
 20
2766.467695822339
  0
ARC
  5
19AE
330
1F
100
AcDbEntity
  8
SANINDUSA
100
AcDbCircle
 10
5231.841245830093
 20
2766.472619858427
 30
0.0
 40
0.0050000000000001
100
AcDbArc
 50
260.0000000244362
 51
350.0000000033014
  0
SPLINE
  5
19B6
330
1F
100
AcDbEntity
  8
SANINDUSA
100
AcDbSpline
210
0.0
220
0.0
230
1.0
 70
    24
 71
     3
 72
    24
 73
    20
 74
     0
 42
0.0000000001
 43
0.0000000001
 40
0.0
 40
0.0
 40
0.0
 40
0.0
 40
0.249999999999997
 40
0.249999999999997
 40
0.499999999999994
 40
0.499999999999994
 40
0.6249999999999937
 40
0.6249999999999937
 40
0.7499999999999935
 40
0.7499999999999935
 40
0.8124999999999944
 40
0.8124999999999944
 40
0.8749999999999953
 40
0.8749999999999953
 40
0.9374999999999966
 40
0.9374999999999966
 40
0.9687499999999982
 40
0.9687499999999982
 40
1.0
 40
1.0
 40
1.0
 40
1.0
 10
5231.575108027303
 20
2766.508681400417
 30
0.0
 10
5231.577873154762
 20
2766.508681400417
 30
0.0
 10
5231.580620232709
 20
2766.508681400417
 30
0.0
 10
5231.586087200193
 20
2766.508681400417
 30
0.0
 10
5231.58880706266
 20
2766.508681400417
 30
0.0
 10
5231.592867067681
 20
2766.508681400417
 30
0.0
 10
5231.594217760928
 20
2766.508681400417
 30
0.0
 10
5231.596896190801
 20
2766.508681400417
 30
0.0
 10
5231.598225824662
 20
2766.508681400417
 30
0.0
 10
5231.600200421372
 20
2766.508681400417
 30
0.0
 10
5231.600855269409
 20
2766.508681400417
 30
0.0
 10
5231.60215608998
 20
2766.508681400417
 30
0.0
 10
5231.602802333118
 20
2766.508681400417
 30
0.0
 10
5231.604080797063
 20
2766.508681400417
 30
0.0
 10
5231.604709109566
 20
2766.508681400417
 30
0.0
 10
5231.605622304258
 20
2766.508681400417
 30
0.0
 10
5231.605921748544
 20
2766.508681400417
 30
0.0
 10
5231.60650562991
 20
2766.508681400417
 30
0.0
 10
5231.606790311314
 20
2766.508681400417
 30
0.0
 10
5231.607061923567
 20
2766.508681400417
 30
0.0
  0
LINE
  5
19BA
330
1F
100
AcDbEntity
  8
SANINDUSA
100
AcDbLine
 10
5231.476588762498
 20
2766.801174667995
 30
0.0
 11
5231.466588757133
 21
2766.801174667995
 31
0.0
  0
LINE
  5
19C2
330
1F
100
AcDbEntity
  8
SANINDUSA
100
AcDbLine
 10
5231.466588757133
 20
2766.801174667995
 30
0.0
 11
5231.406588759406
 21
2766.801174667995
 31
0.0
  0
ARC
  5
19C3
330
1F
100
AcDbEntity
  8
SANINDUSA
100
AcDbCircle
 10
5231.406588759518
 20
2766.796174679664
 30
0.0
 40
0.005
100
AcDbArc
 50
90.0
 51
180.0
  0
LINE
  5
19C8
330
1F
100
AcDbEntity
  8
SANINDUSA
100
AcDbLine
 10
5231.406588759406
 20
2766.508681399147
 30
0.0
 11
5231.57510802815
 21
2766.508681399147
 31
0.0
  0
LINE
  5
19C9
330
1F
100
AcDbEntity
  8
SANINDUSA
100
AcDbLine
 10
5231.401588759518
 20
2766.796174672763
 30
0.0
 11
5231.401588759518
 21
2766.512681399803
 31
0.0
  0
ARC
  5
19CB
330
1F
100
AcDbEntity
  8
SANINDUSA
100
AcDbCircle
 10
5231.405588759518
 20
2766.512681400417
 30
0.0
 40
0.004
100
AcDbArc
 50
180.0
 51
270.0
  0
LINE
  5
19CC
330
1F
100
AcDbEntity
  8
SANINDUSA
100
AcDbLine
 10
5231.405588759708
 20
2766.508681399147
 30
0.0
 11
5231.406588759406
 21
2766.508681399147
 31
0.0
  0
ARC
  5
19CD
330
1F
100
AcDbEntity
  8
SANINDUSA
100
AcDbCircle
 10
5231.788798132523
 20
2766.469719747163
 30
0.0
 40
0.0070000000000001
100
AcDbArc
 50
85.85367917038444
 51
111.570126380349
  0
ARC
  5
19D9
330
1F
100
AcDbEntity
  8
SANINDUSA
100
AcDbCircle
 10
5231.635876165251
 20
2766.666162206878
 30
0.0
 40
0.1
100
AcDbArc
 50
177.17687214358
 51
259.8986887241104
  0
LINE
  5
19DD
330
1F
100
AcDbEntity
  8
SANINDUSA
100
AcDbLine
 10
5231.840468665102
 20
2766.467679763661
 30
0.0
 11
5231.851642367155
 21
2766.531049081502
 31
0.0
  0
LINE
  5
19E4
330
1F
100
AcDbEntity
  8
SANINDUSA
100
AcDbLine
 10
5231.618337239535
 20
2766.567712290247
 30
0.0
 11
5231.797049990988
 21
2766.539522883813
 31
0.0
  0
LINE
  5
19E5
330
1F
100
AcDbEntity
  8
SANINDUSA
100
AcDbLine
 10
5231.536675683355
 20
2766.796169159333
 30
0.0
 11
5231.536675683355
 21
2766.692150820969
 31
0.0
  0
SPLINE
  5
19E9
330
1F
100
AcDbEntity
  8
SANINDUSA
370
    15
100
AcDbSpline
210
0.0
220
0.0
230
1.0
 70
     8
 71
     3
 72
    23
 73
    19
 74
     0
 42
0.0000000001
 43
0.0000000001
 40
0.0
 40
0.0
 40
0.0
 40
0.0
 40
0.0191928714496242
 40
0.1065909436062649
 40
0.1904241129032674
 40
0.2715237602126497
 40
0.3109543002242003
 40
0.349771940790787
 40
0.3952995785382955
 40
0.4494906730159274
 40
0.5107148434969609
 40
0.5760307226528246
 40
0.6430030311802458
 40
0.7110219759961635
 40
0.7933047013817953
 40
0.8819595519989697
 40
0.9779596408176736
 40
1.0
 40
1.0
 40
1.0
 40
1.0
 10
5231.506630129313
 20
2766.44735716037
 30
0.0
 10
5231.506121537059
 20
2766.447449204282
 30
0.0
 10
5231.503296981678
 20
2766.447960386126
 30
0.0
 10
5231.498349167308
 20
2766.449356699247
 30
0.0
 10
5231.491973668507
 20
2766.451734177685
 30
0.0
 10
5231.487127545779
 20
2766.454401530519
 30
0.0
 10
5231.483673399402
 20
2766.45695601235
 30
0.0
 10
5231.481194336307
 20
2766.459192039859
 30
0.0
 10
5231.478717568962
 20
2766.461994486542
 30
0.0
 10
5231.476324045932
 20
2766.465628477502
 30
0.0
 10
5231.474348563143
 20
2766.470103191073
 30
0.0
 10
5231.473092568795
 20
2766.475186122292
 30
0.0
 10
5231.472642044344
 20
2766.480580051435
 30
0.0
 10
5231.472917083124
 20
2766.486436415791
 30
0.0
 10
5231.473918303429
 20
2766.49280415424
 30
0.0
 10
5231.475647732587
 20
2766.499785053345
 30
0.0
 10
5231.47724414828
 20
2766.505120582244
 30
0.0
 10
5231.478292704188
 20
2766.508121139072
 30
0.0
 10
5231.478488489187
 20
2766.508681399147
 30
0.0
  0
SPLINE
  5
19EA
330
1F
100
AcDbEntity
  8
SANINDUSA
370
    15
100
AcDbSpline
210
0.0
220
0.0
230
1.0
 70
     8
 71
     3
 72
    19
 73
    15
 74
     0
 42
0.0000000001
 43
0.0000000001
 40
0.0
 40
0.0
 40
0.0
 40
0.0
 40
0.0641353028811638
 40
0.1435643427568982
 40
0.2205677512338561
 40
0.2952852809746601
 40
0.3678130874176833
 40
0.4382198057507296
 40
0.5446832818464001
 40
0.6461508147748712
 40
0.7427021726801329
 40
0.8465013361741775
 40
0.944047271372151
 40
1.0
 40
1.0
 40
1.0
 40
1.0
 10
5231.786195657349
 20
2766.4763066595
 30
0.0
 10
5231.782399934601
 20
2766.474833727015
 30
0.0
 10
5231.77390335913
 20
2766.471536625812
 30
0.0
 10
5231.760511532675
 20
2766.467422379219
 30
0.0
 10
5231.746342412819
 20
2766.46361572522
 30
0.0
 10
5231.732467502223
 20
2766.460431713178
 30
0.0
 10
5231.71891962496
 20
2766.457727723029
 30
0.0
 10
5231.703324246655
 20
2766.455013241648
 30
0.0
 10
5231.685843375631
 20
2766.452448736974
 30
0.0
 10
5231.666654600768
 20
2766.450147900938
 30
0.0
 10
5231.647589645966
 20
2766.448274646405
 30
0.0
 10
5231.628740353794
 20
2766.446793744172
 30
0.0
 10
5231.612442483914
 20
2766.445755289273
 30
0.0
 10
5231.602710726935
 20
2766.445304942602
 30
0.0
 10
5231.599163345194
 20
2766.445140784006
 30
0.0
  0
SPLINE
  5
19EB
330
1F
100
AcDbEntity
  8
SANINDUSA
370
    15
100
AcDbSpline
210
0.0
220
0.0
230
1.0
 70
    24
 71
     1
 72
     4
 73
     2
 74
     0
 42
0.0000000001
 43
0.0000000001
 40
0.0
 40
0.0
 40
1.0
 40
1.0
 10
5231.599164611793
 20
2766.445114885788
 30
0.0
 10
5231.588878876663
 20
2766.433630598108
 30
0.0
  0
SPLINE
  5
19EC
330
1F
100
AcDbEntity
  8
SANINDUSA
370
    15
100
AcDbSpline
210
0.0
220
0.0
230
1.0
 70
    24
 71
     1
 72
     4
 73
     2
 74
     0
 42
0.0000000001
 43
0.0000000001
 40
0.0
 40
0.0
 40
1.0
 40
1.0
 10
5231.518878876364
 20
2766.433630598108
 30
0.0
 10
5231.506622291303
 20
2766.447315392415
 30
0.0
  0
LINE
  5
19EE
330
1F
100
AcDbEntity
  8
SANINDUSA
370
    15
100
AcDbLine
 10
5231.588878876663
 20
2766.433630598108
 30
0.0
 11
5231.518878876364
 21
2766.433630598108
 31
0.0
  0
ENDSEC
  0
SECTION
  2
OBJECTS
  0
DICTIONARY
  5
C
330
0
100
AcDbDictionary
281
     1
  3
ACAD_2007HEADERVARS_RT
350
1AEC
  3
ACAD_COLOR
350
EE6
  3
ACAD_GROUP
350
D
  3
ACAD_LAYOUT
350
1A
  3
ACAD_MATERIAL
350
EE5
  3
ACAD_MLEADERSTYLE
350
10A8
  3
ACAD_MLINESTYLE
350
17
  3
ACAD_PLOTSETTINGS
350
19
  3
ACAD_PLOTSTYLENAME
350
E
  3
ACAD_SCALELIST
350
1096
  3
ACAD_TABLESTYLE
350
EE7
  3
ACAD_VISUALSTYLE
350
1082
  3
ACDB_RECOMPOSE_DATA
350
1AEA
  3
AcDbVariableDictionary
350
3D
  3
AEC_PROPERTY_SET_DEFS
350
146C
  3
ASE_INDEX_DICTIONARY
350
1066
  3
Autodesk_PNP
350
10B2
  3
DWGPROPS
350
1AEB
  0
DICTIONARY
  5
1A96
330
8
100
AcDbDictionary
280
     1
281
     1
  0
DICTIONARY
  5
1051
330
2
100
AcDbDictionary
280
     1
281
     1
  3
ACAD_LAYERFILTERS
360
1065
  3
ACAD_LAYERSTATES
360
127D
  3
ACLYDICTIONARY
360
1064
  0
DICTIONARY
  5
1A70
330
10
100
AcDbDictionary
280
     1
281
     1
  3
ADSK_XREC_LAYER_RECONCILED
360
1A71
  0
DICTIONARY
  5
1A72
330
2F
100
AcDbDictionary
280
     1
281
     1
  3
ADSK_XREC_LAYER_RECONCILED
360
1A73
  0
DICTIONARY
  5
1A74
330
30
100
AcDbDictionary
280
     1
281
     1
  3
ADSK_XREC_LAYER_RECONCILED
360
1A75
  0
DICTIONARY
  5
1A76
330
31
100
AcDbDictionary
280
     1
281
     1
  3
ADSK_XREC_LAYER_RECONCILED
360
1A77
  0
DICTIONARY
  5
1A78
330
32
100
AcDbDictionary
280
     1
281
     1
  3
ADSK_XREC_LAYER_RECONCILED
360
1A79
  0
DICTIONARY
  5
1A7A
330
33
100
AcDbDictionary
280
     1
281
     1
  3
ADSK_XREC_LAYER_RECONCILED
360
1A7B
  0
DICTIONARY
  5
1A7C
330
34
100
AcDbDictionary
280
     1
281
     1
  3
ADSK_XREC_LAYER_RECONCILED
360
1A7D
  0
DICTIONARY
  5
1A7E
330
35
100
AcDbDictionary
280
     1
281
     1
  3
ADSK_XREC_LAYER_RECONCILED
360
1A7F
  0
DICTIONARY
  5
1A80
330
36
100
AcDbDictionary
280
     1
281
     1
  3
ADSK_XREC_LAYER_RECONCILED
360
1A81
  0
DICTIONARY
  5
1A82
330
37
100
AcDbDictionary
280
     1
281
     1
  3
ADSK_XREC_LAYER_RECONCILED
360
1A83
  0
DICTIONARY
  5
1A84
330
5D6
100
AcDbDictionary
280
     1
281
     1
  3
ADSK_XREC_LAYER_RECONCILED
360
1A85
  0
DICTIONARY
  5
1A86
330
8AF
100
AcDbDictionary
280
     1
281
     1
  3
ADSK_XREC_LAYER_RECONCILED
360
1A87
  0
DICTIONARY
  5
1A88
330
8F8
100
AcDbDictionary
280
     1
281
     1
  3
ADSK_XREC_LAYER_RECONCILED
360
1A89
  0
DICTIONARY
  5
1A8A
330
91D
100
AcDbDictionary
280
     1
281
     1
  3
ADSK_XREC_LAYER_RECONCILED
360
1A8B
  0
DICTIONARY
  5
1A8C
330
C7B
100
AcDbDictionary
280
     1
281
     1
  3
ADSK_XREC_LAYER_RECONCILED
360
1A8D
  0
DICTIONARY
  5
1A8E
330
1060
100
AcDbDictionary
280
     1
281
     1
  3
ADSK_XREC_LAYER_RECONCILED
360
1A8F
  0
DICTIONARY
  5
1AEC
102
{ACAD_REACTORS
330
C
102
}
330
C
100
AcDbDictionary
281
     1
  3
DIMJOGANG
350
1AED
  0
DICTIONARY
  5
EE6
102
{ACAD_REACTORS
330
C
102
}
330
C
100
AcDbDictionary
281
     1
  0
DICTIONARY
  5
D
102
{ACAD_REACTORS
330
C
102
}
330
C
100
AcDbDictionary
281
     1
  0
DICTIONARY
  5
1A
102
{ACAD_REACTORS
330
C
102
}
330
C
100
AcDbDictionary
281
     1
  3
Layout1
350
1E
  3
Layout2
350
26
  3
Model
350
22
  0
DICTIONARY
  5
EE5
102
{ACAD_REACTORS
330
C
102
}
330
C
100
AcDbDictionary
281
     1
  3
ByBlock
350
1072
  3
ByLayer
350
106A
  3
Global
350
107A
  0
DICTIONARY
  5
10A8
102
{ACAD_REACTORS
330
C
102
}
330
C
100
AcDbDictionary
281
     1
  3
Standard
350
10A9
  0
DICTIONARY
  5
17
102
{ACAD_REACTORS
330
C
102
}
330
C
100
AcDbDictionary
281
     1
  3
Standard
350
18
  0
DICTIONARY
  5
19
102
{ACAD_REACTORS
330
C
102
}
330
C
100
AcDbDictionary
281
     1
  0
ACDBDICTIONARYWDFLT
  5
E
102
{ACAD_REACTORS
330
C
102
}
330
C
100
AcDbDictionary
281
     1
  3
Normal
350
F
100
AcDbDictionaryWithDefault
340
F
  0
DICTIONARY
  5
1096
102
{ACAD_REACTORS
330
C
102
}
330
C
100
AcDbDictionary
281
     1
  3
A0
350
1097
  3
A1
350
1098
  3
A2
350
1099
  3
A3
350
109A
  3
A4
350
109B
  3
A5
350
109C
  3
A6
350
109D
  3
A7
350
109E
  3
A8
350
109F
  3
A9
350
10A0
  3
B0
350
10A1
  3
B1
350
10A2
  3
B2
350
10A3
  3
B3
350
10A4
  3
B4
350
10A5
  3
B5
350
10A6
  3
B6
350
10A7
  0
DICTIONARY
  5
EE7
102
{ACAD_REACTORS
330
C
102
}
330
C
100
AcDbDictionary
281
     1
  3
Standard
350
EE8
  0
DICTIONARY
  5
1082
102
{ACAD_REACTORS
330
C
102
}
330
C
100
AcDbDictionary
281
     1
  3
2dWireframe
350
1088
  3
3D Hidden
350
108A
  3
3dWireframe
350
1089
  3
Basic
350
1087
  3
Brighten
350
108E
  3
ColorChange
350
1092
  3
Conceptual
350
108B
  3
Dim
350
108D
  3
EdgeColorOff
350
1095
  3
Facepattern
350
1091
  3
Flat
350
1083
  3
FlatWithEdges
350
1084
  3
Gouraud
350
1085
  3
GouraudWithEdges
350
1086
  3
JitterOff
350
1093
  3
Linepattern
350
1090
  3
OverhangOff
350
1094
  3
Realistic
350
108C
  3
Thicken
350
108F
  0
XRECORD
  5
1AEA
102
{ACAD_REACTORS
330
C
102
}
330
C
100
AcDbXrecord
280
     1
 90
        1
330
EE8
  0
DICTIONARY
  5
3D
102
{ACAD_REACTORS
330
C
102
}
330
C
100
AcDbDictionary
281
     1
  3
CANNOSCALE
350
1ADC
  3
CMLEADERSTYLE
350
1ADB
  3
CTABLESTYLE
350
1049
  3
DIMASSOC
350
3F
  3
HIDETEXT
350
3E
  3
INDEXCTL
350
1ADE
  3
SORTENTS
350
1ADD
  3
XCLIPFRAME
350
1AE8
  0
DICTIONARY
  5
146C
102
{ACAD_REACTORS
330
C
102
}
330
C
100
AcDbDictionary
281
     1
  0
DICTIONARY
  5
1066
102
{ACAD_REACTORS
330
C
102
}
330
C
100
AcDbDictionary
281
     1
  3
ASEBlockHierarchyIndexRecord
350
1067
1001
DCO15
1040
1602247867.484
  0
DICTIONARY
  5
10B2
102
{ACAD_REACTORS
330
C
102
}
330
C
100
AcDbDictionary
281
     1
  0
XRECORD
  5
1AEB
102
{ACAD_REACTORS
330
C
102
}
330
C
100
AcDbXrecord
280
     1
  1
DWGPROPS COOKIE
  2

  3

  4

  6

  7

  8
Julio
  9

300
=
301
=
302
=
303
=
304
=
305
=
306
=
307
=
308
=
309
=
 40
0.0032340509259259
 41
2455604.519731435
 42
2456142.467060185
  1

 90
        0
  0
DICTIONARY
  5
1065
102
{ACAD_REACTORS
330
1051
102
}
330
1051
100
AcDbDictionary
281
     1
  0
DICTIONARY
  5
127D
102
{ACAD_REACTORS
330
1051
102
}
330
1051
100
AcDbDictionary
281
     1
  0
DICTIONARY
  5
1064
102
{ACAD_REACTORS
330
1051
102
}
330
1051
100
AcDbDictionary
281
     1
1001
ACAD
1000
<All
  0
XRECORD
  5
1A71
102
{ACAD_REACTORS
330
1A70
102
}
330
1A70
100
AcDbXrecord
280
     1
290
     1
  0
XRECORD
  5
1A73
102
{ACAD_REACTORS
330
1A72
102
}
330
1A72
100
AcDbXrecord
280
     1
290
     1
  0
XRECORD
  5
1A75
102
{ACAD_REACTORS
330
1A74
102
}
330
1A74
100
AcDbXrecord
280
     1
290
     1
  0
XRECORD
  5
1A77
102
{ACAD_REACTORS
330
1A76
102
}
330
1A76
100
AcDbXrecord
280
     1
290
     1
  0
XRECORD
  5
1A79
102
{ACAD_REACTORS
330
1A78
102
}
330
1A78
100
AcDbXrecord
280
     1
290
     1
  0
XRECORD
  5
1A7B
102
{ACAD_REACTORS
330
1A7A
102
}
330
1A7A
100
AcDbXrecord
280
     1
290
     1
  0
XRECORD
  5
1A7D
102
{ACAD_REACTORS
330
1A7C
102
}
330
1A7C
100
AcDbXrecord
280
     1
290
     1
  0
XRECORD
  5
1A7F
102
{ACAD_REACTORS
330
1A7E
102
}
330
1A7E
100
AcDbXrecord
280
     1
290
     1
  0
XRECORD
  5
1A81
102
{ACAD_REACTORS
330
1A80
102
}
330
1A80
100
AcDbXrecord
280
     1
290
     1
  0
XRECORD
  5
1A83
102
{ACAD_REACTORS
330
1A82
102
}
330
1A82
100
AcDbXrecord
280
     1
290
     1
  0
XRECORD
  5
1A85
102
{ACAD_REACTORS
330
1A84
102
}
330
1A84
100
AcDbXrecord
280
     1
290
     1
  0
XRECORD
  5
1A87
102
{ACAD_REACTORS
330
1A86
102
}
330
1A86
100
AcDbXrecord
280
     1
290
     1
  0
XRECORD
  5
1A89
102
{ACAD_REACTORS
330
1A88
102
}
330
1A88
100
AcDbXrecord
280
     1
290
     1
  0
XRECORD
  5
1A8B
102
{ACAD_REACTORS
330
1A8A
102
}
330
1A8A
100
AcDbXrecord
280
     1
290
     1
  0
XRECORD
  5
1A8D
102
{ACAD_REACTORS
330
1A8C
102
}
330
1A8C
100
AcDbXrecord
280
     1
290
     1
  0
XRECORD
  5
1A8F
102
{ACAD_REACTORS
330
1A8E
102
}
330
1A8E
100
AcDbXrecord
280
     1
290
     1
  0
XRECORD
  5
1AED
102
{ACAD_REACTORS
330
1AEC
102
}
330
1AEC
100
AcDbXrecord
280
     1
 40
1.570796326794896
  0
LAYOUT
  5
1E
102
{ACAD_XDICTIONARY
360
1AEE
102
}
102
{ACAD_REACTORS
330
1A
102
}
330
1A
100
AcDbPlotSettings
  1

  2
Ploter HP500
  4

  6

 40
0.0
 41
0.0
 42
0.0
 43
0.0
 44
0.0
 45
0.0
 46
0.0
 47
0.0
 48
0.0
 49
0.0
140
0.0
141
0.0
142
1.0
143
1.0
 70
   688
 72
     0
 73
     0
 74
     5
  7
sanindusa.ctb
 75
    16
147
1.0
148
0.0
149
0.0
100
AcDbLayout
  1
Layout1
 70
     1
 71
     1
 10
0.0
 20
0.0
 11
420.0
 21
297.0
 12
0.0
 22
0.0
 32
0.0
 14
1.000000000000000E+20
 24
1.000000000000000E+20
 34
1.000000000000000E+20
 15
-1.000000000000000E+20
 25
-1.000000000000000E+20
 35
-1.000000000000000E+20
146
0.0
 13
0.0
 23
0.0
 33
0.0
 16
1.0
 26
0.0
 36
0.0
 17
0.0
 27
1.0
 37
0.0
 76
     0
330
1B
  0
LAYOUT
  5
26
102
{ACAD_XDICTIONARY
360
1AF2
102
}
102
{ACAD_REACTORS
330
1A
102
}
330
1A
100
AcDbPlotSettings
  1

  2
Ploter HP500
  4

  6

 40
0.0
 41
0.0
 42
0.0
 43
0.0
 44
0.0
 45
0.0
 46
0.0
 47
0.0
 48
0.0
 49
0.0
140
0.0
141
0.0
142
1.0
143
1.0
 70
   688
 72
     0
 73
     0
 74
     5
  7
sanindusa.ctb
 75
    16
147
1.0
148
0.0
149
0.0
100
AcDbLayout
  1
Layout2
 70
     1
 71
     2
 10
0.0
 20
0.0
 11
12.0
 21
9.0
 12
0.0
 22
0.0
 32
0.0
 14
0.0
 24
0.0
 34
0.0
 15
0.0
 25
0.0
 35
0.0
146
0.0
 13
0.0
 23
0.0
 33
0.0
 16
1.0
 26
0.0
 36
0.0
 17
0.0
 27
1.0
 37
0.0
 76
     0
330
23
  0
LAYOUT
  5
22
102
{ACAD_XDICTIONARY
360
1AF0
102
}
102
{ACAD_REACTORS
330
1A
102
}
330
1A
100
AcDbPlotSettings
  1

  2
Ploter HP500
  4
User268
  6

 40
4.995333194732666
 41
16.97565841674804
 42
4.995330810546875
 43
16.97567749023437
 44
209.9733276367187
 45
296.9259948730469
 46
0.0
 47
0.0
 48
0.0
 49
0.0
140
0.0
141
0.0
142
1.0
143
1.0
 70
 11952
 72
     1
 73
     1
 74
     0
  7
sanindusa.ctb
 75
     0
147
1.0
148
-427.5957866592534
149
7.362384574453926
100
AcDbLayout
  1
Model
 70
     1
 71
     0
 10
0.0
 20
0.0
 11
12.0
 21
9.0
 12
0.0
 22
0.0
 32
0.0
 14
0.0
 24
0.0
 34
0.0
 15
0.0
 25
0.0
 35
0.0
146
0.0
 13
0.0
 23
0.0
 33
0.0
 16
1.0
 26
0.0
 36
0.0
 17
0.0
 27
1.0
 37
0.0
 76
     0
330
1F
331
1068
  0
MATERIAL
  5
1072
102
{ACAD_XDICTIONARY
360
1073
102
}
102
{ACAD_REACTORS
330
EE5
102
}
330
EE5
100
AcDbMaterial
  1
ByBlock
 72
     0
 43
0.0008202099737533
 43
0.0
 43
0.0
 43
0.0
 43
0.0
 43
0.0008202099737533
 43
0.0
 43
0.0
 43
0.0
 43
0.0
 43
1.0
 43
0.0
 43
0.0
 43
0.0
 43
0.0
 43
1.0
 77
     0
 47
0.0008202099737533
 47
0.0
 47
0.0
 47
0.0
 47
0.0
 47
0.0008202099737533
 47
0.0
 47
0.0
 47
0.0
 47
0.0
 47
1.0
 47
0.0
 47
0.0
 47
0.0
 47
0.0
 47
1.0
171
     0
 49
0.0008202099737533
 49
0.0
 49
0.0
 49
0.0
 49
0.0
 49
0.0008202099737533
 49
0.0
 49
0.0
 49
0.0
 49
0.0
 49
1.0
 49
0.0
 49
0.0
 49
0.0
 49
0.0
 49
1.0
175
     0
142
0.0008202099737533
142
0.0
142
0.0
142
0.0
142
0.0
142
0.0008202099737533
142
0.0
142
0.0
142
0.0
142
0.0
142
1.0
142
0.0
142
0.0
142
0.0
142
0.0
142
1.0
179
     0
144
0.0008202099737533
144
0.0
144
0.0
144
0.0
144
0.0
144
0.0008202099737533
144
0.0
144
0.0
144
0.0
144
0.0
144
1.0
144
0.0
144
0.0
144
0.0
144
0.0
144
1.0
147
0.0008202099737533
147
0.0
147
0.0
147
0.0
147
0.0
147
0.0008202099737533
147
0.0
147
0.0
147
0.0
147
0.0
147
1.0
147
0.0
147
0.0
147
0.0
147
0.0
147
1.0
  0
MATERIAL
  5
106A
102
{ACAD_XDICTIONARY
360
106B
102
}
102
{ACAD_REACTORS
330
EE5
102
}
330
EE5
100
AcDbMaterial
  1
ByLayer
 72
     0
 43
0.0008202099737533
 43
0.0
 43
0.0
 43
0.0
 43
0.0
 43
0.0008202099737533
 43
0.0
 43
0.0
 43
0.0
 43
0.0
 43
1.0
 43
0.0
 43
0.0
 43
0.0
 43
0.0
 43
1.0
 77
     0
 47
0.0008202099737533
 47
0.0
 47
0.0
 47
0.0
 47
0.0
 47
0.0008202099737533
 47
0.0
 47
0.0
 47
0.0
 47
0.0
 47
1.0
 47
0.0
 47
0.0
 47
0.0
 47
0.0
 47
1.0
171
     0
 49
0.0008202099737533
 49
0.0
 49
0.0
 49
0.0
 49
0.0
 49
0.0008202099737533
 49
0.0
 49
0.0
 49
0.0
 49
0.0
 49
1.0
 49
0.0
 49
0.0
 49
0.0
 49
0.0
 49
1.0
175
     0
142
0.0008202099737533
142
0.0
142
0.0
142
0.0
142
0.0
142
0.0008202099737533
142
0.0
142
0.0
142
0.0
142
0.0
142
1.0
142
0.0
142
0.0
142
0.0
142
0.0
142
1.0
179
     0
144
0.0008202099737533
144
0.0
144
0.0
144
0.0
144
0.0
144
0.0008202099737533
144
0.0
144
0.0
144
0.0
144
0.0
144
1.0
144
0.0
144
0.0
144
0.0
144
0.0
144
1.0
147
0.0008202099737533
147
0.0
147
0.0
147
0.0
147
0.0
147
0.0008202099737533
147
0.0
147
0.0
147
0.0
147
0.0
147
1.0
147
0.0
147
0.0
147
0.0
147
0.0
147
1.0
  0
MATERIAL
  5
107A
102
{ACAD_XDICTIONARY
360
107B
102
}
102
{ACAD_REACTORS
330
EE5
102
}
330
EE5
100
AcDbMaterial
  1
Global
 72
     0
 43
0.0008202099737533
 43
0.0
 43
0.0
 43
0.0
 43
0.0
 43
0.0008202099737533
 43
0.0
 43
0.0
 43
0.0
 43
0.0
 43
1.0
 43
0.0
 43
0.0
 43
0.0
 43
0.0
 43
1.0
 77
     0
 47
0.0008202099737533
 47
0.0
 47
0.0
 47
0.0
 47
0.0
 47
0.0008202099737533
 47
0.0
 47
0.0
 47
0.0
 47
0.0
 47
1.0
 47
0.0
 47
0.0
 47
0.0
 47
0.0
 47
1.0
171
     0
 49
0.0008202099737533
 49
0.0
 49
0.0
 49
0.0
 49
0.0
 49
0.0008202099737533
 49
0.0
 49
0.0
 49
0.0
 49
0.0
 49
1.0
 49
0.0
 49
0.0
 49
0.0
 49
0.0
 49
1.0
175
     0
142
0.0008202099737533
142
0.0
142
0.0
142
0.0
142
0.0
142
0.0008202099737533
142
0.0
142
0.0
142
0.0
142
0.0
142
1.0
142
0.0
142
0.0
142
0.0
142
0.0
142
1.0
179
     0
144
0.0008202099737533
144
0.0
144
0.0
144
0.0
144
0.0
144
0.0008202099737533
144
0.0
144
0.0
144
0.0
144
0.0
144
1.0
144
0.0
144
0.0
144
0.0
144
0.0
144
1.0
147
0.0008202099737533
147
0.0
147
0.0
147
0.0
147
0.0
147
0.0008202099737533
147
0.0
147
0.0
147
0.0
147
0.0
147
1.0
147
0.0
147
0.0
147
0.0
147
0.0
147
1.0
  0
MLEADERSTYLE
  5
10A9
102
{ACAD_REACTORS
330
10A8
102
}
330
10A8
100
AcDbMLeaderStyle
170
     2
171
     1
172
     0
 90
        2
 40
0.0
 41
0.0
173
     1
 91
-1056964608
340
14
 92
       -2
290
     1
 42
2.0
291
     1
 43
0.36
  3
Standard
 44
4.0
300

342
11
174
     1
178
     6
175
     1
176
     0
 93
-1056964608
 45
4.0
292
     0
297
     0
 46
4.0
 94
-1056964608
 47
1.0
 49
1.0
140
1.0
293
     1
141
0.0
294
     1
177
     0
142
1.0
295
     0
296
     0
143
0.125
1001
ACAD_MLEADERVER
1070
     2
  0
MLINESTYLE
  5
18
102
{ACAD_REACTORS
330
17
102
}
330
17
100
AcDbMlineStyle
  2
STANDARD
 70
     0
  3

 62
   256
 51
90.0
 52
90.0
 71
     2
 49
0.5
 62
   256
  6
BYLAYER
 49
-0.5
 62
   256
  6
BYLAYER
  0
ACDBPLACEHOLDER
  5
F
102
{ACAD_REACTORS
330
E
102
}
330
E
  0
SCALE
  5
1097
102
{ACAD_REACTORS
330
1096
102
}
330
1096
100
AcDbScale
 70
     0
300
1:1
140
1.0
141
1.0
290
     1
  0
SCALE
  5
1098
102
{ACAD_REACTORS
330
1096
102
}
330
1096
100
AcDbScale
 70
     0
300
1:2
140
1.0
141
2.0
290
     0
  0
SCALE
  5
1099
102
{ACAD_REACTORS
330
1096
102
}
330
1096
100
AcDbScale
 70
     0
300
1:4
140
1.0
141
4.0
290
     0
  0
SCALE
  5
109A
102
{ACAD_REACTORS
330
1096
102
}
330
1096
100
AcDbScale
 70
     0
300
1:5
140
1.0
141
5.0
290
     0
  0
SCALE
  5
109B
102
{ACAD_REACTORS
330
1096
102
}
330
1096
100
AcDbScale
 70
     0
300
1:8
140
1.0
141
8.0
290
     0
  0
SCALE
  5
109C
102
{ACAD_REACTORS
330
1096
102
}
330
1096
100
AcDbScale
 70
     0
300
1:10
140
1.0
141
10.0
290
     0
  0
SCALE
  5
109D
102
{ACAD_REACTORS
330
1096
102
}
330
1096
100
AcDbScale
 70
     0
300
1:16
140
1.0
141
16.0
290
     0
  0
SCALE
  5
109E
102
{ACAD_REACTORS
330
1096
102
}
330
1096
100
AcDbScale
 70
     0
300
1:20
140
1.0
141
20.0
290
     0
  0
SCALE
  5
109F
102
{ACAD_REACTORS
330
1096
102
}
330
1096
100
AcDbScale
 70
     0
300
1:30
140
1.0
141
30.0
290
     0
  0
SCALE
  5
10A0
102
{ACAD_REACTORS
330
1096
102
}
330
1096
100
AcDbScale
 70
     0
300
1:40
140
1.0
141
40.0
290
     0
  0
SCALE
  5
10A1
102
{ACAD_REACTORS
330
1096
102
}
330
1096
100
AcDbScale
 70
     0
300
1:50
140
1.0
141
50.0
290
     0
  0
SCALE
  5
10A2
102
{ACAD_REACTORS
330
1096
102
}
330
1096
100
AcDbScale
 70
     0
300
1:100
140
1.0
141
100.0
290
     0
  0
SCALE
  5
10A3
102
{ACAD_REACTORS
330
1096
102
}
330
1096
100
AcDbScale
 70
     0
300
2:1
140
2.0
141
1.0
290
     0
  0
SCALE
  5
10A4
102
{ACAD_REACTORS
330
1096
102
}
330
1096
100
AcDbScale
 70
     0
300
4:1
140
4.0
141
1.0
290
     0
  0
SCALE
  5
10A5
102
{ACAD_REACTORS
330
1096
102
}
330
1096
100
AcDbScale
 70
     0
300
8:1
140
8.0
141
1.0
290
     0
  0
SCALE
  5
10A6
102
{ACAD_REACTORS
330
1096
102
}
330
1096
100
AcDbScale
 70
     0
300
10:1
140
10.0
141
1.0
290
     0
  0
SCALE
  5
10A7
102
{ACAD_REACTORS
330
1096
102
}
330
1096
100
AcDbScale
 70
     0
300
100:1
140
100.0
141
1.0
290
     0
  0
TABLESTYLE
  5
EE8
102
{ACAD_XDICTIONARY
360
1A90
102
}
102
{ACAD_REACTORS
330
EE7
102
}
330
EE7
100
AcDbTableStyle
  3
Standard
 70
     0
 71
     0
 40
1.5
 41
1.5
280
     0
281
     0
  7
Standard
140
4.5
170
     2
 62
     0
 63
     7
283
     0
274
    -2
284
     1
 64
     0
275
    -2
285
     1
 65
     0
276
    -2
286
     1
 66
     0
277
    -2
287
     1
 67
     0
278
    -2
288
     1
 68
     0
279
    -2
289
     1
 69
     0
  7
Standard
140
6.0
170
     5
 62
     0
 63
     7
283
     0
274
    -2
284
     1
 64
     0
275
    -2
285
     1
 65
     0
276
    -2
286
     1
 66
     0
277
    -2
287
     1
 67
     0
278
    -2
288
     1
 68
     0
279
    -2
289
     1
 69
     0
  7
Standard
140
4.5
170
     5
 62
     0
 63
     7
283
     0
274
    -2
284
     1
 64
     0
275
    -2
285
     1
 65
     0
276
    -2
286
     1
 66
     0
277
    -2
287
     1
 67
     0
278
    -2
288
     1
 68
     0
279
    -2
289
     1
 69
     0
  0
VISUALSTYLE
  5
1088
102
{ACAD_XDICTIONARY
360
1B02
102
}
102
{ACAD_REACTORS
330
1082
102
}
330
1082
100
AcDbVisualStyle
  2
2dWireframe
 70
     4
 71
     0
 72
     2
 73
     0
 90
        0
 40
-0.6
 41
-30.0
 62
     5
 63
     7
 74
     1
 91
        4
 64
     7
 65
   257
 75
     1
175
     1
 42
1.0
 92
        0
 66
   257
 43
1.0
 76
     1
 77
     6
 78
     2
 67
     7
 79
     5
170
     0
171
     0
290
     0
174
     0
 93
        1
 44
0.0
173
     0
291
     0
 45
0.0
1001
ACAD
1000
AcDbSavedByObjectVersion
1070
     0
  0
VISUALSTYLE
  5
108A
102
{ACAD_XDICTIONARY
360
1B06
102
}
102
{ACAD_REACTORS
330
1082
102
}
330
1082
100
AcDbVisualStyle
  2
3D Hidden
 70
     6
 71
     1
 72
     2
 73
     2
 90
        0
 40
-0.6
 41
-30.0
 62
     5
 63
     7
 74
     2
 91
        2
 64
     7
 65
   257
 75
     2
175
     1
 42
179.0
 92
        0
 66
   257
 43
1.0
 76
     1
 77
     6
 78
     2
 67
     7
 79
     3
170
     0
171
     0
290
     0
174
     0
 93
        1
 44
0.0
173
     0
291
     0
 45
0.0
1001
ACAD
1000
AcDbSavedByObjectVersion
1070
     0
  0
VISUALSTYLE
  5
1089
102
{ACAD_XDICTIONARY
360
1B04
102
}
102
{ACAD_REACTORS
330
1082
102
}
330
1082
100
AcDbVisualStyle
  2
3dWireframe
 70
     5
 71
     0
 72
     2
 73
     0
 90
        0
 40
-0.6
 41
-30.0
 62
     5
 63
     7
 74
     1
 91
        4
 64
     7
 65
   257
 75
     1
175
     1
 42
1.0
 92
        0
 66
   257
 43
1.0
 76
     1
 77
     6
 78
     2
 67
     7
 79
     5
170
     0
171
     0
290
     0
174
     0
 93
        1
 44
0.0
173
     0
291
     0
 45
0.0
1001
ACAD
1000
AcDbSavedByObjectVersion
1070
     0
  0
VISUALSTYLE
  5
1087
102
{ACAD_XDICTIONARY
360
1B00
102
}
102
{ACAD_REACTORS
330
1082
102
}
330
1082
100
AcDbVisualStyle
  2
Basic
 70
     7
 71
     1
 72
     0
 73
     1
 90
        0
 40
-0.6
 41
-30.0
 62
     5
 63
     7
 74
     0
 91
        4
 64
     7
 65
   257
 75
     1
175
     1
 42
1.0
 92
        8
 66
     7
 43
1.0
 76
     1
 77
     6
 78
     2
 67
     7
 79
     5
170
     0
171
     0
290
     0
174
     0
 93
        1
 44
0.0
173
     0
291
     1
 45
0.0
1001
ACAD
1000
AcDbSavedByObjectVersion
1070
     0
  0
VISUALSTYLE
  5
108E
102
{ACAD_XDICTIONARY
360
1B0E
102
}
102
{ACAD_REACTORS
330
1082
102
}
330
1082
100
AcDbVisualStyle
  2
Brighten
 70
    12
 71
     2
 72
     2
 73
     0
 90
        0
 40
-0.6
 41
-30.0
 62
     5
 63
     7
 74
     1
 91
        4
 64
     7
 65
   257
 75
     1
175
     1
 42
1.0
 92
        8
 66
     7
 43
1.0
 76
     1
 77
     6
 78
     2
 67
     7
 79
     5
170
     0
171
     0
290
     0
174
     0
 93
        1
 44
50.0
173
     0
291
     1
 45
0.0
1001
ACAD
1000
AcDbSavedByObjectVersion
1070
     0
  0
VISUALSTYLE
  5
1092
102
{ACAD_XDICTIONARY
360
1B16
102
}
102
{ACAD_REACTORS
330
1082
102
}
330
1082
100
AcDbVisualStyle
  2
ColorChange
 70
    16
 71
     2
 72
     2
 73
     3
 90
        0
 40
-0.6
 41
-30.0
 62
     5
 63
     8
 74
     1
 91
        4
 64
     7
 65
   257
 75
     1
175
     1
 42
1.0
 92
        8
 66
     8
 43
1.0
 76
     1
 77
     6
 78
     2
 67
     7
 79
     5
170
     0
171
     0
290
     0
174
     0
 93
        1
 44
0.0
173
     0
291
     1
 45
0.0
1001
ACAD
1000
AcDbSavedByObjectVersion
1070
     0
  0
VISUALSTYLE
  5
108B
102
{ACAD_XDICTIONARY
360
1B08
102
}
102
{ACAD_REACTORS
330
1082
102
}
330
1082
100
AcDbVisualStyle
  2
Conceptual
 70
     9
 71
     3
 72
     2
 73
     0
 90
        0
 40
-0.6
 41
-30.0
 62
     5
 63
     7
 74
     2
 91
        2
 64
     7
 65
   257
 75
     1
175
     1
 42
179.0
 92
        8
 66
     7
 43
1.0
 76
     1
 77
     6
 78
     2
 67
     7
 79
     3
170
     0
171
     0
290
     0
174
     0
 93
        1
 44
0.0
173
     0
291
     0
 45
0.0
1001
ACAD
1000
AcDbSavedByObjectVersion
1070
     0
  0
VISUALSTYLE
  5
108D
102
{ACAD_XDICTIONARY
360
1B0C
102
}
102
{ACAD_REACTORS
330
1082
102
}
330
1082
100
AcDbVisualStyle
  2
Dim
 70
    11
 71
     2
 72
     2
 73
     0
 90
        0
 40
-0.6
 41
-30.0
 62
     5
 63
     7
 74
     1
 91
        4
 64
     7
 65
   257
 75
     1
175
     1
 42
1.0
 92
        8
 66
     7
 43
1.0
 76
     1
 77
     6
 78
     2
 67
     7
 79
     5
170
     0
171
     0
290
     0
174
     0
 93
        1
 44
-50.0
173
     0
291
     1
 45
0.0
1001
ACAD
1000
AcDbSavedByObjectVersion
1070
     0
  0
VISUALSTYLE
  5
1095
102
{ACAD_XDICTIONARY
360
1B1C
102
}
102
{ACAD_REACTORS
330
1082
102
}
330
1082
100
AcDbVisualStyle
  2
EdgeColorOff
 70
    22
 71
     2
 72
     2
 73
     0
 90
        0
 40
-0.6
 41
-30.0
 62
     5
 63
     7
 74
     1
 91
        4
 64
     7
 65
   257
 75
     1
175
     1
 42
1.0
 92
        8
 66
     7
 43
1.0
 76
     1
 77
     6
 78
     2
 67
     7
 79
     5
170
     0
171
     0
290
     0
174
     0
 93
        1
 44
0.0
173
     0
291
     1
 45
0.0
1001
ACAD
1000
AcDbSavedByObjectVersion
1070
     0
  0
VISUALSTYLE
  5
1091
102
{ACAD_XDICTIONARY
360
1B14
102
}
102
{ACAD_REACTORS
330
1082
102
}
330
1082
100
AcDbVisualStyle
  2
Facepattern
 70
    15
 71
     2
 72
     2
 73
     0
 90
        0
 40
-0.6
 41
-30.0
 62
     5
 63
     7
 74
     1
 91
        4
 64
     7
 65
   257
 75
     1
175
     1
 42
1.0
 92
        8
 66
     7
 43
1.0
 76
     1
 77
     6
 78
     2
 67
     7
 79
     5
170
     0
171
     0
290
     0
174
     0
 93
        1
 44
0.0
173
     0
291
     1
 45
0.0
1001
ACAD
1000
AcDbSavedByObjectVersion
1070
     0
  0
VISUALSTYLE
  5
1083
102
{ACAD_XDICTIONARY
360
1AF8
102
}
102
{ACAD_REACTORS
330
1082
102
}
330
1082
100
AcDbVisualStyle
  2
Flat
 70
     0
 71
     2
 72
     1
 73
     1
 90
        2
 40
-0.6
 41
30.0
 62
     5
 63
     7
 74
     0
 91
        4
 64
     7
 65
   257
 75
     1
175
     1
 42
1.0
 92
        8
 66
     7
 43
1.0
 76
     1
 77
     6
 78
     2
 67
     7
 79
     5
170
     0
171
     0
290
     0
174
     0
 93
       13
 44
0.0
173
     0
291
     1
 45
0.0
1001
ACAD
1000
AcDbSavedByObjectVersion
1070
     0
  0
VISUALSTYLE
  5
1084
102
{ACAD_XDICTIONARY
360
1AFA
102
}
102
{ACAD_REACTORS
330
1082
102
}
330
1082
100
AcDbVisualStyle
  2
FlatWithEdges
 70
     1
 71
     2
 72
     1
 73
     1
 90
        2
 40
-0.6
 41
30.0
 62
     5
 63
     7
 74
     1
 91
        4
 64
     7
 65
   257
 75
     1
175
     1
 42
1.0
 92
        0
 66
   257
 43
1.0
 76
     1
 77
     6
 78
     2
 67
     7
 79
     5
170
     0
171
     0
290
     0
174
     0
 93
       13
 44
0.0
173
     0
291
     1
 45
0.0
1001
ACAD
1000
AcDbSavedByObjectVersion
1070
     0
  0
VISUALSTYLE
  5
1085
102
{ACAD_XDICTIONARY
360
1AFC
102
}
102
{ACAD_REACTORS
330
1082
102
}
330
1082
100
AcDbVisualStyle
  2
Gouraud
 70
     2
 71
     2
 72
     2
 73
     1
 90
        2
 40
-0.6
 41
30.0
 62
     5
 63
     7
 74
     0
 91
        4
 64
     7
 65
   257
 75
     1
175
     1
 42
1.0
 92
        0
 66
     7
 43
1.0
 76
     1
 77
     6
 78
     2
 67
     7
 79
     5
170
     0
171
     0
290
     0
174
     0
 93
       13
 44
0.0
173
     0
291
     1
 45
0.0
1001
ACAD
1000
AcDbSavedByObjectVersion
1070
     0
  0
VISUALSTYLE
  5
1086
102
{ACAD_XDICTIONARY
360
1AFE
102
}
102
{ACAD_REACTORS
330
1082
102
}
330
1082
100
AcDbVisualStyle
  2
GouraudWithEdges
 70
     3
 71
     2
 72
     2
 73
     1
 90
        2
 40
-0.6
 41
30.0
 62
     5
 63
     7
 74
     1
 91
        4
 64
     7
 65
   257
 75
     1
175
     1
 42
1.0
 92
        0
 66
   257
 43
1.0
 76
     1
 77
     6
 78
     2
 67
     7
 79
     5
170
     0
171
     0
290
     0
174
     0
 93
       13
 44
0.0
173
     0
291
     1
 45
0.0
1001
ACAD
1000
AcDbSavedByObjectVersion
1070
     0
  0
VISUALSTYLE
  5
1093
102
{ACAD_XDICTIONARY
360
1B18
102
}
102
{ACAD_REACTORS
330
1082
102
}
330
1082
100
AcDbVisualStyle
  2
JitterOff
 70
    20
 71
     2
 72
     2
 73
     0
 90
        0
 40
-0.6
 41
-30.0
 62
     5
 63
     7
 74
     1
 91
        4
 64
     7
 65
   257
 75
     1
175
     1
 42
1.0
 92
       10
 66
     7
 43
1.0
 76
     1
 77
     6
 78
     2
 67
     7
 79
     5
170
     0
171
     0
290
     0
174
     0
 93
        1
 44
0.0
173
     0
291
     1
 45
0.0
1001
ACAD
1000
AcDbSavedByObjectVersion
1070
     0
  0
VISUALSTYLE
  5
1090
102
{ACAD_XDICTIONARY
360
1B12
102
}
102
{ACAD_REACTORS
330
1082
102
}
330
1082
100
AcDbVisualStyle
  2
Linepattern
 70
    14
 71
     2
 72
     2
 73
     0
 90
        0
 40
-0.6
 41
-30.0
 62
     5
 63
     7
 74
     1
 91
        4
 64
     7
 65
   257
 75
     7
175
     7
 42
1.0
 92
        8
 66
     7
 43
1.0
 76
     1
 77
     6
 78
     2
 67
     7
 79
     5
170
     0
171
     0
290
     0
174
     0
 93
        1
 44
0.0
173
     0
291
     1
 45
0.0
1001
ACAD
1000
AcDbSavedByObjectVersion
1070
     0
  0
VISUALSTYLE
  5
1094
102
{ACAD_XDICTIONARY
360
1B1A
102
}
102
{ACAD_REACTORS
330
1082
102
}
330
1082
100
AcDbVisualStyle
  2
OverhangOff
 70
    21
 71
     2
 72
     2
 73
     0
 90
        0
 40
-0.6
 41
-30.0
 62
     5
 63
     7
 74
     1
 91
        4
 64
     7
 65
   257
 75
     1
175
     1
 42
1.0
 92
        9
 66
     7
 43
1.0
 76
     1
 77
     6
 78
     2
 67
     7
 79
     5
170
     0
171
     0
290
     0
174
     0
 93
        1
 44
0.0
173
     0
291
     1
 45
0.0
1001
ACAD
1000
AcDbSavedByObjectVersion
1070
     0
  0
VISUALSTYLE
  5
108C
102
{ACAD_XDICTIONARY
360
1B0A
102
}
102
{ACAD_REACTORS
330
1082
102
}
330
1082
100
AcDbVisualStyle
  2
Realistic
 70
     8
 71
     2
 72
     2
 73
     0
 90
        0
 40
-0.6
 41
-30.0
 62
     5
 63
     7
 74
     1
 91
        0
 64
     7
 65
   257
 75
     1
175
     1
 42
1.0
 92
        8
 66
     8
 43
1.0
 76
     1
 77
     6
 78
     2
 67
     7
 79
     5
170
     0
171
     0
290
     0
174
     0
 93
       13
 44
0.0
173
     0
291
     0
 45
0.0
1001
ACAD
1000
AcDbSavedByObjectVersion
1070
     0
  0
VISUALSTYLE
  5
108F
102
{ACAD_XDICTIONARY
360
1B10
102
}
102
{ACAD_REACTORS
330
1082
102
}
330
1082
100
AcDbVisualStyle
  2
Thicken
 70
    13
 71
     2
 72
     2
 73
     0
 90
        0
 40
-0.6
 41
-30.0
 62
     5
 63
     7
 74
     1
 91
        4
 64
     7
 65
   257
 75
     1
175
     1
 42
1.0
 92
       12
 66
     7
 43
1.0
 76
     1
 77
     6
 78
     2
 67
     7
 79
     5
170
     0
171
     0
290
     0
174
     0
 93
        1
 44
0.0
173
     0
291
     1
 45
0.0
1001
ACAD
1000
AcDbSavedByObjectVersion
1070
     0
  0
DICTIONARYVAR
  5
1ADC
102
{ACAD_REACTORS
330
3D
102
}
330
3D
100
DictionaryVariables
280
     0
  1
1:1
  0
DICTIONARYVAR
  5
1ADB
102
{ACAD_REACTORS
330
3D
102
}
330
3D
100
DictionaryVariables
280
     0
  1
STANDARD
  0
DICTIONARYVAR
  5
1049
102
{ACAD_REACTORS
330
3D
102
}
330
3D
100
DictionaryVariables
280
     0
  1
STANDARD
  0
DICTIONARYVAR
  5
3F
102
{ACAD_REACTORS
330
3D
102
}
330
3D
100
DictionaryVariables
280
     0
  1
2
  0
DICTIONARYVAR
  5
3E
102
{ACAD_REACTORS
330
3D
102
}
330
3D
100
DictionaryVariables
280
     0
  1
1
  0
DICTIONARYVAR
  5
1ADE
102
{ACAD_REACTORS
330
3D
102
}
330
3D
100
DictionaryVariables
280
     0
  1
0
  0
DICTIONARYVAR
  5
1ADD
102
{ACAD_REACTORS
330
3D
102
}
330
3D
100
DictionaryVariables
280
     0
  1
127
  0
DICTIONARYVAR
  5
1AE8
102
{ACAD_REACTORS
330
3D
102
}
330
3D
100
DictionaryVariables
280
     0
  1
2
  0
XRECORD
  5
1067
102
{ACAD_REACTORS
330
1066
102
}
330
1066
100
AcDbXrecord
280
     1
  0
DICTIONARY
  5
1AEE
330
1E
100
AcDbDictionary
280
     1
281
     1
  3
ACAD_XREC_ROUNDTRIP
360
1AEF
  0
DICTIONARY
  5
1AF2
330
26
100
AcDbDictionary
280
     1
281
     1
  3
ACAD_XREC_ROUNDTRIP
360
1AF3
  0
DICTIONARY
  5
1AF0
330
22
100
AcDbDictionary
280
     1
281
     1
  3
ACAD_XREC_ROUNDTRIP
360
1AF1
  0
DICTIONARY
  5
1073
330
1072
100
AcDbDictionary
280
     1
281
     1
  3
ACAD_XREC_ROUNDTRIP
360
1AF6
  3
BUMPTILE
360
1075
  3
DIFFUSETILE
360
1074
  3
OPACITYTILE
360
1078
  3
REFLECTIONTILE
360
1077
  3
REFRACTIONTILE
360
1079
  3
SPECULARTILE
360
1076
  0
DICTIONARY
  5
106B
330
106A
100
AcDbDictionary
280
     1
281
     1
  3
ACAD_XREC_ROUNDTRIP
360
1AF5
  3
BUMPTILE
360
106D
  3
DIFFUSETILE
360
106C
  3
OPACITYTILE
360
1070
  3
REFLECTIONTILE
360
106F
  3
REFRACTIONTILE
360
1071
  3
SPECULARTILE
360
106E
  0
DICTIONARY
  5
107B
330
107A
100
AcDbDictionary
280
     1
281
     1
  3
ACAD_XREC_ROUNDTRIP
360
1AF7
  3
BUMPTILE
360
107D
  3
DIFFUSETILE
360
107C
  3
OPACITYTILE
360
1080
  3
REFLECTIONTILE
360
107F
  3
REFRACTIONTILE
360
1081
  3
SPECULARTILE
360
107E
  0
DICTIONARY
  5
1A90
330
EE8
100
AcDbDictionary
280
     1
281
     1
  3
ACAD_ROUNDTRIP_2008_TABLESTYLE_CELLSTYLEMAP
360
1AE9
  3
ACAD_XREC_ROUNDTRIP
360
1AF4
  0
DICTIONARY
  5
1B02
330
1088
100
AcDbDictionary
280
     1
281
     1
  3
ACAD_XREC_ROUNDTRIP
360
1B03
  0
DICTIONARY
  5
1B06
330
108A
100
AcDbDictionary
280
     1
281
     1
  3
ACAD_XREC_ROUNDTRIP
360
1B07
  0
DICTIONARY
  5
1B04
330
1089
100
AcDbDictionary
280
     1
281
     1
  3
ACAD_XREC_ROUNDTRIP
360
1B05
  0
DICTIONARY
  5
1B00
330
1087
100
AcDbDictionary
280
     1
281
     1
  3
ACAD_XREC_ROUNDTRIP
360
1B01
  0
DICTIONARY
  5
1B0E
330
108E
100
AcDbDictionary
280
     1
281
     1
  3
ACAD_XREC_ROUNDTRIP
360
1B0F
  0
DICTIONARY
  5
1B16
330
1092
100
AcDbDictionary
280
     1
281
     1
  3
ACAD_XREC_ROUNDTRIP
360
1B17
  0
DICTIONARY
  5
1B08
330
108B
100
AcDbDictionary
280
     1
281
     1
  3
ACAD_XREC_ROUNDTRIP
360
1B09
  0
DICTIONARY
  5
1B0C
330
108D
100
AcDbDictionary
280
     1
281
     1
  3
ACAD_XREC_ROUNDTRIP
360
1B0D
  0
DICTIONARY
  5
1B1C
330
1095
100
AcDbDictionary
280
     1
281
     1
  3
ACAD_XREC_ROUNDTRIP
360
1B1D
  0
DICTIONARY
  5
1B14
330
1091
100
AcDbDictionary
280
     1
281
     1
  3
ACAD_XREC_ROUNDTRIP
360
1B15
  0
DICTIONARY
  5
1AF8
330
1083
100
AcDbDictionary
280
     1
281
     1
  3
ACAD_XREC_ROUNDTRIP
360
1AF9
  0
DICTIONARY
  5
1AFA
330
1084
100
AcDbDictionary
280
     1
281
     1
  3
ACAD_XREC_ROUNDTRIP
360
1AFB
  0
DICTIONARY
  5
1AFC
330
1085
100
AcDbDictionary
280
     1
281
     1
  3
ACAD_XREC_ROUNDTRIP
360
1AFD
  0
DICTIONARY
  5
1AFE
330
1086
100
AcDbDictionary
280
     1
281
     1
  3
ACAD_XREC_ROUNDTRIP
360
1AFF
  0
DICTIONARY
  5
1B18
330
1093
100
AcDbDictionary
280
     1
281
     1
  3
ACAD_XREC_ROUNDTRIP
360
1B19
  0
DICTIONARY
  5
1B12
330
1090
100
AcDbDictionary
280
     1
281
     1
  3
ACAD_XREC_ROUNDTRIP
360
1B13
  0
DICTIONARY
  5
1B1A
330
1094
100
AcDbDictionary
280
     1
281
     1
  3
ACAD_XREC_ROUNDTRIP
360
1B1B
  0
DICTIONARY
  5
1B0A
330
108C
100
AcDbDictionary
280
     1
281
     1
  3
ACAD_XREC_ROUNDTRIP
360
1B0B
  0
DICTIONARY
  5
1B10
330
108F
100
AcDbDictionary
280
     1
281
     1
  3
ACAD_XREC_ROUNDTRIP
360
1B11
  0
XRECORD
  5
1AEF
102
{ACAD_REACTORS
330
1AEE
102
}
330
1AEE
100
AcDbXrecord
280
     1
102
SHADEPLOT
 70
     0
102
SHADEPLOTRESLEVEL
 70
     2
102
SHADEPLOTCUSTOMDPI
 70
   300
  0
XRECORD
  5
1AF3
102
{ACAD_REACTORS
330
1AF2
102
}
330
1AF2
100
AcDbXrecord
280
     1
102
SHADEPLOT
 70
     0
102
SHADEPLOTRESLEVEL
 70
     2
102
SHADEPLOTCUSTOMDPI
 70
   300
  0
XRECORD
  5
1AF1
102
{ACAD_REACTORS
330
1AF0
102
}
330
1AF0
100
AcDbXrecord
280
     1
102
SHADEPLOT
 70
     0
102
SHADEPLOTRESLEVEL
 70
     2
102
SHADEPLOTCUSTOMDPI
 70
   300
  0
XRECORD
  5
1AF6
102
{ACAD_REACTORS
330
1073
102
}
330
1073
100
AcDbXrecord
280
     1
102
MATERIAL
148
0.0
149
0.0
149
0.0
 93
        0
 94
      127
282
     0
 72
     0
 77
     0
171
     0
175
     0
179
     0
273
     0
  0
XRECORD
  5
1075
102
{ACAD_REACTORS
330
1073
102
}
330
1073
100
AcDbXrecord
280
     1
270
     1
271
     1
  0
XRECORD
  5
1074
102
{ACAD_REACTORS
330
1073
102
}
330
1073
100
AcDbXrecord
280
     1
270
     1
271
     1
  0
XRECORD
  5
1078
102
{ACAD_REACTORS
330
1073
102
}
330
1073
100
AcDbXrecord
280
     1
270
     1
271
     1
  0
XRECORD
  5
1077
102
{ACAD_REACTORS
330
1073
102
}
330
1073
100
AcDbXrecord
280
     1
270
     1
271
     1
  0
XRECORD
  5
1079
102
{ACAD_REACTORS
330
1073
102
}
330
1073
100
AcDbXrecord
280
     1
270
     1
271
     1
  0
XRECORD
  5
1076
102
{ACAD_REACTORS
330
1073
102
}
330
1073
100
AcDbXrecord
280
     1
270
     1
271
     1
  0
XRECORD
  5
1AF5
102
{ACAD_REACTORS
330
106B
102
}
330
106B
100
AcDbXrecord
280
     1
102
MATERIAL
148
0.0
149
0.0
149
0.0
 93
        0
 94
      127
282
     0
 72
     0
 77
     0
171
     0
175
     0
179
     0
273
     0
  0
XRECORD
  5
106D
102
{ACAD_REACTORS
330
106B
102
}
330
106B
100
AcDbXrecord
280
     1
270
     1
271
     1
  0
XRECORD
  5
106C
102
{ACAD_REACTORS
330
106B
102
}
330
106B
100
AcDbXrecord
280
     1
270
     1
271
     1
  0
XRECORD
  5
1070
102
{ACAD_REACTORS
330
106B
102
}
330
106B
100
AcDbXrecord
280
     1
270
     1
271
     1
  0
XRECORD
  5
106F
102
{ACAD_REACTORS
330
106B
102
}
330
106B
100
AcDbXrecord
280
     1
270
     1
271
     1
  0
XRECORD
  5
1071
102
{ACAD_REACTORS
330
106B
102
}
330
106B
100
AcDbXrecord
280
     1
270
     1
271
     1
  0
XRECORD
  5
106E
102
{ACAD_REACTORS
330
106B
102
}
330
106B
100
AcDbXrecord
280
     1
270
     1
271
     1
  0
XRECORD
  5
1AF7
102
{ACAD_REACTORS
330
107B
102
}
330
107B
100
AcDbXrecord
280
     1
102
MATERIAL
148
0.0
149
0.0
149
0.0
 93
        0
 94
      127
282
     0
 72
     0
 77
     0
171
     0
175
     0
179
     0
273
     0
  0
XRECORD
  5
107D
102
{ACAD_REACTORS
330
107B
102
}
330
107B
100
AcDbXrecord
280
     1
270
     1
271
     1
  0
XRECORD
  5
107C
102
{ACAD_REACTORS
330
107B
102
}
330
107B
100
AcDbXrecord
280
     1
270
     1
271
     1
  0
XRECORD
  5
1080
102
{ACAD_REACTORS
330
107B
102
}
330
107B
100
AcDbXrecord
280
     1
270
     1
271
     1
  0
XRECORD
  5
107F
102
{ACAD_REACTORS
330
107B
102
}
330
107B
100
AcDbXrecord
280
     1
270
     1
271
     1
  0
XRECORD
  5
1081
102
{ACAD_REACTORS
330
107B
102
}
330
107B
100
AcDbXrecord
280
     1
270
     1
271
     1
  0
XRECORD
  5
107E
102
{ACAD_REACTORS
330
107B
102
}
330
107B
100
AcDbXrecord
280
     1
270
     1
271
     1
  0
CELLSTYLEMAP
  5
1AE9
102
{ACAD_REACTORS
330
1A90
102
}
330
1A90
100
AcDbCellStyleMap
 90
        3
300
CELLSTYLE
  1
TABLEFORMAT_BEGIN
 90
        5
170
     1
 91
        0
 92
    32768
 62
   257
 93
        1
300
CONTENTFORMAT
  1
CONTENTFORMAT_BEGIN
 90
        0
 91
        0
 92
        4
 93
        0
300

 40
0.0
140
1.0
 94
        5
 62
     0
340
11
144
6.0
309
CONTENTFORMAT_END
171
     1
301
MARGIN
  1
CELLMARGIN_BEGIN
 40
1.5
 40
1.5
 40
1.5
 40
1.5
 40
0.18
 40
0.18
309
CELLMARGIN_END
 94
        6
 95
        1
302
GRIDFORMAT
  1
GRIDFORMAT_BEGIN
 90
        0
 91
        1
 62
     0
 92
       -2
340
0
 93
        0
 40
0.045
309
GRIDFORMAT_END
 95
        2
302
GRIDFORMAT
  1
GRIDFORMAT_BEGIN
 90
        0
 91
        1
 62
     0
 92
       -2
340
0
 93
        0
 40
0.045
309
GRIDFORMAT_END
 95
        4
302
GRIDFORMAT
  1
GRIDFORMAT_BEGIN
 90
        0
 91
        1
 62
     0
 92
       -2
340
0
 93
        0
 40
0.045
309
GRIDFORMAT_END
 95
        8
302
GRIDFORMAT
  1
GRIDFORMAT_BEGIN
 90
        0
 91
        1
 62
     0
 92
       -2
340
0
 93
        0
 40
0.045
309
GRIDFORMAT_END
 95
       16
302
GRIDFORMAT
  1
GRIDFORMAT_BEGIN
 90
        0
 91
        1
 62
     0
 92
       -2
340
0
 93
        0
 40
0.045
309
GRIDFORMAT_END
 95
       32
302
GRIDFORMAT
  1
GRIDFORMAT_BEGIN
 90
        0
 91
        1
 62
     0
 92
       -2
340
0
 93
        0
 40
0.045
309
GRIDFORMAT_END
309
TABLEFORMAT_END
  1
CELLSTYLE_BEGIN
 90
        1
 91
        1
300
_TITLE
309
CELLSTYLE_END
300
CELLSTYLE
  1
TABLEFORMAT_BEGIN
 90
        5
170
     1
 91
        0
 92
        0
 62
   257
 93
        1
300
CONTENTFORMAT
  1
CONTENTFORMAT_BEGIN
 90
        0
 91
        0
 92
        4
 93
        0
300

 40
0.0
140
1.0
 94
        5
 62
     0
340
11
144
4.5
309
CONTENTFORMAT_END
171
     1
301
MARGIN
  1
CELLMARGIN_BEGIN
 40
1.5
 40
1.5
 40
1.5
 40
1.5
 40
0.18
 40
0.18
309
CELLMARGIN_END
 94
        6
 95
        1
302
GRIDFORMAT
  1
GRIDFORMAT_BEGIN
 90
        0
 91
        1
 62
     0
 92
       -2
340
0
 93
        0
 40
0.045
309
GRIDFORMAT_END
 95
        2
302
GRIDFORMAT
  1
GRIDFORMAT_BEGIN
 90
        0
 91
        1
 62
     0
 92
       -2
340
0
 93
        0
 40
0.045
309
GRIDFORMAT_END
 95
        4
302
GRIDFORMAT
  1
GRIDFORMAT_BEGIN
 90
        0
 91
        1
 62
     0
 92
       -2
340
0
 93
        0
 40
0.045
309
GRIDFORMAT_END
 95
        8
302
GRIDFORMAT
  1
GRIDFORMAT_BEGIN
 90
        0
 91
        1
 62
     0
 92
       -2
340
0
 93
        0
 40
0.045
309
GRIDFORMAT_END
 95
       16
302
GRIDFORMAT
  1
GRIDFORMAT_BEGIN
 90
        0
 91
        1
 62
     0
 92
       -2
340
0
 93
        0
 40
0.045
309
GRIDFORMAT_END
 95
       32
302
GRIDFORMAT
  1
GRIDFORMAT_BEGIN
 90
        0
 91
        1
 62
     0
 92
       -2
340
0
 93
        0
 40
0.045
309
GRIDFORMAT_END
309
TABLEFORMAT_END
  1
CELLSTYLE_BEGIN
 90
        2
 91
        1
300
_HEADER
309
CELLSTYLE_END
300
CELLSTYLE
  1
TABLEFORMAT_BEGIN
 90
        5
170
     1
 91
        0
 92
        0
 62
   257
 93
        1
300
CONTENTFORMAT
  1
CONTENTFORMAT_BEGIN
 90
        0
 91
        0
 92
        4
 93
        0
300

 40
0.0
140
1.0
 94
        2
 62
     0
340
11
144
4.5
309
CONTENTFORMAT_END
171
     1
301
MARGIN
  1
CELLMARGIN_BEGIN
 40
1.5
 40
1.5
 40
1.5
 40
1.5
 40
0.18
 40
0.18
309
CELLMARGIN_END
 94
        6
 95
        1
302
GRIDFORMAT
  1
GRIDFORMAT_BEGIN
 90
        0
 91
        1
 62
     0
 92
       -2
340
0
 93
        0
 40
0.045
309
GRIDFORMAT_END
 95
        2
302
GRIDFORMAT
  1
GRIDFORMAT_BEGIN
 90
        0
 91
        1
 62
     0
 92
       -2
340
0
 93
        0
 40
0.045
309
GRIDFORMAT_END
 95
        4
302
GRIDFORMAT
  1
GRIDFORMAT_BEGIN
 90
        0
 91
        1
 62
     0
 92
       -2
340
0
 93
        0
 40
0.045
309
GRIDFORMAT_END
 95
        8
302
GRIDFORMAT
  1
GRIDFORMAT_BEGIN
 90
        0
 91
        1
 62
     0
 92
       -2
340
0
 93
        0
 40
0.045
309
GRIDFORMAT_END
 95
       16
302
GRIDFORMAT
  1
GRIDFORMAT_BEGIN
 90
        0
 91
        1
 62
     0
 92
       -2
340
0
 93
        0
 40
0.045
309
GRIDFORMAT_END
 95
       32
302
GRIDFORMAT
  1
GRIDFORMAT_BEGIN
 90
        0
 91
        1
 62
     0
 92
       -2
340
0
 93
        0
 40
0.045
309
GRIDFORMAT_END
309
TABLEFORMAT_END
  1
CELLSTYLE_BEGIN
 90
        3
 91
        2
300
_DATA
309
CELLSTYLE_END
  0
XRECORD
  5
1AF4
102
{ACAD_REACTORS
330
1A90
102
}
330
1A90
100
AcDbXrecord
280
     1
102
ACAD_ROUNDTRIP_PRE2007_TABLESTYLE
 90
        4
 91
        0
  1

 92
        4
 93
        0
  2

 94
        4
 95
        0
  3

  0
XRECORD
  5
1B03
102
{ACAD_REACTORS
330
1B02
102
}
330
1B02
100
AcDbXrecord
280
     1
102
RTVSPropertyOp0
 70
     1
102
RTVSPropertyOp1
 70
     1
102
RTVSPropertyOp2
 70
     1
102
RTVSPropertyOp3
 70
     1
102
RTVSPropertyOp4
 70
     1
102
RTVSPropertyOp5
 70
     1
102
RTVSPropertyOp6
 70
     1
102
RTVSPropertyOp7
 70
     1
102
RTVSPropertyOp8
 70
     1
102
RTVSPropertyOp9
 70
     1
102
RTVSPropertyOp10
 70
     1
102
RTVSPropertyOp11
 70
     1
102
RTVSPropertyOp12
 70
     1
102
RTVSPropertyOp13
 70
     1
102
RTVSPropertyOp14
 70
     1
102
RTVSPropertyOp15
 70
     1
102
RTVSPropertyOp16
 70
     1
102
RTVSPropertyOp17
 70
     1
102
RTVSPropertyOp18
 70
     1
102
RTVSPropertyOp19
 70
     1
102
RTVSPropertyOp20
 70
     1
102
RTVSPropertyOp21
 70
     1
102
RTVSPropertyOp22
 70
     1
102
RTVSPropertyOp23
 70
     1
102
RTVSPropertyOp24
 70
     1
102
RTVSPropertyOp25
 70
     1
102
RTVSPropertyOp26
 70
     1
102
RTVSPropertyOp27
 70
     1
  0
XRECORD
  5
1B07
102
{ACAD_REACTORS
330
1B06
102
}
330
1B06
100
AcDbXrecord
280
     1
102
RTVSPropertyOp0
 70
     1
102
RTVSPropertyOp1
 70
     1
102
RTVSPropertyOp2
 70
     1
102
RTVSPropertyOp3
 70
     1
102
RTVSPropertyOp4
 70
     1
102
RTVSPropertyOp5
 70
     1
102
RTVSPropertyOp6
 70
     1
102
RTVSPropertyOp7
 70
     1
102
RTVSPropertyOp8
 70
     1
102
RTVSPropertyOp9
 70
     1
102
RTVSPropertyOp10
 70
     1
102
RTVSPropertyOp11
 70
     1
102
RTVSPropertyOp12
 70
     1
102
RTVSPropertyOp13
 70
     1
102
RTVSPropertyOp14
 70
     1
102
RTVSPropertyOp15
 70
     1
102
RTVSPropertyOp16
 70
     1
102
RTVSPropertyOp17
 70
     1
102
RTVSPropertyOp18
 70
     1
102
RTVSPropertyOp19
 70
     1
102
RTVSPropertyOp20
 70
     1
102
RTVSPropertyOp21
 70
     1
102
RTVSPropertyOp22
 70
     1
102
RTVSPropertyOp23
 70
     1
102
RTVSPropertyOp24
 70
     1
102
RTVSPropertyOp25
 70
     1
102
RTVSPropertyOp26
 70
     1
102
RTVSPropertyOp27
 70
     1
  0
XRECORD
  5
1B05
102
{ACAD_REACTORS
330
1B04
102
}
330
1B04
100
AcDbXrecord
280
     1
102
RTVSPropertyOp0
 70
     1
102
RTVSPropertyOp1
 70
     1
102
RTVSPropertyOp2
 70
     1
102
RTVSPropertyOp3
 70
     1
102
RTVSPropertyOp4
 70
     1
102
RTVSPropertyOp5
 70
     1
102
RTVSPropertyOp6
 70
     1
102
RTVSPropertyOp7
 70
     1
102
RTVSPropertyOp8
 70
     1
102
RTVSPropertyOp9
 70
     1
102
RTVSPropertyOp10
 70
     1
102
RTVSPropertyOp11
 70
     1
102
RTVSPropertyOp12
 70
     1
102
RTVSPropertyOp13
 70
     1
102
RTVSPropertyOp14
 70
     1
102
RTVSPropertyOp15
 70
     1
102
RTVSPropertyOp16
 70
     1
102
RTVSPropertyOp17
 70
     1
102
RTVSPropertyOp18
 70
     1
102
RTVSPropertyOp19
 70
     1
102
RTVSPropertyOp20
 70
     1
102
RTVSPropertyOp21
 70
     1
102
RTVSPropertyOp22
 70
     1
102
RTVSPropertyOp23
 70
     1
102
RTVSPropertyOp24
 70
     1
102
RTVSPropertyOp25
 70
     1
102
RTVSPropertyOp26
 70
     1
102
RTVSPropertyOp27
 70
     1
  0
XRECORD
  5
1B01
102
{ACAD_REACTORS
330
1B00
102
}
330
1B00
100
AcDbXrecord
280
     1
102
RTVSPropertyOp0
 70
     1
102
RTVSPropertyOp1
 70
     1
102
RTVSPropertyOp2
 70
     1
102
RTVSPropertyOp3
 70
     1
102
RTVSPropertyOp4
 70
     1
102
RTVSPropertyOp5
 70
     1
102
RTVSPropertyOp6
 70
     1
102
RTVSPropertyOp7
 70
     1
102
RTVSPropertyOp8
 70
     1
102
RTVSPropertyOp9
 70
     1
102
RTVSPropertyOp10
 70
     1
102
RTVSPropertyOp11
 70
     1
102
RTVSPropertyOp12
 70
     1
102
RTVSPropertyOp13
 70
     1
102
RTVSPropertyOp14
 70
     1
102
RTVSPropertyOp15
 70
     1
102
RTVSPropertyOp16
 70
     1
102
RTVSPropertyOp17
 70
     1
102
RTVSPropertyOp18
 70
     1
102
RTVSPropertyOp19
 70
     1
102
RTVSPropertyOp20
 70
     1
102
RTVSPropertyOp21
 70
     1
102
RTVSPropertyOp22
 70
     1
102
RTVSPropertyOp23
 70
     1
102
RTVSPropertyOp24
 70
     1
102
RTVSPropertyOp25
 70
     1
102
RTVSPropertyOp26
 70
     1
102
RTVSPropertyOp27
 70
     1
  0
XRECORD
  5
1B0F
102
{ACAD_REACTORS
330
1B0E
102
}
330
1B0E
100
AcDbXrecord
280
     1
102
RTVSPropertyOp0
 70
     1
102
RTVSPropertyOp1
 70
     1
102
RTVSPropertyOp2
 70
     1
102
RTVSPropertyOp3
 70
     1
102
RTVSPropertyOp4
 70
     1
102
RTVSPropertyOp5
 70
     1
102
RTVSPropertyOp6
 70
     1
102
RTVSPropertyOp7
 70
     1
102
RTVSPropertyOp8
 70
     1
102
RTVSPropertyOp9
 70
     1
102
RTVSPropertyOp10
 70
     1
102
RTVSPropertyOp11
 70
     1
102
RTVSPropertyOp12
 70
     1
102
RTVSPropertyOp13
 70
     1
102
RTVSPropertyOp14
 70
     1
102
RTVSPropertyOp15
 70
     1
102
RTVSPropertyOp16
 70
     1
102
RTVSPropertyOp17
 70
     1
102
RTVSPropertyOp18
 70
     1
102
RTVSPropertyOp19
 70
     1
102
RTVSPropertyOp20
 70
     1
102
RTVSPropertyOp21
 70
     1
102
RTVSPropertyOp22
 70
     1
102
RTVSPropertyOp23
 70
     1
102
RTVSPropertyOp24
 70
     1
102
RTVSPropertyOp25
 70
     1
102
RTVSPropertyOp26
 70
     1
102
RTVSPropertyOp27
 70
     1
  0
XRECORD
  5
1B17
102
{ACAD_REACTORS
330
1B16
102
}
330
1B16
100
AcDbXrecord
280
     1
102
RTVSPropertyOp0
 70
     1
102
RTVSPropertyOp1
 70
     1
102
RTVSPropertyOp2
 70
     1
102
RTVSPropertyOp3
 70
     1
102
RTVSPropertyOp4
 70
     1
102
RTVSPropertyOp5
 70
     1
102
RTVSPropertyOp6
 70
     1
102
RTVSPropertyOp7
 70
     1
102
RTVSPropertyOp8
 70
     1
102
RTVSPropertyOp9
 70
     1
102
RTVSPropertyOp10
 70
     1
102
RTVSPropertyOp11
 70
     1
102
RTVSPropertyOp12
 70
     1
102
RTVSPropertyOp13
 70
     1
102
RTVSPropertyOp14
 70
     1
102
RTVSPropertyOp15
 70
     1
102
RTVSPropertyOp16
 70
     1
102
RTVSPropertyOp17
 70
     1
102
RTVSPropertyOp18
 70
     1
102
RTVSPropertyOp19
 70
     1
102
RTVSPropertyOp20
 70
     1
102
RTVSPropertyOp21
 70
     1
102
RTVSPropertyOp22
 70
     1
102
RTVSPropertyOp23
 70
     1
102
RTVSPropertyOp24
 70
     1
102
RTVSPropertyOp25
 70
     1
102
RTVSPropertyOp26
 70
     1
102
RTVSPropertyOp27
 70
     1
  0
XRECORD
  5
1B09
102
{ACAD_REACTORS
330
1B08
102
}
330
1B08
100
AcDbXrecord
280
     1
102
RTVSPropertyOp0
 70
     1
102
RTVSPropertyOp1
 70
     1
102
RTVSPropertyOp2
 70
     1
102
RTVSPropertyOp3
 70
     1
102
RTVSPropertyOp4
 70
     1
102
RTVSPropertyOp5
 70
     1
102
RTVSPropertyOp6
 70
     1
102
RTVSPropertyOp7
 70
     1
102
RTVSPropertyOp8
 70
     1
102
RTVSPropertyOp9
 70
     1
102
RTVSPropertyOp10
 70
     1
102
RTVSPropertyOp11
 70
     1
102
RTVSPropertyOp12
 70
     1
102
RTVSPropertyOp13
 70
     1
102
RTVSPropertyOp14
 70
     1
102
RTVSPropertyOp15
 70
     1
102
RTVSPropertyOp16
 70
     1
102
RTVSPropertyOp17
 70
     1
102
RTVSPropertyOp18
 70
     1
102
RTVSPropertyOp19
 70
     1
102
RTVSPropertyOp20
 70
     1
102
RTVSPropertyOp21
 70
     1
102
RTVSPropertyOp22
 70
     1
102
RTVSPropertyOp23
 70
     1
102
RTVSPropertyOp24
 70
     1
102
RTVSPropertyOp25
 70
     1
102
RTVSPropertyOp26
 70
     1
102
RTVSPropertyOp27
 70
     1
  0
XRECORD
  5
1B0D
102
{ACAD_REACTORS
330
1B0C
102
}
330
1B0C
100
AcDbXrecord
280
     1
102
RTVSPropertyOp0
 70
     1
102
RTVSPropertyOp1
 70
     1
102
RTVSPropertyOp2
 70
     1
102
RTVSPropertyOp3
 70
     1
102
RTVSPropertyOp4
 70
     1
102
RTVSPropertyOp5
 70
     1
102
RTVSPropertyOp6
 70
     1
102
RTVSPropertyOp7
 70
     1
102
RTVSPropertyOp8
 70
     1
102
RTVSPropertyOp9
 70
     1
102
RTVSPropertyOp10
 70
     1
102
RTVSPropertyOp11
 70
     1
102
RTVSPropertyOp12
 70
     1
102
RTVSPropertyOp13
 70
     1
102
RTVSPropertyOp14
 70
     1
102
RTVSPropertyOp15
 70
     1
102
RTVSPropertyOp16
 70
     1
102
RTVSPropertyOp17
 70
     1
102
RTVSPropertyOp18
 70
     1
102
RTVSPropertyOp19
 70
     1
102
RTVSPropertyOp20
 70
     1
102
RTVSPropertyOp21
 70
     1
102
RTVSPropertyOp22
 70
     1
102
RTVSPropertyOp23
 70
     1
102
RTVSPropertyOp24
 70
     1
102
RTVSPropertyOp25
 70
     1
102
RTVSPropertyOp26
 70
     1
102
RTVSPropertyOp27
 70
     1
  0
XRECORD
  5
1B1D
102
{ACAD_REACTORS
330
1B1C
102
}
330
1B1C
100
AcDbXrecord
280
     1
102
RTVSPropertyOp0
 70
     0
102
RTVSPropertyOp1
 70
     0
102
RTVSPropertyOp2
 70
     0
102
RTVSPropertyOp3
 70
     0
102
RTVSPropertyOp4
 70
     0
102
RTVSPropertyOp5
 70
     0
102
RTVSPropertyOp6
 70
     0
102
RTVSPropertyOp7
 70
     0
102
RTVSPropertyOp8
 70
     0
102
RTVSPropertyOp9
 70
     0
102
RTVSPropertyOp10
 70
     0
102
RTVSPropertyOp11
 70
     0
102
RTVSPropertyOp12
 70
     0
102
RTVSPropertyOp13
 70
     0
102
RTVSPropertyOp14
 70
     2
102
RTVSPropertyOp15
 70
     0
102
RTVSPropertyOp16
 70
     0
102
RTVSPropertyOp17
 70
     0
102
RTVSPropertyOp18
 70
     0
102
RTVSPropertyOp19
 70
     0
102
RTVSPropertyOp20
 70
     0
102
RTVSPropertyOp21
 70
     0
102
RTVSPropertyOp22
 70
     0
102
RTVSPropertyOp23
 70
     0
102
RTVSPropertyOp24
 70
     0
102
RTVSPropertyOp25
 70
     0
102
RTVSPropertyOp26
 70
     0
102
RTVSPropertyOp27
 70
     0
  0
XRECORD
  5
1B15
102
{ACAD_REACTORS
330
1B14
102
}
330
1B14
100
AcDbXrecord
280
     1
102
RTVSPropertyOp0
 70
     1
102
RTVSPropertyOp1
 70
     1
102
RTVSPropertyOp2
 70
     1
102
RTVSPropertyOp3
 70
     1
102
RTVSPropertyOp4
 70
     1
102
RTVSPropertyOp5
 70
     1
102
RTVSPropertyOp6
 70
     1
102
RTVSPropertyOp7
 70
     1
102
RTVSPropertyOp8
 70
     1
102
RTVSPropertyOp9
 70
     1
102
RTVSPropertyOp10
 70
     1
102
RTVSPropertyOp11
 70
     1
102
RTVSPropertyOp12
 70
     1
102
RTVSPropertyOp13
 70
     1
102
RTVSPropertyOp14
 70
     1
102
RTVSPropertyOp15
 70
     1
102
RTVSPropertyOp16
 70
     1
102
RTVSPropertyOp17
 70
     1
102
RTVSPropertyOp18
 70
     1
102
RTVSPropertyOp19
 70
     1
102
RTVSPropertyOp20
 70
     1
102
RTVSPropertyOp21
 70
     1
102
RTVSPropertyOp22
 70
     1
102
RTVSPropertyOp23
 70
     1
102
RTVSPropertyOp24
 70
     1
102
RTVSPropertyOp25
 70
     1
102
RTVSPropertyOp26
 70
     1
102
RTVSPropertyOp27
 70
     1
  0
XRECORD
  5
1AF9
102
{ACAD_REACTORS
330
1AF8
102
}
330
1AF8
100
AcDbXrecord
280
     1
102
RTVSPropertyOp0
 70
     1
102
RTVSPropertyOp1
 70
     1
102
RTVSPropertyOp2
 70
     1
102
RTVSPropertyOp3
 70
     1
102
RTVSPropertyOp4
 70
     1
102
RTVSPropertyOp5
 70
     1
102
RTVSPropertyOp6
 70
     1
102
RTVSPropertyOp7
 70
     1
102
RTVSPropertyOp8
 70
     1
102
RTVSPropertyOp9
 70
     1
102
RTVSPropertyOp10
 70
     1
102
RTVSPropertyOp11
 70
     1
102
RTVSPropertyOp12
 70
     1
102
RTVSPropertyOp13
 70
     1
102
RTVSPropertyOp14
 70
     1
102
RTVSPropertyOp15
 70
     1
102
RTVSPropertyOp16
 70
     1
102
RTVSPropertyOp17
 70
     1
102
RTVSPropertyOp18
 70
     1
102
RTVSPropertyOp19
 70
     1
102
RTVSPropertyOp20
 70
     1
102
RTVSPropertyOp21
 70
     1
102
RTVSPropertyOp22
 70
     1
102
RTVSPropertyOp23
 70
     1
102
RTVSPropertyOp24
 70
     1
102
RTVSPropertyOp25
 70
     1
102
RTVSPropertyOp26
 70
     1
102
RTVSPropertyOp27
 70
     1
  0
XRECORD
  5
1AFB
102
{ACAD_REACTORS
330
1AFA
102
}
330
1AFA
100
AcDbXrecord
280
     1
102
RTVSPropertyOp0
 70
     1
102
RTVSPropertyOp1
 70
     1
102
RTVSPropertyOp2
 70
     1
102
RTVSPropertyOp3
 70
     1
102
RTVSPropertyOp4
 70
     1
102
RTVSPropertyOp5
 70
     1
102
RTVSPropertyOp6
 70
     1
102
RTVSPropertyOp7
 70
     1
102
RTVSPropertyOp8
 70
     1
102
RTVSPropertyOp9
 70
     1
102
RTVSPropertyOp10
 70
     1
102
RTVSPropertyOp11
 70
     1
102
RTVSPropertyOp12
 70
     1
102
RTVSPropertyOp13
 70
     1
102
RTVSPropertyOp14
 70
     1
102
RTVSPropertyOp15
 70
     1
102
RTVSPropertyOp16
 70
     1
102
RTVSPropertyOp17
 70
     1
102
RTVSPropertyOp18
 70
     1
102
RTVSPropertyOp19
 70
     1
102
RTVSPropertyOp20
 70
     1
102
RTVSPropertyOp21
 70
     1
102
RTVSPropertyOp22
 70
     1
102
RTVSPropertyOp23
 70
     1
102
RTVSPropertyOp24
 70
     1
102
RTVSPropertyOp25
 70
     1
102
RTVSPropertyOp26
 70
     1
102
RTVSPropertyOp27
 70
     1
  0
XRECORD
  5
1AFD
102
{ACAD_REACTORS
330
1AFC
102
}
330
1AFC
100
AcDbXrecord
280
     1
102
RTVSPropertyOp0
 70
     1
102
RTVSPropertyOp1
 70
     1
102
RTVSPropertyOp2
 70
     1
102
RTVSPropertyOp3
 70
     1
102
RTVSPropertyOp4
 70
     1
102
RTVSPropertyOp5
 70
     1
102
RTVSPropertyOp6
 70
     1
102
RTVSPropertyOp7
 70
     1
102
RTVSPropertyOp8
 70
     1
102
RTVSPropertyOp9
 70
     1
102
RTVSPropertyOp10
 70
     1
102
RTVSPropertyOp11
 70
     1
102
RTVSPropertyOp12
 70
     1
102
RTVSPropertyOp13
 70
     1
102
RTVSPropertyOp14
 70
     1
102
RTVSPropertyOp15
 70
     1
102
RTVSPropertyOp16
 70
     1
102
RTVSPropertyOp17
 70
     1
102
RTVSPropertyOp18
 70
     1
102
RTVSPropertyOp19
 70
     1
102
RTVSPropertyOp20
 70
     1
102
RTVSPropertyOp21
 70
     1
102
RTVSPropertyOp22
 70
     1
102
RTVSPropertyOp23
 70
     1
102
RTVSPropertyOp24
 70
     1
102
RTVSPropertyOp25
 70
     1
102
RTVSPropertyOp26
 70
     1
102
RTVSPropertyOp27
 70
     1
  0
XRECORD
  5
1AFF
102
{ACAD_REACTORS
330
1AFE
102
}
330
1AFE
100
AcDbXrecord
280
     1
102
RTVSPropertyOp0
 70
     1
102
RTVSPropertyOp1
 70
     1
102
RTVSPropertyOp2
 70
     1
102
RTVSPropertyOp3
 70
     1
102
RTVSPropertyOp4
 70
     1
102
RTVSPropertyOp5
 70
     1
102
RTVSPropertyOp6
 70
     1
102
RTVSPropertyOp7
 70
     1
102
RTVSPropertyOp8
 70
     1
102
RTVSPropertyOp9
 70
     1
102
RTVSPropertyOp10
 70
     1
102
RTVSPropertyOp11
 70
     1
102
RTVSPropertyOp12
 70
     1
102
RTVSPropertyOp13
 70
     1
102
RTVSPropertyOp14
 70
     1
102
RTVSPropertyOp15
 70
     1
102
RTVSPropertyOp16
 70
     1
102
RTVSPropertyOp17
 70
     1
102
RTVSPropertyOp18
 70
     1
102
RTVSPropertyOp19
 70
     1
102
RTVSPropertyOp20
 70
     1
102
RTVSPropertyOp21
 70
     1
102
RTVSPropertyOp22
 70
     1
102
RTVSPropertyOp23
 70
     1
102
RTVSPropertyOp24
 70
     1
102
RTVSPropertyOp25
 70
     1
102
RTVSPropertyOp26
 70
     1
102
RTVSPropertyOp27
 70
     1
  0
XRECORD
  5
1B19
102
{ACAD_REACTORS
330
1B18
102
}
330
1B18
100
AcDbXrecord
280
     1
102
RTVSPropertyOp0
 70
     0
102
RTVSPropertyOp1
 70
     0
102
RTVSPropertyOp2
 70
     0
102
RTVSPropertyOp3
 70
     0
102
RTVSPropertyOp4
 70
     0
102
RTVSPropertyOp5
 70
     0
102
RTVSPropertyOp6
 70
     0
102
RTVSPropertyOp7
 70
     0
102
RTVSPropertyOp8
 70
     0
102
RTVSPropertyOp9
 70
     0
102
RTVSPropertyOp10
 70
     0
102
RTVSPropertyOp11
 70
     0
102
RTVSPropertyOp12
 70
     0
102
RTVSPropertyOp13
 70
     0
102
RTVSPropertyOp14
 70
     2
102
RTVSPropertyOp15
 70
     0
102
RTVSPropertyOp16
 70
     0
102
RTVSPropertyOp17
 70
     0
102
RTVSPropertyOp18
 70
     0
102
RTVSPropertyOp19
 70
     0
102
RTVSPropertyOp20
 70
     0
102
RTVSPropertyOp21
 70
     0
102
RTVSPropertyOp22
 70
     0
102
RTVSPropertyOp23
 70
     0
102
RTVSPropertyOp24
 70
     0
102
RTVSPropertyOp25
 70
     0
102
RTVSPropertyOp26
 70
     0
102
RTVSPropertyOp27
 70
     0
  0
XRECORD
  5
1B13
102
{ACAD_REACTORS
330
1B12
102
}
330
1B12
100
AcDbXrecord
280
     1
102
RTVSPropertyOp0
 70
     1
102
RTVSPropertyOp1
 70
     1
102
RTVSPropertyOp2
 70
     1
102
RTVSPropertyOp3
 70
     1
102
RTVSPropertyOp4
 70
     1
102
RTVSPropertyOp5
 70
     1
102
RTVSPropertyOp6
 70
     1
102
RTVSPropertyOp7
 70
     1
102
RTVSPropertyOp8
 70
     1
102
RTVSPropertyOp9
 70
     1
102
RTVSPropertyOp10
 70
     1
102
RTVSPropertyOp11
 70
     1
102
RTVSPropertyOp12
 70
     1
102
RTVSPropertyOp13
 70
     1
102
RTVSPropertyOp14
 70
     1
102
RTVSPropertyOp15
 70
     1
102
RTVSPropertyOp16
 70
     1
102
RTVSPropertyOp17
 70
     1
102
RTVSPropertyOp18
 70
     1
102
RTVSPropertyOp19
 70
     1
102
RTVSPropertyOp20
 70
     1
102
RTVSPropertyOp21
 70
     1
102
RTVSPropertyOp22
 70
     1
102
RTVSPropertyOp23
 70
     1
102
RTVSPropertyOp24
 70
     1
102
RTVSPropertyOp25
 70
     1
102
RTVSPropertyOp26
 70
     1
102
RTVSPropertyOp27
 70
     1
  0
XRECORD
  5
1B1B
102
{ACAD_REACTORS
330
1B1A
102
}
330
1B1A
100
AcDbXrecord
280
     1
102
RTVSPropertyOp0
 70
     0
102
RTVSPropertyOp1
 70
     0
102
RTVSPropertyOp2
 70
     0
102
RTVSPropertyOp3
 70
     0
102
RTVSPropertyOp4
 70
     0
102
RTVSPropertyOp5
 70
     0
102
RTVSPropertyOp6
 70
     0
102
RTVSPropertyOp7
 70
     0
102
RTVSPropertyOp8
 70
     0
102
RTVSPropertyOp9
 70
     0
102
RTVSPropertyOp10
 70
     0
102
RTVSPropertyOp11
 70
     0
102
RTVSPropertyOp12
 70
     0
102
RTVSPropertyOp13
 70
     0
102
RTVSPropertyOp14
 70
     2
102
RTVSPropertyOp15
 70
     0
102
RTVSPropertyOp16
 70
     0
102
RTVSPropertyOp17
 70
     0
102
RTVSPropertyOp18
 70
     0
102
RTVSPropertyOp19
 70
     0
102
RTVSPropertyOp20
 70
     0
102
RTVSPropertyOp21
 70
     0
102
RTVSPropertyOp22
 70
     0
102
RTVSPropertyOp23
 70
     0
102
RTVSPropertyOp24
 70
     0
102
RTVSPropertyOp25
 70
     0
102
RTVSPropertyOp26
 70
     0
102
RTVSPropertyOp27
 70
     0
  0
XRECORD
  5
1B0B
102
{ACAD_REACTORS
330
1B0A
102
}
330
1B0A
100
AcDbXrecord
280
     1
102
RTVSPropertyOp0
 70
     1
102
RTVSPropertyOp1
 70
     1
102
RTVSPropertyOp2
 70
     1
102
RTVSPropertyOp3
 70
     1
102
RTVSPropertyOp4
 70
     1
102
RTVSPropertyOp5
 70
     1
102
RTVSPropertyOp6
 70
     1
102
RTVSPropertyOp7
 70
     1
102
RTVSPropertyOp8
 70
     1
102
RTVSPropertyOp9
 70
     1
102
RTVSPropertyOp10
 70
     1
102
RTVSPropertyOp11
 70
     1
102
RTVSPropertyOp12
 70
     1
102
RTVSPropertyOp13
 70
     1
102
RTVSPropertyOp14
 70
     1
102
RTVSPropertyOp15
 70
     1
102
RTVSPropertyOp16
 70
     1
102
RTVSPropertyOp17
 70
     1
102
RTVSPropertyOp18
 70
     1
102
RTVSPropertyOp19
 70
     1
102
RTVSPropertyOp20
 70
     1
102
RTVSPropertyOp21
 70
     1
102
RTVSPropertyOp22
 70
     1
102
RTVSPropertyOp23
 70
     1
102
RTVSPropertyOp24
 70
     1
102
RTVSPropertyOp25
 70
     1
102
RTVSPropertyOp26
 70
     1
102
RTVSPropertyOp27
 70
     1
  0
XRECORD
  5
1B11
102
{ACAD_REACTORS
330
1B10
102
}
330
1B10
100
AcDbXrecord
280
     1
102
RTVSPropertyOp0
 70
     1
102
RTVSPropertyOp1
 70
     1
102
RTVSPropertyOp2
 70
     1
102
RTVSPropertyOp3
 70
     1
102
RTVSPropertyOp4
 70
     1
102
RTVSPropertyOp5
 70
     1
102
RTVSPropertyOp6
 70
     1
102
RTVSPropertyOp7
 70
     1
102
RTVSPropertyOp8
 70
     1
102
RTVSPropertyOp9
 70
     1
102
RTVSPropertyOp10
 70
     1
102
RTVSPropertyOp11
 70
     1
102
RTVSPropertyOp12
 70
     1
102
RTVSPropertyOp13
 70
     1
102
RTVSPropertyOp14
 70
     1
102
RTVSPropertyOp15
 70
     1
102
RTVSPropertyOp16
 70
     1
102
RTVSPropertyOp17
 70
     1
102
RTVSPropertyOp18
 70
     1
102
RTVSPropertyOp19
 70
     1
102
RTVSPropertyOp20
 70
     1
102
RTVSPropertyOp21
 70
     1
102
RTVSPropertyOp22
 70
     1
102
RTVSPropertyOp23
 70
     1
102
RTVSPropertyOp24
 70
     1
102
RTVSPropertyOp25
 70
     1
102
RTVSPropertyOp26
 70
     1
102
RTVSPropertyOp27
 70
     1
  0
ENDSEC
  0
EOF
