  0
SECTION
  2
HEADER
  9
$ACADVER
  1
AC1015
  9
$ACADMAINTVER
 70
    20
  9
$DWGCODEPAGE
  3
ANSI_1252
  9
$INSBASE
 10
0.0
 20
0.0
 30
0.0
  9
$EXTMIN
 10
738.6706947985937
 20
853.7643961522542
 30
0.0
  9
$EXTMAX
 10
741.1060628436242
 20
854.2243961522542
 30
0.0
  9
$LIMMIN
 10
0.0
 20
0.0
  9
$LIMMAX
 10
420.0
 20
297.0
  9
$ORTHOMODE
 70
     1
  9
$REGENMODE
 70
     1
  9
$FILLMODE
 70
     1
  9
$QTEXTMODE
 70
     0
  9
$MIRRTEXT
 70
     1
  9
$LTSCALE
 40
1.0
  9
$ATTMODE
 70
     1
  9
$TEXTSIZE
 40
2.5
  9
$TRACEWID
 40
1.0
  9
$TEXTSTYLE
  7
SANINDUSA
  9
$CLAYER
  8
0
  9
$CELTYPE
  6
ByLayer
  9
$CECOLOR
 62
   256
  9
$CELTSCALE
 40
1.0
  9
$DISPSILH
 70
     0
  9
$DIMSCALE
 40
1.0
  9
$DIMASZ
 40
2.0
  9
$DIMEXO
 40
1.0
  9
$DIMDLI
 40
1.0
  9
$DIMRND
 40
0.0
  9
$DIMDLE
 40
0.0
  9
$DIMEXE
 40
1.0
  9
$DIMTP
 40
0.0
  9
$DIMTM
 40
0.0
  9
$DIMTXT
 40
2.0
  9
$DIMCEN
 40
0.0
  9
$DIMTSZ
 40
0.0
  9
$DIMTOL
 70
     0
  9
$DIMLIM
 70
     0
  9
$DIMTIH
 70
     0
  9
$DIMTOH
 70
     0
  9
$DIMSE1
 70
     0
  9
$DIMSE2
 70
     0
  9
$DIMTAD
 70
     1
  9
$DIMZIN
 70
     8
  9
$DIMBLK
  1

  9
$DIMASO
 70
     1
  9
$DIMSHO
 70
     1
  9
$DIMPOST
  1

  9
$DIMAPOST
  1

  9
$DIMALT
 70
     0
  9
$DIMALTD
 70
     3
  9
$DIMALTF
 40
0.03937007874016
  9
$DIMLFAC
 40
1.0
  9
$DIMTOFL
 70
     1
  9
$DIMTVP
 40
0.0
  9
$DIMTIX
 70
     0
  9
$DIMSOXD
 70
     0
  9
$DIMSAH
 70
     0
  9
$DIMBLK1
  1

  9
$DIMBLK2
  1

  9
$DIMSTYLE
  2
SANINDUSA
  9
$DIMCLRD
 70
   256
  9
$DIMCLRE
 70
   256
  9
$DIMCLRT
 70
   256
  9
$DIMTFAC
 40
1.0
  9
$DIMGAP
 40
1.0
  9
$DIMJUST
 70
     0
  9
$DIMSD1
 70
     0
  9
$DIMSD2
 70
     0
  9
$DIMTOLJ
 70
     0
  9
$DIMTZIN
 70
     8
  9
$DIMALTZ
 70
     0
  9
$DIMALTTZ
 70
     0
  9
$DIMUPT
 70
     0
  9
$DIMDEC
 70
     1
  9
$DIMTDEC
 70
     1
  9
$DIMALTU
 70
     2
  9
$DIMALTTD
 70
     3
  9
$DIMTXSTY
  7
SANINDUSA
  9
$DIMAUNIT
 70
     0
  9
$DIMADEC
 70
     1
  9
$DIMALTRND
 40
0.0
  9
$DIMAZIN
 70
     0
  9
$DIMDSEP
 70
    44
  9
$DIMATFIT
 70
     3
  9
$DIMFRAC
 70
     0
  9
$DIMLDRBLK
  1

  9
$DIMLUNIT
 70
     2
  9
$DIMLWD
 70
    -1
  9
$DIMLWE
 70
    -1
  9
$DIMTMOVE
 70
     0
  9
$LUNITS
 70
     2
  9
$LUPREC
 70
     4
  9
$SKETCHINC
 40
1.0
  9
$FILLETRAD
 40
0.0
  9
$AUNITS
 70
     0
  9
$AUPREC
 70
     0
  9
$MENU
  1
.
  9
$ELEVATION
 40
0.0
  9
$PELEVATION
 40
0.0
  9
$THICKNESS
 40
0.0
  9
$LIMCHECK
 70
     0
  9
$CHAMFERA
 40
10.0
  9
$CHAMFERB
 40
10.0
  9
$CHAMFERC
 40
20.0
  9
$CHAMFERD
 40
0.0
  9
$SKPOLY
 70
     0
  9
$TDCREATE
 40
2453559.712349352
  9
$TDUCREATE
 40
2453559.670682685
  9
$TDUPDATE
 40
2456141.615701493
  9
$TDUUPDATE
 40
2456141.574034826
  9
$TDINDWG
 40
0.0026933218
  9
$TDUSRTIMER
 40
0.0026933218
  9
$USRTIMER
 70
     1
  9
$ANGBASE
 50
0.0
  9
$ANGDIR
 70
     0
  9
$PDMODE
 70
     0
  9
$PDSIZE
 40
0.0
  9
$PLINEWID
 40
0.0
  9
$SPLFRAME
 70
     0
  9
$SPLINETYPE
 70
     6
  9
$SPLINESEGS
 70
     8
  9
$HANDSEED
  5
1011
  9
$SURFTAB1
 70
     6
  9
$SURFTAB2
 70
     6
  9
$SURFTYPE
 70
     6
  9
$SURFU
 70
     6
  9
$SURFV
 70
     6
  9
$UCSBASE
  2

  9
$UCSNAME
  2

  9
$UCSORG
 10
0.0
 20
0.0
 30
0.0
  9
$UCSXDIR
 10
1.0
 20
0.0
 30
0.0
  9
$UCSYDIR
 10
0.0
 20
1.0
 30
0.0
  9
$UCSORTHOREF
  2

  9
$UCSORTHOVIEW
 70
     0
  9
$UCSORGTOP
 10
0.0
 20
0.0
 30
0.0
  9
$UCSORGBOTTOM
 10
0.0
 20
0.0
 30
0.0
  9
$UCSORGLEFT
 10
0.0
 20
0.0
 30
0.0
  9
$UCSORGRIGHT
 10
0.0
 20
0.0
 30
0.0
  9
$UCSORGFRONT
 10
0.0
 20
0.0
 30
0.0
  9
$UCSORGBACK
 10
0.0
 20
0.0
 30
0.0
  9
$PUCSBASE
  2

  9
$PUCSNAME
  2

  9
$PUCSORG
 10
0.0
 20
0.0
 30
0.0
  9
$PUCSXDIR
 10
1.0
 20
0.0
 30
0.0
  9
$PUCSYDIR
 10
0.0
 20
1.0
 30
0.0
  9
$PUCSORTHOREF
  2

  9
$PUCSORTHOVIEW
 70
     0
  9
$PUCSORGTOP
 10
0.0
 20
0.0
 30
0.0
  9
$PUCSORGBOTTOM
 10
0.0
 20
0.0
 30
0.0
  9
$PUCSORGLEFT
 10
0.0
 20
0.0
 30
0.0
  9
$PUCSORGRIGHT
 10
0.0
 20
0.0
 30
0.0
  9
$PUCSORGFRONT
 10
0.0
 20
0.0
 30
0.0
  9
$PUCSORGBACK
 10
0.0
 20
0.0
 30
0.0
  9
$USERI1
 70
     0
  9
$USERI2
 70
     0
  9
$USERI3
 70
     0
  9
$USERI4
 70
     0
  9
$USERI5
 70
     0
  9
$USERR1
 40
0.0
  9
$USERR2
 40
0.0
  9
$USERR3
 40
0.0
  9
$USERR4
 40
0.0
  9
$USERR5
 40
0.0
  9
$WORLDVIEW
 70
     1
  9
$SHADEDGE
 70
     3
  9
$SHADEDIF
 70
    70
  9
$TILEMODE
 70
     1
  9
$MAXACTVP
 70
    64
  9
$PINSBASE
 10
0.0
 20
0.0
 30
0.0
  9
$PLIMCHECK
 70
     0
  9
$PEXTMIN
 10
1.000000000000000E+20
 20
1.000000000000000E+20
 30
1.000000000000000E+20
  9
$PEXTMAX
 10
-1.000000000000000E+20
 20
-1.000000000000000E+20
 30
-1.000000000000000E+20
  9
$PLIMMIN
 10
0.0
 20
0.0
  9
$PLIMMAX
 10
420.0
 20
297.0
  9
$UNITMODE
 70
     0
  9
$VISRETAIN
 70
     1
  9
$PLINEGEN
 70
     0
  9
$PSLTSCALE
 70
     1
  9
$TREEDEPTH
 70
  3020
  9
$CMLSTYLE
  2
Standard
  9
$CMLJUST
 70
     0
  9
$CMLSCALE
 40
20.0
  9
$PROXYGRAPHICS
 70
     1
  9
$MEASUREMENT
 70
     1
  9
$CELWEIGHT
370
    -1
  9
$ENDCAPS
280
     0
  9
$JOINSTYLE
280
     0
  9
$LWDISPLAY
290
     0
  9
$INSUNITS
 70
     4
  9
$HYPERLINKBASE
  1

  9
$STYLESHEET
  1
monochrome.ctb
  9
$XEDIT
290
     1
  9
$CEPSNTYPE
380
     0
  9
$PSTYLEMODE
290
     1
  9
$FINGERPRINTGUID
  2
{D25DA0A8-42C1-40CF-903B-788C5EA8B2CF}
  9
$VERSIONGUID
  2
{121F083E-126A-420F-B6E7-BEA2C49266A7}
  9
$EXTNAMES
290
     1
  9
$PSVPSCALE
 40
0.0
  9
$OLESTARTUP
290
     0
  0
ENDSEC
  0
SECTION
  2
CLASSES
  0
CLASS
  1
ACDBDICTIONARYWDFLT
  2
AcDbDictionaryWithDefault
  3
ObjectDBX Classes
 90
        0
280
     0
281
     0
  0
CLASS
  1
ACDBPLACEHOLDER
  2
AcDbPlaceHolder
  3
ObjectDBX Classes
 90
        0
280
     0
281
     0
  0
CLASS
  1
LAYOUT
  2
AcDbLayout
  3
ObjectDBX Classes
 90
        0
280
     0
281
     0
  0
CLASS
  1
DICTIONARYVAR
  2
AcDbDictionaryVar
  3
ObjectDBX Classes
 90
        0
280
     0
281
     0
  0
CLASS
  1
DIMASSOC
  2
AcDbDimAssoc
  3
"AcDbDimAssoc|Product Desc:     AcDim ARX App For Dimension|Company:          Autodesk, Inc.|WEB Address:      www.autodesk.com"
 90
    32768
280
     0
281
     0
  0
CLASS
  1
TABLESTYLE
  2
AcDbTableStyle
  3
ObjectDBX Classes
 90
     4095
280
     0
281
     0
  0
CLASS
  1
SORTENTSTABLE
  2
AcDbSortentsTable
  3
ObjectDBX Classes
 90
    32768
280
     0
281
     0
  0
CLASS
  1
MATERIAL
  2
AcDbMaterial
  3
ObjectDBX Classes
 90
     1153
280
     0
281
     0
  0
CLASS
  1
VISUALSTYLE
  2
AcDbVisualStyle
  3
ObjectDBX Classes
 90
     4095
280
     0
281
     0
  0
CLASS
  1
SCALE
  2
AcDbScale
  3
ObjectDBX Classes
 90
     1153
280
     0
281
     0
  0
CLASS
  1
MLEADERSTYLE
  2
AcDbMLeaderStyle
  3
ACDB_MLEADERSTYLE_CLASS
 90
     4095
280
     0
281
     0
  0
CLASS
  1
CELLSTYLEMAP
  2
AcDbCellStyleMap
  3
ObjectDBX Classes
 90
     1152
280
     0
281
     0
  0
ENDSEC
  0
SECTION
  2
TABLES
  0
TABLE
  2
VPORT
  5
8
330
0
100
AcDbSymbolTable
 70
     1
  0
VPORT
  5
F5A
330
8
100
AcDbSymbolTableRecord
100
AcDbViewportTableRecord
  2
*Active
 70
     0
 10
0.0
 20
0.0
 11
1.0
 21
1.0
 12
739.8462288783753
 22
854.0129090961634
 13
0.0
 23
0.0
 14
10.0
 24
10.0
 15
10.0
 25
10.0
 16
0.0
 26
0.0
 36
1.0
 17
0.0
 27
0.0
 37
0.0
 40
1.730238683104175
 41
1.645464025026068
 42
50.0
 43
0.0
 44
0.0
 50
0.0
 51
0.0
 71
     0
 72
   100
 73
     1
 74
     2
 75
     0
 76
     0
 77
     0
 78
     0
281
     0
 65
     1
110
0.0
120
0.0
130
0.0
111
1.0
121
0.0
131
0.0
112
0.0
122
1.0
132
0.0
 79
     0
146
0.0
  0
ENDTAB
  0
TABLE
  2
LTYPE
  5
5
330
0
100
AcDbSymbolTable
 70
     3
  0
LTYPE
  5
14
330
5
100
AcDbSymbolTableRecord
100
AcDbLinetypeTableRecord
  2
ByBlock
 70
     0
  3

 72
    65
 73
     0
 40
0.0
  0
LTYPE
  5
15
330
5
100
AcDbSymbolTableRecord
100
AcDbLinetypeTableRecord
  2
ByLayer
 70
     0
  3

 72
    65
 73
     0
 40
0.0
  0
LTYPE
  5
16
330
5
100
AcDbSymbolTableRecord
100
AcDbLinetypeTableRecord
  2
Continuous
 70
     0
  3
Solid line
 72
    65
 73
     0
 40
0.0
  0
LTYPE
  5
2D
330
5
100
AcDbSymbolTableRecord
100
AcDbLinetypeTableRecord
  2
DASHDOT
 70
     0
  3
Dash dot __ . __ . __ . __ . __ . __ . __ . __
 72
    65
 73
     4
 40
25.4
 49
12.7
 74
     0
 49
-6.349999999999999
 74
     0
 49
0.0
 74
     0
 49
-6.349999999999999
 74
     0
  0
LTYPE
  5
2E
330
5
100
AcDbSymbolTableRecord
100
AcDbLinetypeTableRecord
  2
HIDDEN
 70
     0
  3
Hidden __ __ __ __ __ __ __ __ __ __ __ __ __ _
 72
    65
 73
     2
 40
9.524999999999998
 49
6.349999999999999
 74
     0
 49
-3.174999999999999
 74
     0
  0
ENDTAB
  0
TABLE
  2
LAYER
  5
2
330
0
100
AcDbSymbolTable
 70
    16
  0
LAYER
  5
10
102
{ACAD_XDICTIONARY
360
FA9
102
}
330
2
100
AcDbSymbolTableRecord
100
AcDbLayerTableRecord
  2
0
 70
     0
 62
     7
  6
Continuous
370
    -3
390
F
  0
LAYER
  5
2F
102
{ACAD_XDICTIONARY
360
FAB
102
}
330
2
100
AcDbSymbolTableRecord
100
AcDbLayerTableRecord
  2
1
 70
     0
 62
     1
  6
Continuous
370
    -3
390
F
  0
LAYER
  5
30
102
{ACAD_XDICTIONARY
360
FAD
102
}
330
2
100
AcDbSymbolTableRecord
100
AcDbLayerTableRecord
  2
2
 70
     0
 62
     2
  6
Continuous
370
    -3
390
F
  0
LAYER
  5
31
102
{ACAD_XDICTIONARY
360
FAF
102
}
330
2
100
AcDbSymbolTableRecord
100
AcDbLayerTableRecord
  2
3
 70
     0
 62
     3
  6
Continuous
370
    -3
390
F
  0
LAYER
  5
32
102
{ACAD_XDICTIONARY
360
FB1
102
}
330
2
100
AcDbSymbolTableRecord
100
AcDbLayerTableRecord
  2
4
 70
     0
 62
     4
  6
Continuous
370
    -3
390
F
  0
LAYER
  5
33
102
{ACAD_XDICTIONARY
360
FB3
102
}
330
2
100
AcDbSymbolTableRecord
100
AcDbLayerTableRecord
  2
5
 70
     0
 62
     5
  6
Continuous
370
    -3
390
F
  0
LAYER
  5
34
102
{ACAD_XDICTIONARY
360
FB5
102
}
330
2
100
AcDbSymbolTableRecord
100
AcDbLayerTableRecord
  2
6
 70
     0
 62
     6
  6
Continuous
370
    -3
390
F
  0
LAYER
  5
35
102
{ACAD_XDICTIONARY
360
FB7
102
}
330
2
100
AcDbSymbolTableRecord
100
AcDbLayerTableRecord
  2
7
 70
     0
 62
     7
  6
Continuous
370
    -3
390
F
  0
LAYER
  5
36
102
{ACAD_XDICTIONARY
360
FB9
102
}
330
2
100
AcDbSymbolTableRecord
100
AcDbLayerTableRecord
  2
cen
 70
     0
 62
     7
  6
DASHDOT
370
    -3
390
F
  0
LAYER
  5
37
102
{ACAD_XDICTIONARY
360
FBB
102
}
330
2
100
AcDbSymbolTableRecord
100
AcDbLayerTableRecord
  2
hid
 70
     0
 62
     7
  6
HIDDEN
370
    -3
390
F
  0
LAYER
  5
5D6
102
{ACAD_XDICTIONARY
360
FBD
102
}
330
2
100
AcDbSymbolTableRecord
100
AcDbLayerTableRecord
  2
hatch
 70
     0
 62
     9
  6
Continuous
370
    -3
390
F
  0
LAYER
  5
8AF
102
{ACAD_XDICTIONARY
360
FBF
102
}
330
2
100
AcDbSymbolTableRecord
100
AcDbLayerTableRecord
  2
9
 70
     0
 62
     9
  6
Continuous
370
    -3
390
F
  0
LAYER
  5
8F8
102
{ACAD_XDICTIONARY
360
FC1
102
}
330
2
100
AcDbSymbolTableRecord
100
AcDbLayerTableRecord
  2
leg fin
 70
     0
 62
     9
  6
Continuous
370
    -3
390
F
  0
LAYER
  5
91D
102
{ACAD_XDICTIONARY
360
FC3
102
}
330
2
100
AcDbSymbolTableRecord
100
AcDbLayerTableRecord
  2
cotas
 70
     0
 62
     1
  6
Continuous
370
    -3
390
F
  0
LAYER
  5
92F
330
2
100
AcDbSymbolTableRecord
100
AcDbLayerTableRecord
  2
Defpoints
 70
     0
 62
     7
  6
Continuous
290
     0
370
    -3
390
F
  0
LAYER
  5
BA5
102
{ACAD_XDICTIONARY
360
FC5
102
}
330
2
100
AcDbSymbolTableRecord
100
AcDbLayerTableRecord
  2
SANINDUSA
 70
     0
 62
     3
  6
Continuous
370
    -3
390
F
  0
ENDTAB
  0
TABLE
  2
STYLE
  5
3
330
0
100
AcDbSymbolTable
 70
     3
  0
STYLE
  5
11
330
3
100
AcDbSymbolTableRecord
100
AcDbTextStyleTableRecord
  2
Standard
 70
     0
 40
0.0
 41
1.0
 50
0.0
 71
     0
 42
2.5
  3
Avgardn.ttf
  4

1001
ACAD
1000
AvantGarde Bk BT
1071
       34
  0
STYLE
  5
2C
330
3
100
AcDbSymbolTableRecord
100
AcDbTextStyleTableRecord
  2

 70
     1
 40
0.0
 41
1.0
 50
0.0
 71
     0
 42
2.5
  3
ltypeshp.shx
  4

  0
STYLE
  5
91F
330
3
100
AcDbSymbolTableRecord
100
AcDbTextStyleTableRecord
  2
SANINDUSA
 70
     0
 40
0.0
 41
1.0
 50
0.0
 71
     0
 42
2.5
  3
verdana.TTF
  4

1001
ACAD
1000
Verdana
1071
       34
  0
ENDTAB
  0
TABLE
  2
VIEW
  5
6
330
0
100
AcDbSymbolTable
 70
     0
  0
ENDTAB
  0
TABLE
  2
UCS
  5
7
330
0
100
AcDbSymbolTable
 70
     0
  0
ENDTAB
  0
TABLE
  2
APPID
  5
9
330
0
100
AcDbSymbolTable
 70
     8
  0
APPID
  5
12
330
9
100
AcDbSymbolTableRecord
100
AcDbRegAppTableRecord
  2
ACAD
 70
     0
  0
APPID
  5
3A
330
9
100
AcDbSymbolTableRecord
100
AcDbRegAppTableRecord
  2
DCO15
 70
     0
  0
APPID
  5
C6C
330
9
100
AcDbSymbolTableRecord
100
AcDbRegAppTableRecord
  2
ACAD_DSTYLE_DIMEXT_LENGTH
 70
     0
  0
APPID
  5
C6D
330
9
100
AcDbSymbolTableRecord
100
AcDbRegAppTableRecord
  2
ACAD_DSTYLE_DIMEXT_ENABLED
 70
     0
  0
APPID
  5
C6E
330
9
100
AcDbSymbolTableRecord
100
AcDbRegAppTableRecord
  2
ACAD_DSTYLE_DIMJOGGED_JOGANGLE_SYMBOL
 70
     0
  0
APPID
  5
C6F
330
9
100
AcDbSymbolTableRecord
100
AcDbRegAppTableRecord
  2
ACAD_DSTYLE_DIMARC_LENGTH_SYMBOL
 70
     0
  0
APPID
  5
F4A
330
9
100
AcDbSymbolTableRecord
100
AcDbRegAppTableRecord
  2
ACAD_EXEMPT_FROM_CAD_STANDARDS
 70
     0
  0
APPID
  5
1010
330
9
100
AcDbSymbolTableRecord
100
AcDbRegAppTableRecord
  2
ACAD_MLEADERVER
 70
     0
  0
ENDTAB
  0
TABLE
  2
DIMSTYLE
  5
A
330
0
100
AcDbSymbolTable
 70
     2
100
AcDbDimStyleTable
 71
     1
340
921
  0
DIMSTYLE
105
45
330
A
100
AcDbSymbolTableRecord
100
AcDbDimStyleTableRecord
  2
STANDARD
 70
     0
289
     0
340
11
  0
DIMSTYLE
105
921
330
A
100
AcDbSymbolTableRecord
100
AcDbDimStyleTableRecord
  2
SANINDUSA
 70
     0
 41
2.0
 42
1.0
 43
1.0
 44
1.0
 73
     0
 74
     0
 77
     1
 78
     8
140
2.0
141
0.0
143
0.03937007874016
147
1.0
171
     3
172
     1
176
   256
177
   256
178
   256
179
     1
271
     1
272
     1
274
     3
278
    44
283
     0
284
     8
340
91F
371
    -1
372
    -1
  0
ENDTAB
  0
TABLE
  2
BLOCK_RECORD
  5
1
330
0
100
AcDbSymbolTable
 70
    38
  0
BLOCK_RECORD
  5
1F
330
1
100
AcDbSymbolTableRecord
100
AcDbBlockTableRecord
  2
*Model_Space
340
22
  0
BLOCK_RECORD
  5
1B
330
1
100
AcDbSymbolTableRecord
100
AcDbBlockTableRecord
  2
*Paper_Space
340
1E
  0
BLOCK_RECORD
  5
23
330
1
100
AcDbSymbolTableRecord
100
AcDbBlockTableRecord
  2
*Paper_Space0
340
26
  0
BLOCK_RECORD
  5
919
330
1
100
AcDbSymbolTableRecord
100
AcDbBlockTableRecord
  2
_DotSmall
340
0
  0
BLOCK_RECORD
  5
922
330
1
100
AcDbSymbolTableRecord
100
AcDbBlockTableRecord
  2
base para cotas
340
0
310
2800000020000000200000000100080000000000000400000000000000000000000000000000000000000000000080000080000000808000800000008000800080800000C0C0C000C0DCC000F0CAA6000020400000206000002080000020A0000020C0000020E00000400000004020000040400000406000004080000040A0
310
000040C0000040E00000600000006020000060400000606000006080000060A0000060C0000060E00000800000008020000080400000806000008080000080A0000080C0000080E00000A0000000A0200000A0400000A0600000A0800000A0A00000A0C00000A0E00000C0000000C0200000C0400000C0600000C0800000C0
310
A00000C0C00000C0E00000E0000000E0200000E0400000E0600000E0800000E0A00000E0C00000E0E00040000000400020004000400040006000400080004000A0004000C0004000E00040200000402020004020400040206000402080004020A0004020C0004020E000404000004040200040404000404060004040800040
310
40A0004040C0004040E00040600000406020004060400040606000406080004060A0004060C0004060E00040800000408020004080400040806000408080004080A0004080C0004080E00040A0000040A0200040A0400040A0600040A0800040A0A00040A0C00040A0E00040C0000040C0200040C0400040C0600040C08000
310
40C0A00040C0C00040C0E00040E0000040E0200040E0400040E0600040E0800040E0A00040E0C00040E0E00080000000800020008000400080006000800080008000A0008000C0008000E00080200000802020008020400080206000802080008020A0008020C0008020E00080400000804020008040400080406000804080
310
008040A0008040C0008040E00080600000806020008060400080606000806080008060A0008060C0008060E00080800000808020008080400080806000808080008080A0008080C0008080E00080A0000080A0200080A0400080A0600080A0800080A0A00080A0C00080A0E00080C0000080C0200080C0400080C0600080C0
310
800080C0A00080C0C00080C0E00080E0000080E0200080E0400080E0600080E0800080E0A00080E0C00080E0E000C0000000C0002000C0004000C0006000C0008000C000A000C000C000C000E000C0200000C0202000C0204000C0206000C0208000C020A000C020C000C020E000C0400000C0402000C0404000C0406000C0
310
408000C040A000C040C000C040E000C0600000C0602000C0604000C0606000C0608000C060A000C060C000C060E000C0800000C0802000C0804000C0806000C0808000C080A000C080C000C080E000C0A00000C0A02000C0A04000C0A06000C0A08000C0A0A000C0A0C000C0A0E000C0C00000C0C02000C0C04000C0C06000
310
C0C08000C0C0A000F0FBFF00A4A0A000808080000000FF0000FF000000FFFF00FF000000FF00FF00FFFF0000FFFFFF00A4A4A4A4A4A4A4A4A4A4A4A4A4A4A4A4A4A4A4A4A4A4A4A4A4A4A4A4A4A4A4A4A4A4A4A4A4A4A4A4A4A4A4A4A4A4A4A4A4A4A4A4A4A4A4A4A4A4A4A4A4A4A4A4A4A4A4A4A4A4A4A4A4A4A4A4A4A4A4
310
A4A4A4A4A4A4A4A4A4A4A4A4A4A4A4A4A4A4A4A4A4A4A4A4A4A4A4A4A4A4A4A4A4A4A4A4A4A4A4A4A4A4A4A4A4A4A4A4A4A4A4A4A4A4A4A4A4A4A4A4A4A4A4A4A4A4A4A4A4A4A4A4A4A4A4A4A4A4A4A4A4A4A4A4A4A4A4A4A4A4A4A4A4A4A4A4A4A4A4A4A4A4A4A4A4A4A4A4A4A4A4A4A4A4A4A4A4A4A4A4A4A4A4A4A4A4A4
310
A4A4A4A4A4A4A4A4A4A4A4A4A4A4A4A4A4A4A4A4A4A4A4A4A4A4A4A4A4A4A4A4A4A4A4A4A4A4A4A4A4A4A4A4A4A4A4A4A4A4A4A4A4A4A4A4A4A4A4A4A4A4A4A4A4A4A4A4A4A4A4A4A4A4A4A4A4A4A4A4A4A4A4A4A4A4A4A4A4A4A4A4A4A4A4A4A4A4A4A4A4A4A4A4A4A4A4A4A4A4A4A4A4A4A4A4A4A4A4A4A4A4A4A4A4A4A4
310
A4A4A4A4A4A4A4A4A4A4A4A4A4A4A4A4A4A4A4A4A4A4A4A4A4A4A4A4A4A4A4A4A4A4A4A4A4A4A4A4A4A4A4A4A4A4A4A4A4A4A4A4A4A4A4A4A4A4A4A4A4A4A4A4A4A4A4A4A4A4A4A4A4A4A4A4A4A4A4A4A4A4A4A4A4A4A4A4A4A4A4A4A4A4A4A4A4A4A4A4A4A4A4A4A4A4A4A4A4A4A4A4A4A4A4A4F9F9F9F9F9F9F9F9F9F9F9
310
F9F9F9F9F9F9F9F9F9F9F9F9F9F9F9F9F9F9F9A4A4F9F9F9F9F9F9F9F9F9F9F9F9F9F9F9F9F9F9F9F9F9F9F9F9F9F9F9F9F9F9A4A4F9F9F9F9F9F9F9F9F9F9F9F9F9F9F9F9F9F9F9F9F9F9F9F9F9F9F9F9F9F9A4A4F9A4A4A4A4A4A4A4A4A4A4A4A4A4A4A4A4A4A4A4A4A4A4A4A4A4A4A4A4F9A4A4A4A4A4A4A4A4A4A4A4A4
310
A4A4A4A4A4A4A4A4A4A4A4A4A4A4A4A4A4A4A4A4A4A4A4A4A4A4A4A4A4A4A4A4A4A4A4A4A4A4A4A4A4A4A4A4A4A4A4A4A4A4A4A4A4A4A4A4A4A4A4A4A4A4A4A4A4A4A4A4A4A4A4A4A4A4A4A4A4A4A4A4A4A4A4A4A4A4A4A4A4A4A4A4A4A4A4A4A4A4A4A4A4A4A4A4A4A4A4A4A4A4A4A4A4A4A4A4A4A4A4A4A4A4A4A4A4A4A4
310
A4A4A4A4A4A4A4A4A4A4A4A4A4A4A4A4A4A4A4A4A4A4A4A4A4A4A4A4A4A4A4A4A4A4A4A4A4A4A4A4A4A4A4A4A4A4A4A4A4A4A4A4A4A4A4A4A4A4A4A4A4A4A4A4A4A4A4A4A4A4A4A4A4A4A4A4A4A4A4A4A4A4A4A4A4A4A4A4A4A4A4A4A4A4A4A4A4A4A4A4A4A4A4A4A4A4A4A4A4A4A4A4A4A4A4A4A4A4A4A4A4A4A4A4A4A4A4
310
A4A4A4A4A4A4A4A4A4A4A4A4A4A4A4A4A4A4A4A4A4A4A4A4A4A4A4A4A4A4A4A4A4A4A4A4A4A4A4A4A4A4A4A4A4A4A4A4A4A4A4A4A4A4A4A4A4A4A4A4A4A4A4A4A4A4A4A4A4A4A4A4A4A4A4A4A4A4A4A4A4A4A4A4A4A4A4A4A4A4A4A4A4A4A4A4A4A4A4A4A4A4A4A4A4A4A4A4A4A4A4A4A4A4A4A4A4A4A4A4A4A4A4A4A4A4A4
310
A4A4A4A4A4A4A4A4A4A4A4A4A4A4A4A4A4A4A4A4A4A4A4A4A4A4A4A4A4A4A4A4A4A4A4A4A4A4A4A4A4A4A4A4A4A4A4A4A4A4A4A4A4A4A4A4
1001
ACAD
1000
DesignCenter Data
1002
{
1070
     1
1070
     4
1002
}
  0
BLOCK_RECORD
  5
AA8
330
1
100
AcDbSymbolTableRecord
100
AcDbBlockTableRecord
  2
_CLOSED
340
0
  0
ENDTAB
  0
ENDSEC
  0
SECTION
  2
BLOCKS
  0
BLOCK
  5
20
330
1F
100
AcDbEntity
  8
0
100
AcDbBlockBegin
  2
*Model_Space
 70
     0
 10
0.0
 20
0.0
 30
0.0
  3
*Model_Space
  1

  0
ENDBLK
  5
21
330
1F
100
AcDbEntity
  8
0
100
AcDbBlockEnd
  0
BLOCK
  5
1C
330
1B
100
AcDbEntity
 67
     1
  8
0
100
AcDbBlockBegin
  2
*Paper_Space
 70
     0
 10
0.0
 20
0.0
 30
0.0
  3
*Paper_Space
  1

  0
ENDBLK
  5
1D
330
1B
100
AcDbEntity
 67
     1
  8
0
100
AcDbBlockEnd
  0
BLOCK
  5
24
330
23
100
AcDbEntity
 67
     1
  8
0
100
AcDbBlockBegin
  2
*Paper_Space0
 70
     0
 10
0.0
 20
0.0
 30
0.0
  3
*Paper_Space0
  1

  0
ENDBLK
  5
25
330
23
100
AcDbEntity
 67
     1
  8
0
100
AcDbBlockEnd
  0
BLOCK
  5
91B
330
919
100
AcDbEntity
  8
0
100
AcDbBlockBegin
  2
_DotSmall
 70
     0
 10
0.0
 20
0.0
 30
0.0
  3
_DotSmall
  1

  0
LWPOLYLINE
  5
91A
330
919
100
AcDbEntity
  8
0
  6
ByBlock
 62
     0
100
AcDbPolyline
 90
        2
 70
     1
 43
0.5
 10
-0.0625
 20
0.0
 42
1.0
 10
0.0625
 20
0.0
 42
1.0
  0
ENDBLK
  5
91C
330
919
100
AcDbEntity
  8
0
100
AcDbBlockEnd
  0
BLOCK
  5
92A
330
922
100
AcDbEntity
  8
0
100
AcDbBlockBegin
  2
base para cotas
 70
     0
 10
0.0
 20
0.0
 30
0.0
  3
base para cotas
  1

  0
LINE
  5
B36
330
922
100
AcDbEntity
  8
cotas
100
AcDbLine
 10
0.0
 20
-30.0
 30
0.0
 11
327.1260136525398
 21
-30.0
 31
0.0
  0
LINE
  5
B37
330
922
100
AcDbEntity
  8
cotas
100
AcDbLine
 10
0.0
 20
-25.0
 30
0.0
 11
327.1260136525398
 21
-25.0
 31
0.0
  0
LINE
  5
B38
330
922
100
AcDbEntity
  8
cotas
100
AcDbLine
 10
0.0
 20
-20.0
 30
0.0
 11
327.1260136525398
 21
-20.0
 31
0.0
  0
LINE
  5
B39
330
922
100
AcDbEntity
  8
cotas
100
AcDbLine
 10
0.0
 20
-15.0
 30
0.0
 11
327.1260136525398
 21
-15.0
 31
0.0
  0
LINE
  5
B3A
330
922
100
AcDbEntity
  8
cotas
100
AcDbLine
 10
0.0
 20
-10.0
 30
0.0
 11
327.1260136525398
 21
-10.0
 31
0.0
  0
LINE
  5
B3B
330
922
100
AcDbEntity
  8
cotas
100
AcDbLine
 10
0.0
 20
0.0
 30
0.0
 11
0.0
 21
-30.0
 31
0.0
  0
LINE
  5
B3C
330
922
100
AcDbEntity
  8
cotas
100
AcDbLine
 10
327.1260136525398
 20
-30.0
 30
0.0
 11
327.1260136525398
 21
0.0
 31
0.0
  0
ENDBLK
  5
92B
330
922
100
AcDbEntity
  8
0
100
AcDbBlockEnd
  0
BLOCK
  5
AAD
330
AA8
100
AcDbEntity
  8
0
100
AcDbBlockBegin
  2
_CLOSED
 70
     0
 10
0.0
 20
0.0
 30
0.0
  3
_CLOSED
  1

  0
LINE
  5
AA9
330
AA8
100
AcDbEntity
  8
0
100
AcDbLine
 10
-1.0
 20
0.166667
 30
0.0
 11
0.0
 21
0.0
 31
0.0
  0
LINE
  5
AAA
330
AA8
100
AcDbEntity
  8
0
100
AcDbLine
 10
0.0
 20
0.0
 30
0.0
 11
-1.0
 21
-0.166667
 31
0.0
  0
LINE
  5
AAB
330
AA8
100
AcDbEntity
  8
0
100
AcDbLine
 10
-1.0
 20
0.166667
 30
0.0
 11
-1.0
 21
-0.166667
 31
0.0
  0
LINE
  5
AAC
330
AA8
100
AcDbEntity
  8
0
100
AcDbLine
 10
0.0
 20
0.0
 30
0.0
 11
-1.0
 21
0.0
 31
0.0
  0
ENDBLK
  5
AAE
330
AA8
100
AcDbEntity
  8
0
100
AcDbBlockEnd
  0
ENDSEC
  0
SECTION
  2
ENTITIES
  0
LINE
  5
D35
330
1F
100
AcDbEntity
  8
SANINDUSA
100
AcDbLine
 10
740.0230919514735
 20
854.0717844364367
 30
0.0
 11
740.0230919514735
 21
854.0587844364367
 31
0.0
  0
LINE
  5
D36
330
1F
100
AcDbEntity
  8
SANINDUSA
100
AcDbLine
 10
740.4830919514736
 20
854.0587844364367
 30
0.0
 11
740.4830919514736
 21
854.0717844364367
 31
0.0
  0
ARC
  5
D37
330
1F
100
AcDbEntity
  8
SANINDUSA
100
AcDbCircle
 10
740.0250919514737
 20
854.0587844364367
 30
0.0
 40
0.0020000000000002
100
AcDbArc
 50
180.0
 51
270.0
  0
ARC
  5
D38
330
1F
100
AcDbEntity
  8
SANINDUSA
100
AcDbCircle
 10
740.4810919514736
 20
854.0587844364367
 30
0.0
 40
0.0020000000000002
100
AcDbArc
 50
270.0
 51
0.0
  0
ARC
  5
D39
330
1F
100
AcDbEntity
  8
SANINDUSA
100
AcDbCircle
 10
740.0362814767118
 20
854.0467844364366
 30
0.0
 40
0.01
100
AcDbArc
 50
12.17021716914319
 51
90.0
  0
ARC
  5
D3A
330
1F
100
AcDbEntity
  8
SANINDUSA
100
AcDbCircle
 10
740.4699024262354
 20
854.0467844364366
 30
0.0
 40
0.0100000000000001
100
AcDbArc
 50
90.0
 51
167.8297828308568
  0
LWPOLYLINE
  5
D3B
330
1F
100
AcDbEntity
  8
SANINDUSA
100
AcDbPolyline
 90
       30
 70
   128
 43
0.0
 10
740.0460567328184
 20
854.0488926034251
 10
740.0475556201181
 20
854.0427829537108
 10
740.049406017238
 20
854.0367229025561
 10
740.0516047596142
 20
854.0307228139072
 10
740.054148086941
 20
854.0247929491622
 10
740.0570316496001
 20
854.0189434496211
 10
740.0602505161006
 20
854.0131843191435
 10
740.0637991815119
 20
854.0075254070389
 10
740.0676715768792
 20
854.0019763912221
 10
740.071861079602
 20
853.9965467616628
 10
740.0763605247605
 20
853.9912458041557
 10
740.0811622173687
 20
853.9860825844391
 10
740.0862579455349
 20
853.981065932691
 10
740.0916389945057
 20
853.9762044284282
 10
740.0972961615694
 20
853.9715063858325
 10
740.1032197717951
 20
853.966979839533
 10
740.1093996945792
 20
853.9626325308638
 10
740.1158253609699
 20
853.958471894626
 10
740.1224857817429
 20
853.9545050463713
 10
740.1293695661953
 20
853.9507387702348
 10
740.1364649416258
 20
853.9471795073307
 10
740.1437597734685
 20
853.943833344738
 10
740.1512415860458
 20
853.9407060050894
 10
740.158897583904
 20
853.937802836786
 10
740.1667146736965
 20
853.935128804848
 10
740.174679486576
 20
853.932688482426
 10
740.1827784010582
 20
853.9304860429776
 10
740.1909975663169
 20
853.9285252531325
 10
740.1993229258722
 20
853.9268094662478
 10
740.20774024163
 20
853.9253416166761
  0
LWPOLYLINE
  5
D3C
330
1F
100
AcDbEntity
  8
SANINDUSA
100
AcDbPolyline
 90
       30
 70
   128
 43
0.0
 10
740.2984436613171
 20
853.9253416166761
 10
740.306860977075
 20
853.9268094662478
 10
740.3151863366304
 20
853.9285252531325
 10
740.3234055018891
 20
853.9304860429776
 10
740.3315044163711
 20
853.932688482426
 10
740.3394692292506
 20
853.935128804848
 10
740.3472863190431
 20
853.937802836786
 10
740.3549423169014
 20
853.9407060050894
 10
740.3624241294786
 20
853.943833344738
 10
740.3697189613214
 20
853.9471795073307
 10
740.3768143367519
 20
853.9507387702348
 10
740.3836981212042
 20
853.9545050463713
 10
740.3903585419773
 20
853.958471894626
 10
740.3967842083679
 20
853.9626325308638
 10
740.402964131152
 20
853.966979839533
 10
740.4088877413779
 20
853.9715063858325
 10
740.4145449084414
 20
853.9762044284282
 10
740.4199259574122
 20
853.981065932691
 10
740.4250216855785
 20
853.9860825844391
 10
740.4298233781868
 20
853.9912458041557
 10
740.4343228233452
 20
853.9965467616628
 10
740.438512326068
 20
854.0019763912221
 10
740.4423847214353
 20
854.0075254070389
 10
740.4459333868466
 20
854.0131843191435
 10
740.449152253347
 20
854.0189434496211
 10
740.4520358160062
 20
854.0247929491622
 10
740.4545791433329
 20
854.0307228139072
 10
740.4567778857092
 20
854.0367229025561
 10
740.458628282829
 20
854.0427829537108
 10
740.4601271701288
 20
854.0488926034251
  0
ARC
  5
D3D
330
1F
100
AcDbEntity
  8
SANINDUSA
100
AcDbCircle
 10
740.2061721238634
 20
853.9154653316119
 30
0.0
 40
0.0100000000000001
100
AcDbArc
 50
47.00000000236388
 51
80.97811149503437
  0
ARC
  5
D3E
330
1F
100
AcDbEntity
  8
SANINDUSA
100
AcDbCircle
 10
740.3000117790838
 20
853.9154653316119
 30
0.0
 40
0.0100000000000001
100
AcDbArc
 50
99.02188850496564
 51
132.9999999976361
  0
LINE
  5
D3F
330
1F
100
AcDbEntity
  8
SANINDUSA
100
AcDbLine
 10
740.212992107464
 20
853.9227788686281
 30
0.0
 11
740.2139571408144
 21
853.9218789604701
 31
0.0
  0
LINE
  5
D40
330
1F
100
AcDbEntity
  8
SANINDUSA
100
AcDbLine
 10
740.2922267621327
 20
853.9218789604701
 30
0.0
 11
740.2931917954832
 21
853.9227788686281
 31
0.0
  0
ARC
  5
D41
330
1F
100
AcDbEntity
  8
SANINDUSA
100
AcDbCircle
 10
740.2990467457333
 20
853.9145654234539
 30
0.0
 40
0.0100000000000002
100
AcDbArc
 50
132.9999999976361
 51
178.0000000027562
  0
ARC
  5
D42
330
1F
100
AcDbEntity
  8
SANINDUSA
100
AcDbCircle
 10
740.2071371572138
 20
853.9145654234539
 30
0.0
 40
0.0100000000000002
100
AcDbArc
 50
1.999999997243794
 51
47.00000000236388
  0
LINE
  5
D43
330
1F
100
AcDbEntity
  8
SANINDUSA
100
AcDbLine
 10
740.217131065484
 20
853.9149144184211
 30
0.0
 11
740.2180622236637
 21
853.8882495369399
 31
0.0
  0
LINE
  5
D44
330
1F
100
AcDbEntity
  8
SANINDUSA
100
AcDbLine
 10
740.2881216792835
 20
853.8882495369399
 30
0.0
 11
740.2890528374631
 21
853.9149144184211
 31
0.0
  0
ARC
  5
D45
330
1F
100
AcDbEntity
  8
SANINDUSA
100
AcDbCircle
 10
740.2190616144907
 20
853.8882844364366
 30
0.0
 40
0.0009999999999999
100
AcDbArc
 50
181.9999999972438
 51
270.0
  0
ARC
  5
D46
330
1F
100
AcDbEntity
  8
SANINDUSA
100
AcDbCircle
 10
740.2871222884564
 20
853.8882844364366
 30
0.0
 40
0.0009999999999999
100
AcDbArc
 50
270.0
 51
358.0000000027562
  0
LINE
  5
D48
330
1F
100
AcDbEntity
  8
SANINDUSA
100
AcDbLine
 10
740.0230919514735
 20
854.0717844364367
 30
0.0
 11
740.4830919514736
 21
854.0717844364367
 31
0.0
  0
LINE
  5
D49
330
1F
100
AcDbEntity
  8
SANINDUSA
100
AcDbLine
 10
740.4810919514736
 20
854.0567844364366
 30
0.0
 11
740.0250919514737
 21
854.0567844364366
 31
0.0
  0
LINE
  5
D4B
330
1F
100
AcDbEntity
  8
SANINDUSA
100
AcDbLine
 10
740.20774024163
 20
853.9253416166761
 30
0.0
 11
740.2984436613171
 21
853.9253416166761
 31
0.0
  0
LINE
  5
D50
330
1F
100
AcDbEntity
  8
SANINDUSA
100
AcDbLine
 10
740.2871222884564
 20
853.8872844364366
 30
0.0
 11
740.2190616144907
 21
853.8872844364366
 31
0.0
  0
CIRCLE
  5
D56
330
1F
100
AcDbEntity
  8
SANINDUSA
100
AcDbCircle
 10
738.9006947985937
 20
853.9943961522542
 30
0.0
 40
0.2300000000000002
  0
CIRCLE
  5
D58
330
1F
100
AcDbEntity
  8
SANINDUSA
100
AcDbCircle
 10
738.9006947985937
 20
853.9943961522542
 30
0.0
 40
0.2179814239699966
  0
CIRCLE
  5
D59
330
1F
100
AcDbEntity
  8
SANINDUSA
100
AcDbCircle
 10
738.9006947985937
 20
853.9943961522542
 30
0.0
 40
0.212018576030002
  0
CIRCLE
  5
D5B
330
1F
100
AcDbEntity
  8
SANINDUSA
100
AcDbCircle
 10
738.9006947985937
 20
853.9943961522542
 30
0.0
 40
0.2
  0
CIRCLE
  5
D5C
330
1F
100
AcDbEntity
  8
SANINDUSA
100
AcDbCircle
 10
738.9006947985937
 20
853.9943961522542
 30
0.0
 40
0.0370363756860978
  0
LWPOLYLINE
  5
D5D
330
1F
100
AcDbEntity
  8
SANINDUSA
100
AcDbPolyline
 90
       21
 70
   128
 43
0.0
 10
738.9006947985937
 20
854.1925504756896
 10
738.9020488771556
 20
854.1925297146576
 10
738.9055153914442
 20
854.1922715160463
 10
738.9084577371139
 20
854.1917293235156
 10
738.910566103814
 20
854.1909269828593
 10
738.9115777262101
 20
854.1899203304915
 10
738.911345851717
 20
854.1888122268629
 10
738.9098934593528
 20
854.1877412388428
 10
738.9074005641357
 20
854.1868524055029
 10
738.9041584480813
 20
854.1862703591108
 10
738.9018830102859
 20
854.18610085178
 10
738.8982224048345
 20
854.1861752767854
 10
738.8948406158898
 20
854.1866529900456
 10
738.8921171531523
 20
854.1874610758394
 10
738.8903544108993
 20
854.1884824761593
 10
738.8897483272158
 20
854.1895812637145
 10
738.8903750587819
 20
854.1906268630548
 10
738.8921825852992
 20
854.1915090340701
 10
738.8949726616655
 20
854.1921459195449
 10
738.8984016668912
 20
854.1924904062243
 10
738.9006947985937
 20
854.1925504756896
  0
CIRCLE
  5
D61
330
1F
100
AcDbEntity
  8
SANINDUSA
100
AcDbCircle
 10
738.9006947985937
 20
853.9943961522542
 30
0.0
 40
0.0225
  0
LINE
  5
D72
330
1F
100
AcDbEntity
  8
SANINDUSA
100
AcDbLine
 10
739.5953514508375
 20
853.8872844364366
 30
0.0
 11
739.5848211138546
 21
853.8872844364366
 31
0.0
  0
ARC
  5
D73
330
1F
100
AcDbEntity
  8
SANINDUSA
100
AcDbCircle
 10
739.5848211138546
 20
853.8882844364366
 30
0.0
 40
0.0009999999999999
100
AcDbArc
 50
181.9999999972438
 51
270.0
  0
LINE
  5
D74
330
1F
100
AcDbEntity
  8
SANINDUSA
100
AcDbLine
 10
739.5837781224884
 20
853.8894980930269
 30
0.0
 11
739.5838217230276
 21
853.8882495369399
 31
0.0
  0
ARC
  5
D75
330
1F
100
AcDbEntity
  8
SANINDUSA
100
AcDbCircle
 10
739.5787811683533
 20
853.8893235955434
 30
0.0
 40
0.0050000000000001
100
AcDbArc
 50
1.999999997243794
 51
82.32801598865412
  0
LWPOLYLINE
  5
D76
330
1F
100
AcDbEntity
  8
SANINDUSA
100
AcDbPolyline
 90
       19
 70
   128
 43
0.0
 10
739.3927385379564
 20
854.0528429346432
 10
739.3958266381777
 20
854.0398277780839
 10
739.3999731383861
 20
854.0270635272571
 10
739.4051322325914
 20
854.0146738749122
 10
739.4112581148036
 20
854.0027825137984
 10
739.418604024822
 20
853.9910725656847
 10
739.4268823761699
 20
853.97995443595
 10
739.4359267414721
 20
853.9694277230534
 10
739.4455706933533
 20
853.959492025454
 10
739.4577567620261
 20
853.9484194640763
 10
739.4707137987811
 20
853.938195230468
 10
739.4843454799569
 20
853.9288893439424
 10
739.4985554818923
 20
853.9205718238134
 10
739.5128497496988
 20
853.913485063008
 10
739.527639772713
 20
853.9073577538752
 10
739.5428230826829
 20
853.9022250219657
 10
739.5582972113568
 20
853.8981219928309
 10
739.573959690483
 20
853.8950837920214
 10
739.579448676389
 20
853.8942788385266
  0
ARC
  5
D77
330
1F
100
AcDbEntity
  8
SANINDUSA
100
AcDbCircle
 10
739.3878302175741
 20
854.0518898391477
 30
0.0
 40
0.0049999999999999
100
AcDbArc
 50
10.98891631433339
 51
64.43055508581372
  0
ARC
  5
D78
330
1F
100
AcDbEntity
  8
SANINDUSA
100
AcDbCircle
 10
739.3908514508375
 20
854.0582042789143
 30
0.0
 40
0.0020000000000001
100
AcDbArc
 50
180.0
 51
244.4305550858137
  0
LINE
  5
D79
330
1F
100
AcDbEntity
  8
SANINDUSA
100
AcDbLine
 10
739.3888514508375
 20
854.0582042789143
 30
0.0
 11
739.3888514508375
 21
854.0717844364367
 31
0.0
  0
LINE
  5
D7A
330
1F
100
AcDbEntity
  8
SANINDUSA
100
AcDbLine
 10
739.3888514508375
 20
854.0717844364367
 30
0.0
 11
739.3949071789275
 21
854.0717844364367
 31
0.0
  0
LINE
  5
D7E
330
1F
100
AcDbEntity
  8
SANINDUSA
100
AcDbLine
 10
739.4127957227475
 20
854.0717844364367
 30
0.0
 11
739.4188514508376
 21
854.0717844364367
 31
0.0
  0
LINE
  5
D84
330
1F
100
AcDbEntity
  8
SANINDUSA
100
AcDbLine
 10
739.8488514508374
 20
854.0717844364367
 30
0.0
 11
739.8488514508374
 21
854.0587844364367
 31
0.0
  0
ARC
  5
D85
330
1F
100
AcDbEntity
  8
SANINDUSA
100
AcDbCircle
 10
739.8468514508375
 20
854.0587844364367
 30
0.0
 40
0.0020000000000002
100
AcDbArc
 50
270.0
 51
0.0
  0
LINE
  5
D89
330
1F
100
AcDbEntity
  8
SANINDUSA
100
AcDbLine
 10
739.3949071789275
 20
854.0717844364367
 30
0.0
 11
739.4127957227475
 21
854.0717844364367
 31
0.0
  0
LINE
  5
D8A
330
1F
100
AcDbEntity
  8
SANINDUSA
100
AcDbLine
 10
739.8249071789275
 20
854.0717844364367
 30
0.0
 11
739.8427957227474
 21
854.0717844364367
 31
0.0
  0
ARC
  5
D8C
330
1F
100
AcDbEntity
  8
SANINDUSA
100
AcDbCircle
 10
739.8356619255992
 20
854.0467844364366
 30
0.0
 40
0.01
100
AcDbArc
 50
90.0
 51
167.8297828308568
  0
LWPOLYLINE
  5
D8E
330
1F
100
AcDbEntity
  8
SANINDUSA
100
AcDbPolyline
 90
       30
 70
   128
 43
0.0
 10
739.8258866694927
 20
854.0488926034251
 10
739.8243877821929
 20
854.0427829537108
 10
739.8225373850732
 20
854.0367229025561
 10
739.8203386426968
 20
854.0307228139072
 10
739.81779531537
 20
854.0247929491622
 10
739.8149117527109
 20
854.0189434496211
 10
739.8116928862106
 20
854.0131843191435
 10
739.8081442207992
 20
854.0075254070389
 10
739.8042718254319
 20
854.0019763912221
 10
739.8000823227091
 20
853.9965467616628
 10
739.7955828775507
 20
853.9912458041557
 10
739.7907811849425
 20
853.9860825844391
 10
739.7856854567761
 20
853.981065932691
 10
739.7803044078054
 20
853.9762044284282
 10
739.7746472407418
 20
853.9715063858325
 10
739.7687236305159
 20
853.966979839533
 10
739.7625437077319
 20
853.9626325308638
 10
739.7561180413411
 20
853.958471894626
 10
739.7494576205682
 20
853.9545050463713
 10
739.7425738361157
 20
853.9507387702348
 10
739.7354784606854
 20
853.9471795073307
 10
739.7281836288426
 20
853.943833344738
 10
739.7207018162653
 20
853.9407060050894
 10
739.7130458184071
 20
853.937802836786
 10
739.7052287286146
 20
853.935128804848
 10
739.697263915735
 20
853.932688482426
 10
739.6891650012529
 20
853.9304860429776
 10
739.6809458359943
 20
853.9285252531325
 10
739.6726204764389
 20
853.9268094662478
 10
739.6642031606811
 20
853.9253416166761
  0
LINE
  5
D9A
330
1F
100
AcDbEntity
  8
SANINDUSA
100
AcDbLine
 10
739.8188514508375
 20
854.0717844364367
 30
0.0
 11
739.4188514508376
 21
854.0717844364367
 31
0.0
  0
LINE
  5
D9B
330
1F
100
AcDbEntity
  8
SANINDUSA
100
AcDbLine
 10
739.6538811786473
 20
853.8882495369399
 30
0.0
 11
739.6548123368271
 21
853.9149144184211
 31
0.0
  0
ARC
  5
D9F
330
1F
100
AcDbEntity
  8
SANINDUSA
100
AcDbCircle
 10
739.6528817878203
 20
853.8882844364366
 30
0.0
 40
0.0010000000000001
100
AcDbArc
 50
270.0
 51
358.0000000027562
  0
ARC
  5
DA0
330
1F
100
AcDbEntity
  8
SANINDUSA
100
AcDbCircle
 10
739.6657712784477
 20
853.9154653316119
 30
0.0
 40
0.0100000000000001
100
AcDbArc
 50
99.02188850496564
 51
132.9999999976361
  0
LINE
  5
DA3
330
1F
100
AcDbEntity
  8
SANINDUSA
100
AcDbLine
 10
739.6589512948471
 20
853.9227788686281
 30
0.0
 11
739.6579862614967
 21
853.9218789604701
 31
0.0
  0
ARC
  5
DA4
330
1F
100
AcDbEntity
  8
SANINDUSA
100
AcDbCircle
 10
739.6648062450973
 20
853.9145654234539
 30
0.0
 40
0.0100000000000002
100
AcDbArc
 50
132.9999999976361
 51
178.0000000027562
  0
LINE
  5
DAE
330
1F
100
AcDbEntity
  8
SANINDUSA
100
AcDbLine
 10
739.6423514508374
 20
853.8872844364366
 30
0.0
 11
739.5953514508375
 21
853.8872844364366
 31
0.0
  0
LINE
  5
DB3
330
1F
100
AcDbEntity
  8
SANINDUSA
100
AcDbLine
 10
739.6528817878203
 20
853.8872844364366
 30
0.0
 11
739.6423514508374
 21
853.8872844364366
 31
0.0
  0
LINE
  5
DB4
330
1F
100
AcDbEntity
  8
SANINDUSA
100
AcDbLine
 10
739.8188514508375
 20
854.0717844364367
 30
0.0
 11
739.8249071789275
 21
854.0717844364367
 31
0.0
  0
LINE
  5
DB5
330
1F
100
AcDbEntity
  8
SANINDUSA
100
AcDbLine
 10
739.8468514508375
 20
854.0567844364366
 30
0.0
 11
739.8356619255992
 21
854.0567844364366
 31
0.0
  0
LINE
  5
DB6
330
1F
100
AcDbEntity
  8
SANINDUSA
100
AcDbLine
 10
739.8427957227474
 20
854.0717844364367
 30
0.0
 11
739.8488514508374
 21
854.0717844364367
 31
0.0
  0
LWPOLYLINE
  5
EF2
330
1F
100
AcDbEntity
  8
SANINDUSA
100
AcDbPolyline
 90
       27
 70
   128
 43
0.0
 10
740.8337073139232
 20
853.9248823295649
 10
740.8252950653664
 20
853.9262557606745
 10
740.8169689362952
 20
853.9278760581066
 10
740.8087430506675
 20
853.9297404732831
 10
740.8006313623937
 20
853.9318458435197
 10
740.792647631667
 20
853.9341885973895
 10
740.7848054016203
 20
853.9367647607818
 10
740.7771179753536
 20
853.9395699636443
 10
740.7695983933665
 20
853.9425994473951
 10
740.7622594114375
 20
853.9458480729951
 10
740.7551134789856
 20
853.9493103296665
 10
740.7481727179522
 20
853.9529803442395
 10
740.7414489022378
 20
853.9568518911165
 10
740.7349534377297
 20
853.960918402832
 10
740.7286973429533
 20
853.9651729811938
 10
740.7226912303813
 20
853.9696084089843
 10
740.7169452884316
 20
853.9742171622036
 10
740.7114692641832
 20
853.9789914228327
 10
740.7062724468434
 20
853.9839230920954
 10
740.7013636519884
 20
853.9890038041969
 10
740.6967512066104
 20
853.9942249405147
 10
740.6924429349917
 20
853.9995776442188
 10
740.6884461454318
 20
854.0050528352962
 10
740.6847676178505
 20
854.0106412259536
 10
740.6814135922866
 20
854.0163333363723
 10
740.6783897583125
 20
854.0221195107895
 10
740.6757012453831
 20
854.0279899338779
  0
ARC
  5
EF3
330
1F
100
AcDbEntity
  8
SANINDUSA
100
AcDbCircle
 10
740.669923338232
 20
854.0494860746903
 30
0.0
 40
0.0010000000000001
100
AcDbArc
 50
191.9662686919214
 51
294.0847513272227
  0
ARC
  5
EF5
330
1F
100
AcDbEntity
  8
SANINDUSA
100
AcDbCircle
 10
740.6766211353854
 20
854.028382110348
 30
0.0
 40
0.001
100
AcDbArc
 50
114.0847513272227
 51
203.089993690723
  0
ARC
  5
EF6
330
1F
100
AcDbEntity
  8
SANINDUSA
100
AcDbCircle
 10
740.8861278319774
 20
854.1055570082152
 30
0.0
 40
0.2147968325386609
100
AcDbArc
 50
194.2157353968815
 51
200.07427884017
  0
ARC
  5
EF7
330
1F
100
AcDbEntity
  8
SANINDUSA
100
AcDbCircle
 10
740.683460039668
 20
854.0314391160324
 30
0.0
 40
0.0010000000000001
100
AcDbArc
 50
23.04407990702241
 51
114.0847513272227
  0
ARC
  5
EF9
330
1F
100
AcDbEntity
  8
SANINDUSA
100
AcDbCircle
 10
740.6769270873565
 20
854.0526167663918
 30
0.0
 40
0.0010000000000001
100
AcDbArc
 50
294.0847513272227
 51
11.05820730355246
  0
LINE
  5
EFA
330
1F
100
AcDbEntity
  8
SANINDUSA
100
AcDbLine
 10
740.6762130478807
 20
854.0292950531657
 30
0.0
 11
740.6830519521633
 21
854.0323520588501
 31
0.0
  0
LINE
  5
EFB
330
1F
100
AcDbEntity
  8
SANINDUSA
100
AcDbLine
 10
740.6773351748612
 20
854.0517038235741
 30
0.0
 11
740.6703314257367
 21
854.0485731318725
 31
0.0
  0
LINE
  5
EFC
330
1F
100
AcDbEntity
  8
SANINDUSA
100
AcDbLine
 10
740.8535628436242
 20
853.8882844364366
 30
0.0
 11
740.8535628436242
 21
853.9018166385885
 31
0.0
  0
ARC
  5
EFD
330
1F
100
AcDbEntity
  8
SANINDUSA
100
AcDbCircle
 10
740.8525628436242
 20
853.8882844364366
 30
0.0
 40
0.0009999999999999
100
AcDbArc
 50
270.0
 51
0.0
  0
LINE
  5
EFE
330
1F
100
AcDbEntity
  8
SANINDUSA
100
AcDbLine
 10
740.8525628436242
 20
853.8872844364366
 30
0.0
 11
740.8420325066414
 21
853.8872844364366
 31
0.0
  0
ARC
  5
EFF
330
1F
100
AcDbEntity
  8
SANINDUSA
100
AcDbCircle
 10
740.8420325066414
 20
853.8882844364366
 30
0.0
 40
0.0009999999999999
100
AcDbArc
 50
181.9999999972438
 51
270.0
  0
LINE
  5
F00
330
1F
100
AcDbEntity
  8
SANINDUSA
100
AcDbLine
 10
740.840989515275
 20
853.8894980930269
 30
0.0
 11
740.8410331158144
 21
853.8882495369399
 31
0.0
  0
ARC
  5
F01
330
1F
100
AcDbEntity
  8
SANINDUSA
100
AcDbCircle
 10
740.8359925611399
 20
853.8893235955434
 30
0.0
 40
0.0050000000000001
100
AcDbArc
 50
1.999999997243794
 51
82.32801598865412
  0
LWPOLYLINE
  5
F02
330
1F
100
AcDbEntity
  8
SANINDUSA
100
AcDbPolyline
 90
       19
 70
   128
 43
0.0
 10
740.6499499307432
 20
854.0528429346432
 10
740.6530380309643
 20
854.0398277780839
 10
740.6571845311727
 20
854.0270635272571
 10
740.6623436253782
 20
854.0146738749122
 10
740.6684695075901
 20
854.0027825137984
 10
740.6758154176086
 20
853.9910725656847
 10
740.6840937689565
 20
853.97995443595
 10
740.6931381342587
 20
853.9694277230534
 10
740.70278208614
 20
853.959492025454
 10
740.7149681548128
 20
853.9484194640763
 10
740.7279251915678
 20
853.938195230468
 10
740.7415568727437
 20
853.9288893439424
 10
740.7557668746791
 20
853.9205718238134
 10
740.7700611424855
 20
853.913485063008
 10
740.7848511654997
 20
853.9073577538752
 10
740.8000344754696
 20
853.9022250219657
 10
740.8155086041436
 20
853.8981219928309
 10
740.8311710832696
 20
853.8950837920214
 10
740.8366600691756
 20
853.8942788385266
  0
ARC
  5
F03
330
1F
100
AcDbEntity
  8
SANINDUSA
100
AcDbCircle
 10
740.6450416103607
 20
854.0518898391477
 30
0.0
 40
0.0049999999999999
100
AcDbArc
 50
10.98891631433339
 51
64.43055508581372
  0
ARC
  5
F04
330
1F
100
AcDbEntity
  8
SANINDUSA
100
AcDbCircle
 10
740.6480628436241
 20
854.0582042789143
 30
0.0
 40
0.0020000000000001
100
AcDbArc
 50
180.0
 51
244.4305550858137
  0
LINE
  5
F05
330
1F
100
AcDbEntity
  8
SANINDUSA
100
AcDbLine
 10
740.6460628436242
 20
854.0582042789143
 30
0.0
 11
740.6460628436242
 21
854.0717844364367
 31
0.0
  0
LINE
  5
F06
330
1F
100
AcDbEntity
  8
SANINDUSA
100
AcDbLine
 10
740.6460628436242
 20
854.0717844364367
 30
0.0
 11
740.6521185717142
 21
854.0717844364367
 31
0.0
  0
ARC
  5
F07
330
1F
100
AcDbEntity
  8
SANINDUSA
100
AcDbCircle
 10
740.6521185717142
 20
854.0637844364367
 30
0.0
 40
0.0080000000000018
100
AcDbArc
 50
41.81031489537559
 51
90.0
  0
ARC
  5
F08
330
1F
100
AcDbEntity
  8
SANINDUSA
100
AcDbCircle
 10
740.6610628436242
 20
854.0717844364367
 30
0.0
 40
0.0039999999999987
100
AcDbArc
 50
221.8103148953756
 51
318.1896851046244
  0
ARC
  5
F09
330
1F
100
AcDbEntity
  8
SANINDUSA
100
AcDbCircle
 10
740.6700071155341
 20
854.0637844364367
 30
0.0
 40
0.0080000000000012
100
AcDbArc
 50
90.0
 51
138.1896851046244
  0
LINE
  5
F0A
330
1F
100
AcDbEntity
  8
SANINDUSA
100
AcDbLine
 10
740.6700071155341
 20
854.0717844364367
 30
0.0
 11
740.6760628436241
 21
854.0717844364367
 31
0.0
  0
ARC
  5
F0B
330
1F
100
AcDbEntity
  8
SANINDUSA
100
AcDbCircle
 10
740.7750547336863
 20
854.0718351347944
 30
0.0
 40
0.0989919030445772
100
AcDbArc
 50
180.0293438390767
 51
191.0813894453032
  0
LWPOLYLINE
  5
F0C
330
1F
100
AcDbEntity
  8
SANINDUSA
100
AcDbPolyline
 90
       23
 70
   128
 43
0.0
 10
740.6689450683985
 20
854.0492787388929
 10
740.6682183288547
 20
854.0530256223968
 10
740.6677572406948
 20
854.0559406692961
 42
0.3689774521112025
 10
740.6667695204442
 20
854.0567844364366
 10
740.6594486786519
 20
854.0567844364366
 42
0.471989821265753
 10
740.6584672763858
 20
854.0555924739612
 10
740.6607695122745
 20
854.0438223636114
 10
740.6644354446537
 20
854.0311898452623
 10
740.6692004141245
 20
854.0189590865631
 10
740.675036305922
 20
854.0072029942344
 10
740.6819069798979
 20
853.9959927831501
 10
740.6897817470778
 20
853.9854008487782
 10
740.7000677838325
 20
853.9737201678573
 10
740.7110443359172
 20
853.9628322123524
 10
740.7226594325426
 20
853.9527559693238
 10
740.7348661182252
 20
853.9435119527933
 10
740.747884351744
 20
853.9349591912786
 10
740.7614213842268
 20
853.9273169694915
 10
740.7754278965319
 20
853.9206069355689
 10
740.7898545751794
 20
853.9148507336946
 10
740.8046521090625
 20
853.9100700440895
 10
740.819771254566
 20
853.9062875717339
 10
740.8525628436242
 20
853.9028166385886
  0
ARC
  5
F0D
330
1F
100
AcDbEntity
  8
SANINDUSA
100
AcDbCircle
 10
740.8525628436242
 20
853.9018166385885
 30
0.0
 40
0.0010000000000001
100
AcDbArc
 50
0.0
 51
90.0
  0
LINE
  5
F0F
330
1F
100
AcDbEntity
  8
SANINDUSA
100
AcDbLine
 10
741.1060628436242
 20
854.0717844364367
 30
0.0
 11
741.1060628436242
 21
854.0587844364367
 31
0.0
  0
ARC
  5
F10
330
1F
100
AcDbEntity
  8
SANINDUSA
100
AcDbCircle
 10
741.1040628436242
 20
854.0587844364367
 30
0.0
 40
0.0020000000000002
100
AcDbArc
 50
270.0
 51
0.0
  0
ARC
  5
F13
330
1F
100
AcDbEntity
  8
SANINDUSA
100
AcDbCircle
 10
741.1000071155342
 20
854.0637844364367
 30
0.0
 40
0.008000000000002
100
AcDbArc
 50
90.0
 51
138.1896851046244
  0
LINE
  5
F14
330
1F
100
AcDbEntity
  8
SANINDUSA
100
AcDbLine
 10
740.6521185717142
 20
854.0717844364367
 30
0.0
 11
740.6700071155341
 21
854.0717844364367
 31
0.0
  0
LINE
  5
F15
330
1F
100
AcDbEntity
  8
SANINDUSA
100
AcDbLine
 10
741.0821185717142
 20
854.0717844364367
 30
0.0
 11
741.1000071155342
 21
854.0717844364367
 31
0.0
  0
ARC
  5
F16
330
1F
100
AcDbEntity
  8
SANINDUSA
100
AcDbCircle
 10
741.0910628436242
 20
854.0717844364367
 30
0.0
 40
0.0039999999999989
100
AcDbArc
 50
221.8103148953756
 51
318.1896851046244
  0
ARC
  5
F17
330
1F
100
AcDbEntity
  8
SANINDUSA
100
AcDbCircle
 10
741.092873318386
 20
854.0467844364366
 30
0.0
 40
0.01
100
AcDbArc
 50
90.0
 51
167.8297828308568
  0
ARC
  5
F18
330
1F
100
AcDbEntity
  8
SANINDUSA
100
AcDbCircle
 10
741.0821185717142
 20
854.0637844364367
 30
0.0
 40
0.008000000000001
100
AcDbArc
 50
41.81031489537559
 51
90.0
  0
LWPOLYLINE
  5
F19
330
1F
100
AcDbEntity
  8
SANINDUSA
100
AcDbPolyline
 90
       30
 70
   128
 43
0.0
 10
741.0830980622794
 20
854.0488926034251
 10
741.0815991749797
 20
854.0427829537108
 10
741.0797487778599
 20
854.0367229025561
 10
741.0775500354835
 20
854.0307228139072
 10
741.0750067081568
 20
854.0247929491622
 10
741.0721231454977
 20
854.0189434496211
 10
741.0689042789972
 20
854.0131843191435
 10
741.0653556135859
 20
854.0075254070389
 10
741.0614832182186
 20
854.0019763912221
 10
741.0572937154958
 20
853.9965467616628
 10
741.0527942703374
 20
853.9912458041557
 10
741.0479925777291
 20
853.9860825844391
 10
741.0428968495629
 20
853.981065932691
 10
741.0375158005921
 20
853.9762044284282
 10
741.0318586335285
 20
853.9715063858325
 10
741.0259350233027
 20
853.966979839533
 10
741.0197551005186
 20
853.9626325308638
 10
741.0133294341279
 20
853.958471894626
 10
741.0066690133549
 20
853.9545050463713
 10
740.9997852289024
 20
853.9507387702348
 10
740.992689853472
 20
853.9471795073307
 10
740.9853950216293
 20
853.943833344738
 10
740.9779132090521
 20
853.9407060050894
 10
740.9702572111938
 20
853.937802836786
 10
740.9624401214013
 20
853.935128804848
 10
740.9544753085217
 20
853.932688482426
 10
740.9463763940395
 20
853.9304860429776
 10
740.9381572287809
 20
853.9285252531325
 10
740.9298318692256
 20
853.9268094662478
 10
740.9214145534678
 20
853.9253416166761
  0
LWPOLYLINE
  5
F1A
330
1F
100
AcDbEntity
  8
SANINDUSA
100
AcDbPolyline
 90
       27
 70
   128
 43
0.0
 10
740.6843802436442
 20
854.031830555226
 10
740.686953649938
 20
854.0262160339736
 10
740.68986251119
 20
854.0206823451031
 10
740.6931016674609
 20
854.0152393046541
 10
740.6966653729117
 20
854.0098965678682
 10
740.7005473059951
 20
854.0046636120607
 10
740.7047405806703
 20
853.9995497198107
 10
740.7092377586165
 20
853.9945639624939
 10
740.7140308624287
 20
853.9897151841907
 10
740.719111389768
 20
853.9850119859993
 10
740.7244703284442
 20
853.9804627107779
 10
740.730098172401
 20
853.9760754283452
 10
740.7359849385803
 20
853.9718579211664
 10
740.7421201846291
 20
853.9678176705464
 10
740.7484930274239
 20
853.9639618433618
 10
740.7550921623759
 20
853.9602972793449
 10
740.7619058834832
 20
853.9568304789529
 10
740.7689221040965
 20
853.9535675918356
 10
740.7761283783586
 20
853.9505144059281
 10
740.7835119232823
 20
853.9476763371824
 10
740.7910596414252
 20
853.945058419961
 10
740.7987581441232
 20
853.9426652981061
 10
740.8065937752402
 20
853.9405012167033
 10
740.8145526353921
 20
853.9385700145492
 10
740.8226206066027
 20
853.9368751173439
 10
740.830783377347
 20
853.9354195316134
 10
740.8390264679382
 20
853.9342058393756
  0
ARC
  5
F1B
330
1F
100
AcDbEntity
  8
SANINDUSA
100
AcDbCircle
 10
740.8377187085881
 20
853.9242917198746
 30
0.0
 40
0.0100000000000002
100
AcDbArc
 50
50.00000000237776
 51
82.48556708220476
  0
LINE
  5
F1C
330
1F
100
AcDbEntity
  8
SANINDUSA
100
AcDbLine
 10
740.8517767816727
 20
853.9255496688275
 30
0.0
 11
740.8441465846849
 21
853.9319521643058
 31
0.0
  0
ARC
  5
F1D
330
1F
100
AcDbEntity
  8
SANINDUSA
100
AcDbCircle
 10
740.8485628436242
 20
853.921719446612
 30
0.0
 40
0.0050000000000001
100
AcDbArc
 50
0.0
 51
50.00000000237776
  0
LINE
  5
F1E
330
1F
100
AcDbEntity
  8
SANINDUSA
100
AcDbLine
 10
740.8535628436242
 20
853.9150509849028
 30
0.0
 11
740.8535628436242
 21
853.921719446612
 31
0.0
  0
ARC
  5
F1F
330
1F
100
AcDbEntity
  8
SANINDUSA
100
AcDbCircle
 10
740.8525628436242
 20
853.9150509849028
 30
0.0
 40
0.0009999999999999
100
AcDbArc
 50
270.0
 51
0.0
  0
LINE
  5
F20
330
1F
100
AcDbEntity
  8
SANINDUSA
100
AcDbLine
 10
740.8401321093975
 20
853.9140509849026
 30
0.0
 11
740.8525628436242
 21
853.9140509849026
 31
0.0
  0
LINE
  5
F21
330
1F
100
AcDbEntity
  8
SANINDUSA
100
AcDbLine
 10
740.8399573991861
 20
853.9190540307675
 30
0.0
 11
740.8401321093975
 21
853.9140509849026
 31
0.0
  0
LINE
  5
F22
330
1F
100
AcDbEntity
  8
SANINDUSA
100
AcDbLine
 10
740.8399573991861
 20
853.9190540307675
 30
0.0
 11
740.8337073139232
 21
853.9248823295649
 31
0.0
  0
LWPOLYLINE
  5
F23
330
1F
100
AcDbEntity
  8
SANINDUSA
100
AcDbPolyline
 90
       34
 70
   128
 43
0.0
 10
740.9130992193103
 20
853.9342058393756
 10
740.9213102245481
 20
853.9354143131891
 10
740.9294415932266
 20
853.9368628019426
 10
740.9374790139267
 20
853.9385487562588
 10
740.9454083405801
 20
853.9404692088146
 10
740.9532156173672
 20
853.9426207795635
 10
740.9608871032793
 20
853.9449996816857
 10
740.9684092963028
 20
853.947601728252
 10
740.9757689571837
 20
853.9504223395931
 10
740.9829531327286
 20
853.9534565513603
 10
740.9899491786031
 20
853.9566990232625
 10
740.9967447815857
 20
853.960144048465
 10
741.0033279812393
 20
853.963785563635
 10
741.0096871909626
 20
853.9676171596113
 10
741.0158112183823
 20
853.9716320926862
 10
741.0216892850518
 20
853.9758232964736
 10
741.0273110454218
 20
853.9801833943467
 10
741.032666605049
 20
853.9847047124204
 10
741.0377465380101
 20
853.9893792930584
 10
741.0425419034916
 20
853.9941989088777
 10
741.0470442615264
 20
853.9991550772301
 10
741.0512456878483
 20
854.0042390751311
 10
741.0551387878382
 20
854.0094419546132
 10
741.0587167095396
 20
854.0147545584741
 10
741.0619731557178
 20
854.0201675363936
 10
741.0649023949436
 20
854.0256713613908
 10
741.0674992716799
 20
854.0312563465915
 10
741.0697592153569
 20
854.0369126622774
 10
741.0716782484151
 20
854.0426303531868
 10
741.0732529933071
 20
854.0483993560357
 10
741.0744806784407
 20
854.0542095172307
 10
741.0753591430586
 20
854.0600506107374
 10
741.0758868410406
 20
854.0659123560804
 10
741.0760628436242
 20
854.0717844364367
  0
LINE
  5
F24
330
1F
100
AcDbEntity
  8
SANINDUSA
100
AcDbLine
 10
740.8390264679382
 20
853.9342058393756
 30
0.0
 11
740.9130992193103
 21
853.9342058393756
 31
0.0
  0
LINE
  5
F25
330
1F
100
AcDbEntity
  8
SANINDUSA
100
AcDbLine
 10
741.0760628436242
 20
854.0717844364367
 30
0.0
 11
740.6760628436241
 21
854.0717844364367
 31
0.0
  0
LINE
  5
F26
330
1F
100
AcDbEntity
  8
SANINDUSA
100
AcDbLine
 10
740.911092571434
 20
853.8882495369399
 30
0.0
 11
740.9120237296138
 21
853.9149144184211
 31
0.0
  0
ARC
  5
F28
330
1F
100
AcDbEntity
  8
SANINDUSA
100
AcDbCircle
 10
740.9144069786604
 20
853.9242917198746
 30
0.0
 40
0.0100000000000001
100
AcDbArc
 50
97.51443291779523
 51
129.9999999976222
  0
ARC
  5
F2A
330
1F
100
AcDbEntity
  8
SANINDUSA
100
AcDbCircle
 10
740.910093180607
 20
853.8882844364366
 30
0.0
 40
0.0010000000000001
100
AcDbArc
 50
270.0
 51
358.0000000027562
  0
ARC
  5
F2B
330
1F
100
AcDbEntity
  8
SANINDUSA
100
AcDbCircle
 10
740.9229826712344
 20
853.9154653316119
 30
0.0
 40
0.0100000000000001
100
AcDbArc
 50
99.02188850496564
 51
132.9999999976361
  0
LINE
  5
F2C
330
1F
100
AcDbEntity
  8
SANINDUSA
100
AcDbLine
 10
740.9079791025635
 20
853.9319521643058
 30
0.0
 11
740.9003489055757
 21
853.9255496688275
 31
0.0
  0
LINE
  5
F2E
330
1F
100
AcDbEntity
  8
SANINDUSA
100
AcDbLine
 10
740.9161626876338
 20
853.9227788686281
 30
0.0
 11
740.9151976542833
 21
853.9218789604701
 31
0.0
  0
ARC
  5
F2F
330
1F
100
AcDbEntity
  8
SANINDUSA
100
AcDbCircle
 10
740.9220176378839
 20
853.9145654234539
 30
0.0
 40
0.0100000000000002
100
AcDbArc
 50
132.9999999976361
 51
178.0000000027562
  0
ARC
  5
F33
330
1F
100
AcDbEntity
  8
SANINDUSA
100
AcDbCircle
 10
740.9035628436242
 20
853.921719446612
 30
0.0
 40
0.0050000000000003
100
AcDbArc
 50
129.9999999976222
 51
180.0
  0
ARC
  5
F38
330
1F
100
AcDbEntity
  8
SANINDUSA
100
AcDbCircle
 10
740.8995628436242
 20
853.8882844364366
 30
0.0
 40
0.0009999999999999
100
AcDbArc
 50
180.0
 51
270.0
  0
LINE
  5
F39
330
1F
100
AcDbEntity
  8
SANINDUSA
100
AcDbLine
 10
740.8995628436242
 20
853.8872844364366
 30
0.0
 11
740.8525628436242
 21
853.8872844364366
 31
0.0
  0
LINE
  5
F3D
330
1F
100
AcDbEntity
  8
SANINDUSA
100
AcDbLine
 10
740.8985628436242
 20
853.921719446612
 30
0.0
 11
740.8985628436242
 21
853.8882844364366
 31
0.0
  0
LINE
  5
F3E
330
1F
100
AcDbEntity
  8
SANINDUSA
100
AcDbLine
 10
740.910093180607
 20
853.8872844364366
 30
0.0
 11
740.8995628436242
 21
853.8872844364366
 31
0.0
  0
LINE
  5
F3F
330
1F
100
AcDbEntity
  8
SANINDUSA
100
AcDbLine
 10
741.0760628436242
 20
854.0717844364367
 30
0.0
 11
741.0821185717142
 21
854.0717844364367
 31
0.0
  0
LINE
  5
F40
330
1F
100
AcDbEntity
  8
SANINDUSA
100
AcDbLine
 10
741.1040628436242
 20
854.0567844364366
 30
0.0
 11
741.092873318386
 21
854.0567844364366
 31
0.0
  0
LINE
  5
F41
330
1F
100
AcDbEntity
  8
SANINDUSA
100
AcDbLine
 10
741.1000071155342
 20
854.0717844364367
 30
0.0
 11
741.1060628436242
 21
854.0717844364367
 31
0.0
  0
LINE
  5
F50
330
1F
100
AcDbEntity
  8
SANINDUSA
100
AcDbLine
 10
739.8356619255992
 20
854.0567844364366
 30
0.0
 11
739.3894428886847
 21
854.0567844364366
 31
0.0
  0
LWPOLYLINE
  5
F55
330
1F
100
AcDbEntity
  8
SANINDUSA
100
AcDbPolyline
 90
       30
 70
   128
 43
0.0
 10
739.4118162321823
 20
854.0488926034251
 10
739.4133151194822
 20
854.0427829537108
 10
739.4151655166019
 20
854.0367229025561
 10
739.4173642589783
 20
854.0307228139072
 10
739.419907586305
 20
854.0247929491622
 10
739.4227911489641
 20
854.0189434496211
 10
739.4260100154645
 20
854.0131843191435
 10
739.4295586808758
 20
854.0075254070389
 10
739.4334310762431
 20
854.0019763912221
 10
739.4376205789659
 20
853.9965467616628
 10
739.4421200241244
 20
853.9912458041557
 10
739.4469217167326
 20
853.9860825844391
 10
739.4520174448989
 20
853.981065932691
 10
739.4573984938696
 20
853.9762044284282
 10
739.4630556609333
 20
853.9715063858325
 10
739.4689792711591
 20
853.966979839533
 10
739.4751591939431
 20
853.9626325308638
 10
739.4815848603338
 20
853.958471894626
 10
739.4882452811068
 20
853.9545050463713
 10
739.4951290655592
 20
853.9507387702348
 10
739.5022244409897
 20
853.9471795073307
 10
739.5095192728324
 20
853.943833344738
 10
739.5170010854098
 20
853.9407060050894
 10
739.5246570832679
 20
853.937802836786
 10
739.5324741730604
 20
853.935128804848
 10
739.5404389859399
 20
853.932688482426
 10
739.5485379004221
 20
853.9304860429776
 10
739.5567570656808
 20
853.9285252531325
 10
739.5650824252361
 20
853.9268094662478
 10
739.5734997409939
 20
853.9253416166761
  0
ARC
  5
F56
330
1F
100
AcDbEntity
  8
SANINDUSA
100
AcDbCircle
 10
739.5717078493415
 20
853.9142854965078
 30
0.0
 40
0.0112003869964714
100
AcDbArc
 50
3.218954355745115
 51
80.79398615143375
  0
LINE
  5
F57
330
1F
100
AcDbEntity
  8
SANINDUSA
100
AcDbLine
 10
739.5828905648479
 20
853.9149144184211
 30
0.0
 11
739.5838217230277
 21
853.8882495369399
 31
0.0
  0
ARC
  5
F58
330
1F
100
AcDbEntity
  8
SANINDUSA
100
AcDbCircle
 10
739.4020409760758
 20
854.0467844364366
 30
0.0
 40
0.01
100
AcDbArc
 50
12.17021716914319
 51
90.0
  0
LINE
  5
F59
330
1F
100
AcDbEntity
  8
SANINDUSA
100
AcDbLine
 10
739.5734997409939
 20
853.9253416166761
 30
0.0
 11
739.6642031606811
 21
853.9253416166761
 31
0.0
  0
ENDSEC
  0
SECTION
  2
OBJECTS
  0
DICTIONARY
  5
C
330
0
100
AcDbDictionary
281
     1
  3
ACAD_COLOR
350
BA9
  3
ACAD_GROUP
350
D
  3
ACAD_LAYOUT
350
1A
  3
ACAD_MATERIAL
350
BA8
  3
ACAD_MLEADERSTYLE
350
FA2
  3
ACAD_MLINESTYLE
350
17
  3
ACAD_PLOTSETTINGS
350
19
  3
ACAD_PLOTSTYLENAME
350
E
  3
ACAD_SCALELIST
350
F90
  3
ACAD_TABLESTYLE
350
BAA
  3
ACAD_VISUALSTYLE
350
F7C
  3
ACDB_RECOMPOSE_DATA
350
FCE
  3
AcDbVariableDictionary
350
3D
  3
ASE_INDEX_DICTIONARY
350
F51
  3
DWGPROPS
350
FCF
  0
DICTIONARY
  5
FA9
330
10
100
AcDbDictionary
280
     1
281
     1
  3
ADSK_XREC_LAYER_RECONCILED
360
FAA
  0
DICTIONARY
  5
FAB
330
2F
100
AcDbDictionary
280
     1
281
     1
  3
ADSK_XREC_LAYER_RECONCILED
360
FAC
  0
DICTIONARY
  5
FAD
330
30
100
AcDbDictionary
280
     1
281
     1
  3
ADSK_XREC_LAYER_RECONCILED
360
FAE
  0
DICTIONARY
  5
FAF
330
31
100
AcDbDictionary
280
     1
281
     1
  3
ADSK_XREC_LAYER_RECONCILED
360
FB0
  0
DICTIONARY
  5
FB1
330
32
100
AcDbDictionary
280
     1
281
     1
  3
ADSK_XREC_LAYER_RECONCILED
360
FB2
  0
DICTIONARY
  5
FB3
330
33
100
AcDbDictionary
280
     1
281
     1
  3
ADSK_XREC_LAYER_RECONCILED
360
FB4
  0
DICTIONARY
  5
FB5
330
34
100
AcDbDictionary
280
     1
281
     1
  3
ADSK_XREC_LAYER_RECONCILED
360
FB6
  0
DICTIONARY
  5
FB7
330
35
100
AcDbDictionary
280
     1
281
     1
  3
ADSK_XREC_LAYER_RECONCILED
360
FB8
  0
DICTIONARY
  5
FB9
330
36
100
AcDbDictionary
280
     1
281
     1
  3
ADSK_XREC_LAYER_RECONCILED
360
FBA
  0
DICTIONARY
  5
FBB
330
37
100
AcDbDictionary
280
     1
281
     1
  3
ADSK_XREC_LAYER_RECONCILED
360
FBC
  0
DICTIONARY
  5
FBD
330
5D6
100
AcDbDictionary
280
     1
281
     1
  3
ADSK_XREC_LAYER_RECONCILED
360
FBE
  0
DICTIONARY
  5
FBF
330
8AF
100
AcDbDictionary
280
     1
281
     1
  3
ADSK_XREC_LAYER_RECONCILED
360
FC0
  0
DICTIONARY
  5
FC1
330
8F8
100
AcDbDictionary
280
     1
281
     1
  3
ADSK_XREC_LAYER_RECONCILED
360
FC2
  0
DICTIONARY
  5
FC3
330
91D
100
AcDbDictionary
280
     1
281
     1
  3
ADSK_XREC_LAYER_RECONCILED
360
FC4
  0
DICTIONARY
  5
FC5
330
BA5
100
AcDbDictionary
280
     1
281
     1
  3
ADSK_XREC_LAYER_RECONCILED
360
FC6
  0
DICTIONARY
  5
BA9
102
{ACAD_REACTORS
330
C
102
}
330
C
100
AcDbDictionary
281
     1
  0
DICTIONARY
  5
D
102
{ACAD_REACTORS
330
C
102
}
330
C
100
AcDbDictionary
281
     1
  0
DICTIONARY
  5
1A
102
{ACAD_REACTORS
330
C
102
}
330
C
100
AcDbDictionary
281
     1
  3
Layout1
350
1E
  3
Layout2
350
26
  3
Model
350
22
  0
DICTIONARY
  5
BA8
102
{ACAD_REACTORS
330
C
102
}
330
C
100
AcDbDictionary
281
     1
  3
ByBlock
350
F6C
  3
ByLayer
350
F64
  3
Global
350
F74
  0
DICTIONARY
  5
FA2
102
{ACAD_REACTORS
330
C
102
}
330
C
100
AcDbDictionary
281
     1
  3
Standard
350
FA3
  0
DICTIONARY
  5
17
102
{ACAD_REACTORS
330
C
102
}
330
C
100
AcDbDictionary
281
     1
  3
Standard
350
18
  0
DICTIONARY
  5
19
102
{ACAD_REACTORS
330
C
102
}
330
C
100
AcDbDictionary
281
     1
  0
ACDBDICTIONARYWDFLT
  5
E
102
{ACAD_REACTORS
330
C
102
}
330
C
100
AcDbDictionary
281
     1
  3
Normal
350
F
100
AcDbDictionaryWithDefault
340
F
  0
DICTIONARY
  5
F90
102
{ACAD_REACTORS
330
C
102
}
330
C
100
AcDbDictionary
281
     1
  3
A0
350
F91
  3
A1
350
F92
  3
A2
350
F93
  3
A3
350
F94
  3
A4
350
F95
  3
A5
350
F96
  3
A6
350
F97
  3
A7
350
F98
  3
A8
350
F99
  3
A9
350
F9A
  3
B0
350
F9B
  3
B1
350
F9C
  3
B2
350
F9D
  3
B3
350
F9E
  3
B4
350
F9F
  3
B5
350
FA0
  3
B6
350
FA1
  0
DICTIONARY
  5
BAA
102
{ACAD_REACTORS
330
C
102
}
330
C
100
AcDbDictionary
281
     1
  3
Standard
350
BAB
  0
DICTIONARY
  5
F7C
102
{ACAD_REACTORS
330
C
102
}
330
C
100
AcDbDictionary
281
     1
  3
2dWireframe
350
F82
  3
3D Hidden
350
F84
  3
3dWireframe
350
F83
  3
Basic
350
F81
  3
Brighten
350
F88
  3
ColorChange
350
F8C
  3
Conceptual
350
F85
  3
Dim
350
F87
  3
EdgeColorOff
350
F8F
  3
Facepattern
350
F8B
  3
Flat
350
F7D
  3
FlatWithEdges
350
F7E
  3
Gouraud
350
F7F
  3
GouraudWithEdges
350
F80
  3
JitterOff
350
F8D
  3
Linepattern
350
F8A
  3
OverhangOff
350
F8E
  3
Realistic
350
F86
  3
Thicken
350
F89
  0
XRECORD
  5
FCE
102
{ACAD_REACTORS
330
C
102
}
330
C
100
AcDbXrecord
280
     1
 90
        1
330
BAB
  0
DICTIONARY
  5
3D
102
{ACAD_REACTORS
330
C
102
}
330
C
100
AcDbDictionary
281
     1
  3
CANNOSCALE
350
FC8
  3
CMLEADERSTYLE
350
FC7
  3
CTABLESTYLE
350
F54
  3
DIMASSOC
350
3F
  3
HIDETEXT
350
3E
  3
INDEXCTL
350
FCA
  3
PROJECTNAME
350
F62
  3
SORTENTS
350
FC9
  3
XCLIPFRAME
350
FCB
  0
DICTIONARY
  5
F51
102
{ACAD_REACTORS
330
C
102
}
330
C
100
AcDbDictionary
281
     1
  3
ASEBlockHierarchyIndexRecord
350
F52
1001
DCO15
1040
1534161860.453
  0
XRECORD
  5
FCF
102
{ACAD_REACTORS
330
C
102
}
330
C
100
AcDbXrecord
280
     1
  1
DWGPROPS COOKIE
  2

  3

  4

  6

  7

  8
Julio
  9

300
=
301
=
302
=
303
=
304
=
305
=
306
=
307
=
308
=
309
=
 40
0.002692962962963
 41
2453559.712349352
 42
2456141.615701493
  1

 90
        0
  0
XRECORD
  5
FAA
102
{ACAD_REACTORS
330
FA9
102
}
330
FA9
100
AcDbXrecord
280
     1
290
     1
  0
XRECORD
  5
FAC
102
{ACAD_REACTORS
330
FAB
102
}
330
FAB
100
AcDbXrecord
280
     1
290
     1
  0
XRECORD
  5
FAE
102
{ACAD_REACTORS
330
FAD
102
}
330
FAD
100
AcDbXrecord
280
     1
290
     1
  0
XRECORD
  5
FB0
102
{ACAD_REACTORS
330
FAF
102
}
330
FAF
100
AcDbXrecord
280
     1
290
     1
  0
XRECORD
  5
FB2
102
{ACAD_REACTORS
330
FB1
102
}
330
FB1
100
AcDbXrecord
280
     1
290
     1
  0
XRECORD
  5
FB4
102
{ACAD_REACTORS
330
FB3
102
}
330
FB3
100
AcDbXrecord
280
     1
290
     1
  0
XRECORD
  5
FB6
102
{ACAD_REACTORS
330
FB5
102
}
330
FB5
100
AcDbXrecord
280
     1
290
     1
  0
XRECORD
  5
FB8
102
{ACAD_REACTORS
330
FB7
102
}
330
FB7
100
AcDbXrecord
280
     1
290
     1
  0
XRECORD
  5
FBA
102
{ACAD_REACTORS
330
FB9
102
}
330
FB9
100
AcDbXrecord
280
     1
290
     1
  0
XRECORD
  5
FBC
102
{ACAD_REACTORS
330
FBB
102
}
330
FBB
100
AcDbXrecord
280
     1
290
     1
  0
XRECORD
  5
FBE
102
{ACAD_REACTORS
330
FBD
102
}
330
FBD
100
AcDbXrecord
280
     1
290
     1
  0
XRECORD
  5
FC0
102
{ACAD_REACTORS
330
FBF
102
}
330
FBF
100
AcDbXrecord
280
     1
290
     1
  0
XRECORD
  5
FC2
102
{ACAD_REACTORS
330
FC1
102
}
330
FC1
100
AcDbXrecord
280
     1
290
     1
  0
XRECORD
  5
FC4
102
{ACAD_REACTORS
330
FC3
102
}
330
FC3
100
AcDbXrecord
280
     1
290
     1
  0
XRECORD
  5
FC6
102
{ACAD_REACTORS
330
FC5
102
}
330
FC5
100
AcDbXrecord
280
     1
290
     1
  0
LAYOUT
  5
1E
102
{ACAD_XDICTIONARY
360
FD0
102
}
102
{ACAD_REACTORS
330
1A
102
}
330
1A
100
AcDbPlotSettings
  1

  2
Ploter HP500
  4

  6

 40
0.0
 41
0.0
 42
0.0
 43
0.0
 44
0.0
 45
0.0
 46
0.0
 47
0.0
 48
0.0
 49
0.0
140
0.0
141
0.0
142
1.0
143
1.0
 70
   688
 72
     0
 73
     0
 74
     5
  7
monochrome.ctb
 75
    16
147
1.0
148
0.0
149
0.0
100
AcDbLayout
  1
Layout1
 70
     1
 71
     1
 10
0.0
 20
0.0
 11
420.0
 21
297.0
 12
0.0
 22
0.0
 32
0.0
 14
1.000000000000000E+20
 24
1.000000000000000E+20
 34
1.000000000000000E+20
 15
-1.000000000000000E+20
 25
-1.000000000000000E+20
 35
-1.000000000000000E+20
146
0.0
 13
0.0
 23
0.0
 33
0.0
 16
1.0
 26
0.0
 36
0.0
 17
0.0
 27
1.0
 37
0.0
 76
     0
330
1B
  0
LAYOUT
  5
26
102
{ACAD_XDICTIONARY
360
FD4
102
}
102
{ACAD_REACTORS
330
1A
102
}
330
1A
100
AcDbPlotSettings
  1

  2
Ploter HP500
  4

  6

 40
0.0
 41
0.0
 42
0.0
 43
0.0
 44
0.0
 45
0.0
 46
0.0
 47
0.0
 48
0.0
 49
0.0
140
0.0
141
0.0
142
1.0
143
1.0
 70
   688
 72
     0
 73
     0
 74
     5
  7
monochrome.ctb
 75
    16
147
1.0
148
0.0
149
0.0
100
AcDbLayout
  1
Layout2
 70
     1
 71
     2
 10
0.0
 20
0.0
 11
12.0
 21
9.0
 12
0.0
 22
0.0
 32
0.0
 14
0.0
 24
0.0
 34
0.0
 15
0.0
 25
0.0
 35
0.0
146
0.0
 13
0.0
 23
0.0
 33
0.0
 16
1.0
 26
0.0
 36
0.0
 17
0.0
 27
1.0
 37
0.0
 76
     0
330
23
  0
LAYOUT
  5
22
102
{ACAD_XDICTIONARY
360
FD2
102
}
102
{ACAD_REACTORS
330
1A
102
}
330
1A
100
AcDbPlotSettings
  1

  2
Ploter HP500
  4
User268
  6

 40
4.995333194732666
 41
16.97565841674804
 42
4.995330810546875
 43
16.97567749023437
 44
209.9733276367187
 45
296.9259948730469
 46
0.0
 47
0.0
 48
0.0
 49
0.0
140
0.0
141
0.0
142
1.0
143
1.0
 70
 11952
 72
     1
 73
     1
 74
     0
  7

 75
     0
147
1.0
148
-427.5957866592534
149
7.362384574453926
100
AcDbLayout
  1
Model
 70
     1
 71
     0
 10
0.0
 20
0.0
 11
12.0
 21
9.0
 12
0.0
 22
0.0
 32
0.0
 14
0.0
 24
0.0
 34
0.0
 15
0.0
 25
0.0
 35
0.0
146
0.0
 13
0.0
 23
0.0
 33
0.0
 16
1.0
 26
0.0
 36
0.0
 17
0.0
 27
1.0
 37
0.0
 76
     0
330
1F
331
F5A
  0
MATERIAL
  5
F6C
102
{ACAD_XDICTIONARY
360
F6D
102
}
102
{ACAD_REACTORS
330
BA8
102
}
330
BA8
100
AcDbMaterial
  1
ByBlock
 72
     0
 43
0.0008202099737533
 43
0.0
 43
0.0
 43
0.0
 43
0.0
 43
0.0008202099737533
 43
0.0
 43
0.0
 43
0.0
 43
0.0
 43
1.0
 43
0.0
 43
0.0
 43
0.0
 43
0.0
 43
1.0
 77
     0
 47
0.0008202099737533
 47
0.0
 47
0.0
 47
0.0
 47
0.0
 47
0.0008202099737533
 47
0.0
 47
0.0
 47
0.0
 47
0.0
 47
1.0
 47
0.0
 47
0.0
 47
0.0
 47
0.0
 47
1.0
171
     0
 49
0.0008202099737533
 49
0.0
 49
0.0
 49
0.0
 49
0.0
 49
0.0008202099737533
 49
0.0
 49
0.0
 49
0.0
 49
0.0
 49
1.0
 49
0.0
 49
0.0
 49
0.0
 49
0.0
 49
1.0
175
     0
142
0.0008202099737533
142
0.0
142
0.0
142
0.0
142
0.0
142
0.0008202099737533
142
0.0
142
0.0
142
0.0
142
0.0
142
1.0
142
0.0
142
0.0
142
0.0
142
0.0
142
1.0
179
     0
144
0.0008202099737533
144
0.0
144
0.0
144
0.0
144
0.0
144
0.0008202099737533
144
0.0
144
0.0
144
0.0
144
0.0
144
1.0
144
0.0
144
0.0
144
0.0
144
0.0
144
1.0
147
0.0008202099737533
147
0.0
147
0.0
147
0.0
147
0.0
147
0.0008202099737533
147
0.0
147
0.0
147
0.0
147
0.0
147
1.0
147
0.0
147
0.0
147
0.0
147
0.0
147
1.0
  0
MATERIAL
  5
F64
102
{ACAD_XDICTIONARY
360
F65
102
}
102
{ACAD_REACTORS
330
BA8
102
}
330
BA8
100
AcDbMaterial
  1
ByLayer
 72
     0
 43
0.0008202099737533
 43
0.0
 43
0.0
 43
0.0
 43
0.0
 43
0.0008202099737533
 43
0.0
 43
0.0
 43
0.0
 43
0.0
 43
1.0
 43
0.0
 43
0.0
 43
0.0
 43
0.0
 43
1.0
 77
     0
 47
0.0008202099737533
 47
0.0
 47
0.0
 47
0.0
 47
0.0
 47
0.0008202099737533
 47
0.0
 47
0.0
 47
0.0
 47
0.0
 47
1.0
 47
0.0
 47
0.0
 47
0.0
 47
0.0
 47
1.0
171
     0
 49
0.0008202099737533
 49
0.0
 49
0.0
 49
0.0
 49
0.0
 49
0.0008202099737533
 49
0.0
 49
0.0
 49
0.0
 49
0.0
 49
1.0
 49
0.0
 49
0.0
 49
0.0
 49
0.0
 49
1.0
175
     0
142
0.0008202099737533
142
0.0
142
0.0
142
0.0
142
0.0
142
0.0008202099737533
142
0.0
142
0.0
142
0.0
142
0.0
142
1.0
142
0.0
142
0.0
142
0.0
142
0.0
142
1.0
179
     0
144
0.0008202099737533
144
0.0
144
0.0
144
0.0
144
0.0
144
0.0008202099737533
144
0.0
144
0.0
144
0.0
144
0.0
144
1.0
144
0.0
144
0.0
144
0.0
144
0.0
144
1.0
147
0.0008202099737533
147
0.0
147
0.0
147
0.0
147
0.0
147
0.0008202099737533
147
0.0
147
0.0
147
0.0
147
0.0
147
1.0
147
0.0
147
0.0
147
0.0
147
0.0
147
1.0
  0
MATERIAL
  5
F74
102
{ACAD_XDICTIONARY
360
F75
102
}
102
{ACAD_REACTORS
330
BA8
102
}
330
BA8
100
AcDbMaterial
  1
Global
 72
     0
 43
0.0008202099737533
 43
0.0
 43
0.0
 43
0.0
 43
0.0
 43
0.0008202099737533
 43
0.0
 43
0.0
 43
0.0
 43
0.0
 43
1.0
 43
0.0
 43
0.0
 43
0.0
 43
0.0
 43
1.0
 77
     0
 47
0.0008202099737533
 47
0.0
 47
0.0
 47
0.0
 47
0.0
 47
0.0008202099737533
 47
0.0
 47
0.0
 47
0.0
 47
0.0
 47
1.0
 47
0.0
 47
0.0
 47
0.0
 47
0.0
 47
1.0
171
     0
 49
0.0008202099737533
 49
0.0
 49
0.0
 49
0.0
 49
0.0
 49
0.0008202099737533
 49
0.0
 49
0.0
 49
0.0
 49
0.0
 49
1.0
 49
0.0
 49
0.0
 49
0.0
 49
0.0
 49
1.0
175
     0
142
0.0008202099737533
142
0.0
142
0.0
142
0.0
142
0.0
142
0.0008202099737533
142
0.0
142
0.0
142
0.0
142
0.0
142
1.0
142
0.0
142
0.0
142
0.0
142
0.0
142
1.0
179
     0
144
0.0008202099737533
144
0.0
144
0.0
144
0.0
144
0.0
144
0.0008202099737533
144
0.0
144
0.0
144
0.0
144
0.0
144
1.0
144
0.0
144
0.0
144
0.0
144
0.0
144
1.0
147
0.0008202099737533
147
0.0
147
0.0
147
0.0
147
0.0
147
0.0008202099737533
147
0.0
147
0.0
147
0.0
147
0.0
147
1.0
147
0.0
147
0.0
147
0.0
147
0.0
147
1.0
  0
MLEADERSTYLE
  5
FA3
102
{ACAD_REACTORS
330
FA2
102
}
330
FA2
100
AcDbMLeaderStyle
170
     2
171
     1
172
     0
 90
        2
 40
0.0
 41
0.0
173
     1
 91
-1056964608
340
14
 92
       -2
290
     1
 42
2.0
291
     1
 43
0.36
  3
Standard
 44
4.0
300

342
11
174
     1
178
     6
175
     1
176
     0
 93
-1056964608
 45
4.0
292
     0
297
     0
 46
4.0
 94
-1056964608
 47
1.0
 49
1.0
140
1.0
293
     1
141
0.0
294
     1
177
     0
142
1.0
295
     0
296
     0
143
0.125
1001
ACAD_MLEADERVER
1070
     2
  0
MLINESTYLE
  5
18
102
{ACAD_REACTORS
330
17
102
}
330
17
100
AcDbMlineStyle
  2
STANDARD
 70
     0
  3

 62
   256
 51
90.0
 52
90.0
 71
     2
 49
0.5
 62
   256
  6
BYLAYER
 49
-0.5
 62
   256
  6
BYLAYER
  0
ACDBPLACEHOLDER
  5
F
102
{ACAD_REACTORS
330
E
102
}
330
E
  0
SCALE
  5
F91
102
{ACAD_REACTORS
330
F90
102
}
330
F90
100
AcDbScale
 70
     0
300
1:1
140
1.0
141
1.0
290
     1
  0
SCALE
  5
F92
102
{ACAD_REACTORS
330
F90
102
}
330
F90
100
AcDbScale
 70
     0
300
1:2
140
1.0
141
2.0
290
     0
  0
SCALE
  5
F93
102
{ACAD_REACTORS
330
F90
102
}
330
F90
100
AcDbScale
 70
     0
300
1:4
140
1.0
141
4.0
290
     0
  0
SCALE
  5
F94
102
{ACAD_REACTORS
330
F90
102
}
330
F90
100
AcDbScale
 70
     0
300
1:5
140
1.0
141
5.0
290
     0
  0
SCALE
  5
F95
102
{ACAD_REACTORS
330
F90
102
}
330
F90
100
AcDbScale
 70
     0
300
1:8
140
1.0
141
8.0
290
     0
  0
SCALE
  5
F96
102
{ACAD_REACTORS
330
F90
102
}
330
F90
100
AcDbScale
 70
     0
300
1:10
140
1.0
141
10.0
290
     0
  0
SCALE
  5
F97
102
{ACAD_REACTORS
330
F90
102
}
330
F90
100
AcDbScale
 70
     0
300
1:16
140
1.0
141
16.0
290
     0
  0
SCALE
  5
F98
102
{ACAD_REACTORS
330
F90
102
}
330
F90
100
AcDbScale
 70
     0
300
1:20
140
1.0
141
20.0
290
     0
  0
SCALE
  5
F99
102
{ACAD_REACTORS
330
F90
102
}
330
F90
100
AcDbScale
 70
     0
300
1:30
140
1.0
141
30.0
290
     0
  0
SCALE
  5
F9A
102
{ACAD_REACTORS
330
F90
102
}
330
F90
100
AcDbScale
 70
     0
300
1:40
140
1.0
141
40.0
290
     0
  0
SCALE
  5
F9B
102
{ACAD_REACTORS
330
F90
102
}
330
F90
100
AcDbScale
 70
     0
300
1:50
140
1.0
141
50.0
290
     0
  0
SCALE
  5
F9C
102
{ACAD_REACTORS
330
F90
102
}
330
F90
100
AcDbScale
 70
     0
300
1:100
140
1.0
141
100.0
290
     0
  0
SCALE
  5
F9D
102
{ACAD_REACTORS
330
F90
102
}
330
F90
100
AcDbScale
 70
     0
300
2:1
140
2.0
141
1.0
290
     0
  0
SCALE
  5
F9E
102
{ACAD_REACTORS
330
F90
102
}
330
F90
100
AcDbScale
 70
     0
300
4:1
140
4.0
141
1.0
290
     0
  0
SCALE
  5
F9F
102
{ACAD_REACTORS
330
F90
102
}
330
F90
100
AcDbScale
 70
     0
300
8:1
140
8.0
141
1.0
290
     0
  0
SCALE
  5
FA0
102
{ACAD_REACTORS
330
F90
102
}
330
F90
100
AcDbScale
 70
     0
300
10:1
140
10.0
141
1.0
290
     0
  0
SCALE
  5
FA1
102
{ACAD_REACTORS
330
F90
102
}
330
F90
100
AcDbScale
 70
     0
300
100:1
140
100.0
141
1.0
290
     0
  0
TABLESTYLE
  5
BAB
102
{ACAD_XDICTIONARY
360
FCC
102
}
102
{ACAD_REACTORS
330
BAA
102
}
330
BAA
100
AcDbTableStyle
  3
Standard
 70
     0
 71
     0
 40
1.5
 41
1.5
280
     0
281
     0
  7
Standard
140
4.5
170
     2
 62
     0
 63
     7
283
     0
274
    -2
284
     1
 64
     0
275
    -2
285
     1
 65
     0
276
    -2
286
     1
 66
     0
277
    -2
287
     1
 67
     0
278
    -2
288
     1
 68
     0
279
    -2
289
     1
 69
     0
  7
Standard
140
6.0
170
     5
 62
     0
 63
     7
283
     0
274
    -2
284
     1
 64
     0
275
    -2
285
     1
 65
     0
276
    -2
286
     1
 66
     0
277
    -2
287
     1
 67
     0
278
    -2
288
     1
 68
     0
279
    -2
289
     1
 69
     0
  7
Standard
140
4.5
170
     5
 62
     0
 63
     7
283
     0
274
    -2
284
     1
 64
     0
275
    -2
285
     1
 65
     0
276
    -2
286
     1
 66
     0
277
    -2
287
     1
 67
     0
278
    -2
288
     1
 68
     0
279
    -2
289
     1
 69
     0
  0
VISUALSTYLE
  5
F82
102
{ACAD_XDICTIONARY
360
FF4
102
}
102
{ACAD_REACTORS
330
F7C
102
}
330
F7C
100
AcDbVisualStyle
  2
2dWireframe
 70
     4
 71
     0
 72
     2
 73
     0
 90
        0
 40
-0.6
 41
-30.0
 62
     5
 63
     7
 74
     1
 91
        4
 64
     7
 65
   257
 75
     1
175
     1
 42
1.0
 92
        0
 66
   257
 43
1.0
 76
     1
 77
     6
 78
     2
 67
     7
 79
     5
170
     0
171
     0
290
     0
174
     0
 93
        1
 44
0.0
173
     0
291
     0
 45
0.0
1001
ACAD
1000
AcDbSavedByObjectVersion
1070
     0
  0
VISUALSTYLE
  5
F84
102
{ACAD_XDICTIONARY
360
FF8
102
}
102
{ACAD_REACTORS
330
F7C
102
}
330
F7C
100
AcDbVisualStyle
  2
3D Hidden
 70
     6
 71
     1
 72
     2
 73
     2
 90
        0
 40
-0.6
 41
-30.0
 62
     5
 63
     7
 74
     2
 91
        2
 64
     7
 65
   257
 75
     2
175
     1
 42
179.0
 92
        0
 66
   257
 43
1.0
 76
     1
 77
     6
 78
     2
 67
     7
 79
     3
170
     0
171
     0
290
     0
174
     0
 93
        1
 44
0.0
173
     0
291
     0
 45
0.0
1001
ACAD
1000
AcDbSavedByObjectVersion
1070
     0
  0
VISUALSTYLE
  5
F83
102
{ACAD_XDICTIONARY
360
FF6
102
}
102
{ACAD_REACTORS
330
F7C
102
}
330
F7C
100
AcDbVisualStyle
  2
3dWireframe
 70
     5
 71
     0
 72
     2
 73
     0
 90
        0
 40
-0.6
 41
-30.0
 62
     5
 63
     7
 74
     1
 91
        4
 64
     7
 65
   257
 75
     1
175
     1
 42
1.0
 92
        0
 66
   257
 43
1.0
 76
     1
 77
     6
 78
     2
 67
     7
 79
     5
170
     0
171
     0
290
     0
174
     0
 93
        1
 44
0.0
173
     0
291
     0
 45
0.0
1001
ACAD
1000
AcDbSavedByObjectVersion
1070
     0
  0
VISUALSTYLE
  5
F81
102
{ACAD_XDICTIONARY
360
FF2
102
}
102
{ACAD_REACTORS
330
F7C
102
}
330
F7C
100
AcDbVisualStyle
  2
Basic
 70
     7
 71
     1
 72
     0
 73
     1
 90
        0
 40
-0.6
 41
-30.0
 62
     5
 63
     7
 74
     0
 91
        4
 64
     7
 65
   257
 75
     1
175
     1
 42
1.0
 92
        8
 66
     7
 43
1.0
 76
     1
 77
     6
 78
     2
 67
     7
 79
     5
170
     0
171
     0
290
     0
174
     0
 93
        1
 44
0.0
173
     0
291
     1
 45
0.0
1001
ACAD
1000
AcDbSavedByObjectVersion
1070
     0
  0
VISUALSTYLE
  5
F88
102
{ACAD_XDICTIONARY
360
1000
102
}
102
{ACAD_REACTORS
330
F7C
102
}
330
F7C
100
AcDbVisualStyle
  2
Brighten
 70
    12
 71
     2
 72
     2
 73
     0
 90
        0
 40
-0.6
 41
-30.0
 62
     5
 63
     7
 74
     1
 91
        4
 64
     7
 65
   257
 75
     1
175
     1
 42
1.0
 92
        8
 66
     7
 43
1.0
 76
     1
 77
     6
 78
     2
 67
     7
 79
     5
170
     0
171
     0
290
     0
174
     0
 93
        1
 44
50.0
173
     0
291
     1
 45
0.0
1001
ACAD
1000
AcDbSavedByObjectVersion
1070
     0
  0
VISUALSTYLE
  5
F8C
102
{ACAD_XDICTIONARY
360
1008
102
}
102
{ACAD_REACTORS
330
F7C
102
}
330
F7C
100
AcDbVisualStyle
  2
ColorChange
 70
    16
 71
     2
 72
     2
 73
     3
 90
        0
 40
-0.6
 41
-30.0
 62
     5
 63
     8
 74
     1
 91
        4
 64
     7
 65
   257
 75
     1
175
     1
 42
1.0
 92
        8
 66
     8
 43
1.0
 76
     1
 77
     6
 78
     2
 67
     7
 79
     5
170
     0
171
     0
290
     0
174
     0
 93
        1
 44
0.0
173
     0
291
     1
 45
0.0
1001
ACAD
1000
AcDbSavedByObjectVersion
1070
     0
  0
VISUALSTYLE
  5
F85
102
{ACAD_XDICTIONARY
360
FFA
102
}
102
{ACAD_REACTORS
330
F7C
102
}
330
F7C
100
AcDbVisualStyle
  2
Conceptual
 70
     9
 71
     3
 72
     2
 73
     0
 90
        0
 40
-0.6
 41
-30.0
 62
     5
 63
     7
 74
     2
 91
        2
 64
     7
 65
   257
 75
     1
175
     1
 42
179.0
 92
        8
 66
     7
 43
1.0
 76
     1
 77
     6
 78
     2
 67
     7
 79
     3
170
     0
171
     0
290
     0
174
     0
 93
        1
 44
0.0
173
     0
291
     0
 45
0.0
1001
ACAD
1000
AcDbSavedByObjectVersion
1070
     0
  0
VISUALSTYLE
  5
F87
102
{ACAD_XDICTIONARY
360
FFE
102
}
102
{ACAD_REACTORS
330
F7C
102
}
330
F7C
100
AcDbVisualStyle
  2
Dim
 70
    11
 71
     2
 72
     2
 73
     0
 90
        0
 40
-0.6
 41
-30.0
 62
     5
 63
     7
 74
     1
 91
        4
 64
     7
 65
   257
 75
     1
175
     1
 42
1.0
 92
        8
 66
     7
 43
1.0
 76
     1
 77
     6
 78
     2
 67
     7
 79
     5
170
     0
171
     0
290
     0
174
     0
 93
        1
 44
-50.0
173
     0
291
     1
 45
0.0
1001
ACAD
1000
AcDbSavedByObjectVersion
1070
     0
  0
VISUALSTYLE
  5
F8F
102
{ACAD_XDICTIONARY
360
100E
102
}
102
{ACAD_REACTORS
330
F7C
102
}
330
F7C
100
AcDbVisualStyle
  2
EdgeColorOff
 70
    22
 71
     2
 72
     2
 73
     0
 90
        0
 40
-0.6
 41
-30.0
 62
     5
 63
     7
 74
     1
 91
        4
 64
     7
 65
   257
 75
     1
175
     1
 42
1.0
 92
        8
 66
     7
 43
1.0
 76
     1
 77
     6
 78
     2
 67
     7
 79
     5
170
     0
171
     0
290
     0
174
     0
 93
        1
 44
0.0
173
     0
291
     1
 45
0.0
1001
ACAD
1000
AcDbSavedByObjectVersion
1070
     0
  0
VISUALSTYLE
  5
F8B
102
{ACAD_XDICTIONARY
360
1006
102
}
102
{ACAD_REACTORS
330
F7C
102
}
330
F7C
100
AcDbVisualStyle
  2
Facepattern
 70
    15
 71
     2
 72
     2
 73
     0
 90
        0
 40
-0.6
 41
-30.0
 62
     5
 63
     7
 74
     1
 91
        4
 64
     7
 65
   257
 75
     1
175
     1
 42
1.0
 92
        8
 66
     7
 43
1.0
 76
     1
 77
     6
 78
     2
 67
     7
 79
     5
170
     0
171
     0
290
     0
174
     0
 93
        1
 44
0.0
173
     0
291
     1
 45
0.0
1001
ACAD
1000
AcDbSavedByObjectVersion
1070
     0
  0
VISUALSTYLE
  5
F7D
102
{ACAD_XDICTIONARY
360
FEA
102
}
102
{ACAD_REACTORS
330
F7C
102
}
330
F7C
100
AcDbVisualStyle
  2
Flat
 70
     0
 71
     2
 72
     1
 73
     1
 90
        2
 40
-0.6
 41
30.0
 62
     5
 63
     7
 74
     0
 91
        4
 64
     7
 65
   257
 75
     1
175
     1
 42
1.0
 92
        8
 66
     7
 43
1.0
 76
     1
 77
     6
 78
     2
 67
     7
 79
     5
170
     0
171
     0
290
     0
174
     0
 93
       13
 44
0.0
173
     0
291
     1
 45
0.0
1001
ACAD
1000
AcDbSavedByObjectVersion
1070
     0
  0
VISUALSTYLE
  5
F7E
102
{ACAD_XDICTIONARY
360
FEC
102
}
102
{ACAD_REACTORS
330
F7C
102
}
330
F7C
100
AcDbVisualStyle
  2
FlatWithEdges
 70
     1
 71
     2
 72
     1
 73
     1
 90
        2
 40
-0.6
 41
30.0
 62
     5
 63
     7
 74
     1
 91
        4
 64
     7
 65
   257
 75
     1
175
     1
 42
1.0
 92
        0
 66
   257
 43
1.0
 76
     1
 77
     6
 78
     2
 67
     7
 79
     5
170
     0
171
     0
290
     0
174
     0
 93
       13
 44
0.0
173
     0
291
     1
 45
0.0
1001
ACAD
1000
AcDbSavedByObjectVersion
1070
     0
  0
VISUALSTYLE
  5
F7F
102
{ACAD_XDICTIONARY
360
FEE
102
}
102
{ACAD_REACTORS
330
F7C
102
}
330
F7C
100
AcDbVisualStyle
  2
Gouraud
 70
     2
 71
     2
 72
     2
 73
     1
 90
        2
 40
-0.6
 41
30.0
 62
     5
 63
     7
 74
     0
 91
        4
 64
     7
 65
   257
 75
     1
175
     1
 42
1.0
 92
        0
 66
     7
 43
1.0
 76
     1
 77
     6
 78
     2
 67
     7
 79
     5
170
     0
171
     0
290
     0
174
     0
 93
       13
 44
0.0
173
     0
291
     1
 45
0.0
1001
ACAD
1000
AcDbSavedByObjectVersion
1070
     0
  0
VISUALSTYLE
  5
F80
102
{ACAD_XDICTIONARY
360
FF0
102
}
102
{ACAD_REACTORS
330
F7C
102
}
330
F7C
100
AcDbVisualStyle
  2
GouraudWithEdges
 70
     3
 71
     2
 72
     2
 73
     1
 90
        2
 40
-0.6
 41
30.0
 62
     5
 63
     7
 74
     1
 91
        4
 64
     7
 65
   257
 75
     1
175
     1
 42
1.0
 92
        0
 66
   257
 43
1.0
 76
     1
 77
     6
 78
     2
 67
     7
 79
     5
170
     0
171
     0
290
     0
174
     0
 93
       13
 44
0.0
173
     0
291
     1
 45
0.0
1001
ACAD
1000
AcDbSavedByObjectVersion
1070
     0
  0
VISUALSTYLE
  5
F8D
102
{ACAD_XDICTIONARY
360
100A
102
}
102
{ACAD_REACTORS
330
F7C
102
}
330
F7C
100
AcDbVisualStyle
  2
JitterOff
 70
    20
 71
     2
 72
     2
 73
     0
 90
        0
 40
-0.6
 41
-30.0
 62
     5
 63
     7
 74
     1
 91
        4
 64
     7
 65
   257
 75
     1
175
     1
 42
1.0
 92
       10
 66
     7
 43
1.0
 76
     1
 77
     6
 78
     2
 67
     7
 79
     5
170
     0
171
     0
290
     0
174
     0
 93
        1
 44
0.0
173
     0
291
     1
 45
0.0
1001
ACAD
1000
AcDbSavedByObjectVersion
1070
     0
  0
VISUALSTYLE
  5
F8A
102
{ACAD_XDICTIONARY
360
1004
102
}
102
{ACAD_REACTORS
330
F7C
102
}
330
F7C
100
AcDbVisualStyle
  2
Linepattern
 70
    14
 71
     2
 72
     2
 73
     0
 90
        0
 40
-0.6
 41
-30.0
 62
     5
 63
     7
 74
     1
 91
        4
 64
     7
 65
   257
 75
     7
175
     7
 42
1.0
 92
        8
 66
     7
 43
1.0
 76
     1
 77
     6
 78
     2
 67
     7
 79
     5
170
     0
171
     0
290
     0
174
     0
 93
        1
 44
0.0
173
     0
291
     1
 45
0.0
1001
ACAD
1000
AcDbSavedByObjectVersion
1070
     0
  0
VISUALSTYLE
  5
F8E
102
{ACAD_XDICTIONARY
360
100C
102
}
102
{ACAD_REACTORS
330
F7C
102
}
330
F7C
100
AcDbVisualStyle
  2
OverhangOff
 70
    21
 71
     2
 72
     2
 73
     0
 90
        0
 40
-0.6
 41
-30.0
 62
     5
 63
     7
 74
     1
 91
        4
 64
     7
 65
   257
 75
     1
175
     1
 42
1.0
 92
        9
 66
     7
 43
1.0
 76
     1
 77
     6
 78
     2
 67
     7
 79
     5
170
     0
171
     0
290
     0
174
     0
 93
        1
 44
0.0
173
     0
291
     1
 45
0.0
1001
ACAD
1000
AcDbSavedByObjectVersion
1070
     0
  0
VISUALSTYLE
  5
F86
102
{ACAD_XDICTIONARY
360
FFC
102
}
102
{ACAD_REACTORS
330
F7C
102
}
330
F7C
100
AcDbVisualStyle
  2
Realistic
 70
     8
 71
     2
 72
     2
 73
     0
 90
        0
 40
-0.6
 41
-30.0
 62
     5
 63
     7
 74
     1
 91
        0
 64
     7
 65
   257
 75
     1
175
     1
 42
1.0
 92
        8
 66
     8
 43
1.0
 76
     1
 77
     6
 78
     2
 67
     7
 79
     5
170
     0
171
     0
290
     0
174
     0
 93
       13
 44
0.0
173
     0
291
     0
 45
0.0
1001
ACAD
1000
AcDbSavedByObjectVersion
1070
     0
  0
VISUALSTYLE
  5
F89
102
{ACAD_XDICTIONARY
360
1002
102
}
102
{ACAD_REACTORS
330
F7C
102
}
330
F7C
100
AcDbVisualStyle
  2
Thicken
 70
    13
 71
     2
 72
     2
 73
     0
 90
        0
 40
-0.6
 41
-30.0
 62
     5
 63
     7
 74
     1
 91
        4
 64
     7
 65
   257
 75
     1
175
     1
 42
1.0
 92
       12
 66
     7
 43
1.0
 76
     1
 77
     6
 78
     2
 67
     7
 79
     5
170
     0
171
     0
290
     0
174
     0
 93
        1
 44
0.0
173
     0
291
     1
 45
0.0
1001
ACAD
1000
AcDbSavedByObjectVersion
1070
     0
  0
DICTIONARYVAR
  5
FC8
102
{ACAD_REACTORS
330
3D
102
}
330
3D
100
DictionaryVariables
280
     0
  1
1:1
  0
DICTIONARYVAR
  5
FC7
102
{ACAD_REACTORS
330
3D
102
}
330
3D
100
DictionaryVariables
280
     0
  1
STANDARD
  0
DICTIONARYVAR
  5
F54
102
{ACAD_REACTORS
330
3D
102
}
330
3D
100
DictionaryVariables
280
     0
  1
STANDARD
  0
DICTIONARYVAR
  5
3F
102
{ACAD_REACTORS
330
3D
102
}
330
3D
100
DictionaryVariables
280
     0
  1
2
  0
DICTIONARYVAR
  5
3E
102
{ACAD_REACTORS
330
3D
102
}
330
3D
100
DictionaryVariables
280
     0
  1
1
  0
DICTIONARYVAR
  5
FCA
102
{ACAD_REACTORS
330
3D
102
}
330
3D
100
DictionaryVariables
280
     0
  1
0
  0
DICTIONARYVAR
  5
F62
102
{ACAD_REACTORS
330
3D
102
}
330
3D
100
DictionaryVariables
280
     0
  1

  0
DICTIONARYVAR
  5
FC9
102
{ACAD_REACTORS
330
3D
102
}
330
3D
100
DictionaryVariables
280
     0
  1
127
  0
DICTIONARYVAR
  5
FCB
102
{ACAD_REACTORS
330
3D
102
}
330
3D
100
DictionaryVariables
280
     0
  1
2
  0
XRECORD
  5
F52
102
{ACAD_REACTORS
330
F51
102
}
330
F51
100
AcDbXrecord
280
     1
  0
DICTIONARY
  5
FD0
330
1E
100
AcDbDictionary
280
     1
281
     1
  3
ACAD_XREC_ROUNDTRIP
360
FD1
  0
DICTIONARY
  5
FD4
330
26
100
AcDbDictionary
280
     1
281
     1
  3
ACAD_XREC_ROUNDTRIP
360
FD5
  0
DICTIONARY
  5
FD2
330
22
100
AcDbDictionary
280
     1
281
     1
  3
ACAD_XREC_ROUNDTRIP
360
FD3
  0
DICTIONARY
  5
F6D
330
F6C
100
AcDbDictionary
280
     1
281
     1
  3
ACAD_XREC_ROUNDTRIP
360
FE8
  3
BUMPTILE
360
F6F
  3
DIFFUSETILE
360
F6E
  3
OPACITYTILE
360
F72
  3
REFLECTIONTILE
360
F71
  3
REFRACTIONTILE
360
F73
  3
SPECULARTILE
360
F70
  0
DICTIONARY
  5
F65
330
F64
100
AcDbDictionary
280
     1
281
     1
  3
ACAD_XREC_ROUNDTRIP
360
FE7
  3
BUMPTILE
360
F67
  3
DIFFUSETILE
360
F66
  3
OPACITYTILE
360
F6A
  3
REFLECTIONTILE
360
F69
  3
REFRACTIONTILE
360
F6B
  3
SPECULARTILE
360
F68
  0
DICTIONARY
  5
F75
330
F74
100
AcDbDictionary
280
     1
281
     1
  3
ACAD_XREC_ROUNDTRIP
360
FE9
  3
BUMPTILE
360
F77
  3
DIFFUSETILE
360
F76
  3
OPACITYTILE
360
F7A
  3
REFLECTIONTILE
360
F79
  3
REFRACTIONTILE
360
F7B
  3
SPECULARTILE
360
F78
  0
DICTIONARY
  5
FCC
330
BAB
100
AcDbDictionary
280
     1
281
     1
  3
ACAD_ROUNDTRIP_2008_TABLESTYLE_CELLSTYLEMAP
360
FCD
  3
ACAD_XREC_ROUNDTRIP
360
FD6
  0
DICTIONARY
  5
FF4
330
F82
100
AcDbDictionary
280
     1
281
     1
  3
ACAD_XREC_ROUNDTRIP
360
FF5
  0
DICTIONARY
  5
FF8
330
F84
100
AcDbDictionary
280
     1
281
     1
  3
ACAD_XREC_ROUNDTRIP
360
FF9
  0
DICTIONARY
  5
FF6
330
F83
100
AcDbDictionary
280
     1
281
     1
  3
ACAD_XREC_ROUNDTRIP
360
FF7
  0
DICTIONARY
  5
FF2
330
F81
100
AcDbDictionary
280
     1
281
     1
  3
ACAD_XREC_ROUNDTRIP
360
FF3
  0
DICTIONARY
  5
1000
330
F88
100
AcDbDictionary
280
     1
281
     1
  3
ACAD_XREC_ROUNDTRIP
360
1001
  0
DICTIONARY
  5
1008
330
F8C
100
AcDbDictionary
280
     1
281
     1
  3
ACAD_XREC_ROUNDTRIP
360
1009
  0
DICTIONARY
  5
FFA
330
F85
100
AcDbDictionary
280
     1
281
     1
  3
ACAD_XREC_ROUNDTRIP
360
FFB
  0
DICTIONARY
  5
FFE
330
F87
100
AcDbDictionary
280
     1
281
     1
  3
ACAD_XREC_ROUNDTRIP
360
FFF
  0
DICTIONARY
  5
100E
330
F8F
100
AcDbDictionary
280
     1
281
     1
  3
ACAD_XREC_ROUNDTRIP
360
100F
  0
DICTIONARY
  5
1006
330
F8B
100
AcDbDictionary
280
     1
281
     1
  3
ACAD_XREC_ROUNDTRIP
360
1007
  0
DICTIONARY
  5
FEA
330
F7D
100
AcDbDictionary
280
     1
281
     1
  3
ACAD_XREC_ROUNDTRIP
360
FEB
  0
DICTIONARY
  5
FEC
330
F7E
100
AcDbDictionary
280
     1
281
     1
  3
ACAD_XREC_ROUNDTRIP
360
FED
  0
DICTIONARY
  5
FEE
330
F7F
100
AcDbDictionary
280
     1
281
     1
  3
ACAD_XREC_ROUNDTRIP
360
FEF
  0
DICTIONARY
  5
FF0
330
F80
100
AcDbDictionary
280
     1
281
     1
  3
ACAD_XREC_ROUNDTRIP
360
FF1
  0
DICTIONARY
  5
100A
330
F8D
100
AcDbDictionary
280
     1
281
     1
  3
ACAD_XREC_ROUNDTRIP
360
100B
  0
DICTIONARY
  5
1004
330
F8A
100
AcDbDictionary
280
     1
281
     1
  3
ACAD_XREC_ROUNDTRIP
360
1005
  0
DICTIONARY
  5
100C
330
F8E
100
AcDbDictionary
280
     1
281
     1
  3
ACAD_XREC_ROUNDTRIP
360
100D
  0
DICTIONARY
  5
FFC
330
F86
100
AcDbDictionary
280
     1
281
     1
  3
ACAD_XREC_ROUNDTRIP
360
FFD
  0
DICTIONARY
  5
1002
330
F89
100
AcDbDictionary
280
     1
281
     1
  3
ACAD_XREC_ROUNDTRIP
360
1003
  0
XRECORD
  5
FD1
102
{ACAD_REACTORS
330
FD0
102
}
330
FD0
100
AcDbXrecord
280
     1
102
SHADEPLOT
 70
     0
102
SHADEPLOTRESLEVEL
 70
     2
102
SHADEPLOTCUSTOMDPI
 70
   300
  0
XRECORD
  5
FD5
102
{ACAD_REACTORS
330
FD4
102
}
330
FD4
100
AcDbXrecord
280
     1
102
SHADEPLOT
 70
     0
102
SHADEPLOTRESLEVEL
 70
     2
102
SHADEPLOTCUSTOMDPI
 70
   300
  0
XRECORD
  5
FD3
102
{ACAD_REACTORS
330
FD2
102
}
330
FD2
100
AcDbXrecord
280
     1
102
SHADEPLOT
 70
     0
102
SHADEPLOTRESLEVEL
 70
     2
102
SHADEPLOTCUSTOMDPI
 70
   300
  0
XRECORD
  5
FE8
102
{ACAD_REACTORS
330
F6D
102
}
330
F6D
100
AcDbXrecord
280
     1
102
MATERIAL
148
0.0
149
0.0
149
0.0
 93
        0
 94
      127
282
     0
 72
     0
 77
     0
171
     0
175
     0
179
     0
273
     0
  0
XRECORD
  5
F6F
102
{ACAD_REACTORS
330
F6D
102
}
330
F6D
100
AcDbXrecord
280
     1
270
     1
271
     1
  0
XRECORD
  5
F6E
102
{ACAD_REACTORS
330
F6D
102
}
330
F6D
100
AcDbXrecord
280
     1
270
     1
271
     1
  0
XRECORD
  5
F72
102
{ACAD_REACTORS
330
F6D
102
}
330
F6D
100
AcDbXrecord
280
     1
270
     1
271
     1
  0
XRECORD
  5
F71
102
{ACAD_REACTORS
330
F6D
102
}
330
F6D
100
AcDbXrecord
280
     1
270
     1
271
     1
  0
XRECORD
  5
F73
102
{ACAD_REACTORS
330
F6D
102
}
330
F6D
100
AcDbXrecord
280
     1
270
     1
271
     1
  0
XRECORD
  5
F70
102
{ACAD_REACTORS
330
F6D
102
}
330
F6D
100
AcDbXrecord
280
     1
270
     1
271
     1
  0
XRECORD
  5
FE7
102
{ACAD_REACTORS
330
F65
102
}
330
F65
100
AcDbXrecord
280
     1
102
MATERIAL
148
0.0
149
0.0
149
0.0
 93
        0
 94
      127
282
     0
 72
     0
 77
     0
171
     0
175
     0
179
     0
273
     0
  0
XRECORD
  5
F67
102
{ACAD_REACTORS
330
F65
102
}
330
F65
100
AcDbXrecord
280
     1
270
     1
271
     1
  0
XRECORD
  5
F66
102
{ACAD_REACTORS
330
F65
102
}
330
F65
100
AcDbXrecord
280
     1
270
     1
271
     1
  0
XRECORD
  5
F6A
102
{ACAD_REACTORS
330
F65
102
}
330
F65
100
AcDbXrecord
280
     1
270
     1
271
     1
  0
XRECORD
  5
F69
102
{ACAD_REACTORS
330
F65
102
}
330
F65
100
AcDbXrecord
280
     1
270
     1
271
     1
  0
XRECORD
  5
F6B
102
{ACAD_REACTORS
330
F65
102
}
330
F65
100
AcDbXrecord
280
     1
270
     1
271
     1
  0
XRECORD
  5
F68
102
{ACAD_REACTORS
330
F65
102
}
330
F65
100
AcDbXrecord
280
     1
270
     1
271
     1
  0
XRECORD
  5
FE9
102
{ACAD_REACTORS
330
F75
102
}
330
F75
100
AcDbXrecord
280
     1
102
MATERIAL
148
0.0
149
0.0
149
0.0
 93
        0
 94
      127
282
     0
 72
     0
 77
     0
171
     0
175
     0
179
     0
273
     0
  0
XRECORD
  5
F77
102
{ACAD_REACTORS
330
F75
102
}
330
F75
100
AcDbXrecord
280
     1
270
     1
271
     1
  0
XRECORD
  5
F76
102
{ACAD_REACTORS
330
F75
102
}
330
F75
100
AcDbXrecord
280
     1
270
     1
271
     1
  0
XRECORD
  5
F7A
102
{ACAD_REACTORS
330
F75
102
}
330
F75
100
AcDbXrecord
280
     1
270
     1
271
     1
  0
XRECORD
  5
F79
102
{ACAD_REACTORS
330
F75
102
}
330
F75
100
AcDbXrecord
280
     1
270
     1
271
     1
  0
XRECORD
  5
F7B
102
{ACAD_REACTORS
330
F75
102
}
330
F75
100
AcDbXrecord
280
     1
270
     1
271
     1
  0
XRECORD
  5
F78
102
{ACAD_REACTORS
330
F75
102
}
330
F75
100
AcDbXrecord
280
     1
270
     1
271
     1
  0
CELLSTYLEMAP
  5
FCD
102
{ACAD_REACTORS
330
FCC
102
}
330
FCC
100
AcDbCellStyleMap
 90
        3
300
CELLSTYLE
  1
TABLEFORMAT_BEGIN
 90
        5
170
     1
 91
        0
 92
    32768
 62
   257
 93
        1
300
CONTENTFORMAT
  1
CONTENTFORMAT_BEGIN
 90
        0
 91
        0
 92
        4
 93
        0
300

 40
0.0
140
1.0
 94
        5
 62
     0
340
11
144
6.0
309
CONTENTFORMAT_END
171
     1
301
MARGIN
  1
CELLMARGIN_BEGIN
 40
1.5
 40
1.5
 40
1.5
 40
1.5
 40
0.18
 40
0.18
309
CELLMARGIN_END
 94
        6
 95
        1
302
GRIDFORMAT
  1
GRIDFORMAT_BEGIN
 90
        0
 91
        1
 62
     0
 92
       -2
340
0
 93
        0
 40
0.045
309
GRIDFORMAT_END
 95
        2
302
GRIDFORMAT
  1
GRIDFORMAT_BEGIN
 90
        0
 91
        1
 62
     0
 92
       -2
340
0
 93
        0
 40
0.045
309
GRIDFORMAT_END
 95
        4
302
GRIDFORMAT
  1
GRIDFORMAT_BEGIN
 90
        0
 91
        1
 62
     0
 92
       -2
340
0
 93
        0
 40
0.045
309
GRIDFORMAT_END
 95
        8
302
GRIDFORMAT
  1
GRIDFORMAT_BEGIN
 90
        0
 91
        1
 62
     0
 92
       -2
340
0
 93
        0
 40
0.045
309
GRIDFORMAT_END
 95
       16
302
GRIDFORMAT
  1
GRIDFORMAT_BEGIN
 90
        0
 91
        1
 62
     0
 92
       -2
340
0
 93
        0
 40
0.045
309
GRIDFORMAT_END
 95
       32
302
GRIDFORMAT
  1
GRIDFORMAT_BEGIN
 90
        0
 91
        1
 62
     0
 92
       -2
340
0
 93
        0
 40
0.045
309
GRIDFORMAT_END
309
TABLEFORMAT_END
  1
CELLSTYLE_BEGIN
 90
        1
 91
        1
300
_TITLE
309
CELLSTYLE_END
300
CELLSTYLE
  1
TABLEFORMAT_BEGIN
 90
        5
170
     1
 91
        0
 92
        0
 62
   257
 93
        1
300
CONTENTFORMAT
  1
CONTENTFORMAT_BEGIN
 90
        0
 91
        0
 92
        4
 93
        0
300

 40
0.0
140
1.0
 94
        5
 62
     0
340
11
144
4.5
309
CONTENTFORMAT_END
171
     1
301
MARGIN
  1
CELLMARGIN_BEGIN
 40
1.5
 40
1.5
 40
1.5
 40
1.5
 40
0.18
 40
0.18
309
CELLMARGIN_END
 94
        6
 95
        1
302
GRIDFORMAT
  1
GRIDFORMAT_BEGIN
 90
        0
 91
        1
 62
     0
 92
       -2
340
0
 93
        0
 40
0.045
309
GRIDFORMAT_END
 95
        2
302
GRIDFORMAT
  1
GRIDFORMAT_BEGIN
 90
        0
 91
        1
 62
     0
 92
       -2
340
0
 93
        0
 40
0.045
309
GRIDFORMAT_END
 95
        4
302
GRIDFORMAT
  1
GRIDFORMAT_BEGIN
 90
        0
 91
        1
 62
     0
 92
       -2
340
0
 93
        0
 40
0.045
309
GRIDFORMAT_END
 95
        8
302
GRIDFORMAT
  1
GRIDFORMAT_BEGIN
 90
        0
 91
        1
 62
     0
 92
       -2
340
0
 93
        0
 40
0.045
309
GRIDFORMAT_END
 95
       16
302
GRIDFORMAT
  1
GRIDFORMAT_BEGIN
 90
        0
 91
        1
 62
     0
 92
       -2
340
0
 93
        0
 40
0.045
309
GRIDFORMAT_END
 95
       32
302
GRIDFORMAT
  1
GRIDFORMAT_BEGIN
 90
        0
 91
        1
 62
     0
 92
       -2
340
0
 93
        0
 40
0.045
309
GRIDFORMAT_END
309
TABLEFORMAT_END
  1
CELLSTYLE_BEGIN
 90
        2
 91
        1
300
_HEADER
309
CELLSTYLE_END
300
CELLSTYLE
  1
TABLEFORMAT_BEGIN
 90
        5
170
     1
 91
        0
 92
        0
 62
   257
 93
        1
300
CONTENTFORMAT
  1
CONTENTFORMAT_BEGIN
 90
        0
 91
        0
 92
        4
 93
        0
300

 40
0.0
140
1.0
 94
        2
 62
     0
340
11
144
4.5
309
CONTENTFORMAT_END
171
     1
301
MARGIN
  1
CELLMARGIN_BEGIN
 40
1.5
 40
1.5
 40
1.5
 40
1.5
 40
0.18
 40
0.18
309
CELLMARGIN_END
 94
        6
 95
        1
302
GRIDFORMAT
  1
GRIDFORMAT_BEGIN
 90
        0
 91
        1
 62
     0
 92
       -2
340
0
 93
        0
 40
0.045
309
GRIDFORMAT_END
 95
        2
302
GRIDFORMAT
  1
GRIDFORMAT_BEGIN
 90
        0
 91
        1
 62
     0
 92
       -2
340
0
 93
        0
 40
0.045
309
GRIDFORMAT_END
 95
        4
302
GRIDFORMAT
  1
GRIDFORMAT_BEGIN
 90
        0
 91
        1
 62
     0
 92
       -2
340
0
 93
        0
 40
0.045
309
GRIDFORMAT_END
 95
        8
302
GRIDFORMAT
  1
GRIDFORMAT_BEGIN
 90
        0
 91
        1
 62
     0
 92
       -2
340
0
 93
        0
 40
0.045
309
GRIDFORMAT_END
 95
       16
302
GRIDFORMAT
  1
GRIDFORMAT_BEGIN
 90
        0
 91
        1
 62
     0
 92
       -2
340
0
 93
        0
 40
0.045
309
GRIDFORMAT_END
 95
       32
302
GRIDFORMAT
  1
GRIDFORMAT_BEGIN
 90
        0
 91
        1
 62
     0
 92
       -2
340
0
 93
        0
 40
0.045
309
GRIDFORMAT_END
309
TABLEFORMAT_END
  1
CELLSTYLE_BEGIN
 90
        3
 91
        2
300
_DATA
309
CELLSTYLE_END
  0
XRECORD
  5
FD6
102
{ACAD_REACTORS
330
FCC
102
}
330
FCC
100
AcDbXrecord
280
     1
102
ACAD_ROUNDTRIP_PRE2007_TABLESTYLE
 90
        4
 91
        0
  1

 92
        4
 93
        0
  2

 94
        4
 95
        0
  3

  0
XRECORD
  5
FF5
102
{ACAD_REACTORS
330
FF4
102
}
330
FF4
100
AcDbXrecord
280
     1
102
RTVSPropertyOp0
 70
     1
102
RTVSPropertyOp1
 70
     1
102
RTVSPropertyOp2
 70
     1
102
RTVSPropertyOp3
 70
     1
102
RTVSPropertyOp4
 70
     1
102
RTVSPropertyOp5
 70
     1
102
RTVSPropertyOp6
 70
     1
102
RTVSPropertyOp7
 70
     1
102
RTVSPropertyOp8
 70
     1
102
RTVSPropertyOp9
 70
     1
102
RTVSPropertyOp10
 70
     1
102
RTVSPropertyOp11
 70
     1
102
RTVSPropertyOp12
 70
     1
102
RTVSPropertyOp13
 70
     1
102
RTVSPropertyOp14
 70
     1
102
RTVSPropertyOp15
 70
     1
102
RTVSPropertyOp16
 70
     1
102
RTVSPropertyOp17
 70
     1
102
RTVSPropertyOp18
 70
     1
102
RTVSPropertyOp19
 70
     1
102
RTVSPropertyOp20
 70
     1
102
RTVSPropertyOp21
 70
     1
102
RTVSPropertyOp22
 70
     1
102
RTVSPropertyOp23
 70
     1
102
RTVSPropertyOp24
 70
     1
102
RTVSPropertyOp25
 70
     1
102
RTVSPropertyOp26
 70
     1
102
RTVSPropertyOp27
 70
     1
  0
XRECORD
  5
FF9
102
{ACAD_REACTORS
330
FF8
102
}
330
FF8
100
AcDbXrecord
280
     1
102
RTVSPropertyOp0
 70
     1
102
RTVSPropertyOp1
 70
     1
102
RTVSPropertyOp2
 70
     1
102
RTVSPropertyOp3
 70
     1
102
RTVSPropertyOp4
 70
     1
102
RTVSPropertyOp5
 70
     1
102
RTVSPropertyOp6
 70
     1
102
RTVSPropertyOp7
 70
     1
102
RTVSPropertyOp8
 70
     1
102
RTVSPropertyOp9
 70
     1
102
RTVSPropertyOp10
 70
     1
102
RTVSPropertyOp11
 70
     1
102
RTVSPropertyOp12
 70
     1
102
RTVSPropertyOp13
 70
     1
102
RTVSPropertyOp14
 70
     1
102
RTVSPropertyOp15
 70
     1
102
RTVSPropertyOp16
 70
     1
102
RTVSPropertyOp17
 70
     1
102
RTVSPropertyOp18
 70
     1
102
RTVSPropertyOp19
 70
     1
102
RTVSPropertyOp20
 70
     1
102
RTVSPropertyOp21
 70
     1
102
RTVSPropertyOp22
 70
     1
102
RTVSPropertyOp23
 70
     1
102
RTVSPropertyOp24
 70
     1
102
RTVSPropertyOp25
 70
     1
102
RTVSPropertyOp26
 70
     1
102
RTVSPropertyOp27
 70
     1
  0
XRECORD
  5
FF7
102
{ACAD_REACTORS
330
FF6
102
}
330
FF6
100
AcDbXrecord
280
     1
102
RTVSPropertyOp0
 70
     1
102
RTVSPropertyOp1
 70
     1
102
RTVSPropertyOp2
 70
     1
102
RTVSPropertyOp3
 70
     1
102
RTVSPropertyOp4
 70
     1
102
RTVSPropertyOp5
 70
     1
102
RTVSPropertyOp6
 70
     1
102
RTVSPropertyOp7
 70
     1
102
RTVSPropertyOp8
 70
     1
102
RTVSPropertyOp9
 70
     1
102
RTVSPropertyOp10
 70
     1
102
RTVSPropertyOp11
 70
     1
102
RTVSPropertyOp12
 70
     1
102
RTVSPropertyOp13
 70
     1
102
RTVSPropertyOp14
 70
     1
102
RTVSPropertyOp15
 70
     1
102
RTVSPropertyOp16
 70
     1
102
RTVSPropertyOp17
 70
     1
102
RTVSPropertyOp18
 70
     1
102
RTVSPropertyOp19
 70
     1
102
RTVSPropertyOp20
 70
     1
102
RTVSPropertyOp21
 70
     1
102
RTVSPropertyOp22
 70
     1
102
RTVSPropertyOp23
 70
     1
102
RTVSPropertyOp24
 70
     1
102
RTVSPropertyOp25
 70
     1
102
RTVSPropertyOp26
 70
     1
102
RTVSPropertyOp27
 70
     1
  0
XRECORD
  5
FF3
102
{ACAD_REACTORS
330
FF2
102
}
330
FF2
100
AcDbXrecord
280
     1
102
RTVSPropertyOp0
 70
     1
102
RTVSPropertyOp1
 70
     1
102
RTVSPropertyOp2
 70
     1
102
RTVSPropertyOp3
 70
     1
102
RTVSPropertyOp4
 70
     1
102
RTVSPropertyOp5
 70
     1
102
RTVSPropertyOp6
 70
     1
102
RTVSPropertyOp7
 70
     1
102
RTVSPropertyOp8
 70
     1
102
RTVSPropertyOp9
 70
     1
102
RTVSPropertyOp10
 70
     1
102
RTVSPropertyOp11
 70
     1
102
RTVSPropertyOp12
 70
     1
102
RTVSPropertyOp13
 70
     1
102
RTVSPropertyOp14
 70
     1
102
RTVSPropertyOp15
 70
     1
102
RTVSPropertyOp16
 70
     1
102
RTVSPropertyOp17
 70
     1
102
RTVSPropertyOp18
 70
     1
102
RTVSPropertyOp19
 70
     1
102
RTVSPropertyOp20
 70
     1
102
RTVSPropertyOp21
 70
     1
102
RTVSPropertyOp22
 70
     1
102
RTVSPropertyOp23
 70
     1
102
RTVSPropertyOp24
 70
     1
102
RTVSPropertyOp25
 70
     1
102
RTVSPropertyOp26
 70
     1
102
RTVSPropertyOp27
 70
     1
  0
XRECORD
  5
1001
102
{ACAD_REACTORS
330
1000
102
}
330
1000
100
AcDbXrecord
280
     1
102
RTVSPropertyOp0
 70
     1
102
RTVSPropertyOp1
 70
     1
102
RTVSPropertyOp2
 70
     1
102
RTVSPropertyOp3
 70
     1
102
RTVSPropertyOp4
 70
     1
102
RTVSPropertyOp5
 70
     1
102
RTVSPropertyOp6
 70
     1
102
RTVSPropertyOp7
 70
     1
102
RTVSPropertyOp8
 70
     1
102
RTVSPropertyOp9
 70
     1
102
RTVSPropertyOp10
 70
     1
102
RTVSPropertyOp11
 70
     1
102
RTVSPropertyOp12
 70
     1
102
RTVSPropertyOp13
 70
     1
102
RTVSPropertyOp14
 70
     1
102
RTVSPropertyOp15
 70
     1
102
RTVSPropertyOp16
 70
     1
102
RTVSPropertyOp17
 70
     1
102
RTVSPropertyOp18
 70
     1
102
RTVSPropertyOp19
 70
     1
102
RTVSPropertyOp20
 70
     1
102
RTVSPropertyOp21
 70
     1
102
RTVSPropertyOp22
 70
     1
102
RTVSPropertyOp23
 70
     1
102
RTVSPropertyOp24
 70
     1
102
RTVSPropertyOp25
 70
     1
102
RTVSPropertyOp26
 70
     1
102
RTVSPropertyOp27
 70
     1
  0
XRECORD
  5
1009
102
{ACAD_REACTORS
330
1008
102
}
330
1008
100
AcDbXrecord
280
     1
102
RTVSPropertyOp0
 70
     1
102
RTVSPropertyOp1
 70
     1
102
RTVSPropertyOp2
 70
     1
102
RTVSPropertyOp3
 70
     1
102
RTVSPropertyOp4
 70
     1
102
RTVSPropertyOp5
 70
     1
102
RTVSPropertyOp6
 70
     1
102
RTVSPropertyOp7
 70
     1
102
RTVSPropertyOp8
 70
     1
102
RTVSPropertyOp9
 70
     1
102
RTVSPropertyOp10
 70
     1
102
RTVSPropertyOp11
 70
     1
102
RTVSPropertyOp12
 70
     1
102
RTVSPropertyOp13
 70
     1
102
RTVSPropertyOp14
 70
     1
102
RTVSPropertyOp15
 70
     1
102
RTVSPropertyOp16
 70
     1
102
RTVSPropertyOp17
 70
     1
102
RTVSPropertyOp18
 70
     1
102
RTVSPropertyOp19
 70
     1
102
RTVSPropertyOp20
 70
     1
102
RTVSPropertyOp21
 70
     1
102
RTVSPropertyOp22
 70
     1
102
RTVSPropertyOp23
 70
     1
102
RTVSPropertyOp24
 70
     1
102
RTVSPropertyOp25
 70
     1
102
RTVSPropertyOp26
 70
     1
102
RTVSPropertyOp27
 70
     1
  0
XRECORD
  5
FFB
102
{ACAD_REACTORS
330
FFA
102
}
330
FFA
100
AcDbXrecord
280
     1
102
RTVSPropertyOp0
 70
     1
102
RTVSPropertyOp1
 70
     1
102
RTVSPropertyOp2
 70
     1
102
RTVSPropertyOp3
 70
     1
102
RTVSPropertyOp4
 70
     1
102
RTVSPropertyOp5
 70
     1
102
RTVSPropertyOp6
 70
     1
102
RTVSPropertyOp7
 70
     1
102
RTVSPropertyOp8
 70
     1
102
RTVSPropertyOp9
 70
     1
102
RTVSPropertyOp10
 70
     1
102
RTVSPropertyOp11
 70
     1
102
RTVSPropertyOp12
 70
     1
102
RTVSPropertyOp13
 70
     1
102
RTVSPropertyOp14
 70
     1
102
RTVSPropertyOp15
 70
     1
102
RTVSPropertyOp16
 70
     1
102
RTVSPropertyOp17
 70
     1
102
RTVSPropertyOp18
 70
     1
102
RTVSPropertyOp19
 70
     1
102
RTVSPropertyOp20
 70
     1
102
RTVSPropertyOp21
 70
     1
102
RTVSPropertyOp22
 70
     1
102
RTVSPropertyOp23
 70
     1
102
RTVSPropertyOp24
 70
     1
102
RTVSPropertyOp25
 70
     1
102
RTVSPropertyOp26
 70
     1
102
RTVSPropertyOp27
 70
     1
  0
XRECORD
  5
FFF
102
{ACAD_REACTORS
330
FFE
102
}
330
FFE
100
AcDbXrecord
280
     1
102
RTVSPropertyOp0
 70
     1
102
RTVSPropertyOp1
 70
     1
102
RTVSPropertyOp2
 70
     1
102
RTVSPropertyOp3
 70
     1
102
RTVSPropertyOp4
 70
     1
102
RTVSPropertyOp5
 70
     1
102
RTVSPropertyOp6
 70
     1
102
RTVSPropertyOp7
 70
     1
102
RTVSPropertyOp8
 70
     1
102
RTVSPropertyOp9
 70
     1
102
RTVSPropertyOp10
 70
     1
102
RTVSPropertyOp11
 70
     1
102
RTVSPropertyOp12
 70
     1
102
RTVSPropertyOp13
 70
     1
102
RTVSPropertyOp14
 70
     1
102
RTVSPropertyOp15
 70
     1
102
RTVSPropertyOp16
 70
     1
102
RTVSPropertyOp17
 70
     1
102
RTVSPropertyOp18
 70
     1
102
RTVSPropertyOp19
 70
     1
102
RTVSPropertyOp20
 70
     1
102
RTVSPropertyOp21
 70
     1
102
RTVSPropertyOp22
 70
     1
102
RTVSPropertyOp23
 70
     1
102
RTVSPropertyOp24
 70
     1
102
RTVSPropertyOp25
 70
     1
102
RTVSPropertyOp26
 70
     1
102
RTVSPropertyOp27
 70
     1
  0
XRECORD
  5
100F
102
{ACAD_REACTORS
330
100E
102
}
330
100E
100
AcDbXrecord
280
     1
102
RTVSPropertyOp0
 70
     0
102
RTVSPropertyOp1
 70
     0
102
RTVSPropertyOp2
 70
     0
102
RTVSPropertyOp3
 70
     0
102
RTVSPropertyOp4
 70
     0
102
RTVSPropertyOp5
 70
     0
102
RTVSPropertyOp6
 70
     0
102
RTVSPropertyOp7
 70
     0
102
RTVSPropertyOp8
 70
     0
102
RTVSPropertyOp9
 70
     0
102
RTVSPropertyOp10
 70
     0
102
RTVSPropertyOp11
 70
     0
102
RTVSPropertyOp12
 70
     0
102
RTVSPropertyOp13
 70
     0
102
RTVSPropertyOp14
 70
     2
102
RTVSPropertyOp15
 70
     0
102
RTVSPropertyOp16
 70
     0
102
RTVSPropertyOp17
 70
     0
102
RTVSPropertyOp18
 70
     0
102
RTVSPropertyOp19
 70
     0
102
RTVSPropertyOp20
 70
     0
102
RTVSPropertyOp21
 70
     0
102
RTVSPropertyOp22
 70
     0
102
RTVSPropertyOp23
 70
     0
102
RTVSPropertyOp24
 70
     0
102
RTVSPropertyOp25
 70
     0
102
RTVSPropertyOp26
 70
     0
102
RTVSPropertyOp27
 70
     0
  0
XRECORD
  5
1007
102
{ACAD_REACTORS
330
1006
102
}
330
1006
100
AcDbXrecord
280
     1
102
RTVSPropertyOp0
 70
     1
102
RTVSPropertyOp1
 70
     1
102
RTVSPropertyOp2
 70
     1
102
RTVSPropertyOp3
 70
     1
102
RTVSPropertyOp4
 70
     1
102
RTVSPropertyOp5
 70
     1
102
RTVSPropertyOp6
 70
     1
102
RTVSPropertyOp7
 70
     1
102
RTVSPropertyOp8
 70
     1
102
RTVSPropertyOp9
 70
     1
102
RTVSPropertyOp10
 70
     1
102
RTVSPropertyOp11
 70
     1
102
RTVSPropertyOp12
 70
     1
102
RTVSPropertyOp13
 70
     1
102
RTVSPropertyOp14
 70
     1
102
RTVSPropertyOp15
 70
     1
102
RTVSPropertyOp16
 70
     1
102
RTVSPropertyOp17
 70
     1
102
RTVSPropertyOp18
 70
     1
102
RTVSPropertyOp19
 70
     1
102
RTVSPropertyOp20
 70
     1
102
RTVSPropertyOp21
 70
     1
102
RTVSPropertyOp22
 70
     1
102
RTVSPropertyOp23
 70
     1
102
RTVSPropertyOp24
 70
     1
102
RTVSPropertyOp25
 70
     1
102
RTVSPropertyOp26
 70
     1
102
RTVSPropertyOp27
 70
     1
  0
XRECORD
  5
FEB
102
{ACAD_REACTORS
330
FEA
102
}
330
FEA
100
AcDbXrecord
280
     1
102
RTVSPropertyOp0
 70
     1
102
RTVSPropertyOp1
 70
     1
102
RTVSPropertyOp2
 70
     1
102
RTVSPropertyOp3
 70
     1
102
RTVSPropertyOp4
 70
     1
102
RTVSPropertyOp5
 70
     1
102
RTVSPropertyOp6
 70
     1
102
RTVSPropertyOp7
 70
     1
102
RTVSPropertyOp8
 70
     1
102
RTVSPropertyOp9
 70
     1
102
RTVSPropertyOp10
 70
     1
102
RTVSPropertyOp11
 70
     1
102
RTVSPropertyOp12
 70
     1
102
RTVSPropertyOp13
 70
     1
102
RTVSPropertyOp14
 70
     1
102
RTVSPropertyOp15
 70
     1
102
RTVSPropertyOp16
 70
     1
102
RTVSPropertyOp17
 70
     1
102
RTVSPropertyOp18
 70
     1
102
RTVSPropertyOp19
 70
     1
102
RTVSPropertyOp20
 70
     1
102
RTVSPropertyOp21
 70
     1
102
RTVSPropertyOp22
 70
     1
102
RTVSPropertyOp23
 70
     1
102
RTVSPropertyOp24
 70
     1
102
RTVSPropertyOp25
 70
     1
102
RTVSPropertyOp26
 70
     1
102
RTVSPropertyOp27
 70
     1
  0
XRECORD
  5
FED
102
{ACAD_REACTORS
330
FEC
102
}
330
FEC
100
AcDbXrecord
280
     1
102
RTVSPropertyOp0
 70
     1
102
RTVSPropertyOp1
 70
     1
102
RTVSPropertyOp2
 70
     1
102
RTVSPropertyOp3
 70
     1
102
RTVSPropertyOp4
 70
     1
102
RTVSPropertyOp5
 70
     1
102
RTVSPropertyOp6
 70
     1
102
RTVSPropertyOp7
 70
     1
102
RTVSPropertyOp8
 70
     1
102
RTVSPropertyOp9
 70
     1
102
RTVSPropertyOp10
 70
     1
102
RTVSPropertyOp11
 70
     1
102
RTVSPropertyOp12
 70
     1
102
RTVSPropertyOp13
 70
     1
102
RTVSPropertyOp14
 70
     1
102
RTVSPropertyOp15
 70
     1
102
RTVSPropertyOp16
 70
     1
102
RTVSPropertyOp17
 70
     1
102
RTVSPropertyOp18
 70
     1
102
RTVSPropertyOp19
 70
     1
102
RTVSPropertyOp20
 70
     1
102
RTVSPropertyOp21
 70
     1
102
RTVSPropertyOp22
 70
     1
102
RTVSPropertyOp23
 70
     1
102
RTVSPropertyOp24
 70
     1
102
RTVSPropertyOp25
 70
     1
102
RTVSPropertyOp26
 70
     1
102
RTVSPropertyOp27
 70
     1
  0
XRECORD
  5
FEF
102
{ACAD_REACTORS
330
FEE
102
}
330
FEE
100
AcDbXrecord
280
     1
102
RTVSPropertyOp0
 70
     1
102
RTVSPropertyOp1
 70
     1
102
RTVSPropertyOp2
 70
     1
102
RTVSPropertyOp3
 70
     1
102
RTVSPropertyOp4
 70
     1
102
RTVSPropertyOp5
 70
     1
102
RTVSPropertyOp6
 70
     1
102
RTVSPropertyOp7
 70
     1
102
RTVSPropertyOp8
 70
     1
102
RTVSPropertyOp9
 70
     1
102
RTVSPropertyOp10
 70
     1
102
RTVSPropertyOp11
 70
     1
102
RTVSPropertyOp12
 70
     1
102
RTVSPropertyOp13
 70
     1
102
RTVSPropertyOp14
 70
     1
102
RTVSPropertyOp15
 70
     1
102
RTVSPropertyOp16
 70
     1
102
RTVSPropertyOp17
 70
     1
102
RTVSPropertyOp18
 70
     1
102
RTVSPropertyOp19
 70
     1
102
RTVSPropertyOp20
 70
     1
102
RTVSPropertyOp21
 70
     1
102
RTVSPropertyOp22
 70
     1
102
RTVSPropertyOp23
 70
     1
102
RTVSPropertyOp24
 70
     1
102
RTVSPropertyOp25
 70
     1
102
RTVSPropertyOp26
 70
     1
102
RTVSPropertyOp27
 70
     1
  0
XRECORD
  5
FF1
102
{ACAD_REACTORS
330
FF0
102
}
330
FF0
100
AcDbXrecord
280
     1
102
RTVSPropertyOp0
 70
     1
102
RTVSPropertyOp1
 70
     1
102
RTVSPropertyOp2
 70
     1
102
RTVSPropertyOp3
 70
     1
102
RTVSPropertyOp4
 70
     1
102
RTVSPropertyOp5
 70
     1
102
RTVSPropertyOp6
 70
     1
102
RTVSPropertyOp7
 70
     1
102
RTVSPropertyOp8
 70
     1
102
RTVSPropertyOp9
 70
     1
102
RTVSPropertyOp10
 70
     1
102
RTVSPropertyOp11
 70
     1
102
RTVSPropertyOp12
 70
     1
102
RTVSPropertyOp13
 70
     1
102
RTVSPropertyOp14
 70
     1
102
RTVSPropertyOp15
 70
     1
102
RTVSPropertyOp16
 70
     1
102
RTVSPropertyOp17
 70
     1
102
RTVSPropertyOp18
 70
     1
102
RTVSPropertyOp19
 70
     1
102
RTVSPropertyOp20
 70
     1
102
RTVSPropertyOp21
 70
     1
102
RTVSPropertyOp22
 70
     1
102
RTVSPropertyOp23
 70
     1
102
RTVSPropertyOp24
 70
     1
102
RTVSPropertyOp25
 70
     1
102
RTVSPropertyOp26
 70
     1
102
RTVSPropertyOp27
 70
     1
  0
XRECORD
  5
100B
102
{ACAD_REACTORS
330
100A
102
}
330
100A
100
AcDbXrecord
280
     1
102
RTVSPropertyOp0
 70
     0
102
RTVSPropertyOp1
 70
     0
102
RTVSPropertyOp2
 70
     0
102
RTVSPropertyOp3
 70
     0
102
RTVSPropertyOp4
 70
     0
102
RTVSPropertyOp5
 70
     0
102
RTVSPropertyOp6
 70
     0
102
RTVSPropertyOp7
 70
     0
102
RTVSPropertyOp8
 70
     0
102
RTVSPropertyOp9
 70
     0
102
RTVSPropertyOp10
 70
     0
102
RTVSPropertyOp11
 70
     0
102
RTVSPropertyOp12
 70
     0
102
RTVSPropertyOp13
 70
     0
102
RTVSPropertyOp14
 70
     2
102
RTVSPropertyOp15
 70
     0
102
RTVSPropertyOp16
 70
     0
102
RTVSPropertyOp17
 70
     0
102
RTVSPropertyOp18
 70
     0
102
RTVSPropertyOp19
 70
     0
102
RTVSPropertyOp20
 70
     0
102
RTVSPropertyOp21
 70
     0
102
RTVSPropertyOp22
 70
     0
102
RTVSPropertyOp23
 70
     0
102
RTVSPropertyOp24
 70
     0
102
RTVSPropertyOp25
 70
     0
102
RTVSPropertyOp26
 70
     0
102
RTVSPropertyOp27
 70
     0
  0
XRECORD
  5
1005
102
{ACAD_REACTORS
330
1004
102
}
330
1004
100
AcDbXrecord
280
     1
102
RTVSPropertyOp0
 70
     1
102
RTVSPropertyOp1
 70
     1
102
RTVSPropertyOp2
 70
     1
102
RTVSPropertyOp3
 70
     1
102
RTVSPropertyOp4
 70
     1
102
RTVSPropertyOp5
 70
     1
102
RTVSPropertyOp6
 70
     1
102
RTVSPropertyOp7
 70
     1
102
RTVSPropertyOp8
 70
     1
102
RTVSPropertyOp9
 70
     1
102
RTVSPropertyOp10
 70
     1
102
RTVSPropertyOp11
 70
     1
102
RTVSPropertyOp12
 70
     1
102
RTVSPropertyOp13
 70
     1
102
RTVSPropertyOp14
 70
     1
102
RTVSPropertyOp15
 70
     1
102
RTVSPropertyOp16
 70
     1
102
RTVSPropertyOp17
 70
     1
102
RTVSPropertyOp18
 70
     1
102
RTVSPropertyOp19
 70
     1
102
RTVSPropertyOp20
 70
     1
102
RTVSPropertyOp21
 70
     1
102
RTVSPropertyOp22
 70
     1
102
RTVSPropertyOp23
 70
     1
102
RTVSPropertyOp24
 70
     1
102
RTVSPropertyOp25
 70
     1
102
RTVSPropertyOp26
 70
     1
102
RTVSPropertyOp27
 70
     1
  0
XRECORD
  5
100D
102
{ACAD_REACTORS
330
100C
102
}
330
100C
100
AcDbXrecord
280
     1
102
RTVSPropertyOp0
 70
     0
102
RTVSPropertyOp1
 70
     0
102
RTVSPropertyOp2
 70
     0
102
RTVSPropertyOp3
 70
     0
102
RTVSPropertyOp4
 70
     0
102
RTVSPropertyOp5
 70
     0
102
RTVSPropertyOp6
 70
     0
102
RTVSPropertyOp7
 70
     0
102
RTVSPropertyOp8
 70
     0
102
RTVSPropertyOp9
 70
     0
102
RTVSPropertyOp10
 70
     0
102
RTVSPropertyOp11
 70
     0
102
RTVSPropertyOp12
 70
     0
102
RTVSPropertyOp13
 70
     0
102
RTVSPropertyOp14
 70
     2
102
RTVSPropertyOp15
 70
     0
102
RTVSPropertyOp16
 70
     0
102
RTVSPropertyOp17
 70
     0
102
RTVSPropertyOp18
 70
     0
102
RTVSPropertyOp19
 70
     0
102
RTVSPropertyOp20
 70
     0
102
RTVSPropertyOp21
 70
     0
102
RTVSPropertyOp22
 70
     0
102
RTVSPropertyOp23
 70
     0
102
RTVSPropertyOp24
 70
     0
102
RTVSPropertyOp25
 70
     0
102
RTVSPropertyOp26
 70
     0
102
RTVSPropertyOp27
 70
     0
  0
XRECORD
  5
FFD
102
{ACAD_REACTORS
330
FFC
102
}
330
FFC
100
AcDbXrecord
280
     1
102
RTVSPropertyOp0
 70
     1
102
RTVSPropertyOp1
 70
     1
102
RTVSPropertyOp2
 70
     1
102
RTVSPropertyOp3
 70
     1
102
RTVSPropertyOp4
 70
     1
102
RTVSPropertyOp5
 70
     1
102
RTVSPropertyOp6
 70
     1
102
RTVSPropertyOp7
 70
     1
102
RTVSPropertyOp8
 70
     1
102
RTVSPropertyOp9
 70
     1
102
RTVSPropertyOp10
 70
     1
102
RTVSPropertyOp11
 70
     1
102
RTVSPropertyOp12
 70
     1
102
RTVSPropertyOp13
 70
     1
102
RTVSPropertyOp14
 70
     1
102
RTVSPropertyOp15
 70
     1
102
RTVSPropertyOp16
 70
     1
102
RTVSPropertyOp17
 70
     1
102
RTVSPropertyOp18
 70
     1
102
RTVSPropertyOp19
 70
     1
102
RTVSPropertyOp20
 70
     1
102
RTVSPropertyOp21
 70
     1
102
RTVSPropertyOp22
 70
     1
102
RTVSPropertyOp23
 70
     1
102
RTVSPropertyOp24
 70
     1
102
RTVSPropertyOp25
 70
     1
102
RTVSPropertyOp26
 70
     1
102
RTVSPropertyOp27
 70
     1
  0
XRECORD
  5
1003
102
{ACAD_REACTORS
330
1002
102
}
330
1002
100
AcDbXrecord
280
     1
102
RTVSPropertyOp0
 70
     1
102
RTVSPropertyOp1
 70
     1
102
RTVSPropertyOp2
 70
     1
102
RTVSPropertyOp3
 70
     1
102
RTVSPropertyOp4
 70
     1
102
RTVSPropertyOp5
 70
     1
102
RTVSPropertyOp6
 70
     1
102
RTVSPropertyOp7
 70
     1
102
RTVSPropertyOp8
 70
     1
102
RTVSPropertyOp9
 70
     1
102
RTVSPropertyOp10
 70
     1
102
RTVSPropertyOp11
 70
     1
102
RTVSPropertyOp12
 70
     1
102
RTVSPropertyOp13
 70
     1
102
RTVSPropertyOp14
 70
     1
102
RTVSPropertyOp15
 70
     1
102
RTVSPropertyOp16
 70
     1
102
RTVSPropertyOp17
 70
     1
102
RTVSPropertyOp18
 70
     1
102
RTVSPropertyOp19
 70
     1
102
RTVSPropertyOp20
 70
     1
102
RTVSPropertyOp21
 70
     1
102
RTVSPropertyOp22
 70
     1
102
RTVSPropertyOp23
 70
     1
102
RTVSPropertyOp24
 70
     1
102
RTVSPropertyOp25
 70
     1
102
RTVSPropertyOp26
 70
     1
102
RTVSPropertyOp27
 70
     1
  0
ENDSEC
  0
EOF
