  0
SECTION
  2
HEADER
  9
$ACADVER
  1
AC1015
  9
$ACADMAINTVER
 70
    20
  9
$DWGCODEPAGE
  3
ANSI_1252
  9
$INSBASE
 10
0.0
 20
0.0
 30
0.0
  9
$EXTMIN
 10
428.6137284989816
 20
906.2663899262362
 30
0.0
  9
$EXTMAX
 10
430.7095145266755
 20
906.6863899262363
 30
0.0
  9
$LIMMIN
 10
0.0
 20
0.0
  9
$LIMMAX
 10
420.0
 20
297.0
  9
$ORTHOMODE
 70
     1
  9
$REGENMODE
 70
     1
  9
$FILLMODE
 70
     1
  9
$QTEXTMODE
 70
     0
  9
$MIRRTEXT
 70
     1
  9
$LTSCALE
 40
1.0
  9
$ATTMODE
 70
     1
  9
$TEXTSIZE
 40
2.5
  9
$TRACEWID
 40
1.0
  9
$TEXTSTYLE
  7
SANINDUSA
  9
$CLAYER
  8
cotas
  9
$CELTYPE
  6
ByLayer
  9
$CECOLOR
 62
   256
  9
$CELTSCALE
 40
1.0
  9
$DISPSILH
 70
     0
  9
$DIMSCALE
 40
1.0
  9
$DIMASZ
 40
2.0
  9
$DIMEXO
 40
1.0
  9
$DIMDLI
 40
1.0
  9
$DIMRND
 40
0.0
  9
$DIMDLE
 40
0.0
  9
$DIMEXE
 40
1.0
  9
$DIMTP
 40
0.0
  9
$DIMTM
 40
0.0
  9
$DIMTXT
 40
2.0
  9
$DIMCEN
 40
0.0
  9
$DIMTSZ
 40
0.0
  9
$DIMTOL
 70
     0
  9
$DIMLIM
 70
     0
  9
$DIMTIH
 70
     0
  9
$DIMTOH
 70
     0
  9
$DIMSE1
 70
     0
  9
$DIMSE2
 70
     0
  9
$DIMTAD
 70
     1
  9
$DIMZIN
 70
     8
  9
$DIMBLK
  1

  9
$DIMASO
 70
     1
  9
$DIMSHO
 70
     1
  9
$DIMPOST
  1

  9
$DIMAPOST
  1

  9
$DIMALT
 70
     0
  9
$DIMALTD
 70
     3
  9
$DIMALTF
 40
0.03937007874016
  9
$DIMLFAC
 40
1.0
  9
$DIMTOFL
 70
     1
  9
$DIMTVP
 40
0.0
  9
$DIMTIX
 70
     0
  9
$DIMSOXD
 70
     0
  9
$DIMSAH
 70
     0
  9
$DIMBLK1
  1

  9
$DIMBLK2
  1

  9
$DIMSTYLE
  2
SANINDUSA
  9
$DIMCLRD
 70
   256
  9
$DIMCLRE
 70
   256
  9
$DIMCLRT
 70
   256
  9
$DIMTFAC
 40
1.0
  9
$DIMGAP
 40
1.0
  9
$DIMJUST
 70
     0
  9
$DIMSD1
 70
     0
  9
$DIMSD2
 70
     0
  9
$DIMTOLJ
 70
     0
  9
$DIMTZIN
 70
     8
  9
$DIMALTZ
 70
     0
  9
$DIMALTTZ
 70
     0
  9
$DIMUPT
 70
     0
  9
$DIMDEC
 70
     1
  9
$DIMTDEC
 70
     1
  9
$DIMALTU
 70
     2
  9
$DIMALTTD
 70
     3
  9
$DIMTXSTY
  7
SANINDUSA
  9
$DIMAUNIT
 70
     0
  9
$DIMADEC
 70
     1
  9
$DIMALTRND
 40
0.0
  9
$DIMAZIN
 70
     0
  9
$DIMDSEP
 70
    44
  9
$DIMATFIT
 70
     3
  9
$DIMFRAC
 70
     0
  9
$DIMLDRBLK
  1

  9
$DIMLUNIT
 70
     2
  9
$DIMLWD
 70
    -1
  9
$DIMLWE
 70
    -1
  9
$DIMTMOVE
 70
     0
  9
$LUNITS
 70
     2
  9
$LUPREC
 70
     4
  9
$SKETCHINC
 40
1.0
  9
$FILLETRAD
 40
0.0
  9
$AUNITS
 70
     0
  9
$AUPREC
 70
     0
  9
$MENU
  1
.
  9
$ELEVATION
 40
0.0
  9
$PELEVATION
 40
0.0
  9
$THICKNESS
 40
0.0
  9
$LIMCHECK
 70
     0
  9
$CHAMFERA
 40
10.0
  9
$CHAMFERB
 40
10.0
  9
$CHAMFERC
 40
20.0
  9
$CHAMFERD
 40
0.0
  9
$SKPOLY
 70
     0
  9
$TDCREATE
 40
2453496.577935474
  9
$TDUCREATE
 40
2453496.536268808
  9
$TDUPDATE
 40
2456146.472220591
  9
$TDUUPDATE
 40
2456146.430553924
  9
$TDINDWG
 40
0.0032761806
  9
$TDUSRTIMER
 40
0.0032761806
  9
$USRTIMER
 70
     1
  9
$ANGBASE
 50
0.0
  9
$ANGDIR
 70
     0
  9
$PDMODE
 70
     0
  9
$PDSIZE
 40
0.0
  9
$PLINEWID
 40
0.0
  9
$SPLFRAME
 70
     0
  9
$SPLINETYPE
 70
     6
  9
$SPLINESEGS
 70
     8
  9
$HANDSEED
  5
106C
  9
$SURFTAB1
 70
     6
  9
$SURFTAB2
 70
     6
  9
$SURFTYPE
 70
     6
  9
$SURFU
 70
     6
  9
$SURFV
 70
     6
  9
$UCSBASE
  2

  9
$UCSNAME
  2

  9
$UCSORG
 10
0.0
 20
0.0
 30
0.0
  9
$UCSXDIR
 10
1.0
 20
0.0
 30
0.0
  9
$UCSYDIR
 10
0.0
 20
1.0
 30
0.0
  9
$UCSORTHOREF
  2

  9
$UCSORTHOVIEW
 70
     0
  9
$UCSORGTOP
 10
0.0
 20
0.0
 30
0.0
  9
$UCSORGBOTTOM
 10
0.0
 20
0.0
 30
0.0
  9
$UCSORGLEFT
 10
0.0
 20
0.0
 30
0.0
  9
$UCSORGRIGHT
 10
0.0
 20
0.0
 30
0.0
  9
$UCSORGFRONT
 10
0.0
 20
0.0
 30
0.0
  9
$UCSORGBACK
 10
0.0
 20
0.0
 30
0.0
  9
$PUCSBASE
  2

  9
$PUCSNAME
  2

  9
$PUCSORG
 10
0.0
 20
0.0
 30
0.0
  9
$PUCSXDIR
 10
1.0
 20
0.0
 30
0.0
  9
$PUCSYDIR
 10
0.0
 20
1.0
 30
0.0
  9
$PUCSORTHOREF
  2

  9
$PUCSORTHOVIEW
 70
     0
  9
$PUCSORGTOP
 10
0.0
 20
0.0
 30
0.0
  9
$PUCSORGBOTTOM
 10
0.0
 20
0.0
 30
0.0
  9
$PUCSORGLEFT
 10
0.0
 20
0.0
 30
0.0
  9
$PUCSORGRIGHT
 10
0.0
 20
0.0
 30
0.0
  9
$PUCSORGFRONT
 10
0.0
 20
0.0
 30
0.0
  9
$PUCSORGBACK
 10
0.0
 20
0.0
 30
0.0
  9
$USERI1
 70
     0
  9
$USERI2
 70
     0
  9
$USERI3
 70
     0
  9
$USERI4
 70
     0
  9
$USERI5
 70
     0
  9
$USERR1
 40
0.0
  9
$USERR2
 40
0.0
  9
$USERR3
 40
0.0
  9
$USERR4
 40
0.0
  9
$USERR5
 40
0.0
  9
$WORLDVIEW
 70
     1
  9
$SHADEDGE
 70
     3
  9
$SHADEDIF
 70
    70
  9
$TILEMODE
 70
     1
  9
$MAXACTVP
 70
    64
  9
$PINSBASE
 10
0.0
 20
0.0
 30
0.0
  9
$PLIMCHECK
 70
     0
  9
$PEXTMIN
 10
1.000000000000000E+20
 20
1.000000000000000E+20
 30
1.000000000000000E+20
  9
$PEXTMAX
 10
-1.000000000000000E+20
 20
-1.000000000000000E+20
 30
-1.000000000000000E+20
  9
$PLIMMIN
 10
0.0
 20
0.0
  9
$PLIMMAX
 10
420.0
 20
297.0
  9
$UNITMODE
 70
     0
  9
$VISRETAIN
 70
     1
  9
$PLINEGEN
 70
     0
  9
$PSLTSCALE
 70
     1
  9
$TREEDEPTH
 70
  3020
  9
$CMLSTYLE
  2
Standard
  9
$CMLJUST
 70
     0
  9
$CMLSCALE
 40
20.0
  9
$PROXYGRAPHICS
 70
     1
  9
$MEASUREMENT
 70
     1
  9
$CELWEIGHT
370
    -1
  9
$ENDCAPS
280
     0
  9
$JOINSTYLE
280
     0
  9
$LWDISPLAY
290
     0
  9
$INSUNITS
 70
     4
  9
$HYPERLINKBASE
  1

  9
$STYLESHEET
  1
monochrome.ctb
  9
$XEDIT
290
     1
  9
$CEPSNTYPE
380
     0
  9
$PSTYLEMODE
290
     1
  9
$FINGERPRINTGUID
  2
{B98A73AA-52AA-4C10-B469-C0E7150AC31F}
  9
$VERSIONGUID
  2
{FDF925D0-F01F-44A1-A6FF-314AF72CC9DD}
  9
$EXTNAMES
290
     1
  9
$PSVPSCALE
 40
0.0
  9
$OLESTARTUP
290
     0
  0
ENDSEC
  0
SECTION
  2
CLASSES
  0
CLASS
  1
ACDBDICTIONARYWDFLT
  2
AcDbDictionaryWithDefault
  3
ObjectDBX Classes
 90
        0
280
     0
281
     0
  0
CLASS
  1
ACDBPLACEHOLDER
  2
AcDbPlaceHolder
  3
ObjectDBX Classes
 90
        0
280
     0
281
     0
  0
CLASS
  1
LAYOUT
  2
AcDbLayout
  3
ObjectDBX Classes
 90
        0
280
     0
281
     0
  0
CLASS
  1
DICTIONARYVAR
  2
AcDbDictionaryVar
  3
ObjectDBX Classes
 90
        0
280
     0
281
     0
  0
CLASS
  1
DIMASSOC
  2
AcDbDimAssoc
  3
"AcDbDimAssoc|Product Desc:     AcDim ARX App For Dimension|Company:          Autodesk, Inc.|WEB Address:      www.autodesk.com"
 90
    32768
280
     0
281
     0
  0
CLASS
  1
MATERIAL
  2
AcDbMaterial
  3
ObjectDBX Classes
 90
     1153
280
     0
281
     0
  0
CLASS
  1
VISUALSTYLE
  2
AcDbVisualStyle
  3
ObjectDBX Classes
 90
     4095
280
     0
281
     0
  0
CLASS
  1
TABLESTYLE
  2
AcDbTableStyle
  3
ObjectDBX Classes
 90
     4095
280
     0
281
     0
  0
CLASS
  1
SCALE
  2
AcDbScale
  3
ObjectDBX Classes
 90
     1153
280
     0
281
     0
  0
CLASS
  1
MLEADERSTYLE
  2
AcDbMLeaderStyle
  3
ACDB_MLEADERSTYLE_CLASS
 90
     4095
280
     0
281
     0
  0
CLASS
  1
CELLSTYLEMAP
  2
AcDbCellStyleMap
  3
ObjectDBX Classes
 90
     1152
280
     0
281
     0
  0
ENDSEC
  0
SECTION
  2
TABLES
  0
TABLE
  2
VPORT
  5
8
330
0
100
AcDbSymbolTable
 70
     1
  0
VPORT
  5
FAC
330
8
100
AcDbSymbolTableRecord
100
AcDbViewportTableRecord
  2
*Active
 70
     0
 10
0.0
 20
0.0
 11
1.0
 21
1.0
 12
429.7044273176693
 22
906.4325126913839
 13
0.0
 23
0.0
 14
10.0
 24
10.0
 15
10.0
 25
10.0
 16
0.0
 26
0.0
 36
1.0
 17
0.0
 27
0.0
 37
0.0
 40
1.64772541963498
 41
1.645464025026068
 42
50.0
 43
0.0
 44
0.0
 50
0.0
 51
0.0
 71
     0
 72
   100
 73
     1
 74
     2
 75
     0
 76
     0
 77
     0
 78
     0
281
     0
 65
     1
110
0.0
120
0.0
130
0.0
111
1.0
121
0.0
131
0.0
112
0.0
122
1.0
132
0.0
 79
     0
146
0.0
  0
ENDTAB
  0
TABLE
  2
LTYPE
  5
5
330
0
100
AcDbSymbolTable
 70
     3
  0
LTYPE
  5
14
330
5
100
AcDbSymbolTableRecord
100
AcDbLinetypeTableRecord
  2
ByBlock
 70
     0
  3

 72
    65
 73
     0
 40
0.0
  0
LTYPE
  5
15
330
5
100
AcDbSymbolTableRecord
100
AcDbLinetypeTableRecord
  2
ByLayer
 70
     0
  3

 72
    65
 73
     0
 40
0.0
  0
LTYPE
  5
16
330
5
100
AcDbSymbolTableRecord
100
AcDbLinetypeTableRecord
  2
Continuous
 70
     0
  3
Solid line
 72
    65
 73
     0
 40
0.0
  0
LTYPE
  5
2D
330
5
100
AcDbSymbolTableRecord
100
AcDbLinetypeTableRecord
  2
DASHDOT
 70
     0
  3
Dash dot __ . __ . __ . __ . __ . __ . __ . __
 72
    65
 73
     4
 40
25.4
 49
12.7
 74
     0
 49
-6.349999999999999
 74
     0
 49
0.0
 74
     0
 49
-6.349999999999999
 74
     0
  0
LTYPE
  5
2E
330
5
100
AcDbSymbolTableRecord
100
AcDbLinetypeTableRecord
  2
HIDDEN
 70
     0
  3
Hidden __ __ __ __ __ __ __ __ __ __ __ __ __ _
 72
    65
 73
     2
 40
9.524999999999998
 49
6.349999999999999
 74
     0
 49
-3.174999999999999
 74
     0
  0
ENDTAB
  0
TABLE
  2
LAYER
  5
2
330
0
100
AcDbSymbolTable
 70
    16
  0
LAYER
  5
10
102
{ACAD_XDICTIONARY
360
FF7
102
}
330
2
100
AcDbSymbolTableRecord
100
AcDbLayerTableRecord
  2
0
 70
     0
 62
     7
  6
Continuous
370
    -3
390
F
  0
LAYER
  5
2F
102
{ACAD_XDICTIONARY
360
FF9
102
}
330
2
100
AcDbSymbolTableRecord
100
AcDbLayerTableRecord
  2
1
 70
     0
 62
     1
  6
Continuous
370
    -3
390
F
  0
LAYER
  5
30
102
{ACAD_XDICTIONARY
360
FFB
102
}
330
2
100
AcDbSymbolTableRecord
100
AcDbLayerTableRecord
  2
2
 70
     0
 62
     2
  6
Continuous
370
    -3
390
F
  0
LAYER
  5
31
102
{ACAD_XDICTIONARY
360
FFD
102
}
330
2
100
AcDbSymbolTableRecord
100
AcDbLayerTableRecord
  2
3
 70
     0
 62
     3
  6
Continuous
370
    -3
390
F
  0
LAYER
  5
32
102
{ACAD_XDICTIONARY
360
FFF
102
}
330
2
100
AcDbSymbolTableRecord
100
AcDbLayerTableRecord
  2
4
 70
     0
 62
     4
  6
Continuous
370
    -3
390
F
  0
LAYER
  5
33
102
{ACAD_XDICTIONARY
360
1001
102
}
330
2
100
AcDbSymbolTableRecord
100
AcDbLayerTableRecord
  2
5
 70
     0
 62
     5
  6
Continuous
370
    -3
390
F
  0
LAYER
  5
34
102
{ACAD_XDICTIONARY
360
1003
102
}
330
2
100
AcDbSymbolTableRecord
100
AcDbLayerTableRecord
  2
6
 70
     0
 62
     6
  6
Continuous
370
    -3
390
F
  0
LAYER
  5
35
102
{ACAD_XDICTIONARY
360
1005
102
}
330
2
100
AcDbSymbolTableRecord
100
AcDbLayerTableRecord
  2
7
 70
     0
 62
     7
  6
Continuous
370
    -3
390
F
  0
LAYER
  5
36
102
{ACAD_XDICTIONARY
360
1007
102
}
330
2
100
AcDbSymbolTableRecord
100
AcDbLayerTableRecord
  2
cen
 70
     0
 62
     7
  6
DASHDOT
370
    -3
390
F
  0
LAYER
  5
37
102
{ACAD_XDICTIONARY
360
1009
102
}
330
2
100
AcDbSymbolTableRecord
100
AcDbLayerTableRecord
  2
hid
 70
     0
 62
     7
  6
HIDDEN
370
    -3
390
F
  0
LAYER
  5
5D6
102
{ACAD_XDICTIONARY
360
100B
102
}
330
2
100
AcDbSymbolTableRecord
100
AcDbLayerTableRecord
  2
hatch
 70
     0
 62
     9
  6
Continuous
370
    -3
390
F
  0
LAYER
  5
8AF
102
{ACAD_XDICTIONARY
360
100D
102
}
330
2
100
AcDbSymbolTableRecord
100
AcDbLayerTableRecord
  2
9
 70
     0
 62
     9
  6
Continuous
370
    -3
390
F
  0
LAYER
  5
8F8
102
{ACAD_XDICTIONARY
360
100F
102
}
330
2
100
AcDbSymbolTableRecord
100
AcDbLayerTableRecord
  2
leg fin
 70
     0
 62
     9
  6
Continuous
370
    -3
390
F
  0
LAYER
  5
91D
102
{ACAD_XDICTIONARY
360
1011
102
}
330
2
100
AcDbSymbolTableRecord
100
AcDbLayerTableRecord
  2
cotas
 70
     0
 62
     1
  6
Continuous
370
    -3
390
F
  0
LAYER
  5
92F
330
2
100
AcDbSymbolTableRecord
100
AcDbLayerTableRecord
  2
Defpoints
 70
     0
 62
     7
  6
Continuous
290
     0
370
    -3
390
F
  0
LAYER
  5
BA5
102
{ACAD_XDICTIONARY
360
1013
102
}
330
2
100
AcDbSymbolTableRecord
100
AcDbLayerTableRecord
  2
SANINDUSA
 70
     0
 62
     3
  6
Continuous
370
    -3
390
F
  0
ENDTAB
  0
TABLE
  2
STYLE
  5
3
330
0
100
AcDbSymbolTable
 70
     3
  0
STYLE
  5
11
330
3
100
AcDbSymbolTableRecord
100
AcDbTextStyleTableRecord
  2
Standard
 70
     0
 40
0.0
 41
1.0
 50
0.0
 71
     0
 42
2.5
  3
Avgardn.ttf
  4

1001
ACAD
1000
AvantGarde Bk BT
1071
       34
  0
STYLE
  5
2C
330
3
100
AcDbSymbolTableRecord
100
AcDbTextStyleTableRecord
  2

 70
     1
 40
0.0
 41
1.0
 50
0.0
 71
     0
 42
2.5
  3
ltypeshp.shx
  4

  0
STYLE
  5
91F
330
3
100
AcDbSymbolTableRecord
100
AcDbTextStyleTableRecord
  2
SANINDUSA
 70
     0
 40
0.0
 41
1.0
 50
0.0
 71
     0
 42
2.5
  3
verdana.TTF
  4

1001
ACAD
1000
Verdana
1071
       34
  0
ENDTAB
  0
TABLE
  2
VIEW
  5
6
330
0
100
AcDbSymbolTable
 70
     0
  0
ENDTAB
  0
TABLE
  2
UCS
  5
7
330
0
100
AcDbSymbolTable
 70
     0
  0
ENDTAB
  0
TABLE
  2
APPID
  5
9
330
0
100
AcDbSymbolTable
 70
     3
  0
APPID
  5
12
330
9
100
AcDbSymbolTableRecord
100
AcDbRegAppTableRecord
  2
ACAD
 70
     0
  0
APPID
  5
3A
330
9
100
AcDbSymbolTableRecord
100
AcDbRegAppTableRecord
  2
DCO15
 70
     0
  0
APPID
  5
106B
330
9
100
AcDbSymbolTableRecord
100
AcDbRegAppTableRecord
  2
ACAD_MLEADERVER
 70
     0
  0
ENDTAB
  0
TABLE
  2
DIMSTYLE
  5
A
330
0
100
AcDbSymbolTable
 70
     2
100
AcDbDimStyleTable
 71
     1
340
921
  0
DIMSTYLE
105
45
330
A
100
AcDbSymbolTableRecord
100
AcDbDimStyleTableRecord
  2
STANDARD
 70
     0
289
     0
340
11
  0
DIMSTYLE
105
921
330
A
100
AcDbSymbolTableRecord
100
AcDbDimStyleTableRecord
  2
SANINDUSA
 70
     0
 41
2.0
 42
1.0
 43
1.0
 44
1.0
 73
     0
 74
     0
 77
     1
 78
     8
140
2.0
141
0.0
143
0.03937007874016
147
1.0
171
     3
172
     1
176
   256
177
   256
178
   256
179
     1
271
     1
272
     1
274
     3
278
    44
283
     0
284
     8
340
91F
371
    -1
372
    -1
  0
ENDTAB
  0
TABLE
  2
BLOCK_RECORD
  5
1
330
0
100
AcDbSymbolTable
 70
    36
  0
BLOCK_RECORD
  5
1F
330
1
100
AcDbSymbolTableRecord
100
AcDbBlockTableRecord
  2
*Model_Space
340
22
  0
BLOCK_RECORD
  5
1B
330
1
100
AcDbSymbolTableRecord
100
AcDbBlockTableRecord
  2
*Paper_Space
340
1E
  0
BLOCK_RECORD
  5
23
330
1
100
AcDbSymbolTableRecord
100
AcDbBlockTableRecord
  2
*Paper_Space0
340
26
  0
BLOCK_RECORD
  5
919
330
1
100
AcDbSymbolTableRecord
100
AcDbBlockTableRecord
  2
_DotSmall
340
0
  0
BLOCK_RECORD
  5
922
330
1
100
AcDbSymbolTableRecord
100
AcDbBlockTableRecord
  2
base para cotas
340
0
310
2800000020000000200000000100080000000000000400000000000000000000000000000000000000000000000080000080000000808000800000008000800080800000C0C0C000C0DCC000F0CAA6000020400000206000002080000020A0000020C0000020E00000400000004020000040400000406000004080000040A0
310
000040C0000040E00000600000006020000060400000606000006080000060A0000060C0000060E00000800000008020000080400000806000008080000080A0000080C0000080E00000A0000000A0200000A0400000A0600000A0800000A0A00000A0C00000A0E00000C0000000C0200000C0400000C0600000C0800000C0
310
A00000C0C00000C0E00000E0000000E0200000E0400000E0600000E0800000E0A00000E0C00000E0E00040000000400020004000400040006000400080004000A0004000C0004000E00040200000402020004020400040206000402080004020A0004020C0004020E000404000004040200040404000404060004040800040
310
40A0004040C0004040E00040600000406020004060400040606000406080004060A0004060C0004060E00040800000408020004080400040806000408080004080A0004080C0004080E00040A0000040A0200040A0400040A0600040A0800040A0A00040A0C00040A0E00040C0000040C0200040C0400040C0600040C08000
310
40C0A00040C0C00040C0E00040E0000040E0200040E0400040E0600040E0800040E0A00040E0C00040E0E00080000000800020008000400080006000800080008000A0008000C0008000E00080200000802020008020400080206000802080008020A0008020C0008020E00080400000804020008040400080406000804080
310
008040A0008040C0008040E00080600000806020008060400080606000806080008060A0008060C0008060E00080800000808020008080400080806000808080008080A0008080C0008080E00080A0000080A0200080A0400080A0600080A0800080A0A00080A0C00080A0E00080C0000080C0200080C0400080C0600080C0
310
800080C0A00080C0C00080C0E00080E0000080E0200080E0400080E0600080E0800080E0A00080E0C00080E0E000C0000000C0002000C0004000C0006000C0008000C000A000C000C000C000E000C0200000C0202000C0204000C0206000C0208000C020A000C020C000C020E000C0400000C0402000C0404000C0406000C0
310
408000C040A000C040C000C040E000C0600000C0602000C0604000C0606000C0608000C060A000C060C000C060E000C0800000C0802000C0804000C0806000C0808000C080A000C080C000C080E000C0A00000C0A02000C0A04000C0A06000C0A08000C0A0A000C0A0C000C0A0E000C0C00000C0C02000C0C04000C0C06000
310
C0C08000C0C0A000F0FBFF00A4A0A000808080000000FF0000FF000000FFFF00FF000000FF00FF00FFFF0000FFFFFF00A4A4A4A4A4A4A4A4A4A4A4A4A4A4A4A4A4A4A4A4A4A4A4A4A4A4A4A4A4A4A4A4A4A4A4A4A4A4A4A4A4A4A4A4A4A4A4A4A4A4A4A4A4A4A4A4A4A4A4A4A4A4A4A4A4A4A4A4A4A4A4A4A4A4A4A4A4A4A4
310
A4A4A4A4A4A4A4A4A4A4A4A4A4A4A4A4A4A4A4A4A4A4A4A4A4A4A4A4A4A4A4A4A4A4A4A4A4A4A4A4A4A4A4A4A4A4A4A4A4A4A4A4A4A4A4A4A4A4A4A4A4A4A4A4A4A4A4A4A4A4A4A4A4A4A4A4A4A4A4A4A4A4A4A4A4A4A4A4A4A4A4A4A4A4A4A4A4A4A4A4A4A4A4A4A4A4A4A4A4A4A4A4A4A4A4A4A4A4A4A4A4A4A4A4A4A4A4
310
A4A4A4A4A4A4A4A4A4A4A4A4A4A4A4A4A4A4A4A4A4A4A4A4A4A4A4A4A4A4A4A4A4A4A4A4A4A4A4A4A4A4A4A4A4A4A4A4A4A4A4A4A4A4A4A4A4A4A4A4A4A4A4A4A4A4A4A4A4A4A4A4A4A4A4A4A4A4A4A4A4A4A4A4A4A4A4A4A4A4A4A4A4A4A4A4A4A4A4A4A4A4A4A4A4A4A4A4A4A4A4A4A4A4A4A4A4A4A4A4A4A4A4A4A4A4A4
310
A4A4A4A4A4A4A4A4A4A4A4A4A4A4A4A4A4A4A4A4A4A4A4A4A4A4A4A4A4A4A4A4A4A4A4A4A4A4A4A4A4A4A4A4A4A4A4A4A4A4A4A4A4A4A4A4A4A4A4A4A4A4A4A4A4A4A4A4A4A4A4A4A4A4A4A4A4A4A4A4A4A4A4A4A4A4A4A4A4A4A4A4A4A4A4A4A4A4A4A4A4A4A4A4A4A4A4A4A4A4A4A4A4A4A4A4F9F9F9F9F9F9F9F9F9F9F9
310
F9F9F9F9F9F9F9F9F9F9F9F9F9F9F9F9F9F9F9A4A4F9F9F9F9F9F9F9F9F9F9F9F9F9F9F9F9F9F9F9F9F9F9F9F9F9F9F9F9F9F9A4A4F9F9F9F9F9F9F9F9F9F9F9F9F9F9F9F9F9F9F9F9F9F9F9F9F9F9F9F9F9F9A4A4F9A4A4A4A4A4A4A4A4A4A4A4A4A4A4A4A4A4A4A4A4A4A4A4A4A4A4A4A4F9A4A4A4A4A4A4A4A4A4A4A4A4
310
A4A4A4A4A4A4A4A4A4A4A4A4A4A4A4A4A4A4A4A4A4A4A4A4A4A4A4A4A4A4A4A4A4A4A4A4A4A4A4A4A4A4A4A4A4A4A4A4A4A4A4A4A4A4A4A4A4A4A4A4A4A4A4A4A4A4A4A4A4A4A4A4A4A4A4A4A4A4A4A4A4A4A4A4A4A4A4A4A4A4A4A4A4A4A4A4A4A4A4A4A4A4A4A4A4A4A4A4A4A4A4A4A4A4A4A4A4A4A4A4A4A4A4A4A4A4A4
310
A4A4A4A4A4A4A4A4A4A4A4A4A4A4A4A4A4A4A4A4A4A4A4A4A4A4A4A4A4A4A4A4A4A4A4A4A4A4A4A4A4A4A4A4A4A4A4A4A4A4A4A4A4A4A4A4A4A4A4A4A4A4A4A4A4A4A4A4A4A4A4A4A4A4A4A4A4A4A4A4A4A4A4A4A4A4A4A4A4A4A4A4A4A4A4A4A4A4A4A4A4A4A4A4A4A4A4A4A4A4A4A4A4A4A4A4A4A4A4A4A4A4A4A4A4A4A4
310
A4A4A4A4A4A4A4A4A4A4A4A4A4A4A4A4A4A4A4A4A4A4A4A4A4A4A4A4A4A4A4A4A4A4A4A4A4A4A4A4A4A4A4A4A4A4A4A4A4A4A4A4A4A4A4A4A4A4A4A4A4A4A4A4A4A4A4A4A4A4A4A4A4A4A4A4A4A4A4A4A4A4A4A4A4A4A4A4A4A4A4A4A4A4A4A4A4A4A4A4A4A4A4A4A4A4A4A4A4A4A4A4A4A4A4A4A4A4A4A4A4A4A4A4A4A4A4
310
A4A4A4A4A4A4A4A4A4A4A4A4A4A4A4A4A4A4A4A4A4A4A4A4A4A4A4A4A4A4A4A4A4A4A4A4A4A4A4A4A4A4A4A4A4A4A4A4A4A4A4A4A4A4A4A4
1001
ACAD
1000
DesignCenter Data
1002
{
1070
     1
1070
     4
1002
}
  0
BLOCK_RECORD
  5
AA8
330
1
100
AcDbSymbolTableRecord
100
AcDbBlockTableRecord
  2
_CLOSED
340
0
  0
ENDTAB
  0
ENDSEC
  0
SECTION
  2
BLOCKS
  0
BLOCK
  5
20
330
1F
100
AcDbEntity
  8
0
100
AcDbBlockBegin
  2
*Model_Space
 70
     0
 10
0.0
 20
0.0
 30
0.0
  3
*Model_Space
  1

  0
ENDBLK
  5
21
330
1F
100
AcDbEntity
  8
0
100
AcDbBlockEnd
  0
BLOCK
  5
1C
330
1B
100
AcDbEntity
 67
     1
  8
0
100
AcDbBlockBegin
  2
*Paper_Space
 70
     0
 10
0.0
 20
0.0
 30
0.0
  3
*Paper_Space
  1

  0
ENDBLK
  5
1D
330
1B
100
AcDbEntity
 67
     1
  8
0
100
AcDbBlockEnd
  0
BLOCK
  5
24
330
23
100
AcDbEntity
 67
     1
  8
0
100
AcDbBlockBegin
  2
*Paper_Space0
 70
     0
 10
0.0
 20
0.0
 30
0.0
  3
*Paper_Space0
  1

  0
ENDBLK
  5
25
330
23
100
AcDbEntity
 67
     1
  8
0
100
AcDbBlockEnd
  0
BLOCK
  5
91B
330
919
100
AcDbEntity
  8
0
100
AcDbBlockBegin
  2
_DotSmall
 70
     0
 10
0.0
 20
0.0
 30
0.0
  3
_DotSmall
  1

  0
LWPOLYLINE
  5
91A
330
919
100
AcDbEntity
  8
0
  6
ByBlock
 62
     0
100
AcDbPolyline
 90
        2
 70
     1
 43
0.5
 10
-0.0625
 20
0.0
 42
1.0
 10
0.0625
 20
0.0
 42
1.0
  0
ENDBLK
  5
91C
330
919
100
AcDbEntity
  8
0
100
AcDbBlockEnd
  0
BLOCK
  5
92A
330
922
100
AcDbEntity
  8
0
100
AcDbBlockBegin
  2
base para cotas
 70
     0
 10
0.0
 20
0.0
 30
0.0
  3
base para cotas
  1

  0
LINE
  5
B36
330
922
100
AcDbEntity
  8
cotas
100
AcDbLine
 10
0.0
 20
-30.0
 30
0.0
 11
327.1260136525398
 21
-30.0
 31
0.0
  0
LINE
  5
B37
330
922
100
AcDbEntity
  8
cotas
100
AcDbLine
 10
0.0
 20
-25.0
 30
0.0
 11
327.1260136525398
 21
-25.0
 31
0.0
  0
LINE
  5
B38
330
922
100
AcDbEntity
  8
cotas
100
AcDbLine
 10
0.0
 20
-20.0
 30
0.0
 11
327.1260136525398
 21
-20.0
 31
0.0
  0
LINE
  5
B39
330
922
100
AcDbEntity
  8
cotas
100
AcDbLine
 10
0.0
 20
-15.0
 30
0.0
 11
327.1260136525398
 21
-15.0
 31
0.0
  0
LINE
  5
B3A
330
922
100
AcDbEntity
  8
cotas
100
AcDbLine
 10
0.0
 20
-10.0
 30
0.0
 11
327.1260136525398
 21
-10.0
 31
0.0
  0
LINE
  5
B3B
330
922
100
AcDbEntity
  8
cotas
100
AcDbLine
 10
0.0
 20
0.0
 30
0.0
 11
0.0
 21
-30.0
 31
0.0
  0
LINE
  5
B3C
330
922
100
AcDbEntity
  8
cotas
100
AcDbLine
 10
327.1260136525398
 20
-30.0
 30
0.0
 11
327.1260136525398
 21
0.0
 31
0.0
  0
ENDBLK
  5
92B
330
922
100
AcDbEntity
  8
0
100
AcDbBlockEnd
  0
BLOCK
  5
AAD
330
AA8
100
AcDbEntity
  8
0
100
AcDbBlockBegin
  2
_CLOSED
 70
     0
 10
0.0
 20
0.0
 30
0.0
  3
_CLOSED
  1

  0
LINE
  5
AA9
330
AA8
100
AcDbEntity
  8
0
100
AcDbLine
 10
-1.0
 20
0.166667
 30
0.0
 11
0.0
 21
0.0
 31
0.0
  0
LINE
  5
AAA
330
AA8
100
AcDbEntity
  8
0
100
AcDbLine
 10
0.0
 20
0.0
 30
0.0
 11
-1.0
 21
-0.166667
 31
0.0
  0
LINE
  5
AAB
330
AA8
100
AcDbEntity
  8
0
100
AcDbLine
 10
-1.0
 20
0.166667
 30
0.0
 11
-1.0
 21
-0.166667
 31
0.0
  0
LINE
  5
AAC
330
AA8
100
AcDbEntity
  8
0
100
AcDbLine
 10
0.0
 20
0.0
 30
0.0
 11
-1.0
 21
0.0
 31
0.0
  0
ENDBLK
  5
AAE
330
AA8
100
AcDbEntity
  8
0
100
AcDbBlockEnd
  0
ENDSEC
  0
SECTION
  2
ENTITIES
  0
ARC
  5
D5C
330
1F
100
AcDbEntity
  8
SANINDUSA
100
AcDbCircle
 10
430.5236440429616
 20
906.3471605692139
 30
0.0
 40
0.415973629785679
100
AcDbArc
 50
160.6741287149648
 51
171.6139107178931
  0
ARC
  5
D5D
330
1F
100
AcDbEntity
  8
SANINDUSA
100
AcDbCircle
 10
429.4043515159935
 20
906.3471605692139
 30
0.0
 40
0.4159736297856787
100
AcDbArc
 50
8.386089282106885
 51
19.32587128503513
  0
LINE
  5
D66
330
1F
100
AcDbEntity
  8
SANINDUSA
100
AcDbLine
 10
429.9980320907027
 20
906.377661027869
 30
0.0
 11
429.9299634682523
 21
906.377661027869
 31
0.0
  0
LINE
  5
D69
330
1F
100
AcDbEntity
  8
SANINDUSA
100
AcDbLine
 10
430.1072710020599
 20
906.386661027869
 30
0.0
 11
429.8207245568952
 21
906.386661027869
 31
0.0
  0
LINE
  5
D6A
330
1F
100
AcDbEntity
  8
SANINDUSA
100
AcDbLine
 10
429.8158774604663
 20
906.4078273451537
 30
0.0
 11
429.8187459413532
 21
906.3883693421869
 31
0.0
  0
LINE
  5
D6B
330
1F
100
AcDbEntity
  8
SANINDUSA
 62
     9
 48
0.2
100
AcDbLine
 10
429.8189977794775
 20
906.386661027869
 30
0.0
 11
429.8187459413532
 21
906.3883693421869
 31
0.0
  0
LINE
  5
D6C
330
1F
100
AcDbEntity
  8
SANINDUSA
 62
     9
 48
0.2
100
AcDbLine
 10
429.8207245568952
 20
906.386661027869
 30
0.0
 11
429.8189977794775
 21
906.386661027869
 31
0.0
  0
ARC
  5
D6D
330
1F
100
AcDbEntity
  8
SANINDUSA
100
AcDbCircle
 10
429.8207245568952
 20
906.3886610278689
 30
0.0
 40
0.002
100
AcDbArc
 50
188.3860892821136
 51
270.0
  0
LINE
  5
D73
330
1F
100
AcDbEntity
  8
SANINDUSA
100
AcDbLine
 10
429.9286834925521
 20
906.386661027869
 30
0.0
 11
429.9289640774254
 21
906.3786261283722
 31
0.0
  0
ARC
  5
D74
330
1F
100
AcDbEntity
  8
SANINDUSA
100
AcDbCircle
 10
429.9299634682523
 20
906.378661027869
 30
0.0
 40
0.0010000000000001
100
AcDbArc
 50
181.9999999999906
 51
270.0
  0
LINE
  5
D75
330
1F
100
AcDbEntity
  8
SANINDUSA
100
AcDbLine
 10
429.9990314815297
 20
906.3786261283722
 30
0.0
 11
429.9993120664029
 21
906.386661027869
 31
0.0
  0
ARC
  5
D76
330
1F
100
AcDbEntity
  8
SANINDUSA
100
AcDbCircle
 10
429.9980320907027
 20
906.378661027869
 30
0.0
 40
0.0010000000000001
100
AcDbArc
 50
270.0
 51
358.0000000000094
  0
LINE
  5
D77
330
1F
100
AcDbEntity
  8
SANINDUSA
100
AcDbLine
 10
430.1092496176019
 20
906.3883693421869
 30
0.0
 11
430.1121180984888
 21
906.4078273451537
 31
0.0
  0
LINE
  5
D78
330
1F
100
AcDbEntity
  8
SANINDUSA
 62
     9
 48
0.2
100
AcDbLine
 10
430.1089977794775
 20
906.386661027869
 30
0.0
 11
430.1092496176019
 21
906.3883693421869
 31
0.0
  0
LINE
  5
D79
330
1F
100
AcDbEntity
  8
SANINDUSA
 62
     9
 48
0.2
100
AcDbLine
 10
430.1072710020599
 20
906.386661027869
 30
0.0
 11
430.1089977794775
 21
906.386661027869
 31
0.0
  0
ARC
  5
D7A
330
1F
100
AcDbEntity
  8
SANINDUSA
100
AcDbCircle
 10
430.1072710020599
 20
906.3886610278689
 30
0.0
 40
0.002
100
AcDbArc
 50
270.0
 51
351.6139107178864
  0
LINE
  5
D7B
330
1F
100
AcDbEntity
  8
SANINDUSA
100
AcDbLine
 10
430.1689977794775
 20
906.5416610278688
 30
0.0
 11
429.7589977794776
 21
906.5416610278688
 31
0.0
  0
LINE
  5
D7C
330
1F
100
AcDbEntity
  8
SANINDUSA
100
AcDbLine
 10
430.1713960282897
 20
906.5322737277156
 30
0.0
 11
429.7565995306653
 21
906.5322737277156
 31
0.0
  0
ARC
  5
D84
330
1F
100
AcDbEntity
  8
SANINDUSA
100
AcDbCircle
 10
429.7149547545211
 20
906.4560897505458
 30
0.0
 40
0.0868233019270168
100
AcDbArc
 50
19.32587128503513
 51
61.33747005196652
  0
ARC
  5
D85
330
1F
100
AcDbEntity
  8
SANINDUSA
100
AcDbCircle
 10
429.7589977794776
 20
906.5366610278688
 30
0.0
 40
0.0049999999999996
100
AcDbArc
 50
90.0
 51
241.3374700519665
  0
ARC
  5
D8B
330
1F
100
AcDbEntity
  8
SANINDUSA
100
AcDbCircle
 10
430.213040804434
 20
906.4560897505458
 30
0.0
 40
0.0868233019270168
100
AcDbArc
 50
118.6625299480335
 51
160.6741287149648
  0
ARC
  5
D8C
330
1F
100
AcDbEntity
  8
SANINDUSA
100
AcDbCircle
 10
430.1689977794775
 20
906.5366610278688
 30
0.0
 40
0.0049999999999996
100
AcDbArc
 50
298.6625299480357
 51
90.0
  0
CIRCLE
  5
D94
330
1F
100
AcDbEntity
  8
SANINDUSA
100
AcDbCircle
 10
428.8237284989816
 20
906.4763899262363
 30
0.0
 40
0.0390572382686041
  0
CIRCLE
  5
D95
330
1F
100
AcDbEntity
  8
SANINDUSA
100
AcDbCircle
 10
428.8237284989816
 20
906.4763899262363
 30
0.0
 40
0.0326293621717387
  0
CIRCLE
  5
D96
330
1F
100
AcDbEntity
  8
SANINDUSA
100
AcDbCircle
 10
428.8237284989816
 20
906.4763899262363
 30
0.0
 40
0.0252860619515674
  0
CIRCLE
  5
D97
330
1F
100
AcDbEntity
  8
SANINDUSA
100
AcDbCircle
 10
428.8237284989816
 20
906.4763899262363
 30
0.0
 40
0.0235
  0
CIRCLE
  5
D98
330
1F
100
AcDbEntity
  8
SANINDUSA
100
AcDbCircle
 10
428.8237284989816
 20
906.4763899262363
 30
0.0
 40
0.0947142276950476
  0
CIRCLE
  5
D99
330
1F
100
AcDbEntity
  8
SANINDUSA
100
AcDbCircle
 10
428.8237284989816
 20
906.4763899262363
 30
0.0
 40
0.2099999999999994
  0
CIRCLE
  5
D9A
330
1F
100
AcDbEntity
  8
SANINDUSA
100
AcDbCircle
 10
428.8237284989816
 20
906.4763899262363
 30
0.0
 40
0.2045520022812225
  0
LWPOLYLINE
  5
D9E
330
1F
100
AcDbEntity
  8
SANINDUSA
100
AcDbPolyline
 90
        3
 70
   128
 43
0.0
 10
428.8112882184586
 20
906.4963270797392
 10
428.8112888047358
 20
906.4963274450805
 10
428.8113143391885
 20
906.4963433350129
  0
LINE
  5
D9F
330
1F
100
AcDbEntity
  8
SANINDUSA
100
AcDbLine
 10
428.8361426809378
 20
906.4963433239228
 30
0.0
 11
428.8361525383664
 21
906.4963371878368
 31
0.0
  0
LWPOLYLINE
  5
DA1
330
1F
100
AcDbEntity
  8
SANINDUSA
100
AcDbPolyline
 90
       25
 70
   128
 43
0.0
 10
428.8106146353366
 20
906.6333430293603
 10
428.8098123346223
 20
906.6344986492845
 10
428.8093765394312
 20
906.6358068577534
 10
428.8093315445141
 20
906.637247032383
 10
428.8096818775196
 20
906.6387707849109
 10
428.8103991586394
 20
906.6402771915253
 10
428.8114669041844
 20
906.6417570306629
 10
428.8128673719904
 20
906.6431555403728
 10
428.8145592232996
 20
906.6444126349077
 10
428.8165501692904
 20
906.645492948779
 10
428.8187490893788
 20
906.646318221936
 10
428.8211976103822
 20
906.6468563078604
 10
428.8237284989816
 20
906.6470418567099
 10
428.8260294931644
 20
906.6468889126454
 10
428.8282684699907
 20
906.6464428152924
 10
428.8305106233523
 20
906.6456675769799
 10
428.8325537360607
 20
906.644626302496
 10
428.8343487327555
 20
906.6433581727554
 10
428.8358392263151
 20
906.6419301292766
 10
428.8369847507472
 20
906.6403974185435
 10
428.8377534240994
 20
906.6388310318812
 10
428.8381164095794
 20
906.6373304286882
 10
428.8380972129525
 20
906.635908029968
 10
428.8376670232338
 20
906.6345440842676
 10
428.8368423626265
 20
906.6333430293603
  0
LWPOLYLINE
  5
DA4
330
1F
100
AcDbEntity
  8
SANINDUSA
100
AcDbPolyline
 90
       18
 70
   128
 43
0.0
 10
428.8370148871749
 20
906.6403360071545
 10
428.8364649852105
 20
906.6395784272296
 10
428.8355083673614
 20
906.638572519564
 10
428.8342028356948
 20
906.6376825987868
 10
428.8325743468957
 20
906.6369269541683
 10
428.8306703340439
 20
906.6363193229255
 10
428.8295854479867
 20
906.6360662540059
 10
428.8275538477158
 20
906.6357315509243
 10
428.8254137429984
 20
906.63554139719
 10
428.8237284989816
 20
906.6354968752881
 10
428.821047885296
 20
906.6356103650155
 10
428.8189697727537
 20
906.6358650564659
 10
428.8170226925744
 20
906.6362592724594
 10
428.8152184700433
 20
906.6368017481977
 10
428.8136447367312
 20
906.6374741297646
 10
428.8122900947382
 20
906.638303493835
 10
428.8112559014602
 20
906.6392471660996
 10
428.8104177602497
 20
906.6403029723783
  0
LWPOLYLINE
  5
DA5
330
1F
100
AcDbEntity
  8
SANINDUSA
100
AcDbPolyline
 90
       16
 70
   128
 43
0.0
 10
428.8368423626265
 20
906.6333430293603
 10
428.8368337175342
 20
906.6333337247394
 10
428.8356045262533
 20
906.6322816499017
 10
428.8340189156262
 20
906.6313668637105
 10
428.8321227306179
 20
906.6306137418848
 10
428.8299621559899
 20
906.6300303494195
 10
428.8267685334728
 20
906.6295402858649
 10
428.8237284989816
 20
906.629396393731
 10
428.8221389227153
 20
906.6294353462442
 10
428.8198593445798
 20
906.6296320747765
 10
428.8176886053769
 20
906.6299892043756
 10
428.8156644189212
 20
906.6305081664721
 10
428.8138588669237
 20
906.6311742033642
 10
428.812257220772
 20
906.632013733706
 10
428.8109737861429
 20
906.6329844187462
 10
428.8106146353366
 20
906.6333430293603
  0
ARC
  5
DB8
330
1F
100
AcDbEntity
  8
SANINDUSA
100
AcDbCircle
 10
430.7095044658701
 20
906.4811934572464
 30
0.0
 40
0.0606915692356314
100
AcDbArc
 50
95.14056956267145
 51
149.8671528660884
  0
ARC
  5
DB9
330
1F
100
AcDbEntity
  8
SANINDUSA
100
AcDbCircle
 10
430.748557551632
 20
906.4560897505458
 30
0.0
 40
0.0868233019270169
100
AcDbArc
 50
118.6625299480335
 51
160.6741287149648
  0
LINE
  5
DBA
330
1F
100
AcDbEntity
  8
SANINDUSA
100
AcDbLine
 10
430.7045145266755
 20
906.5416610278688
 30
0.0
 11
430.2945145266756
 21
906.5416610278688
 31
0.0
  0
ARC
  5
DC0
330
1F
100
AcDbEntity
  8
SANINDUSA
100
AcDbCircle
 10
430.4056103108297
 20
906.4496610278689
 30
0.0
 40
0.038
100
AcDbArc
 50
201.9453308055196
 51
270.0
  0
LINE
  5
DC1
330
1F
100
AcDbEntity
  8
SANINDUSA
100
AcDbLine
 10
430.37943271167
 20
906.396661027869
 30
0.0
 11
430.3619901868959
 21
906.396661027869
 31
0.0
  0
LINE
  5
DC2
330
1F
100
AcDbEntity
  8
SANINDUSA
100
AcDbLine
 10
430.3912961937816
 20
906.386661027869
 30
0.0
 11
430.3562413040932
 21
906.386661027869
 31
0.0
  0
ARC
  5
DC3
330
1F
100
AcDbEntity
  8
SANINDUSA
100
AcDbCircle
 10
429.84844039418
 20
906.2251679404313
 30
0.0
 40
0.5626958151398469
100
AcDbArc
 50
21.94533080551959
 51
29.07924952072871
  0
ARC
  5
DC4
330
1F
100
AcDbEntity
  8
SANINDUSA
100
AcDbCircle
 10
429.84844039418
 20
906.2251679404313
 30
0.0
 40
0.5706958151398466
100
AcDbArc
 50
22.15114736040355
 51
29.22166465161533
  0
ARC
  5
DC6
330
1F
100
AcDbEntity
  8
SANINDUSA
100
AcDbCircle
 10
429.9398682631915
 20
906.3471605692139
 30
0.0
 40
0.4239736297856787
100
AcDbArc
 50
8.386089282106885
 51
19.32587128503513
  0
ARC
  5
DC7
330
1F
100
AcDbEntity
  8
SANINDUSA
100
AcDbCircle
 10
429.9398682631915
 20
906.3471605692139
 30
0.0
 40
0.4159736297856788
100
AcDbArc
 50
8.386089282106885
 51
19.32587128503513
  0
LINE
  5
DC8
330
1F
100
AcDbEntity
  8
SANINDUSA
100
AcDbLine
 10
430.3610008791249
 20
906.3975151850279
 30
0.0
 11
430.3593086698321
 21
906.4089940878815
 31
0.0
  0
LINE
  5
DC9
330
1F
100
AcDbEntity
  8
SANINDUSA
100
AcDbLine
 10
430.3542626885512
 20
906.3883693421869
 30
0.0
 11
430.3513942076643
 21
906.4078273451537
 31
0.0
  0
ARC
  5
DCA
330
1F
100
AcDbEntity
  8
SANINDUSA
100
AcDbCircle
 10
430.3619901868959
 20
906.397661027869
 30
0.0
 40
0.001
100
AcDbArc
 50
188.3860892821069
 51
270.0
  0
ARC
  5
DCB
330
1F
100
AcDbEntity
  8
SANINDUSA
100
AcDbCircle
 10
430.3562413040932
 20
906.3886610278689
 30
0.0
 40
0.002
100
AcDbArc
 50
188.3860892821136
 51
270.0
  0
ARC
  5
DCC
330
1F
100
AcDbEntity
  8
SANINDUSA
100
AcDbCircle
 10
430.289524587481
 20
906.4811934572464
 30
0.0
 40
0.0526915692356311
100
AcDbArc
 50
50.4103255149074
 51
57.59717442961819
  0
LINE
  5
DCD
330
1F
100
AcDbEntity
  8
SANINDUSA
100
AcDbLine
 10
430.3244152410716
 20
906.5218307896216
 30
0.0
 11
430.3288882488884
 21
906.5259098019312
 31
0.0
  0
LWPOLYLINE
  5
DCE
330
1F
100
AcDbEntity
  8
SANINDUSA
100
AcDbPolyline
 90
       13
 70
   128
 43
0.0
 10
430.3288625962018
 20
906.5274102036287
 10
430.3290155402664
 20
906.5272933611328
 10
430.3294616376194
 20
906.5269464315433
 10
430.3302368759319
 20
906.5263270611096
 10
430.3312781504156
 20
906.5254582234762
 10
430.3325462801564
 20
906.5243385962189
 10
430.3339743236351
 20
906.5229884570506
 10
430.3355070343682
 20
906.521416824669
 10
430.3370734210306
 20
906.5196600579408
 10
430.3385740242235
 20
906.5178006276109
 10
430.3399964229438
 20
906.5158465330084
 10
430.3413603686442
 20
906.5137449549094
 10
430.3425614235514
 20
906.5116610278689
  0
ARC
  5
DD0
330
1F
100
AcDbEntity
  8
SANINDUSA
100
AcDbCircle
 10
430.2504715017191
 20
906.4560897505458
 30
0.0
 40
0.0948233019270167
100
AcDbArc
 50
19.32587128503513
 51
45.84310088899992
  0
ARC
  5
DD1
330
1F
100
AcDbEntity
  8
SANINDUSA
100
AcDbCircle
 10
430.2504715017191
 20
906.4560897505458
 30
0.0
 40
0.0868233019270168
100
AcDbArc
 50
19.32587128503513
 51
61.33747005196652
  0
LWPOLYLINE
  5
DD2
330
1F
100
AcDbEntity
  8
SANINDUSA
100
AcDbPolyline
 90
       13
 70
   128
 43
0.0
 10
430.3356726482499
 20
906.5076449747655
 10
430.3344410401041
 20
906.5097361315416
 10
430.3331616753154
 20
906.5116449288151
 10
430.3317803326219
 20
906.513481414292
 10
430.3302873731214
 20
906.5152547599494
 10
430.3287965818541
 20
906.5168535674516
 10
430.3273503647413
 20
906.5182652245233
 10
430.3260355962844
 20
906.5194487813577
 10
430.3249061399887
 20
906.5203981416955
 10
430.3240183797552
 20
906.521104697401
 10
430.323424565541
 20
906.5215598170015
 10
430.3231319998109
 20
906.5217783799591
 10
430.3231041406069
 20
906.5217990612978
  0
ARC
  5
DD4
330
1F
100
AcDbEntity
  8
SANINDUSA
100
AcDbCircle
 10
430.3237414257288
 20
906.5225696894009
 30
0.0
 40
0.0010000000000001
100
AcDbArc
 50
230.410325514916
 51
312.362222202963
  0
LINE
  5
DDB
330
1F
100
AcDbEntity
  8
SANINDUSA
100
AcDbLine
 10
430.3449615062925
 20
906.5040264653735
 30
0.0
 11
430.3404075776237
 21
906.4998736599553
 31
0.0
  0
ARC
  5
DDC
330
1F
100
AcDbEntity
  8
SANINDUSA
100
AcDbCircle
 10
430.3410813929664
 20
906.4991347601759
 30
0.0
 40
0.0009999999999999
100
AcDbArc
 50
132.3622222029768
 51
209.0792495207375
  0
LWPOLYLINE
  5
DDD
330
1F
100
AcDbEntity
  8
SANINDUSA
100
AcDbPolyline
 90
        9
 70
   128
 43
0.0
 10
430.3402074446674
 20
906.4986487412765
 10
430.3401578156925
 20
906.4987566441919
 10
430.3399461543271
 20
906.4992143362697
 10
430.339573379428
 20
906.5000092839264
 10
430.3392919804858
 20
906.5006009706181
 10
430.3386180833211
 20
906.501989245493
 10
430.3377801383372
 20
906.5036632617418
 10
430.3367904448266
 20
906.5055708543821
 10
430.3356726482499
 20
906.5076449747655
  0
ARC
  5
DDE
330
1F
100
AcDbEntity
  8
SANINDUSA
100
AcDbCircle
 10
430.3456353216352
 20
906.5032875655942
 30
0.0
 40
0.0010000000000001
100
AcDbArc
 50
29.22166465166855
 51
132.36222220299
  0
LWPOLYLINE
  5
DDF
330
1F
100
AcDbEntity
  8
SANINDUSA
100
AcDbPolyline
 90
        8
 70
   128
 43
0.0
 10
430.3425614235514
 20
906.5116610278689
 10
430.3425707281724
 20
906.5116438129466
 10
430.34362280301
 20
906.5096589744701
 10
430.3445375892013
 20
906.5078687905197
 10
430.345290711027
 20
906.5063446926076
 10
430.3458741034924
 20
906.5051307248333
 10
430.346364167047
 20
906.5040866974456
 10
430.3465080591808
 20
906.5037757552873
  0
ARC
  5
DE0
330
1F
100
AcDbEntity
  8
SANINDUSA
100
AcDbCircle
 10
430.289524587481
 20
906.4811934572464
 30
0.0
 40
0.0606915692356308
100
AcDbArc
 50
49.59678316412732
 51
84.85943043732854
  0
ARC
  5
DE1
330
1F
100
AcDbEntity
  8
SANINDUSA
100
AcDbCircle
 10
430.2945145266756
 20
906.5366610278688
 30
0.0
 40
0.0049999999999996
100
AcDbArc
 50
84.85943043732854
 51
241.3374700519665
  0
ARC
  5
DE2
330
1F
100
AcDbEntity
  8
SANINDUSA
100
AcDbCircle
 10
430.3172244676756
 20
906.5248367266844
 30
0.0
 40
0.001
100
AcDbArc
 50
57.59717442961819
 51
225.8431008889999
  0
ARC
  5
DE3
330
1F
100
AcDbEntity
  8
SANINDUSA
100
AcDbCircle
 10
430.3282144335457
 20
906.5266487017106
 30
0.0
 40
0.0009999999999997
100
AcDbArc
 50
312.362222202963
 51
49.59678316415453
  0
ARC
  5
DEA
330
1F
100
AcDbEntity
  8
SANINDUSA
100
AcDbCircle
 10
430.5385717649441
 20
906.411661027869
 30
0.0
 40
0.0100000000000001
100
AcDbArc
 50
90.0
 51
129.9999999999978
  0
LINE
  5
DEB
330
1F
100
AcDbEntity
  8
SANINDUSA
100
AcDbLine
 10
430.5321438888473
 20
906.4193214723001
 30
0.0
 11
430.5248005886271
 21
906.4131597117937
 31
0.0
  0
LINE
  5
DEC
330
1F
100
AcDbEntity
  8
SANINDUSA
100
AcDbLine
 10
430.5335488379007
 20
906.377661027869
 30
0.0
 11
430.5240145266755
 21
906.377661027869
 31
0.0
  0
LINE
  5
DED
330
1F
100
AcDbEntity
  8
SANINDUSA
100
AcDbLine
 10
430.3770145266756
 20
906.4403494913943
 30
0.0
 11
430.6220145266755
 21
906.4403494913943
 31
0.0
  0
LINE
  5
DEF
330
1F
100
AcDbEntity
  8
SANINDUSA
100
AcDbLine
 10
430.460457288407
 20
906.4216610278689
 30
0.0
 11
430.5385717649441
 21
906.4216610278689
 31
0.0
  0
LINE
  5
DF3
330
1F
100
AcDbEntity
  8
SANINDUSA
100
AcDbLine
 10
430.4048002989805
 20
906.4216610278689
 30
0.0
 11
430.460457288407
 21
906.4216610278689
 31
0.0
  0
LINE
  5
DF4
330
1F
100
AcDbEntity
  8
SANINDUSA
100
AcDbLine
 10
430.4607422549844
 20
906.3806036016419
 30
0.0
 11
430.3917320285329
 21
906.3866419964565
 31
0.0
  0
LINE
  5
DF5
330
1F
100
AcDbEntity
  8
SANINDUSA
100
AcDbLine
 10
430.3845145266755
 20
906.3952735278688
 30
0.0
 11
430.4751016936258
 21
906.3873471507607
 31
0.0
  0
LINE
  5
DF6
330
1F
100
AcDbEntity
  8
SANINDUSA
100
AcDbLine
 10
430.4537694167893
 20
906.411661027869
 30
0.0
 11
430.4056103108297
 21
906.411661027869
 31
0.0
  0
ARC
  5
DF7
330
1F
100
AcDbEntity
  8
SANINDUSA
100
AcDbCircle
 10
430.37943271167
 20
906.386661027869
 30
0.0
 40
0.0100000000000001
100
AcDbArc
 50
59.45722385112652
 51
90.0
  0
ARC
  5
DF8
330
1F
100
AcDbEntity
  8
SANINDUSA
100
AcDbCircle
 10
430.3912961937816
 20
906.381661027869
 30
0.0
 40
0.005
100
AcDbArc
 50
84.99935540244196
 51
90.0
  0
ARC
  5
DFA
330
1F
100
AcDbEntity
  8
SANINDUSA
100
AcDbCircle
 10
430.4048002989805
 20
906.4516610278689
 30
0.0
 40
0.0300000000000001
100
AcDbArc
 50
202.1511473604036
 51
270.0
  0
LINE
  5
DFD
330
1F
100
AcDbEntity
  8
SANINDUSA
100
AcDbLine
 10
430.5230145266755
 20
906.378661027869
 30
0.0
 11
430.5230145266755
 21
906.4093294895782
 31
0.0
  0
LINE
  5
DFE
330
1F
100
AcDbEntity
  8
SANINDUSA
100
AcDbLine
 10
430.4760145266755
 20
906.4093294895782
 30
0.0
 11
430.4760145266755
 21
906.4034159110793
 31
0.0
  0
ARC
  5
DFF
330
1F
100
AcDbEntity
  8
SANINDUSA
100
AcDbCircle
 10
430.4537694167893
 20
906.401661027869
 30
0.0
 40
0.0100000000000002
100
AcDbArc
 50
10.06986296411095
 51
90.0
  0
LINE
  5
E00
330
1F
100
AcDbEntity
  8
SANINDUSA
100
AcDbLine
 10
430.4760145266755
 20
906.378661027869
 30
0.0
 11
430.5230145266755
 21
906.378661027869
 31
0.0
  0
LINE
  5
E01
330
1F
100
AcDbEntity
  8
SANINDUSA
100
AcDbLine
 10
430.5240145266755
 20
906.377661027869
 30
0.0
 11
430.4750145266756
 21
906.377661027869
 31
0.0
  0
LINE
  5
E02
330
1F
100
AcDbEntity
  8
SANINDUSA
100
AcDbLine
 10
430.4750145266756
 20
906.377661027869
 30
0.0
 11
430.4654802154503
 21
906.377661027869
 31
0.0
  0
LINE
  5
E03
330
1F
100
AcDbEntity
  8
SANINDUSA
100
AcDbLine
 10
430.4636153696395
 20
906.4034095164943
 30
0.0
 11
430.4749273597253
 21
906.4024197173617
 31
0.0
  0
ARC
  5
E05
330
1F
100
AcDbEntity
  8
SANINDUSA
100
AcDbCircle
 10
430.4654802154503
 20
906.378661027869
 30
0.0
 40
0.001
100
AcDbArc
 50
210.4242742298132
 51
270.0
  0
ARC
  5
E06
330
1F
100
AcDbEntity
  8
SANINDUSA
100
AcDbCircle
 10
430.4603064202329
 20
906.3756226330543
 30
0.0
 40
0.0049999999999999
100
AcDbArc
 50
30.42427422981319
 51
84.99935540244196
  0
ARC
  5
E09
330
1F
100
AcDbEntity
  8
SANINDUSA
100
AcDbCircle
 10
430.4750145266756
 20
906.3863509570433
 30
0.0
 40
0.0010000000000001
100
AcDbArc
 50
0.0
 51
84.99935540244853
  0
LINE
  5
E0A
330
1F
100
AcDbEntity
  8
SANINDUSA
100
AcDbLine
 10
430.4760145266755
 20
906.3863509570433
 30
0.0
 11
430.4760145266755
 21
906.378661027869
 31
0.0
  0
ARC
  5
E0B
330
1F
100
AcDbEntity
  8
SANINDUSA
100
AcDbCircle
 10
430.4750145266756
 20
906.378661027869
 30
0.0
 40
0.0009999999999999
100
AcDbArc
 50
270.0
 51
0.0
  0
ARC
  5
E0C
330
1F
100
AcDbEntity
  8
SANINDUSA
100
AcDbCircle
 10
430.4750145266756
 20
906.4034159110793
 30
0.0
 40
0.001
100
AcDbArc
 50
264.9993554024486
 51
0.0
  0
LINE
  5
E0F
330
1F
100
AcDbEntity
  8
SANINDUSA
100
AcDbLine
 10
430.4751016936258
 20
906.3873471507607
 30
0.0
 11
430.4769349395111
 21
906.3871867417459
 31
0.0
  0
LINE
  5
E12
330
1F
100
AcDbEntity
  8
SANINDUSA
100
AcDbLine
 10
430.4775617090253
 20
906.4021892117979
 30
0.0
 11
430.4749273597253
 21
906.4024197173617
 31
0.0
  0
LWPOLYLINE
  5
E16
330
1F
100
AcDbEntity
  8
SANINDUSA
100
AcDbPolyline
 90
        7
 70
   128
 43
0.0
 10
430.4769349395112
 20
906.3871867417459
 10
430.4771957406877
 20
906.3872257114489
 10
430.4774366652091
 20
906.3873855351477
 10
430.4776116654791
 20
906.3876438012757
 10
430.4776799337695
 20
906.3878795027047
 10
430.4776884152526
 20
906.3879508453112
 10
430.4776910889033
 20
906.3879938991501
  0
LWPOLYLINE
  5
E18
330
1F
100
AcDbEntity
  8
SANINDUSA
100
AcDbPolyline
 90
        3
 70
   128
 43
0.0
 10
430.4786623463925
 20
906.4009591656255
 10
430.4781636484403
 20
906.3945916277527
 10
430.4776910889033
 20
906.3879938991501
  0
LWPOLYLINE
  5
E1A
330
1F
100
AcDbEntity
  8
SANINDUSA
100
AcDbPolyline
 90
        8
 70
   128
 43
0.0
 10
430.4786623463925
 20
906.4009591656255
 10
430.4786409307395
 20
906.40122395182
 10
430.4786293676165
 20
906.4012700993281
 10
430.4784992080164
 20
906.4015652071727
 10
430.47828426635
 20
906.4018310458727
 10
430.4779887194867
 20
906.4020507281927
 10
430.477644198585
 20
906.4021779879603
 10
430.4775617090253
 20
906.4021892117979
  0
ARC
  5
E1B
330
1F
100
AcDbEntity
  8
SANINDUSA
100
AcDbCircle
 10
430.5240145266755
 20
906.378661027869
 30
0.0
 40
0.0009999999999999
100
AcDbArc
 50
180.0
 51
270.0
  0
LINE
  5
E1C
330
1F
100
AcDbEntity
  8
SANINDUSA
100
AcDbLine
 10
430.474228464724
 20
906.4131597117937
 30
0.0
 11
430.5248005886271
 21
906.4131597117937
 31
0.0
  0
LINE
  5
E1E
330
1F
100
AcDbEntity
  8
SANINDUSA
100
AcDbLine
 10
430.474228464724
 20
906.4131597117937
 30
0.0
 11
430.4668851645038
 21
906.4193214723001
 31
0.0
  0
ARC
  5
E1F
330
1F
100
AcDbEntity
  8
SANINDUSA
100
AcDbCircle
 10
430.460457288407
 20
906.411661027869
 30
0.0
 40
0.0100000000000002
100
AcDbArc
 50
49.99999999999761
 51
90.0
  0
ARC
  5
E20
330
1F
100
AcDbEntity
  8
SANINDUSA
100
AcDbCircle
 10
430.4710145266755
 20
906.4093294895782
 30
0.0
 40
0.005
100
AcDbArc
 50
0.0
 51
50.0000000000022
  0
ARC
  5
E21
330
1F
100
AcDbEntity
  8
SANINDUSA
100
AcDbCircle
 10
430.5280145266755
 20
906.4093294895782
 30
0.0
 40
0.005
100
AcDbArc
 50
129.9999999999978
 51
180.0
  0
ARC
  5
E22
330
1F
100
AcDbEntity
  8
SANINDUSA
100
AcDbCircle
 10
431.0591607901596
 20
906.3471605692139
 30
0.0
 40
0.415973629785679
100
AcDbArc
 50
160.6741287149648
 51
171.6139107178931
  0
ARC
  5
E23
330
1F
100
AcDbEntity
  8
SANINDUSA
100
AcDbCircle
 10
431.150588659171
 20
906.2251679404313
 30
0.0
 40
0.5626958151398466
100
AcDbArc
 50
149.8671528660884
 51
157.8488526395964
  0
ARC
  5
E24
330
1F
100
AcDbEntity
  8
SANINDUSA
100
AcDbCircle
 10
431.0591607901596
 20
906.3471605692139
 30
0.0
 40
0.4239736297856791
100
AcDbArc
 50
160.6741287149648
 51
171.6139107178931
  0
ARC
  5
E25
330
1F
100
AcDbEntity
  8
SANINDUSA
100
AcDbCircle
 10
431.150588659171
 20
906.2251679404313
 30
0.0
 40
0.5706958151398466
100
AcDbArc
 50
149.8671528660884
 51
157.8488526395964
  0
ARC
  5
E27
330
1F
100
AcDbEntity
  8
SANINDUSA
100
AcDbCircle
 10
430.5942287543707
 20
906.4516610278689
 30
0.0
 40
0.038
100
AcDbArc
 50
290.4168858367266
 51
337.8488526395965
  0
ARC
  5
E28
330
1F
100
AcDbEntity
  8
SANINDUSA
100
AcDbCircle
 10
430.5895145266756
 20
906.396661027869
 30
0.0
 40
0.025
100
AcDbArc
 50
2.204227503972507
 51
45.20366317568552
  0
LINE
  5
E2A
330
1F
100
AcDbEntity
  8
SANINDUSA
100
AcDbLine
 10
430.6145311624722
 20
906.386661027869
 30
0.0
 11
430.6065145266756
 21
906.386661027869
 31
0.0
  0
ARC
  5
E2B
330
1F
100
AcDbEntity
  8
SANINDUSA
100
AcDbCircle
 10
430.5942287543707
 20
906.4516610278689
 30
0.0
 40
0.03
100
AcDbArc
 50
270.0
 51
337.8488526395965
  0
ARC
  5
E2C
330
1F
100
AcDbEntity
  8
SANINDUSA
100
AcDbCircle
 10
430.5453587205863
 20
906.401661027869
 30
0.0
 40
0.0100000000000002
100
AcDbArc
 50
90.0
 51
177.9999999999963
  0
ARC
  5
E2D
330
1F
100
AcDbEntity
  8
SANINDUSA
100
AcDbCircle
 10
430.5895145266756
 20
906.396661027869
 30
0.0
 40
0.015
100
AcDbArc
 50
0.0
 51
90.0
  0
LINE
  5
E30
330
1F
100
AcDbEntity
  8
SANINDUSA
100
AcDbLine
 10
430.6065145266756
 20
906.386661027869
 30
0.0
 11
430.5348288136009
 21
906.386661027869
 31
0.0
  0
ARC
  5
E31
330
1F
100
AcDbEntity
  8
SANINDUSA
100
AcDbCircle
 10
430.5335488379007
 20
906.378661027869
 30
0.0
 40
0.0010000000000001
100
AcDbArc
 50
270.0
 51
358.0000000000094
  0
LINE
  5
E32
330
1F
100
AcDbEntity
  8
SANINDUSA
100
AcDbLine
 10
430.5353648123161
 20
906.402010022836
 30
0.0
 11
430.5345482287277
 21
906.3786261283722
 31
0.0
  0
LINE
  5
E33
330
1F
100
AcDbEntity
  8
SANINDUSA
100
AcDbLine
 10
430.6045145266756
 20
906.3886610278689
 30
0.0
 11
430.6045145266756
 21
906.396661027869
 31
0.0
  0
ARC
  5
E34
330
1F
100
AcDbEntity
  8
SANINDUSA
100
AcDbCircle
 10
430.6065145266756
 20
906.3886610278689
 30
0.0
 40
0.002
100
AcDbArc
 50
180.0
 51
270.0
  0
LINE
  5
E35
330
1F
100
AcDbEntity
  8
SANINDUSA
100
AcDbLine
 10
430.5895145266756
 20
906.411661027869
 30
0.0
 11
430.5453587205863
 21
906.411661027869
 31
0.0
  0
LINE
  5
E36
330
1F
100
AcDbEntity
  8
SANINDUSA
100
AcDbLine
 10
430.5385717649441
 20
906.4216610278689
 30
0.0
 11
430.5942287543707
 21
906.4216610278689
 31
0.0
  0
ARC
  5
E37
330
1F
100
AcDbEntity
  8
SANINDUSA
100
AcDbCircle
 10
430.6078338365803
 20
906.4151110382921
 30
0.0
 40
0.001
100
AcDbArc
 50
110.4168858367266
 51
225.2036631756855
  0
LINE
  5
E38
330
1F
100
AcDbEntity
  8
SANINDUSA
100
AcDbLine
 10
430.6476348456868
 20
906.4078273451537
 30
0.0
 11
430.6447663647999
 21
906.3883693421869
 31
0.0
  0
LINE
  5
E39
330
1F
100
AcDbEntity
  8
SANINDUSA
100
AcDbLine
 10
430.639720383519
 20
906.4089940878815
 30
0.0
 11
430.6380281742262
 21
906.3975151850279
 31
0.0
  0
LINE
  5
E3A
330
1F
100
AcDbEntity
  8
SANINDUSA
100
AcDbLine
 10
430.6427877492579
 20
906.386661027869
 30
0.0
 11
430.6345343404183
 21
906.386661027869
 31
0.0
  0
LINE
  5
E3B
330
1F
100
AcDbEntity
  8
SANINDUSA
100
AcDbLine
 10
430.6370388664552
 20
906.396661027869
 30
0.0
 11
430.6154952887891
 21
906.396661027869
 31
0.0
  0
ARC
  5
E3C
330
1F
100
AcDbEntity
  8
SANINDUSA
100
AcDbCircle
 10
430.6154952887891
 20
906.397661027869
 30
0.0
 40
0.001
100
AcDbArc
 50
182.2042275039725
 51
270.0
  0
LINE
  5
E3D
330
1F
100
AcDbEntity
  8
SANINDUSA
100
AcDbLine
 10
430.634492333046
 20
906.3890173517952
 30
0.0
 11
430.6345343404183
 21
906.386661027869
 31
0.0
  0
LINE
  5
E3E
330
1F
100
AcDbEntity
  8
SANINDUSA
100
AcDbLine
 10
430.6145311624722
 20
906.386661027869
 30
0.0
 11
430.6144955104874
 21
906.3886608583768
 31
0.0
  0
LINE
  5
E3F
330
1F
100
AcDbEntity
  8
SANINDUSA
100
AcDbLine
 10
430.6345343404183
 20
906.386661027869
 30
0.0
 11
430.6147061724721
 21
906.386661027869
 31
0.0
  0
LINE
  5
E40
330
1F
100
AcDbEntity
  8
SANINDUSA
100
AcDbLine
 10
430.6144955104874
 20
906.3886608583768
 30
0.0
 11
430.634492333046
 21
906.3890173517952
 31
0.0
  0
ARC
  5
E41
330
1F
100
AcDbEntity
  8
SANINDUSA
100
AcDbCircle
 10
430.6370388664552
 20
906.397661027869
 30
0.0
 40
0.001
100
AcDbArc
 50
270.0
 51
351.6139107178931
  0
ARC
  5
E42
330
1F
100
AcDbEntity
  8
SANINDUSA
100
AcDbCircle
 10
430.6427877492579
 20
906.3886610278689
 30
0.0
 40
0.002
100
AcDbArc
 50
270.0
 51
351.6139107178864
  0
ARC
  5
E44
330
1F
100
AcDbEntity
  8
SANINDUSA
100
AcDbCircle
 10
430.7095044658701
 20
906.4811934572464
 30
0.0
 40
0.0526915692356312
100
AcDbArc
 50
122.4028255703818
 51
149.8671528660884
  0
ARC
  5
E45
330
1F
100
AcDbEntity
  8
SANINDUSA
100
AcDbCircle
 10
430.748557551632
 20
906.4560897505458
 30
0.0
 40
0.094823301927017
100
AcDbArc
 50
134.1568991109954
 51
160.6741287149648
  0
ARC
  5
E47
330
1F
100
AcDbEntity
  8
SANINDUSA
100
AcDbCircle
 10
430.6818045856755
 20
906.5248367266844
 30
0.0
 40
0.001
100
AcDbArc
 50
314.1568991109955
 51
122.4028255703818
  0
ARC
  5
E48
330
1F
100
AcDbEntity
  8
SANINDUSA
100
AcDbCircle
 10
430.7045145266755
 20
906.5366610278688
 30
0.0
 40
0.0049999999999995
100
AcDbArc
 50
298.6625299480335
 51
95.14056956267145
  0
ARC
  5
F29
330
1F
100
AcDbEntity
  8
SANINDUSA
100
AcDbCircle
 10
429.9828989866607
 20
906.3471605692139
 30
0.0
 40
0.415973629785679
100
AcDbArc
 50
160.6741287149648
 51
171.6139107178931
  0
ARC
  5
F30
330
1F
100
AcDbEntity
  8
SANINDUSA
100
AcDbCircle
 10
428.8636064596927
 20
906.3471605692139
 30
0.0
 40
0.4159736297856788
100
AcDbArc
 50
8.386089282106885
 51
19.32587128503513
  0
LINE
  5
F34
330
1F
100
AcDbEntity
  8
SANINDUSA
100
AcDbLine
 10
429.3844804514855
 20
906.3806036016419
 30
0.0
 11
429.315470225034
 21
906.3866419964565
 31
0.0
  0
LINE
  5
F38
330
1F
100
AcDbEntity
  8
SANINDUSA
100
AcDbLine
 10
429.3150343902826
 20
906.386661027869
 30
0.0
 11
429.2799795005943
 21
906.386661027869
 31
0.0
  0
LINE
  5
F39
330
1F
100
AcDbEntity
  8
SANINDUSA
100
AcDbLine
 10
429.2780008850524
 20
906.3883693421869
 30
0.0
 11
429.2751324041653
 21
906.4078273451537
 31
0.0
  0
ARC
  5
F3C
330
1F
100
AcDbEntity
  8
SANINDUSA
100
AcDbCircle
 10
429.2799795005943
 20
906.3886610278689
 30
0.0
 40
0.002
100
AcDbArc
 50
188.3860892821136
 51
270.0
  0
ARC
  5
F3F
330
1F
100
AcDbEntity
  8
SANINDUSA
100
AcDbCircle
 10
429.3150343902826
 20
906.381661027869
 30
0.0
 40
0.005
100
AcDbArc
 50
84.99935540244196
 51
90.0
  0
LINE
  5
F43
330
1F
100
AcDbEntity
  8
SANINDUSA
100
AcDbLine
 10
429.5665259457591
 20
906.386661027869
 30
0.0
 11
429.315470225034
 21
906.3866419964565
 31
0.0
  0
ARC
  5
F47
330
1F
100
AcDbEntity
  8
SANINDUSA
100
AcDbCircle
 10
429.4572870344018
 20
906.378661027869
 30
0.0
 40
0.0010000000000001
100
AcDbArc
 50
270.0
 51
358.0000000000094
  0
ARC
  5
F49
330
1F
100
AcDbEntity
  8
SANINDUSA
100
AcDbCircle
 10
429.3840446167341
 20
906.3756226330543
 30
0.0
 40
0.0049999999999999
100
AcDbArc
 50
30.42427422981319
 51
84.99935540244196
  0
LINE
  5
F4A
330
1F
100
AcDbEntity
  8
SANINDUSA
100
AcDbLine
 10
429.4477527231767
 20
906.377661027869
 30
0.0
 11
429.3987527231767
 21
906.377661027869
 31
0.0
  0
LINE
  5
F4B
330
1F
100
AcDbEntity
  8
SANINDUSA
100
AcDbLine
 10
429.3987527231767
 20
906.377661027869
 30
0.0
 11
429.3892184119514
 21
906.377661027869
 31
0.0
  0
ARC
  5
F4C
330
1F
100
AcDbEntity
  8
SANINDUSA
100
AcDbCircle
 10
429.3892184119514
 20
906.378661027869
 30
0.0
 40
0.001
100
AcDbArc
 50
210.4242742298132
 51
270.0
  0
LINE
  5
F4D
330
1F
100
AcDbEntity
  8
SANINDUSA
100
AcDbLine
 10
429.4572870344018
 20
906.377661027869
 30
0.0
 11
429.4477527231767
 21
906.377661027869
 31
0.0
  0
LINE
  5
F85
330
1F
100
AcDbEntity
  8
SANINDUSA
100
AcDbLine
 10
429.5713730421879
 20
906.4078273451537
 30
0.0
 11
429.568504561301
 21
906.3883693421869
 31
0.0
  0
ARC
  5
F86
330
1F
100
AcDbEntity
  8
SANINDUSA
100
AcDbCircle
 10
429.5665259457591
 20
906.3886610278689
 30
0.0
 40
0.002
100
AcDbArc
 50
270.0
 51
351.6139107178864
  0
LINE
  5
F87
330
1F
100
AcDbEntity
  8
SANINDUSA
100
AcDbLine
 10
429.6282527231766
 20
906.5416610278688
 30
0.0
 11
429.2182527231767
 21
906.5416610278688
 31
0.0
  0
ARC
  5
F89
330
1F
100
AcDbEntity
  8
SANINDUSA
100
AcDbCircle
 10
429.1742096982202
 20
906.4560897505458
 30
0.0
 40
0.0868233019270168
100
AcDbArc
 50
19.32587128503513
 51
61.33747005196652
  0
ARC
  5
F8A
330
1F
100
AcDbEntity
  8
SANINDUSA
100
AcDbCircle
 10
429.2182527231767
 20
906.5366610278688
 30
0.0
 40
0.0049999999999996
100
AcDbArc
 50
84.85943043732854
 51
241.3374700519665
  0
ARC
  5
FA1
330
1F
100
AcDbEntity
  8
SANINDUSA
100
AcDbCircle
 10
429.6722957481331
 20
906.4560897505458
 30
0.0
 40
0.0868233019270169
100
AcDbArc
 50
118.6625299480335
 51
160.6741287149648
  0
ARC
  5
FA2
330
1F
100
AcDbEntity
  8
SANINDUSA
100
AcDbCircle
 10
429.6282527231766
 20
906.5366610278688
 30
0.0
 40
0.0049999999999995
100
AcDbArc
 50
298.6625299480335
 51
95.14056956267145
  0
LINE
  5
FA7
330
1F
100
AcDbEntity
  8
SANINDUSA
100
AcDbLine
 10
429.4585667882876
 20
906.3866546759333
 30
0.0
 11
429.4582864252289
 21
906.3786261283722
 31
0.0
  0
LINE
  5
FA9
330
1F
100
AcDbEntity
  8
SANINDUSA
100
AcDbLine
 10
429.6306509719889
 20
906.5322737277156
 30
0.0
 11
429.2158544743644
 21
906.5322737277156
 31
0.0
  0
ENDSEC
  0
SECTION
  2
OBJECTS
  0
DICTIONARY
  5
C
330
0
100
AcDbDictionary
281
     1
  3
ACAD_COLOR
350
FDB
  3
ACAD_GROUP
350
D
  3
ACAD_LAYOUT
350
1A
  3
ACAD_MATERIAL
350
FAE
  3
ACAD_MLEADERSTYLE
350
FF0
  3
ACAD_MLINESTYLE
350
17
  3
ACAD_PLOTSETTINGS
350
19
  3
ACAD_PLOTSTYLENAME
350
E
  3
ACAD_SCALELIST
350
FDE
  3
ACAD_TABLESTYLE
350
FDC
  3
ACAD_VISUALSTYLE
350
FC7
  3
ACDB_RECOMPOSE_DATA
350
101D
  3
AcDbVariableDictionary
350
3D
  3
ASE_INDEX_DICTIONARY
350
FAA
  3
DWGPROPS
350
101E
  0
DICTIONARY
  5
FF7
330
10
100
AcDbDictionary
280
     1
281
     1
  3
ADSK_XREC_LAYER_RECONCILED
360
FF8
  0
DICTIONARY
  5
FF9
330
2F
100
AcDbDictionary
280
     1
281
     1
  3
ADSK_XREC_LAYER_RECONCILED
360
FFA
  0
DICTIONARY
  5
FFB
330
30
100
AcDbDictionary
280
     1
281
     1
  3
ADSK_XREC_LAYER_RECONCILED
360
FFC
  0
DICTIONARY
  5
FFD
330
31
100
AcDbDictionary
280
     1
281
     1
  3
ADSK_XREC_LAYER_RECONCILED
360
FFE
  0
DICTIONARY
  5
FFF
330
32
100
AcDbDictionary
280
     1
281
     1
  3
ADSK_XREC_LAYER_RECONCILED
360
1000
  0
DICTIONARY
  5
1001
330
33
100
AcDbDictionary
280
     1
281
     1
  3
ADSK_XREC_LAYER_RECONCILED
360
1002
  0
DICTIONARY
  5
1003
330
34
100
AcDbDictionary
280
     1
281
     1
  3
ADSK_XREC_LAYER_RECONCILED
360
1004
  0
DICTIONARY
  5
1005
330
35
100
AcDbDictionary
280
     1
281
     1
  3
ADSK_XREC_LAYER_RECONCILED
360
1006
  0
DICTIONARY
  5
1007
330
36
100
AcDbDictionary
280
     1
281
     1
  3
ADSK_XREC_LAYER_RECONCILED
360
1008
  0
DICTIONARY
  5
1009
330
37
100
AcDbDictionary
280
     1
281
     1
  3
ADSK_XREC_LAYER_RECONCILED
360
100A
  0
DICTIONARY
  5
100B
330
5D6
100
AcDbDictionary
280
     1
281
     1
  3
ADSK_XREC_LAYER_RECONCILED
360
100C
  0
DICTIONARY
  5
100D
330
8AF
100
AcDbDictionary
280
     1
281
     1
  3
ADSK_XREC_LAYER_RECONCILED
360
100E
  0
DICTIONARY
  5
100F
330
8F8
100
AcDbDictionary
280
     1
281
     1
  3
ADSK_XREC_LAYER_RECONCILED
360
1010
  0
DICTIONARY
  5
1011
330
91D
100
AcDbDictionary
280
     1
281
     1
  3
ADSK_XREC_LAYER_RECONCILED
360
1012
  0
DICTIONARY
  5
1013
330
BA5
100
AcDbDictionary
280
     1
281
     1
  3
ADSK_XREC_LAYER_RECONCILED
360
1014
  0
DICTIONARY
  5
FDB
102
{ACAD_REACTORS
330
C
102
}
330
C
100
AcDbDictionary
281
     1
  0
DICTIONARY
  5
D
102
{ACAD_REACTORS
330
C
102
}
330
C
100
AcDbDictionary
281
     1
  0
DICTIONARY
  5
1A
102
{ACAD_REACTORS
330
C
102
}
330
C
100
AcDbDictionary
281
     1
  3
Layout1
350
1E
  3
Layout2
350
26
  3
Model
350
22
  0
DICTIONARY
  5
FAE
102
{ACAD_REACTORS
330
C
102
}
330
C
100
AcDbDictionary
281
     1
  3
ByBlock
350
FB7
  3
ByLayer
350
FAF
  3
Global
350
FBF
  0
DICTIONARY
  5
FF0
102
{ACAD_REACTORS
330
C
102
}
330
C
100
AcDbDictionary
281
     1
  3
Standard
350
FF1
  0
DICTIONARY
  5
17
102
{ACAD_REACTORS
330
C
102
}
330
C
100
AcDbDictionary
281
     1
  3
Standard
350
18
  0
DICTIONARY
  5
19
102
{ACAD_REACTORS
330
C
102
}
330
C
100
AcDbDictionary
281
     1
  0
ACDBDICTIONARYWDFLT
  5
E
102
{ACAD_REACTORS
330
C
102
}
330
C
100
AcDbDictionary
281
     1
  3
Normal
350
F
100
AcDbDictionaryWithDefault
340
F
  0
DICTIONARY
  5
FDE
102
{ACAD_REACTORS
330
C
102
}
330
C
100
AcDbDictionary
281
     1
  3
A0
350
FDF
  3
A1
350
FE0
  3
A2
350
FE1
  3
A3
350
FE2
  3
A4
350
FE3
  3
A5
350
FE4
  3
A6
350
FE5
  3
A7
350
FE6
  3
A8
350
FE7
  3
A9
350
FE8
  3
B0
350
FE9
  3
B1
350
FEA
  3
B2
350
FEB
  3
B3
350
FEC
  3
B4
350
FED
  3
B5
350
FEE
  3
B6
350
FEF
  0
DICTIONARY
  5
FDC
102
{ACAD_REACTORS
330
C
102
}
330
C
100
AcDbDictionary
281
     1
  3
Standard
350
FDD
  0
DICTIONARY
  5
FC7
102
{ACAD_REACTORS
330
C
102
}
330
C
100
AcDbDictionary
281
     1
  3
2dWireframe
350
FCD
  3
3D Hidden
350
FCF
  3
3dWireframe
350
FCE
  3
Basic
350
FCC
  3
Brighten
350
FD3
  3
ColorChange
350
FD7
  3
Conceptual
350
FD0
  3
Dim
350
FD2
  3
EdgeColorOff
350
FDA
  3
Facepattern
350
FD6
  3
Flat
350
FC8
  3
FlatWithEdges
350
FC9
  3
Gouraud
350
FCA
  3
GouraudWithEdges
350
FCB
  3
JitterOff
350
FD8
  3
Linepattern
350
FD5
  3
OverhangOff
350
FD9
  3
Realistic
350
FD1
  3
Thicken
350
FD4
  0
XRECORD
  5
101D
102
{ACAD_REACTORS
330
C
102
}
330
C
100
AcDbXrecord
280
     1
 90
        1
330
FDD
  0
DICTIONARY
  5
3D
102
{ACAD_REACTORS
330
C
102
}
330
C
100
AcDbDictionary
281
     1
  3
CANNOSCALE
350
1017
  3
CMLEADERSTYLE
350
1016
  3
CTABLESTYLE
350
1015
  3
DIMASSOC
350
3F
  3
HIDETEXT
350
3E
  3
INDEXCTL
350
1019
  3
SORTENTS
350
1018
  3
XCLIPFRAME
350
101A
  0
DICTIONARY
  5
FAA
102
{ACAD_REACTORS
330
C
102
}
330
C
100
AcDbDictionary
281
     1
  3
ASEBlockHierarchyIndexRecord
350
FAB
1001
DCO15
1040
1528707069.593
  0
XRECORD
  5
101E
102
{ACAD_REACTORS
330
C
102
}
330
C
100
AcDbXrecord
280
     1
  1
DWGPROPS COOKIE
  2

  3

  4

  6

  7

  8
Julio
  9

300
=
301
=
302
=
303
=
304
=
305
=
306
=
307
=
308
=
309
=
 40
0.0032760069444444
 41
2453496.577935474
 42
2456146.472220591
  1

 90
        0
  0
XRECORD
  5
FF8
102
{ACAD_REACTORS
330
FF7
102
}
330
FF7
100
AcDbXrecord
280
     1
290
     1
  0
XRECORD
  5
FFA
102
{ACAD_REACTORS
330
FF9
102
}
330
FF9
100
AcDbXrecord
280
     1
290
     1
  0
XRECORD
  5
FFC
102
{ACAD_REACTORS
330
FFB
102
}
330
FFB
100
AcDbXrecord
280
     1
290
     1
  0
XRECORD
  5
FFE
102
{ACAD_REACTORS
330
FFD
102
}
330
FFD
100
AcDbXrecord
280
     1
290
     1
  0
XRECORD
  5
1000
102
{ACAD_REACTORS
330
FFF
102
}
330
FFF
100
AcDbXrecord
280
     1
290
     1
  0
XRECORD
  5
1002
102
{ACAD_REACTORS
330
1001
102
}
330
1001
100
AcDbXrecord
280
     1
290
     1
  0
XRECORD
  5
1004
102
{ACAD_REACTORS
330
1003
102
}
330
1003
100
AcDbXrecord
280
     1
290
     1
  0
XRECORD
  5
1006
102
{ACAD_REACTORS
330
1005
102
}
330
1005
100
AcDbXrecord
280
     1
290
     1
  0
XRECORD
  5
1008
102
{ACAD_REACTORS
330
1007
102
}
330
1007
100
AcDbXrecord
280
     1
290
     1
  0
XRECORD
  5
100A
102
{ACAD_REACTORS
330
1009
102
}
330
1009
100
AcDbXrecord
280
     1
290
     1
  0
XRECORD
  5
100C
102
{ACAD_REACTORS
330
100B
102
}
330
100B
100
AcDbXrecord
280
     1
290
     1
  0
XRECORD
  5
100E
102
{ACAD_REACTORS
330
100D
102
}
330
100D
100
AcDbXrecord
280
     1
290
     1
  0
XRECORD
  5
1010
102
{ACAD_REACTORS
330
100F
102
}
330
100F
100
AcDbXrecord
280
     1
290
     1
  0
XRECORD
  5
1012
102
{ACAD_REACTORS
330
1011
102
}
330
1011
100
AcDbXrecord
280
     1
290
     1
  0
XRECORD
  5
1014
102
{ACAD_REACTORS
330
1013
102
}
330
1013
100
AcDbXrecord
280
     1
290
     1
  0
LAYOUT
  5
1E
102
{ACAD_XDICTIONARY
360
101F
102
}
102
{ACAD_REACTORS
330
1A
102
}
330
1A
100
AcDbPlotSettings
  1

  2
Ploter HP500
  4

  6

 40
0.0
 41
0.0
 42
0.0
 43
0.0
 44
0.0
 45
0.0
 46
0.0
 47
0.0
 48
0.0
 49
0.0
140
0.0
141
0.0
142
1.0
143
1.0
 70
   688
 72
     0
 73
     0
 74
     5
  7
monochrome.ctb
 75
    16
147
1.0
148
0.0
149
0.0
100
AcDbLayout
  1
Layout1
 70
     1
 71
     1
 10
0.0
 20
0.0
 11
420.0
 21
297.0
 12
0.0
 22
0.0
 32
0.0
 14
1.000000000000000E+20
 24
1.000000000000000E+20
 34
1.000000000000000E+20
 15
-1.000000000000000E+20
 25
-1.000000000000000E+20
 35
-1.000000000000000E+20
146
0.0
 13
0.0
 23
0.0
 33
0.0
 16
1.0
 26
0.0
 36
0.0
 17
0.0
 27
1.0
 37
0.0
 76
     0
330
1B
  0
LAYOUT
  5
26
102
{ACAD_XDICTIONARY
360
1023
102
}
102
{ACAD_REACTORS
330
1A
102
}
330
1A
100
AcDbPlotSettings
  1

  2
Ploter HP500
  4

  6

 40
0.0
 41
0.0
 42
0.0
 43
0.0
 44
0.0
 45
0.0
 46
0.0
 47
0.0
 48
0.0
 49
0.0
140
0.0
141
0.0
142
1.0
143
1.0
 70
   688
 72
     0
 73
     0
 74
     5
  7
monochrome.ctb
 75
    16
147
1.0
148
0.0
149
0.0
100
AcDbLayout
  1
Layout2
 70
     1
 71
     2
 10
0.0
 20
0.0
 11
12.0
 21
9.0
 12
0.0
 22
0.0
 32
0.0
 14
0.0
 24
0.0
 34
0.0
 15
0.0
 25
0.0
 35
0.0
146
0.0
 13
0.0
 23
0.0
 33
0.0
 16
1.0
 26
0.0
 36
0.0
 17
0.0
 27
1.0
 37
0.0
 76
     0
330
23
  0
LAYOUT
  5
22
102
{ACAD_XDICTIONARY
360
1021
102
}
102
{ACAD_REACTORS
330
1A
102
}
330
1A
100
AcDbPlotSettings
  1

  2
Ploter HP500
  4
User268
  6

 40
4.995333194732666
 41
16.97565841674804
 42
4.995330810546875
 43
16.97567749023437
 44
209.9733276367187
 45
296.9259948730469
 46
0.0
 47
0.0
 48
0.0
 49
0.0
140
0.0
141
0.0
142
1.0
143
1.0
 70
 11952
 72
     1
 73
     1
 74
     0
  7

 75
     0
147
1.0
148
-427.5957866592534
149
7.362384574453926
100
AcDbLayout
  1
Model
 70
     1
 71
     0
 10
0.0
 20
0.0
 11
12.0
 21
9.0
 12
0.0
 22
0.0
 32
0.0
 14
0.0
 24
0.0
 34
0.0
 15
0.0
 25
0.0
 35
0.0
146
0.0
 13
0.0
 23
0.0
 33
0.0
 16
1.0
 26
0.0
 36
0.0
 17
0.0
 27
1.0
 37
0.0
 76
     0
330
1F
331
FAC
  0
MATERIAL
  5
FB7
102
{ACAD_XDICTIONARY
360
FB8
102
}
102
{ACAD_REACTORS
330
FAE
102
}
330
FAE
100
AcDbMaterial
  1
ByBlock
 72
     0
 43
0.0008202099737533
 43
0.0
 43
0.0
 43
0.0
 43
0.0
 43
0.0008202099737533
 43
0.0
 43
0.0
 43
0.0
 43
0.0
 43
1.0
 43
0.0
 43
0.0
 43
0.0
 43
0.0
 43
1.0
 77
     0
 47
0.0008202099737533
 47
0.0
 47
0.0
 47
0.0
 47
0.0
 47
0.0008202099737533
 47
0.0
 47
0.0
 47
0.0
 47
0.0
 47
1.0
 47
0.0
 47
0.0
 47
0.0
 47
0.0
 47
1.0
171
     0
 49
0.0008202099737533
 49
0.0
 49
0.0
 49
0.0
 49
0.0
 49
0.0008202099737533
 49
0.0
 49
0.0
 49
0.0
 49
0.0
 49
1.0
 49
0.0
 49
0.0
 49
0.0
 49
0.0
 49
1.0
175
     0
142
0.0008202099737533
142
0.0
142
0.0
142
0.0
142
0.0
142
0.0008202099737533
142
0.0
142
0.0
142
0.0
142
0.0
142
1.0
142
0.0
142
0.0
142
0.0
142
0.0
142
1.0
179
     0
144
0.0008202099737533
144
0.0
144
0.0
144
0.0
144
0.0
144
0.0008202099737533
144
0.0
144
0.0
144
0.0
144
0.0
144
1.0
144
0.0
144
0.0
144
0.0
144
0.0
144
1.0
147
0.0008202099737533
147
0.0
147
0.0
147
0.0
147
0.0
147
0.0008202099737533
147
0.0
147
0.0
147
0.0
147
0.0
147
1.0
147
0.0
147
0.0
147
0.0
147
0.0
147
1.0
  0
MATERIAL
  5
FAF
102
{ACAD_XDICTIONARY
360
FB0
102
}
102
{ACAD_REACTORS
330
FAE
102
}
330
FAE
100
AcDbMaterial
  1
ByLayer
 72
     0
 43
0.0008202099737533
 43
0.0
 43
0.0
 43
0.0
 43
0.0
 43
0.0008202099737533
 43
0.0
 43
0.0
 43
0.0
 43
0.0
 43
1.0
 43
0.0
 43
0.0
 43
0.0
 43
0.0
 43
1.0
 77
     0
 47
0.0008202099737533
 47
0.0
 47
0.0
 47
0.0
 47
0.0
 47
0.0008202099737533
 47
0.0
 47
0.0
 47
0.0
 47
0.0
 47
1.0
 47
0.0
 47
0.0
 47
0.0
 47
0.0
 47
1.0
171
     0
 49
0.0008202099737533
 49
0.0
 49
0.0
 49
0.0
 49
0.0
 49
0.0008202099737533
 49
0.0
 49
0.0
 49
0.0
 49
0.0
 49
1.0
 49
0.0
 49
0.0
 49
0.0
 49
0.0
 49
1.0
175
     0
142
0.0008202099737533
142
0.0
142
0.0
142
0.0
142
0.0
142
0.0008202099737533
142
0.0
142
0.0
142
0.0
142
0.0
142
1.0
142
0.0
142
0.0
142
0.0
142
0.0
142
1.0
179
     0
144
0.0008202099737533
144
0.0
144
0.0
144
0.0
144
0.0
144
0.0008202099737533
144
0.0
144
0.0
144
0.0
144
0.0
144
1.0
144
0.0
144
0.0
144
0.0
144
0.0
144
1.0
147
0.0008202099737533
147
0.0
147
0.0
147
0.0
147
0.0
147
0.0008202099737533
147
0.0
147
0.0
147
0.0
147
0.0
147
1.0
147
0.0
147
0.0
147
0.0
147
0.0
147
1.0
  0
MATERIAL
  5
FBF
102
{ACAD_XDICTIONARY
360
FC0
102
}
102
{ACAD_REACTORS
330
FAE
102
}
330
FAE
100
AcDbMaterial
  1
Global
 72
     0
 43
0.0008202099737533
 43
0.0
 43
0.0
 43
0.0
 43
0.0
 43
0.0008202099737533
 43
0.0
 43
0.0
 43
0.0
 43
0.0
 43
1.0
 43
0.0
 43
0.0
 43
0.0
 43
0.0
 43
1.0
 77
     0
 47
0.0008202099737533
 47
0.0
 47
0.0
 47
0.0
 47
0.0
 47
0.0008202099737533
 47
0.0
 47
0.0
 47
0.0
 47
0.0
 47
1.0
 47
0.0
 47
0.0
 47
0.0
 47
0.0
 47
1.0
171
     0
 49
0.0008202099737533
 49
0.0
 49
0.0
 49
0.0
 49
0.0
 49
0.0008202099737533
 49
0.0
 49
0.0
 49
0.0
 49
0.0
 49
1.0
 49
0.0
 49
0.0
 49
0.0
 49
0.0
 49
1.0
175
     0
142
0.0008202099737533
142
0.0
142
0.0
142
0.0
142
0.0
142
0.0008202099737533
142
0.0
142
0.0
142
0.0
142
0.0
142
1.0
142
0.0
142
0.0
142
0.0
142
0.0
142
1.0
179
     0
144
0.0008202099737533
144
0.0
144
0.0
144
0.0
144
0.0
144
0.0008202099737533
144
0.0
144
0.0
144
0.0
144
0.0
144
1.0
144
0.0
144
0.0
144
0.0
144
0.0
144
1.0
147
0.0008202099737533
147
0.0
147
0.0
147
0.0
147
0.0
147
0.0008202099737533
147
0.0
147
0.0
147
0.0
147
0.0
147
1.0
147
0.0
147
0.0
147
0.0
147
0.0
147
1.0
  0
MLEADERSTYLE
  5
FF1
102
{ACAD_REACTORS
330
FF0
102
}
330
FF0
100
AcDbMLeaderStyle
170
     2
171
     1
172
     0
 90
        2
 40
0.0
 41
0.0
173
     1
 91
-1056964608
340
14
 92
       -2
290
     1
 42
2.0
291
     1
 43
0.36
  3
Standard
 44
4.0
300

342
11
174
     1
178
     6
175
     1
176
     0
 93
-1056964608
 45
4.0
292
     0
297
     0
 46
4.0
 94
-1056964608
 47
1.0
 49
1.0
140
1.0
293
     1
141
0.0
294
     1
177
     0
142
1.0
295
     0
296
     0
143
0.125
1001
ACAD_MLEADERVER
1070
     2
  0
MLINESTYLE
  5
18
102
{ACAD_REACTORS
330
17
102
}
330
17
100
AcDbMlineStyle
  2
STANDARD
 70
     0
  3

 62
   256
 51
90.0
 52
90.0
 71
     2
 49
0.5
 62
   256
  6
BYLAYER
 49
-0.5
 62
   256
  6
BYLAYER
  0
ACDBPLACEHOLDER
  5
F
102
{ACAD_REACTORS
330
E
102
}
330
E
  0
SCALE
  5
FDF
102
{ACAD_REACTORS
330
FDE
102
}
330
FDE
100
AcDbScale
 70
     0
300
1:1
140
1.0
141
1.0
290
     1
  0
SCALE
  5
FE0
102
{ACAD_REACTORS
330
FDE
102
}
330
FDE
100
AcDbScale
 70
     0
300
1:2
140
1.0
141
2.0
290
     0
  0
SCALE
  5
FE1
102
{ACAD_REACTORS
330
FDE
102
}
330
FDE
100
AcDbScale
 70
     0
300
1:4
140
1.0
141
4.0
290
     0
  0
SCALE
  5
FE2
102
{ACAD_REACTORS
330
FDE
102
}
330
FDE
100
AcDbScale
 70
     0
300
1:5
140
1.0
141
5.0
290
     0
  0
SCALE
  5
FE3
102
{ACAD_REACTORS
330
FDE
102
}
330
FDE
100
AcDbScale
 70
     0
300
1:8
140
1.0
141
8.0
290
     0
  0
SCALE
  5
FE4
102
{ACAD_REACTORS
330
FDE
102
}
330
FDE
100
AcDbScale
 70
     0
300
1:10
140
1.0
141
10.0
290
     0
  0
SCALE
  5
FE5
102
{ACAD_REACTORS
330
FDE
102
}
330
FDE
100
AcDbScale
 70
     0
300
1:16
140
1.0
141
16.0
290
     0
  0
SCALE
  5
FE6
102
{ACAD_REACTORS
330
FDE
102
}
330
FDE
100
AcDbScale
 70
     0
300
1:20
140
1.0
141
20.0
290
     0
  0
SCALE
  5
FE7
102
{ACAD_REACTORS
330
FDE
102
}
330
FDE
100
AcDbScale
 70
     0
300
1:30
140
1.0
141
30.0
290
     0
  0
SCALE
  5
FE8
102
{ACAD_REACTORS
330
FDE
102
}
330
FDE
100
AcDbScale
 70
     0
300
1:40
140
1.0
141
40.0
290
     0
  0
SCALE
  5
FE9
102
{ACAD_REACTORS
330
FDE
102
}
330
FDE
100
AcDbScale
 70
     0
300
1:50
140
1.0
141
50.0
290
     0
  0
SCALE
  5
FEA
102
{ACAD_REACTORS
330
FDE
102
}
330
FDE
100
AcDbScale
 70
     0
300
1:100
140
1.0
141
100.0
290
     0
  0
SCALE
  5
FEB
102
{ACAD_REACTORS
330
FDE
102
}
330
FDE
100
AcDbScale
 70
     0
300
2:1
140
2.0
141
1.0
290
     0
  0
SCALE
  5
FEC
102
{ACAD_REACTORS
330
FDE
102
}
330
FDE
100
AcDbScale
 70
     0
300
4:1
140
4.0
141
1.0
290
     0
  0
SCALE
  5
FED
102
{ACAD_REACTORS
330
FDE
102
}
330
FDE
100
AcDbScale
 70
     0
300
8:1
140
8.0
141
1.0
290
     0
  0
SCALE
  5
FEE
102
{ACAD_REACTORS
330
FDE
102
}
330
FDE
100
AcDbScale
 70
     0
300
10:1
140
10.0
141
1.0
290
     0
  0
SCALE
  5
FEF
102
{ACAD_REACTORS
330
FDE
102
}
330
FDE
100
AcDbScale
 70
     0
300
100:1
140
100.0
141
1.0
290
     0
  0
TABLESTYLE
  5
FDD
102
{ACAD_XDICTIONARY
360
101B
102
}
102
{ACAD_REACTORS
330
FDC
102
}
330
FDC
100
AcDbTableStyle
  3
Standard
 70
     0
 71
     0
 40
1.5
 41
1.5
280
     0
281
     0
  7
Standard
140
4.5
170
     2
 62
     0
 63
     7
283
     0
274
    -2
284
     1
 64
     0
275
    -2
285
     1
 65
     0
276
    -2
286
     1
 66
     0
277
    -2
287
     1
 67
     0
278
    -2
288
     1
 68
     0
279
    -2
289
     1
 69
     0
  7
Standard
140
6.0
170
     5
 62
     0
 63
     7
283
     0
274
    -2
284
     1
 64
     0
275
    -2
285
     1
 65
     0
276
    -2
286
     1
 66
     0
277
    -2
287
     1
 67
     0
278
    -2
288
     1
 68
     0
279
    -2
289
     1
 69
     0
  7
Standard
140
4.5
170
     5
 62
     0
 63
     7
283
     0
274
    -2
284
     1
 64
     0
275
    -2
285
     1
 65
     0
276
    -2
286
     1
 66
     0
277
    -2
287
     1
 67
     0
278
    -2
288
     1
 68
     0
279
    -2
289
     1
 69
     0
  0
VISUALSTYLE
  5
FCD
102
{ACAD_XDICTIONARY
360
104E
102
}
102
{ACAD_REACTORS
330
FC7
102
}
330
FC7
100
AcDbVisualStyle
  2
2dWireframe
 70
     4
 71
     0
 72
     2
 73
     0
 90
        0
 40
-0.6
 41
-30.0
 62
     5
 63
     7
 74
     1
 91
        4
 64
     7
 65
   257
 75
     1
175
     1
 42
1.0
 92
        0
 66
   257
 43
1.0
 76
     1
 77
     6
 78
     2
 67
     7
 79
     5
170
     0
171
     0
290
     0
174
     0
 93
        1
 44
0.0
173
     0
291
     0
 45
0.0
1001
ACAD
1000
AcDbSavedByObjectVersion
1070
     0
  0
VISUALSTYLE
  5
FCF
102
{ACAD_XDICTIONARY
360
1052
102
}
102
{ACAD_REACTORS
330
FC7
102
}
330
FC7
100
AcDbVisualStyle
  2
3D Hidden
 70
     6
 71
     1
 72
     2
 73
     2
 90
        0
 40
-0.6
 41
-30.0
 62
     5
 63
     7
 74
     2
 91
        2
 64
     7
 65
   257
 75
     2
175
     1
 42
179.0
 92
        0
 66
   257
 43
1.0
 76
     1
 77
     6
 78
     2
 67
     7
 79
     3
170
     0
171
     0
290
     0
174
     0
 93
        1
 44
0.0
173
     0
291
     0
 45
0.0
1001
ACAD
1000
AcDbSavedByObjectVersion
1070
     0
  0
VISUALSTYLE
  5
FCE
102
{ACAD_XDICTIONARY
360
1050
102
}
102
{ACAD_REACTORS
330
FC7
102
}
330
FC7
100
AcDbVisualStyle
  2
3dWireframe
 70
     5
 71
     0
 72
     2
 73
     0
 90
        0
 40
-0.6
 41
-30.0
 62
     5
 63
     7
 74
     1
 91
        4
 64
     7
 65
   257
 75
     1
175
     1
 42
1.0
 92
        0
 66
   257
 43
1.0
 76
     1
 77
     6
 78
     2
 67
     7
 79
     5
170
     0
171
     0
290
     0
174
     0
 93
        1
 44
0.0
173
     0
291
     0
 45
0.0
1001
ACAD
1000
AcDbSavedByObjectVersion
1070
     0
  0
VISUALSTYLE
  5
FCC
102
{ACAD_XDICTIONARY
360
104C
102
}
102
{ACAD_REACTORS
330
FC7
102
}
330
FC7
100
AcDbVisualStyle
  2
Basic
 70
     7
 71
     1
 72
     0
 73
     1
 90
        0
 40
-0.6
 41
-30.0
 62
     5
 63
     7
 74
     0
 91
        4
 64
     7
 65
   257
 75
     1
175
     1
 42
1.0
 92
        8
 66
     7
 43
1.0
 76
     1
 77
     6
 78
     2
 67
     7
 79
     5
170
     0
171
     0
290
     0
174
     0
 93
        1
 44
0.0
173
     0
291
     1
 45
0.0
1001
ACAD
1000
AcDbSavedByObjectVersion
1070
     0
  0
VISUALSTYLE
  5
FD3
102
{ACAD_XDICTIONARY
360
105A
102
}
102
{ACAD_REACTORS
330
FC7
102
}
330
FC7
100
AcDbVisualStyle
  2
Brighten
 70
    12
 71
     2
 72
     2
 73
     0
 90
        0
 40
-0.6
 41
-30.0
 62
     5
 63
     7
 74
     1
 91
        4
 64
     7
 65
   257
 75
     1
175
     1
 42
1.0
 92
        8
 66
     7
 43
1.0
 76
     1
 77
     6
 78
     2
 67
     7
 79
     5
170
     0
171
     0
290
     0
174
     0
 93
        1
 44
50.0
173
     0
291
     1
 45
0.0
1001
ACAD
1000
AcDbSavedByObjectVersion
1070
     0
  0
VISUALSTYLE
  5
FD7
102
{ACAD_XDICTIONARY
360
1062
102
}
102
{ACAD_REACTORS
330
FC7
102
}
330
FC7
100
AcDbVisualStyle
  2
ColorChange
 70
    16
 71
     2
 72
     2
 73
     3
 90
        0
 40
-0.6
 41
-30.0
 62
     5
 63
     8
 74
     1
 91
        4
 64
     7
 65
   257
 75
     1
175
     1
 42
1.0
 92
        8
 66
     8
 43
1.0
 76
     1
 77
     6
 78
     2
 67
     7
 79
     5
170
     0
171
     0
290
     0
174
     0
 93
        1
 44
0.0
173
     0
291
     1
 45
0.0
1001
ACAD
1000
AcDbSavedByObjectVersion
1070
     0
  0
VISUALSTYLE
  5
FD0
102
{ACAD_XDICTIONARY
360
1054
102
}
102
{ACAD_REACTORS
330
FC7
102
}
330
FC7
100
AcDbVisualStyle
  2
Conceptual
 70
     9
 71
     3
 72
     2
 73
     0
 90
        0
 40
-0.6
 41
-30.0
 62
     5
 63
     7
 74
     2
 91
        2
 64
     7
 65
   257
 75
     1
175
     1
 42
179.0
 92
        8
 66
     7
 43
1.0
 76
     1
 77
     6
 78
     2
 67
     7
 79
     3
170
     0
171
     0
290
     0
174
     0
 93
        1
 44
0.0
173
     0
291
     0
 45
0.0
1001
ACAD
1000
AcDbSavedByObjectVersion
1070
     0
  0
VISUALSTYLE
  5
FD2
102
{ACAD_XDICTIONARY
360
1058
102
}
102
{ACAD_REACTORS
330
FC7
102
}
330
FC7
100
AcDbVisualStyle
  2
Dim
 70
    11
 71
     2
 72
     2
 73
     0
 90
        0
 40
-0.6
 41
-30.0
 62
     5
 63
     7
 74
     1
 91
        4
 64
     7
 65
   257
 75
     1
175
     1
 42
1.0
 92
        8
 66
     7
 43
1.0
 76
     1
 77
     6
 78
     2
 67
     7
 79
     5
170
     0
171
     0
290
     0
174
     0
 93
        1
 44
-50.0
173
     0
291
     1
 45
0.0
1001
ACAD
1000
AcDbSavedByObjectVersion
1070
     0
  0
VISUALSTYLE
  5
FDA
102
{ACAD_XDICTIONARY
360
1068
102
}
102
{ACAD_REACTORS
330
FC7
102
}
330
FC7
100
AcDbVisualStyle
  2
EdgeColorOff
 70
    22
 71
     2
 72
     2
 73
     0
 90
        0
 40
-0.6
 41
-30.0
 62
     5
 63
     7
 74
     1
 91
        4
 64
     7
 65
   257
 75
     1
175
     1
 42
1.0
 92
        8
 66
     7
 43
1.0
 76
     1
 77
     6
 78
     2
 67
     7
 79
     5
170
     0
171
     0
290
     0
174
     0
 93
        1
 44
0.0
173
     0
291
     1
 45
0.0
1001
ACAD
1000
AcDbSavedByObjectVersion
1070
     0
  0
VISUALSTYLE
  5
FD6
102
{ACAD_XDICTIONARY
360
1060
102
}
102
{ACAD_REACTORS
330
FC7
102
}
330
FC7
100
AcDbVisualStyle
  2
Facepattern
 70
    15
 71
     2
 72
     2
 73
     0
 90
        0
 40
-0.6
 41
-30.0
 62
     5
 63
     7
 74
     1
 91
        4
 64
     7
 65
   257
 75
     1
175
     1
 42
1.0
 92
        8
 66
     7
 43
1.0
 76
     1
 77
     6
 78
     2
 67
     7
 79
     5
170
     0
171
     0
290
     0
174
     0
 93
        1
 44
0.0
173
     0
291
     1
 45
0.0
1001
ACAD
1000
AcDbSavedByObjectVersion
1070
     0
  0
VISUALSTYLE
  5
FC8
102
{ACAD_XDICTIONARY
360
1044
102
}
102
{ACAD_REACTORS
330
FC7
102
}
330
FC7
100
AcDbVisualStyle
  2
Flat
 70
     0
 71
     2
 72
     1
 73
     1
 90
        2
 40
-0.6
 41
30.0
 62
     5
 63
     7
 74
     0
 91
        4
 64
     7
 65
   257
 75
     1
175
     1
 42
1.0
 92
        8
 66
     7
 43
1.0
 76
     1
 77
     6
 78
     2
 67
     7
 79
     5
170
     0
171
     0
290
     0
174
     0
 93
       13
 44
0.0
173
     0
291
     1
 45
0.0
1001
ACAD
1000
AcDbSavedByObjectVersion
1070
     0
  0
VISUALSTYLE
  5
FC9
102
{ACAD_XDICTIONARY
360
1046
102
}
102
{ACAD_REACTORS
330
FC7
102
}
330
FC7
100
AcDbVisualStyle
  2
FlatWithEdges
 70
     1
 71
     2
 72
     1
 73
     1
 90
        2
 40
-0.6
 41
30.0
 62
     5
 63
     7
 74
     1
 91
        4
 64
     7
 65
   257
 75
     1
175
     1
 42
1.0
 92
        0
 66
   257
 43
1.0
 76
     1
 77
     6
 78
     2
 67
     7
 79
     5
170
     0
171
     0
290
     0
174
     0
 93
       13
 44
0.0
173
     0
291
     1
 45
0.0
1001
ACAD
1000
AcDbSavedByObjectVersion
1070
     0
  0
VISUALSTYLE
  5
FCA
102
{ACAD_XDICTIONARY
360
1048
102
}
102
{ACAD_REACTORS
330
FC7
102
}
330
FC7
100
AcDbVisualStyle
  2
Gouraud
 70
     2
 71
     2
 72
     2
 73
     1
 90
        2
 40
-0.6
 41
30.0
 62
     5
 63
     7
 74
     0
 91
        4
 64
     7
 65
   257
 75
     1
175
     1
 42
1.0
 92
        0
 66
     7
 43
1.0
 76
     1
 77
     6
 78
     2
 67
     7
 79
     5
170
     0
171
     0
290
     0
174
     0
 93
       13
 44
0.0
173
     0
291
     1
 45
0.0
1001
ACAD
1000
AcDbSavedByObjectVersion
1070
     0
  0
VISUALSTYLE
  5
FCB
102
{ACAD_XDICTIONARY
360
104A
102
}
102
{ACAD_REACTORS
330
FC7
102
}
330
FC7
100
AcDbVisualStyle
  2
GouraudWithEdges
 70
     3
 71
     2
 72
     2
 73
     1
 90
        2
 40
-0.6
 41
30.0
 62
     5
 63
     7
 74
     1
 91
        4
 64
     7
 65
   257
 75
     1
175
     1
 42
1.0
 92
        0
 66
   257
 43
1.0
 76
     1
 77
     6
 78
     2
 67
     7
 79
     5
170
     0
171
     0
290
     0
174
     0
 93
       13
 44
0.0
173
     0
291
     1
 45
0.0
1001
ACAD
1000
AcDbSavedByObjectVersion
1070
     0
  0
VISUALSTYLE
  5
FD8
102
{ACAD_XDICTIONARY
360
1064
102
}
102
{ACAD_REACTORS
330
FC7
102
}
330
FC7
100
AcDbVisualStyle
  2
JitterOff
 70
    20
 71
     2
 72
     2
 73
     0
 90
        0
 40
-0.6
 41
-30.0
 62
     5
 63
     7
 74
     1
 91
        4
 64
     7
 65
   257
 75
     1
175
     1
 42
1.0
 92
       10
 66
     7
 43
1.0
 76
     1
 77
     6
 78
     2
 67
     7
 79
     5
170
     0
171
     0
290
     0
174
     0
 93
        1
 44
0.0
173
     0
291
     1
 45
0.0
1001
ACAD
1000
AcDbSavedByObjectVersion
1070
     0
  0
VISUALSTYLE
  5
FD5
102
{ACAD_XDICTIONARY
360
105E
102
}
102
{ACAD_REACTORS
330
FC7
102
}
330
FC7
100
AcDbVisualStyle
  2
Linepattern
 70
    14
 71
     2
 72
     2
 73
     0
 90
        0
 40
-0.6
 41
-30.0
 62
     5
 63
     7
 74
     1
 91
        4
 64
     7
 65
   257
 75
     7
175
     7
 42
1.0
 92
        8
 66
     7
 43
1.0
 76
     1
 77
     6
 78
     2
 67
     7
 79
     5
170
     0
171
     0
290
     0
174
     0
 93
        1
 44
0.0
173
     0
291
     1
 45
0.0
1001
ACAD
1000
AcDbSavedByObjectVersion
1070
     0
  0
VISUALSTYLE
  5
FD9
102
{ACAD_XDICTIONARY
360
1066
102
}
102
{ACAD_REACTORS
330
FC7
102
}
330
FC7
100
AcDbVisualStyle
  2
OverhangOff
 70
    21
 71
     2
 72
     2
 73
     0
 90
        0
 40
-0.6
 41
-30.0
 62
     5
 63
     7
 74
     1
 91
        4
 64
     7
 65
   257
 75
     1
175
     1
 42
1.0
 92
        9
 66
     7
 43
1.0
 76
     1
 77
     6
 78
     2
 67
     7
 79
     5
170
     0
171
     0
290
     0
174
     0
 93
        1
 44
0.0
173
     0
291
     1
 45
0.0
1001
ACAD
1000
AcDbSavedByObjectVersion
1070
     0
  0
VISUALSTYLE
  5
FD1
102
{ACAD_XDICTIONARY
360
1056
102
}
102
{ACAD_REACTORS
330
FC7
102
}
330
FC7
100
AcDbVisualStyle
  2
Realistic
 70
     8
 71
     2
 72
     2
 73
     0
 90
        0
 40
-0.6
 41
-30.0
 62
     5
 63
     7
 74
     1
 91
        0
 64
     7
 65
   257
 75
     1
175
     1
 42
1.0
 92
        8
 66
     8
 43
1.0
 76
     1
 77
     6
 78
     2
 67
     7
 79
     5
170
     0
171
     0
290
     0
174
     0
 93
       13
 44
0.0
173
     0
291
     0
 45
0.0
1001
ACAD
1000
AcDbSavedByObjectVersion
1070
     0
  0
VISUALSTYLE
  5
FD4
102
{ACAD_XDICTIONARY
360
105C
102
}
102
{ACAD_REACTORS
330
FC7
102
}
330
FC7
100
AcDbVisualStyle
  2
Thicken
 70
    13
 71
     2
 72
     2
 73
     0
 90
        0
 40
-0.6
 41
-30.0
 62
     5
 63
     7
 74
     1
 91
        4
 64
     7
 65
   257
 75
     1
175
     1
 42
1.0
 92
       12
 66
     7
 43
1.0
 76
     1
 77
     6
 78
     2
 67
     7
 79
     5
170
     0
171
     0
290
     0
174
     0
 93
        1
 44
0.0
173
     0
291
     1
 45
0.0
1001
ACAD
1000
AcDbSavedByObjectVersion
1070
     0
  0
DICTIONARYVAR
  5
1017
102
{ACAD_REACTORS
330
3D
102
}
330
3D
100
DictionaryVariables
280
     0
  1
1:1
  0
DICTIONARYVAR
  5
1016
102
{ACAD_REACTORS
330
3D
102
}
330
3D
100
DictionaryVariables
280
     0
  1
STANDARD
  0
DICTIONARYVAR
  5
1015
102
{ACAD_REACTORS
330
3D
102
}
330
3D
100
DictionaryVariables
280
     0
  1
STANDARD
  0
DICTIONARYVAR
  5
3F
102
{ACAD_REACTORS
330
3D
102
}
330
3D
100
DictionaryVariables
280
     0
  1
2
  0
DICTIONARYVAR
  5
3E
102
{ACAD_REACTORS
330
3D
102
}
330
3D
100
DictionaryVariables
280
     0
  1
1
  0
DICTIONARYVAR
  5
1019
102
{ACAD_REACTORS
330
3D
102
}
330
3D
100
DictionaryVariables
280
     0
  1
0
  0
DICTIONARYVAR
  5
1018
102
{ACAD_REACTORS
330
3D
102
}
330
3D
100
DictionaryVariables
280
     0
  1
127
  0
DICTIONARYVAR
  5
101A
102
{ACAD_REACTORS
330
3D
102
}
330
3D
100
DictionaryVariables
280
     0
  1
2
  0
XRECORD
  5
FAB
102
{ACAD_REACTORS
330
FAA
102
}
330
FAA
100
AcDbXrecord
280
     1
  0
DICTIONARY
  5
101F
330
1E
100
AcDbDictionary
280
     1
281
     1
  3
ACAD_XREC_ROUNDTRIP
360
1020
  0
DICTIONARY
  5
1023
330
26
100
AcDbDictionary
280
     1
281
     1
  3
ACAD_XREC_ROUNDTRIP
360
1024
  0
DICTIONARY
  5
1021
330
22
100
AcDbDictionary
280
     1
281
     1
  3
ACAD_XREC_ROUNDTRIP
360
1022
  0
DICTIONARY
  5
FB8
330
FB7
100
AcDbDictionary
280
     1
281
     1
  3
ACAD_XREC_ROUNDTRIP
360
1042
  3
BUMPTILE
360
FBA
  3
DIFFUSETILE
360
FB9
  3
OPACITYTILE
360
FBD
  3
REFLECTIONTILE
360
FBC
  3
REFRACTIONTILE
360
FBE
  3
SPECULARTILE
360
FBB
  0
DICTIONARY
  5
FB0
330
FAF
100
AcDbDictionary
280
     1
281
     1
  3
ACAD_XREC_ROUNDTRIP
360
1041
  3
BUMPTILE
360
FB2
  3
DIFFUSETILE
360
FB1
  3
OPACITYTILE
360
FB5
  3
REFLECTIONTILE
360
FB4
  3
REFRACTIONTILE
360
FB6
  3
SPECULARTILE
360
FB3
  0
DICTIONARY
  5
FC0
330
FBF
100
AcDbDictionary
280
     1
281
     1
  3
ACAD_XREC_ROUNDTRIP
360
1043
  3
BUMPTILE
360
FC2
  3
DIFFUSETILE
360
FC1
  3
OPACITYTILE
360
FC5
  3
REFLECTIONTILE
360
FC4
  3
REFRACTIONTILE
360
FC6
  3
SPECULARTILE
360
FC3
  0
DICTIONARY
  5
101B
330
FDD
100
AcDbDictionary
280
     1
281
     1
  3
ACAD_ROUNDTRIP_2008_TABLESTYLE_CELLSTYLEMAP
360
101C
  3
ACAD_XREC_ROUNDTRIP
360
106A
  0
DICTIONARY
  5
104E
330
FCD
100
AcDbDictionary
280
     1
281
     1
  3
ACAD_XREC_ROUNDTRIP
360
104F
  0
DICTIONARY
  5
1052
330
FCF
100
AcDbDictionary
280
     1
281
     1
  3
ACAD_XREC_ROUNDTRIP
360
1053
  0
DICTIONARY
  5
1050
330
FCE
100
AcDbDictionary
280
     1
281
     1
  3
ACAD_XREC_ROUNDTRIP
360
1051
  0
DICTIONARY
  5
104C
330
FCC
100
AcDbDictionary
280
     1
281
     1
  3
ACAD_XREC_ROUNDTRIP
360
104D
  0
DICTIONARY
  5
105A
330
FD3
100
AcDbDictionary
280
     1
281
     1
  3
ACAD_XREC_ROUNDTRIP
360
105B
  0
DICTIONARY
  5
1062
330
FD7
100
AcDbDictionary
280
     1
281
     1
  3
ACAD_XREC_ROUNDTRIP
360
1063
  0
DICTIONARY
  5
1054
330
FD0
100
AcDbDictionary
280
     1
281
     1
  3
ACAD_XREC_ROUNDTRIP
360
1055
  0
DICTIONARY
  5
1058
330
FD2
100
AcDbDictionary
280
     1
281
     1
  3
ACAD_XREC_ROUNDTRIP
360
1059
  0
DICTIONARY
  5
1068
330
FDA
100
AcDbDictionary
280
     1
281
     1
  3
ACAD_XREC_ROUNDTRIP
360
1069
  0
DICTIONARY
  5
1060
330
FD6
100
AcDbDictionary
280
     1
281
     1
  3
ACAD_XREC_ROUNDTRIP
360
1061
  0
DICTIONARY
  5
1044
330
FC8
100
AcDbDictionary
280
     1
281
     1
  3
ACAD_XREC_ROUNDTRIP
360
1045
  0
DICTIONARY
  5
1046
330
FC9
100
AcDbDictionary
280
     1
281
     1
  3
ACAD_XREC_ROUNDTRIP
360
1047
  0
DICTIONARY
  5
1048
330
FCA
100
AcDbDictionary
280
     1
281
     1
  3
ACAD_XREC_ROUNDTRIP
360
1049
  0
DICTIONARY
  5
104A
330
FCB
100
AcDbDictionary
280
     1
281
     1
  3
ACAD_XREC_ROUNDTRIP
360
104B
  0
DICTIONARY
  5
1064
330
FD8
100
AcDbDictionary
280
     1
281
     1
  3
ACAD_XREC_ROUNDTRIP
360
1065
  0
DICTIONARY
  5
105E
330
FD5
100
AcDbDictionary
280
     1
281
     1
  3
ACAD_XREC_ROUNDTRIP
360
105F
  0
DICTIONARY
  5
1066
330
FD9
100
AcDbDictionary
280
     1
281
     1
  3
ACAD_XREC_ROUNDTRIP
360
1067
  0
DICTIONARY
  5
1056
330
FD1
100
AcDbDictionary
280
     1
281
     1
  3
ACAD_XREC_ROUNDTRIP
360
1057
  0
DICTIONARY
  5
105C
330
FD4
100
AcDbDictionary
280
     1
281
     1
  3
ACAD_XREC_ROUNDTRIP
360
105D
  0
XRECORD
  5
1020
102
{ACAD_REACTORS
330
101F
102
}
330
101F
100
AcDbXrecord
280
     1
102
SHADEPLOT
 70
     0
102
SHADEPLOTRESLEVEL
 70
     2
102
SHADEPLOTCUSTOMDPI
 70
   300
  0
XRECORD
  5
1024
102
{ACAD_REACTORS
330
1023
102
}
330
1023
100
AcDbXrecord
280
     1
102
SHADEPLOT
 70
     0
102
SHADEPLOTRESLEVEL
 70
     2
102
SHADEPLOTCUSTOMDPI
 70
   300
  0
XRECORD
  5
1022
102
{ACAD_REACTORS
330
1021
102
}
330
1021
100
AcDbXrecord
280
     1
102
SHADEPLOT
 70
     0
102
SHADEPLOTRESLEVEL
 70
     2
102
SHADEPLOTCUSTOMDPI
 70
   300
  0
XRECORD
  5
1042
102
{ACAD_REACTORS
330
FB8
102
}
330
FB8
100
AcDbXrecord
280
     1
102
MATERIAL
148
0.0
149
0.0
149
0.0
 93
        0
 94
      127
282
     0
 72
     0
 77
     0
171
     0
175
     0
179
     0
273
     0
  0
XRECORD
  5
FBA
102
{ACAD_REACTORS
330
FB8
102
}
330
FB8
100
AcDbXrecord
280
     1
270
     1
271
     1
  0
XRECORD
  5
FB9
102
{ACAD_REACTORS
330
FB8
102
}
330
FB8
100
AcDbXrecord
280
     1
270
     1
271
     1
  0
XRECORD
  5
FBD
102
{ACAD_REACTORS
330
FB8
102
}
330
FB8
100
AcDbXrecord
280
     1
270
     1
271
     1
  0
XRECORD
  5
FBC
102
{ACAD_REACTORS
330
FB8
102
}
330
FB8
100
AcDbXrecord
280
     1
270
     1
271
     1
  0
XRECORD
  5
FBE
102
{ACAD_REACTORS
330
FB8
102
}
330
FB8
100
AcDbXrecord
280
     1
270
     1
271
     1
  0
XRECORD
  5
FBB
102
{ACAD_REACTORS
330
FB8
102
}
330
FB8
100
AcDbXrecord
280
     1
270
     1
271
     1
  0
XRECORD
  5
1041
102
{ACAD_REACTORS
330
FB0
102
}
330
FB0
100
AcDbXrecord
280
     1
102
MATERIAL
148
0.0
149
0.0
149
0.0
 93
        0
 94
      127
282
     0
 72
     0
 77
     0
171
     0
175
     0
179
     0
273
     0
  0
XRECORD
  5
FB2
102
{ACAD_REACTORS
330
FB0
102
}
330
FB0
100
AcDbXrecord
280
     1
270
     1
271
     1
  0
XRECORD
  5
FB1
102
{ACAD_REACTORS
330
FB0
102
}
330
FB0
100
AcDbXrecord
280
     1
270
     1
271
     1
  0
XRECORD
  5
FB5
102
{ACAD_REACTORS
330
FB0
102
}
330
FB0
100
AcDbXrecord
280
     1
270
     1
271
     1
  0
XRECORD
  5
FB4
102
{ACAD_REACTORS
330
FB0
102
}
330
FB0
100
AcDbXrecord
280
     1
270
     1
271
     1
  0
XRECORD
  5
FB6
102
{ACAD_REACTORS
330
FB0
102
}
330
FB0
100
AcDbXrecord
280
     1
270
     1
271
     1
  0
XRECORD
  5
FB3
102
{ACAD_REACTORS
330
FB0
102
}
330
FB0
100
AcDbXrecord
280
     1
270
     1
271
     1
  0
XRECORD
  5
1043
102
{ACAD_REACTORS
330
FC0
102
}
330
FC0
100
AcDbXrecord
280
     1
102
MATERIAL
148
0.0
149
0.0
149
0.0
 93
        0
 94
      127
282
     0
 72
     0
 77
     0
171
     0
175
     0
179
     0
273
     0
  0
XRECORD
  5
FC2
102
{ACAD_REACTORS
330
FC0
102
}
330
FC0
100
AcDbXrecord
280
     1
270
     1
271
     1
  0
XRECORD
  5
FC1
102
{ACAD_REACTORS
330
FC0
102
}
330
FC0
100
AcDbXrecord
280
     1
270
     1
271
     1
  0
XRECORD
  5
FC5
102
{ACAD_REACTORS
330
FC0
102
}
330
FC0
100
AcDbXrecord
280
     1
270
     1
271
     1
  0
XRECORD
  5
FC4
102
{ACAD_REACTORS
330
FC0
102
}
330
FC0
100
AcDbXrecord
280
     1
270
     1
271
     1
  0
XRECORD
  5
FC6
102
{ACAD_REACTORS
330
FC0
102
}
330
FC0
100
AcDbXrecord
280
     1
270
     1
271
     1
  0
XRECORD
  5
FC3
102
{ACAD_REACTORS
330
FC0
102
}
330
FC0
100
AcDbXrecord
280
     1
270
     1
271
     1
  0
CELLSTYLEMAP
  5
101C
102
{ACAD_REACTORS
330
101B
102
}
330
101B
100
AcDbCellStyleMap
 90
        3
300
CELLSTYLE
  1
TABLEFORMAT_BEGIN
 90
        5
170
     1
 91
        0
 92
    32768
 62
   257
 93
        1
300
CONTENTFORMAT
  1
CONTENTFORMAT_BEGIN
 90
        0
 91
        0
 92
      512
 93
        0
300

 40
0.0
140
1.0
 94
        5
 62
     0
340
11
144
6.0
309
CONTENTFORMAT_END
171
     1
301
MARGIN
  1
CELLMARGIN_BEGIN
 40
1.5
 40
1.5
 40
1.5
 40
1.5
 40
4.5
 40
4.5
309
CELLMARGIN_END
 94
        6
 95
        1
302
GRIDFORMAT
  1
GRIDFORMAT_BEGIN
 90
        0
 91
        1
 62
     0
 92
       -2
340
0
 93
        0
 40
1.125
309
GRIDFORMAT_END
 95
        2
302
GRIDFORMAT
  1
GRIDFORMAT_BEGIN
 90
        0
 91
        1
 62
     0
 92
       -2
340
0
 93
        0
 40
1.125
309
GRIDFORMAT_END
 95
        4
302
GRIDFORMAT
  1
GRIDFORMAT_BEGIN
 90
        0
 91
        1
 62
     0
 92
       -2
340
0
 93
        0
 40
1.125
309
GRIDFORMAT_END
 95
        8
302
GRIDFORMAT
  1
GRIDFORMAT_BEGIN
 90
        0
 91
        1
 62
     0
 92
       -2
340
0
 93
        0
 40
1.125
309
GRIDFORMAT_END
 95
       16
302
GRIDFORMAT
  1
GRIDFORMAT_BEGIN
 90
        0
 91
        1
 62
     0
 92
       -2
340
0
 93
        0
 40
1.125
309
GRIDFORMAT_END
 95
       32
302
GRIDFORMAT
  1
GRIDFORMAT_BEGIN
 90
        0
 91
        1
 62
     0
 92
       -2
340
0
 93
        0
 40
1.125
309
GRIDFORMAT_END
309
TABLEFORMAT_END
  1
CELLSTYLE_BEGIN
 90
        1
 91
        1
300
_TITLE
309
CELLSTYLE_END
300
CELLSTYLE
  1
TABLEFORMAT_BEGIN
 90
        5
170
     1
 91
        0
 92
        0
 62
   257
 93
        1
300
CONTENTFORMAT
  1
CONTENTFORMAT_BEGIN
 90
        0
 91
        0
 92
      512
 93
        0
300

 40
0.0
140
1.0
 94
        5
 62
     0
340
11
144
4.5
309
CONTENTFORMAT_END
171
     1
301
MARGIN
  1
CELLMARGIN_BEGIN
 40
1.5
 40
1.5
 40
1.5
 40
1.5
 40
4.5
 40
4.5
309
CELLMARGIN_END
 94
        6
 95
        1
302
GRIDFORMAT
  1
GRIDFORMAT_BEGIN
 90
        0
 91
        1
 62
     0
 92
       -2
340
0
 93
        0
 40
1.125
309
GRIDFORMAT_END
 95
        2
302
GRIDFORMAT
  1
GRIDFORMAT_BEGIN
 90
        0
 91
        1
 62
     0
 92
       -2
340
0
 93
        0
 40
1.125
309
GRIDFORMAT_END
 95
        4
302
GRIDFORMAT
  1
GRIDFORMAT_BEGIN
 90
        0
 91
        1
 62
     0
 92
       -2
340
0
 93
        0
 40
1.125
309
GRIDFORMAT_END
 95
        8
302
GRIDFORMAT
  1
GRIDFORMAT_BEGIN
 90
        0
 91
        1
 62
     0
 92
       -2
340
0
 93
        0
 40
1.125
309
GRIDFORMAT_END
 95
       16
302
GRIDFORMAT
  1
GRIDFORMAT_BEGIN
 90
        0
 91
        1
 62
     0
 92
       -2
340
0
 93
        0
 40
1.125
309
GRIDFORMAT_END
 95
       32
302
GRIDFORMAT
  1
GRIDFORMAT_BEGIN
 90
        0
 91
        1
 62
     0
 92
       -2
340
0
 93
        0
 40
1.125
309
GRIDFORMAT_END
309
TABLEFORMAT_END
  1
CELLSTYLE_BEGIN
 90
        2
 91
        1
300
_HEADER
309
CELLSTYLE_END
300
CELLSTYLE
  1
TABLEFORMAT_BEGIN
 90
        5
170
     1
 91
        0
 92
        0
 62
   257
 93
        1
300
CONTENTFORMAT
  1
CONTENTFORMAT_BEGIN
 90
        0
 91
        0
 92
      512
 93
        0
300

 40
0.0
140
1.0
 94
        2
 62
     0
340
11
144
4.5
309
CONTENTFORMAT_END
171
     1
301
MARGIN
  1
CELLMARGIN_BEGIN
 40
1.5
 40
1.5
 40
1.5
 40
1.5
 40
4.5
 40
4.5
309
CELLMARGIN_END
 94
        6
 95
        1
302
GRIDFORMAT
  1
GRIDFORMAT_BEGIN
 90
        0
 91
        1
 62
     0
 92
       -2
340
0
 93
        0
 40
1.125
309
GRIDFORMAT_END
 95
        2
302
GRIDFORMAT
  1
GRIDFORMAT_BEGIN
 90
        0
 91
        1
 62
     0
 92
       -2
340
0
 93
        0
 40
1.125
309
GRIDFORMAT_END
 95
        4
302
GRIDFORMAT
  1
GRIDFORMAT_BEGIN
 90
        0
 91
        1
 62
     0
 92
       -2
340
0
 93
        0
 40
1.125
309
GRIDFORMAT_END
 95
        8
302
GRIDFORMAT
  1
GRIDFORMAT_BEGIN
 90
        0
 91
        1
 62
     0
 92
       -2
340
0
 93
        0
 40
1.125
309
GRIDFORMAT_END
 95
       16
302
GRIDFORMAT
  1
GRIDFORMAT_BEGIN
 90
        0
 91
        1
 62
     0
 92
       -2
340
0
 93
        0
 40
1.125
309
GRIDFORMAT_END
 95
       32
302
GRIDFORMAT
  1
GRIDFORMAT_BEGIN
 90
        0
 91
        1
 62
     0
 92
       -2
340
0
 93
        0
 40
1.125
309
GRIDFORMAT_END
309
TABLEFORMAT_END
  1
CELLSTYLE_BEGIN
 90
        3
 91
        2
300
_DATA
309
CELLSTYLE_END
  0
XRECORD
  5
106A
102
{ACAD_REACTORS
330
101B
102
}
330
101B
100
AcDbXrecord
280
     1
102
ACAD_ROUNDTRIP_PRE2007_TABLESTYLE
 90
      512
 91
        0
  1

 92
      512
 93
        0
  2

 94
      512
 95
        0
  3

  0
XRECORD
  5
104F
102
{ACAD_REACTORS
330
104E
102
}
330
104E
100
AcDbXrecord
280
     1
102
RTVSPropertyOp0
 70
     1
102
RTVSPropertyOp1
 70
     1
102
RTVSPropertyOp2
 70
     1
102
RTVSPropertyOp3
 70
     1
102
RTVSPropertyOp4
 70
     1
102
RTVSPropertyOp5
 70
     1
102
RTVSPropertyOp6
 70
     1
102
RTVSPropertyOp7
 70
     1
102
RTVSPropertyOp8
 70
     1
102
RTVSPropertyOp9
 70
     1
102
RTVSPropertyOp10
 70
     1
102
RTVSPropertyOp11
 70
     1
102
RTVSPropertyOp12
 70
     1
102
RTVSPropertyOp13
 70
     1
102
RTVSPropertyOp14
 70
     1
102
RTVSPropertyOp15
 70
     1
102
RTVSPropertyOp16
 70
     1
102
RTVSPropertyOp17
 70
     1
102
RTVSPropertyOp18
 70
     1
102
RTVSPropertyOp19
 70
     1
102
RTVSPropertyOp20
 70
     1
102
RTVSPropertyOp21
 70
     1
102
RTVSPropertyOp22
 70
     1
102
RTVSPropertyOp23
 70
     1
102
RTVSPropertyOp24
 70
     1
102
RTVSPropertyOp25
 70
     1
102
RTVSPropertyOp26
 70
     1
102
RTVSPropertyOp27
 70
     1
  0
XRECORD
  5
1053
102
{ACAD_REACTORS
330
1052
102
}
330
1052
100
AcDbXrecord
280
     1
102
RTVSPropertyOp0
 70
     1
102
RTVSPropertyOp1
 70
     1
102
RTVSPropertyOp2
 70
     1
102
RTVSPropertyOp3
 70
     1
102
RTVSPropertyOp4
 70
     1
102
RTVSPropertyOp5
 70
     1
102
RTVSPropertyOp6
 70
     1
102
RTVSPropertyOp7
 70
     1
102
RTVSPropertyOp8
 70
     1
102
RTVSPropertyOp9
 70
     1
102
RTVSPropertyOp10
 70
     1
102
RTVSPropertyOp11
 70
     1
102
RTVSPropertyOp12
 70
     1
102
RTVSPropertyOp13
 70
     1
102
RTVSPropertyOp14
 70
     1
102
RTVSPropertyOp15
 70
     1
102
RTVSPropertyOp16
 70
     1
102
RTVSPropertyOp17
 70
     1
102
RTVSPropertyOp18
 70
     1
102
RTVSPropertyOp19
 70
     1
102
RTVSPropertyOp20
 70
     1
102
RTVSPropertyOp21
 70
     1
102
RTVSPropertyOp22
 70
     1
102
RTVSPropertyOp23
 70
     1
102
RTVSPropertyOp24
 70
     1
102
RTVSPropertyOp25
 70
     1
102
RTVSPropertyOp26
 70
     1
102
RTVSPropertyOp27
 70
     1
  0
XRECORD
  5
1051
102
{ACAD_REACTORS
330
1050
102
}
330
1050
100
AcDbXrecord
280
     1
102
RTVSPropertyOp0
 70
     1
102
RTVSPropertyOp1
 70
     1
102
RTVSPropertyOp2
 70
     1
102
RTVSPropertyOp3
 70
     1
102
RTVSPropertyOp4
 70
     1
102
RTVSPropertyOp5
 70
     1
102
RTVSPropertyOp6
 70
     1
102
RTVSPropertyOp7
 70
     1
102
RTVSPropertyOp8
 70
     1
102
RTVSPropertyOp9
 70
     1
102
RTVSPropertyOp10
 70
     1
102
RTVSPropertyOp11
 70
     1
102
RTVSPropertyOp12
 70
     1
102
RTVSPropertyOp13
 70
     1
102
RTVSPropertyOp14
 70
     1
102
RTVSPropertyOp15
 70
     1
102
RTVSPropertyOp16
 70
     1
102
RTVSPropertyOp17
 70
     1
102
RTVSPropertyOp18
 70
     1
102
RTVSPropertyOp19
 70
     1
102
RTVSPropertyOp20
 70
     1
102
RTVSPropertyOp21
 70
     1
102
RTVSPropertyOp22
 70
     1
102
RTVSPropertyOp23
 70
     1
102
RTVSPropertyOp24
 70
     1
102
RTVSPropertyOp25
 70
     1
102
RTVSPropertyOp26
 70
     1
102
RTVSPropertyOp27
 70
     1
  0
XRECORD
  5
104D
102
{ACAD_REACTORS
330
104C
102
}
330
104C
100
AcDbXrecord
280
     1
102
RTVSPropertyOp0
 70
     1
102
RTVSPropertyOp1
 70
     1
102
RTVSPropertyOp2
 70
     1
102
RTVSPropertyOp3
 70
     1
102
RTVSPropertyOp4
 70
     1
102
RTVSPropertyOp5
 70
     1
102
RTVSPropertyOp6
 70
     1
102
RTVSPropertyOp7
 70
     1
102
RTVSPropertyOp8
 70
     1
102
RTVSPropertyOp9
 70
     1
102
RTVSPropertyOp10
 70
     1
102
RTVSPropertyOp11
 70
     1
102
RTVSPropertyOp12
 70
     1
102
RTVSPropertyOp13
 70
     1
102
RTVSPropertyOp14
 70
     1
102
RTVSPropertyOp15
 70
     1
102
RTVSPropertyOp16
 70
     1
102
RTVSPropertyOp17
 70
     1
102
RTVSPropertyOp18
 70
     1
102
RTVSPropertyOp19
 70
     1
102
RTVSPropertyOp20
 70
     1
102
RTVSPropertyOp21
 70
     1
102
RTVSPropertyOp22
 70
     1
102
RTVSPropertyOp23
 70
     1
102
RTVSPropertyOp24
 70
     1
102
RTVSPropertyOp25
 70
     1
102
RTVSPropertyOp26
 70
     1
102
RTVSPropertyOp27
 70
     1
  0
XRECORD
  5
105B
102
{ACAD_REACTORS
330
105A
102
}
330
105A
100
AcDbXrecord
280
     1
102
RTVSPropertyOp0
 70
     1
102
RTVSPropertyOp1
 70
     1
102
RTVSPropertyOp2
 70
     1
102
RTVSPropertyOp3
 70
     1
102
RTVSPropertyOp4
 70
     1
102
RTVSPropertyOp5
 70
     1
102
RTVSPropertyOp6
 70
     1
102
RTVSPropertyOp7
 70
     1
102
RTVSPropertyOp8
 70
     1
102
RTVSPropertyOp9
 70
     1
102
RTVSPropertyOp10
 70
     1
102
RTVSPropertyOp11
 70
     1
102
RTVSPropertyOp12
 70
     1
102
RTVSPropertyOp13
 70
     1
102
RTVSPropertyOp14
 70
     1
102
RTVSPropertyOp15
 70
     1
102
RTVSPropertyOp16
 70
     1
102
RTVSPropertyOp17
 70
     1
102
RTVSPropertyOp18
 70
     1
102
RTVSPropertyOp19
 70
     1
102
RTVSPropertyOp20
 70
     1
102
RTVSPropertyOp21
 70
     1
102
RTVSPropertyOp22
 70
     1
102
RTVSPropertyOp23
 70
     1
102
RTVSPropertyOp24
 70
     1
102
RTVSPropertyOp25
 70
     1
102
RTVSPropertyOp26
 70
     1
102
RTVSPropertyOp27
 70
     1
  0
XRECORD
  5
1063
102
{ACAD_REACTORS
330
1062
102
}
330
1062
100
AcDbXrecord
280
     1
102
RTVSPropertyOp0
 70
     1
102
RTVSPropertyOp1
 70
     1
102
RTVSPropertyOp2
 70
     1
102
RTVSPropertyOp3
 70
     1
102
RTVSPropertyOp4
 70
     1
102
RTVSPropertyOp5
 70
     1
102
RTVSPropertyOp6
 70
     1
102
RTVSPropertyOp7
 70
     1
102
RTVSPropertyOp8
 70
     1
102
RTVSPropertyOp9
 70
     1
102
RTVSPropertyOp10
 70
     1
102
RTVSPropertyOp11
 70
     1
102
RTVSPropertyOp12
 70
     1
102
RTVSPropertyOp13
 70
     1
102
RTVSPropertyOp14
 70
     1
102
RTVSPropertyOp15
 70
     1
102
RTVSPropertyOp16
 70
     1
102
RTVSPropertyOp17
 70
     1
102
RTVSPropertyOp18
 70
     1
102
RTVSPropertyOp19
 70
     1
102
RTVSPropertyOp20
 70
     1
102
RTVSPropertyOp21
 70
     1
102
RTVSPropertyOp22
 70
     1
102
RTVSPropertyOp23
 70
     1
102
RTVSPropertyOp24
 70
     1
102
RTVSPropertyOp25
 70
     1
102
RTVSPropertyOp26
 70
     1
102
RTVSPropertyOp27
 70
     1
  0
XRECORD
  5
1055
102
{ACAD_REACTORS
330
1054
102
}
330
1054
100
AcDbXrecord
280
     1
102
RTVSPropertyOp0
 70
     1
102
RTVSPropertyOp1
 70
     1
102
RTVSPropertyOp2
 70
     1
102
RTVSPropertyOp3
 70
     1
102
RTVSPropertyOp4
 70
     1
102
RTVSPropertyOp5
 70
     1
102
RTVSPropertyOp6
 70
     1
102
RTVSPropertyOp7
 70
     1
102
RTVSPropertyOp8
 70
     1
102
RTVSPropertyOp9
 70
     1
102
RTVSPropertyOp10
 70
     1
102
RTVSPropertyOp11
 70
     1
102
RTVSPropertyOp12
 70
     1
102
RTVSPropertyOp13
 70
     1
102
RTVSPropertyOp14
 70
     1
102
RTVSPropertyOp15
 70
     1
102
RTVSPropertyOp16
 70
     1
102
RTVSPropertyOp17
 70
     1
102
RTVSPropertyOp18
 70
     1
102
RTVSPropertyOp19
 70
     1
102
RTVSPropertyOp20
 70
     1
102
RTVSPropertyOp21
 70
     1
102
RTVSPropertyOp22
 70
     1
102
RTVSPropertyOp23
 70
     1
102
RTVSPropertyOp24
 70
     1
102
RTVSPropertyOp25
 70
     1
102
RTVSPropertyOp26
 70
     1
102
RTVSPropertyOp27
 70
     1
  0
XRECORD
  5
1059
102
{ACAD_REACTORS
330
1058
102
}
330
1058
100
AcDbXrecord
280
     1
102
RTVSPropertyOp0
 70
     1
102
RTVSPropertyOp1
 70
     1
102
RTVSPropertyOp2
 70
     1
102
RTVSPropertyOp3
 70
     1
102
RTVSPropertyOp4
 70
     1
102
RTVSPropertyOp5
 70
     1
102
RTVSPropertyOp6
 70
     1
102
RTVSPropertyOp7
 70
     1
102
RTVSPropertyOp8
 70
     1
102
RTVSPropertyOp9
 70
     1
102
RTVSPropertyOp10
 70
     1
102
RTVSPropertyOp11
 70
     1
102
RTVSPropertyOp12
 70
     1
102
RTVSPropertyOp13
 70
     1
102
RTVSPropertyOp14
 70
     1
102
RTVSPropertyOp15
 70
     1
102
RTVSPropertyOp16
 70
     1
102
RTVSPropertyOp17
 70
     1
102
RTVSPropertyOp18
 70
     1
102
RTVSPropertyOp19
 70
     1
102
RTVSPropertyOp20
 70
     1
102
RTVSPropertyOp21
 70
     1
102
RTVSPropertyOp22
 70
     1
102
RTVSPropertyOp23
 70
     1
102
RTVSPropertyOp24
 70
     1
102
RTVSPropertyOp25
 70
     1
102
RTVSPropertyOp26
 70
     1
102
RTVSPropertyOp27
 70
     1
  0
XRECORD
  5
1069
102
{ACAD_REACTORS
330
1068
102
}
330
1068
100
AcDbXrecord
280
     1
102
RTVSPropertyOp0
 70
     0
102
RTVSPropertyOp1
 70
     0
102
RTVSPropertyOp2
 70
     0
102
RTVSPropertyOp3
 70
     0
102
RTVSPropertyOp4
 70
     0
102
RTVSPropertyOp5
 70
     0
102
RTVSPropertyOp6
 70
     0
102
RTVSPropertyOp7
 70
     0
102
RTVSPropertyOp8
 70
     0
102
RTVSPropertyOp9
 70
     0
102
RTVSPropertyOp10
 70
     0
102
RTVSPropertyOp11
 70
     0
102
RTVSPropertyOp12
 70
     0
102
RTVSPropertyOp13
 70
     0
102
RTVSPropertyOp14
 70
     2
102
RTVSPropertyOp15
 70
     0
102
RTVSPropertyOp16
 70
     0
102
RTVSPropertyOp17
 70
     0
102
RTVSPropertyOp18
 70
     0
102
RTVSPropertyOp19
 70
     0
102
RTVSPropertyOp20
 70
     0
102
RTVSPropertyOp21
 70
     0
102
RTVSPropertyOp22
 70
     0
102
RTVSPropertyOp23
 70
     0
102
RTVSPropertyOp24
 70
     0
102
RTVSPropertyOp25
 70
     0
102
RTVSPropertyOp26
 70
     0
102
RTVSPropertyOp27
 70
     0
  0
XRECORD
  5
1061
102
{ACAD_REACTORS
330
1060
102
}
330
1060
100
AcDbXrecord
280
     1
102
RTVSPropertyOp0
 70
     1
102
RTVSPropertyOp1
 70
     1
102
RTVSPropertyOp2
 70
     1
102
RTVSPropertyOp3
 70
     1
102
RTVSPropertyOp4
 70
     1
102
RTVSPropertyOp5
 70
     1
102
RTVSPropertyOp6
 70
     1
102
RTVSPropertyOp7
 70
     1
102
RTVSPropertyOp8
 70
     1
102
RTVSPropertyOp9
 70
     1
102
RTVSPropertyOp10
 70
     1
102
RTVSPropertyOp11
 70
     1
102
RTVSPropertyOp12
 70
     1
102
RTVSPropertyOp13
 70
     1
102
RTVSPropertyOp14
 70
     1
102
RTVSPropertyOp15
 70
     1
102
RTVSPropertyOp16
 70
     1
102
RTVSPropertyOp17
 70
     1
102
RTVSPropertyOp18
 70
     1
102
RTVSPropertyOp19
 70
     1
102
RTVSPropertyOp20
 70
     1
102
RTVSPropertyOp21
 70
     1
102
RTVSPropertyOp22
 70
     1
102
RTVSPropertyOp23
 70
     1
102
RTVSPropertyOp24
 70
     1
102
RTVSPropertyOp25
 70
     1
102
RTVSPropertyOp26
 70
     1
102
RTVSPropertyOp27
 70
     1
  0
XRECORD
  5
1045
102
{ACAD_REACTORS
330
1044
102
}
330
1044
100
AcDbXrecord
280
     1
102
RTVSPropertyOp0
 70
     1
102
RTVSPropertyOp1
 70
     1
102
RTVSPropertyOp2
 70
     1
102
RTVSPropertyOp3
 70
     1
102
RTVSPropertyOp4
 70
     1
102
RTVSPropertyOp5
 70
     1
102
RTVSPropertyOp6
 70
     1
102
RTVSPropertyOp7
 70
     1
102
RTVSPropertyOp8
 70
     1
102
RTVSPropertyOp9
 70
     1
102
RTVSPropertyOp10
 70
     1
102
RTVSPropertyOp11
 70
     1
102
RTVSPropertyOp12
 70
     1
102
RTVSPropertyOp13
 70
     1
102
RTVSPropertyOp14
 70
     1
102
RTVSPropertyOp15
 70
     1
102
RTVSPropertyOp16
 70
     1
102
RTVSPropertyOp17
 70
     1
102
RTVSPropertyOp18
 70
     1
102
RTVSPropertyOp19
 70
     1
102
RTVSPropertyOp20
 70
     1
102
RTVSPropertyOp21
 70
     1
102
RTVSPropertyOp22
 70
     1
102
RTVSPropertyOp23
 70
     1
102
RTVSPropertyOp24
 70
     1
102
RTVSPropertyOp25
 70
     1
102
RTVSPropertyOp26
 70
     1
102
RTVSPropertyOp27
 70
     1
  0
XRECORD
  5
1047
102
{ACAD_REACTORS
330
1046
102
}
330
1046
100
AcDbXrecord
280
     1
102
RTVSPropertyOp0
 70
     1
102
RTVSPropertyOp1
 70
     1
102
RTVSPropertyOp2
 70
     1
102
RTVSPropertyOp3
 70
     1
102
RTVSPropertyOp4
 70
     1
102
RTVSPropertyOp5
 70
     1
102
RTVSPropertyOp6
 70
     1
102
RTVSPropertyOp7
 70
     1
102
RTVSPropertyOp8
 70
     1
102
RTVSPropertyOp9
 70
     1
102
RTVSPropertyOp10
 70
     1
102
RTVSPropertyOp11
 70
     1
102
RTVSPropertyOp12
 70
     1
102
RTVSPropertyOp13
 70
     1
102
RTVSPropertyOp14
 70
     1
102
RTVSPropertyOp15
 70
     1
102
RTVSPropertyOp16
 70
     1
102
RTVSPropertyOp17
 70
     1
102
RTVSPropertyOp18
 70
     1
102
RTVSPropertyOp19
 70
     1
102
RTVSPropertyOp20
 70
     1
102
RTVSPropertyOp21
 70
     1
102
RTVSPropertyOp22
 70
     1
102
RTVSPropertyOp23
 70
     1
102
RTVSPropertyOp24
 70
     1
102
RTVSPropertyOp25
 70
     1
102
RTVSPropertyOp26
 70
     1
102
RTVSPropertyOp27
 70
     1
  0
XRECORD
  5
1049
102
{ACAD_REACTORS
330
1048
102
}
330
1048
100
AcDbXrecord
280
     1
102
RTVSPropertyOp0
 70
     1
102
RTVSPropertyOp1
 70
     1
102
RTVSPropertyOp2
 70
     1
102
RTVSPropertyOp3
 70
     1
102
RTVSPropertyOp4
 70
     1
102
RTVSPropertyOp5
 70
     1
102
RTVSPropertyOp6
 70
     1
102
RTVSPropertyOp7
 70
     1
102
RTVSPropertyOp8
 70
     1
102
RTVSPropertyOp9
 70
     1
102
RTVSPropertyOp10
 70
     1
102
RTVSPropertyOp11
 70
     1
102
RTVSPropertyOp12
 70
     1
102
RTVSPropertyOp13
 70
     1
102
RTVSPropertyOp14
 70
     1
102
RTVSPropertyOp15
 70
     1
102
RTVSPropertyOp16
 70
     1
102
RTVSPropertyOp17
 70
     1
102
RTVSPropertyOp18
 70
     1
102
RTVSPropertyOp19
 70
     1
102
RTVSPropertyOp20
 70
     1
102
RTVSPropertyOp21
 70
     1
102
RTVSPropertyOp22
 70
     1
102
RTVSPropertyOp23
 70
     1
102
RTVSPropertyOp24
 70
     1
102
RTVSPropertyOp25
 70
     1
102
RTVSPropertyOp26
 70
     1
102
RTVSPropertyOp27
 70
     1
  0
XRECORD
  5
104B
102
{ACAD_REACTORS
330
104A
102
}
330
104A
100
AcDbXrecord
280
     1
102
RTVSPropertyOp0
 70
     1
102
RTVSPropertyOp1
 70
     1
102
RTVSPropertyOp2
 70
     1
102
RTVSPropertyOp3
 70
     1
102
RTVSPropertyOp4
 70
     1
102
RTVSPropertyOp5
 70
     1
102
RTVSPropertyOp6
 70
     1
102
RTVSPropertyOp7
 70
     1
102
RTVSPropertyOp8
 70
     1
102
RTVSPropertyOp9
 70
     1
102
RTVSPropertyOp10
 70
     1
102
RTVSPropertyOp11
 70
     1
102
RTVSPropertyOp12
 70
     1
102
RTVSPropertyOp13
 70
     1
102
RTVSPropertyOp14
 70
     1
102
RTVSPropertyOp15
 70
     1
102
RTVSPropertyOp16
 70
     1
102
RTVSPropertyOp17
 70
     1
102
RTVSPropertyOp18
 70
     1
102
RTVSPropertyOp19
 70
     1
102
RTVSPropertyOp20
 70
     1
102
RTVSPropertyOp21
 70
     1
102
RTVSPropertyOp22
 70
     1
102
RTVSPropertyOp23
 70
     1
102
RTVSPropertyOp24
 70
     1
102
RTVSPropertyOp25
 70
     1
102
RTVSPropertyOp26
 70
     1
102
RTVSPropertyOp27
 70
     1
  0
XRECORD
  5
1065
102
{ACAD_REACTORS
330
1064
102
}
330
1064
100
AcDbXrecord
280
     1
102
RTVSPropertyOp0
 70
     0
102
RTVSPropertyOp1
 70
     0
102
RTVSPropertyOp2
 70
     0
102
RTVSPropertyOp3
 70
     0
102
RTVSPropertyOp4
 70
     0
102
RTVSPropertyOp5
 70
     0
102
RTVSPropertyOp6
 70
     0
102
RTVSPropertyOp7
 70
     0
102
RTVSPropertyOp8
 70
     0
102
RTVSPropertyOp9
 70
     0
102
RTVSPropertyOp10
 70
     0
102
RTVSPropertyOp11
 70
     0
102
RTVSPropertyOp12
 70
     0
102
RTVSPropertyOp13
 70
     0
102
RTVSPropertyOp14
 70
     2
102
RTVSPropertyOp15
 70
     0
102
RTVSPropertyOp16
 70
     0
102
RTVSPropertyOp17
 70
     0
102
RTVSPropertyOp18
 70
     0
102
RTVSPropertyOp19
 70
     0
102
RTVSPropertyOp20
 70
     0
102
RTVSPropertyOp21
 70
     0
102
RTVSPropertyOp22
 70
     0
102
RTVSPropertyOp23
 70
     0
102
RTVSPropertyOp24
 70
     0
102
RTVSPropertyOp25
 70
     0
102
RTVSPropertyOp26
 70
     0
102
RTVSPropertyOp27
 70
     0
  0
XRECORD
  5
105F
102
{ACAD_REACTORS
330
105E
102
}
330
105E
100
AcDbXrecord
280
     1
102
RTVSPropertyOp0
 70
     1
102
RTVSPropertyOp1
 70
     1
102
RTVSPropertyOp2
 70
     1
102
RTVSPropertyOp3
 70
     1
102
RTVSPropertyOp4
 70
     1
102
RTVSPropertyOp5
 70
     1
102
RTVSPropertyOp6
 70
     1
102
RTVSPropertyOp7
 70
     1
102
RTVSPropertyOp8
 70
     1
102
RTVSPropertyOp9
 70
     1
102
RTVSPropertyOp10
 70
     1
102
RTVSPropertyOp11
 70
     1
102
RTVSPropertyOp12
 70
     1
102
RTVSPropertyOp13
 70
     1
102
RTVSPropertyOp14
 70
     1
102
RTVSPropertyOp15
 70
     1
102
RTVSPropertyOp16
 70
     1
102
RTVSPropertyOp17
 70
     1
102
RTVSPropertyOp18
 70
     1
102
RTVSPropertyOp19
 70
     1
102
RTVSPropertyOp20
 70
     1
102
RTVSPropertyOp21
 70
     1
102
RTVSPropertyOp22
 70
     1
102
RTVSPropertyOp23
 70
     1
102
RTVSPropertyOp24
 70
     1
102
RTVSPropertyOp25
 70
     1
102
RTVSPropertyOp26
 70
     1
102
RTVSPropertyOp27
 70
     1
  0
XRECORD
  5
1067
102
{ACAD_REACTORS
330
1066
102
}
330
1066
100
AcDbXrecord
280
     1
102
RTVSPropertyOp0
 70
     0
102
RTVSPropertyOp1
 70
     0
102
RTVSPropertyOp2
 70
     0
102
RTVSPropertyOp3
 70
     0
102
RTVSPropertyOp4
 70
     0
102
RTVSPropertyOp5
 70
     0
102
RTVSPropertyOp6
 70
     0
102
RTVSPropertyOp7
 70
     0
102
RTVSPropertyOp8
 70
     0
102
RTVSPropertyOp9
 70
     0
102
RTVSPropertyOp10
 70
     0
102
RTVSPropertyOp11
 70
     0
102
RTVSPropertyOp12
 70
     0
102
RTVSPropertyOp13
 70
     0
102
RTVSPropertyOp14
 70
     2
102
RTVSPropertyOp15
 70
     0
102
RTVSPropertyOp16
 70
     0
102
RTVSPropertyOp17
 70
     0
102
RTVSPropertyOp18
 70
     0
102
RTVSPropertyOp19
 70
     0
102
RTVSPropertyOp20
 70
     0
102
RTVSPropertyOp21
 70
     0
102
RTVSPropertyOp22
 70
     0
102
RTVSPropertyOp23
 70
     0
102
RTVSPropertyOp24
 70
     0
102
RTVSPropertyOp25
 70
     0
102
RTVSPropertyOp26
 70
     0
102
RTVSPropertyOp27
 70
     0
  0
XRECORD
  5
1057
102
{ACAD_REACTORS
330
1056
102
}
330
1056
100
AcDbXrecord
280
     1
102
RTVSPropertyOp0
 70
     1
102
RTVSPropertyOp1
 70
     1
102
RTVSPropertyOp2
 70
     1
102
RTVSPropertyOp3
 70
     1
102
RTVSPropertyOp4
 70
     1
102
RTVSPropertyOp5
 70
     1
102
RTVSPropertyOp6
 70
     1
102
RTVSPropertyOp7
 70
     1
102
RTVSPropertyOp8
 70
     1
102
RTVSPropertyOp9
 70
     1
102
RTVSPropertyOp10
 70
     1
102
RTVSPropertyOp11
 70
     1
102
RTVSPropertyOp12
 70
     1
102
RTVSPropertyOp13
 70
     1
102
RTVSPropertyOp14
 70
     1
102
RTVSPropertyOp15
 70
     1
102
RTVSPropertyOp16
 70
     1
102
RTVSPropertyOp17
 70
     1
102
RTVSPropertyOp18
 70
     1
102
RTVSPropertyOp19
 70
     1
102
RTVSPropertyOp20
 70
     1
102
RTVSPropertyOp21
 70
     1
102
RTVSPropertyOp22
 70
     1
102
RTVSPropertyOp23
 70
     1
102
RTVSPropertyOp24
 70
     1
102
RTVSPropertyOp25
 70
     1
102
RTVSPropertyOp26
 70
     1
102
RTVSPropertyOp27
 70
     1
  0
XRECORD
  5
105D
102
{ACAD_REACTORS
330
105C
102
}
330
105C
100
AcDbXrecord
280
     1
102
RTVSPropertyOp0
 70
     1
102
RTVSPropertyOp1
 70
     1
102
RTVSPropertyOp2
 70
     1
102
RTVSPropertyOp3
 70
     1
102
RTVSPropertyOp4
 70
     1
102
RTVSPropertyOp5
 70
     1
102
RTVSPropertyOp6
 70
     1
102
RTVSPropertyOp7
 70
     1
102
RTVSPropertyOp8
 70
     1
102
RTVSPropertyOp9
 70
     1
102
RTVSPropertyOp10
 70
     1
102
RTVSPropertyOp11
 70
     1
102
RTVSPropertyOp12
 70
     1
102
RTVSPropertyOp13
 70
     1
102
RTVSPropertyOp14
 70
     1
102
RTVSPropertyOp15
 70
     1
102
RTVSPropertyOp16
 70
     1
102
RTVSPropertyOp17
 70
     1
102
RTVSPropertyOp18
 70
     1
102
RTVSPropertyOp19
 70
     1
102
RTVSPropertyOp20
 70
     1
102
RTVSPropertyOp21
 70
     1
102
RTVSPropertyOp22
 70
     1
102
RTVSPropertyOp23
 70
     1
102
RTVSPropertyOp24
 70
     1
102
RTVSPropertyOp25
 70
     1
102
RTVSPropertyOp26
 70
     1
102
RTVSPropertyOp27
 70
     1
  0
ENDSEC
  0
EOF
