  0
SECTION
  2
HEADER
  9
$ACADVER
  1
AC1015
  9
$ACADMAINTVER
 70
    20
  9
$DWGCODEPAGE
  3
ANSI_1252
  9
$INSBASE
 10
0.0
 20
0.0
 30
0.0
  9
$EXTMIN
 10
5486.88513106615
 20
2941.217128134347
 30
-0.0000000000000003
  9
$EXTMAX
 10
5490.17331374425
 20
2941.830061480279
 30
0.0000000000000003
  9
$LIMMIN
 10
0.0
 20
0.0
  9
$LIMMAX
 10
420.0
 20
297.0
  9
$ORTHOMODE
 70
     0
  9
$REGENMODE
 70
     1
  9
$FILLMODE
 70
     1
  9
$QTEXTMODE
 70
     0
  9
$MIRRTEXT
 70
     1
  9
$LTSCALE
 40
1.0
  9
$ATTMODE
 70
     1
  9
$TEXTSIZE
 40
2.5
  9
$TRACEWID
 40
1.0
  9
$TEXTSTYLE
  7
SANINDUSA
  9
$CLAYER
  8
0
  9
$CELTYPE
  6
ByLayer
  9
$CECOLOR
 62
   256
  9
$CELTSCALE
 40
1.0
  9
$DISPSILH
 70
     0
  9
$DIMSCALE
 40
1.0
  9
$DIMASZ
 40
2.0
  9
$DIMEXO
 40
1.0
  9
$DIMDLI
 40
1.0
  9
$DIMRND
 40
0.0
  9
$DIMDLE
 40
0.0
  9
$DIMEXE
 40
1.0
  9
$DIMTP
 40
0.0
  9
$DIMTM
 40
0.0
  9
$DIMTXT
 40
2.0
  9
$DIMCEN
 40
0.0
  9
$DIMTSZ
 40
0.0
  9
$DIMTOL
 70
     0
  9
$DIMLIM
 70
     0
  9
$DIMTIH
 70
     0
  9
$DIMTOH
 70
     0
  9
$DIMSE1
 70
     0
  9
$DIMSE2
 70
     0
  9
$DIMTAD
 70
     1
  9
$DIMZIN
 70
     8
  9
$DIMBLK
  1

  9
$DIMASO
 70
     1
  9
$DIMSHO
 70
     1
  9
$DIMPOST
  1

  9
$DIMAPOST
  1

  9
$DIMALT
 70
     0
  9
$DIMALTD
 70
     3
  9
$DIMALTF
 40
0.03937007874016
  9
$DIMLFAC
 40
1.0
  9
$DIMTOFL
 70
     1
  9
$DIMTVP
 40
0.0
  9
$DIMTIX
 70
     0
  9
$DIMSOXD
 70
     0
  9
$DIMSAH
 70
     0
  9
$DIMBLK1
  1

  9
$DIMBLK2
  1

  9
$DIMSTYLE
  2
SANINDUSA
  9
$DIMCLRD
 70
   256
  9
$DIMCLRE
 70
   256
  9
$DIMCLRT
 70
   256
  9
$DIMTFAC
 40
1.0
  9
$DIMGAP
 40
1.0
  9
$DIMJUST
 70
     0
  9
$DIMSD1
 70
     0
  9
$DIMSD2
 70
     0
  9
$DIMTOLJ
 70
     0
  9
$DIMTZIN
 70
     8
  9
$DIMALTZ
 70
     0
  9
$DIMALTTZ
 70
     0
  9
$DIMUPT
 70
     0
  9
$DIMDEC
 70
     1
  9
$DIMTDEC
 70
     1
  9
$DIMALTU
 70
     2
  9
$DIMALTTD
 70
     3
  9
$DIMTXSTY
  7
SANINDUSA
  9
$DIMAUNIT
 70
     0
  9
$DIMADEC
 70
     1
  9
$DIMALTRND
 40
0.0
  9
$DIMAZIN
 70
     0
  9
$DIMDSEP
 70
    44
  9
$DIMATFIT
 70
     3
  9
$DIMFRAC
 70
     0
  9
$DIMLDRBLK
  1

  9
$DIMLUNIT
 70
     2
  9
$DIMLWD
 70
    -1
  9
$DIMLWE
 70
    -1
  9
$DIMTMOVE
 70
     0
  9
$LUNITS
 70
     2
  9
$LUPREC
 70
     4
  9
$SKETCHINC
 40
1.0
  9
$FILLETRAD
 40
0.0
  9
$AUNITS
 70
     0
  9
$AUPREC
 70
     0
  9
$MENU
  1
.
  9
$ELEVATION
 40
0.0
  9
$PELEVATION
 40
0.0
  9
$THICKNESS
 40
0.0
  9
$LIMCHECK
 70
     0
  9
$CHAMFERA
 40
10.0
  9
$CHAMFERB
 40
10.0
  9
$CHAMFERC
 40
20.0
  9
$CHAMFERD
 40
0.0
  9
$SKPOLY
 70
     0
  9
$TDCREATE
 40
2456023.464252558
  9
$TDUCREATE
 40
2456023.422585891
  9
$TDUPDATE
 40
2456142.470437454
  9
$TDUUPDATE
 40
2456142.428770787
  9
$TDINDWG
 40
0.0102050810
  9
$TDUSRTIMER
 40
0.0102050810
  9
$USRTIMER
 70
     1
  9
$ANGBASE
 50
0.0
  9
$ANGDIR
 70
     0
  9
$PDMODE
 70
     0
  9
$PDSIZE
 40
0.0
  9
$PLINEWID
 40
0.0
  9
$SPLFRAME
 70
     0
  9
$SPLINETYPE
 70
     6
  9
$SPLINESEGS
 70
     8
  9
$HANDSEED
  5
8F9B
  9
$SURFTAB1
 70
     6
  9
$SURFTAB2
 70
     6
  9
$SURFTYPE
 70
     6
  9
$SURFU
 70
     6
  9
$SURFV
 70
     6
  9
$UCSBASE
  2

  9
$UCSNAME
  2

  9
$UCSORG
 10
0.0
 20
0.0
 30
0.0
  9
$UCSXDIR
 10
1.0
 20
0.0
 30
0.0
  9
$UCSYDIR
 10
0.0
 20
1.0
 30
0.0
  9
$UCSORTHOREF
  2

  9
$UCSORTHOVIEW
 70
     0
  9
$UCSORGTOP
 10
0.0
 20
0.0
 30
0.0
  9
$UCSORGBOTTOM
 10
0.0
 20
0.0
 30
0.0
  9
$UCSORGLEFT
 10
0.0
 20
0.0
 30
0.0
  9
$UCSORGRIGHT
 10
0.0
 20
0.0
 30
0.0
  9
$UCSORGFRONT
 10
0.0
 20
0.0
 30
0.0
  9
$UCSORGBACK
 10
0.0
 20
0.0
 30
0.0
  9
$PUCSBASE
  2

  9
$PUCSNAME
  2

  9
$PUCSORG
 10
0.0
 20
0.0
 30
0.0
  9
$PUCSXDIR
 10
1.0
 20
0.0
 30
0.0
  9
$PUCSYDIR
 10
0.0
 20
1.0
 30
0.0
  9
$PUCSORTHOREF
  2

  9
$PUCSORTHOVIEW
 70
     0
  9
$PUCSORGTOP
 10
0.0
 20
0.0
 30
0.0
  9
$PUCSORGBOTTOM
 10
0.0
 20
0.0
 30
0.0
  9
$PUCSORGLEFT
 10
0.0
 20
0.0
 30
0.0
  9
$PUCSORGRIGHT
 10
0.0
 20
0.0
 30
0.0
  9
$PUCSORGFRONT
 10
0.0
 20
0.0
 30
0.0
  9
$PUCSORGBACK
 10
0.0
 20
0.0
 30
0.0
  9
$USERI1
 70
     0
  9
$USERI2
 70
     0
  9
$USERI3
 70
     0
  9
$USERI4
 70
     0
  9
$USERI5
 70
     0
  9
$USERR1
 40
0.0
  9
$USERR2
 40
0.0
  9
$USERR3
 40
0.0
  9
$USERR4
 40
0.0
  9
$USERR5
 40
0.0
  9
$WORLDVIEW
 70
     1
  9
$SHADEDGE
 70
     3
  9
$SHADEDIF
 70
    70
  9
$TILEMODE
 70
     1
  9
$MAXACTVP
 70
    64
  9
$PINSBASE
 10
0.0
 20
0.0
 30
0.0
  9
$PLIMCHECK
 70
     0
  9
$PEXTMIN
 10
1.000000000000000E+20
 20
1.000000000000000E+20
 30
1.000000000000000E+20
  9
$PEXTMAX
 10
-1.000000000000000E+20
 20
-1.000000000000000E+20
 30
-1.000000000000000E+20
  9
$PLIMMIN
 10
0.0
 20
0.0
  9
$PLIMMAX
 10
420.0
 20
297.0
  9
$UNITMODE
 70
     0
  9
$VISRETAIN
 70
     1
  9
$PLINEGEN
 70
     0
  9
$PSLTSCALE
 70
     1
  9
$TREEDEPTH
 70
  3020
  9
$CMLSTYLE
  2
Standard
  9
$CMLJUST
 70
     0
  9
$CMLSCALE
 40
20.0
  9
$PROXYGRAPHICS
 70
     1
  9
$MEASUREMENT
 70
     1
  9
$CELWEIGHT
370
    -1
  9
$ENDCAPS
280
     0
  9
$JOINSTYLE
280
     0
  9
$LWDISPLAY
290
     0
  9
$INSUNITS
 70
     4
  9
$HYPERLINKBASE
  1

  9
$STYLESHEET
  1
sanindusa.ctb
  9
$XEDIT
290
     1
  9
$CEPSNTYPE
380
     0
  9
$PSTYLEMODE
290
     1
  9
$FINGERPRINTGUID
  2
{4B35D65E-2875-4DCD-A637-DF6141417FE7}
  9
$VERSIONGUID
  2
{41D4F08A-A1AA-42D2-871E-387979B7AF27}
  9
$EXTNAMES
290
     1
  9
$PSVPSCALE
 40
0.0
  9
$OLESTARTUP
290
     0
  0
ENDSEC
  0
SECTION
  2
CLASSES
  0
CLASS
  1
ACDBDICTIONARYWDFLT
  2
AcDbDictionaryWithDefault
  3
ObjectDBX Classes
 90
        0
280
     0
281
     0
  0
CLASS
  1
ACDBPLACEHOLDER
  2
AcDbPlaceHolder
  3
ObjectDBX Classes
 90
        0
280
     0
281
     0
  0
CLASS
  1
LAYOUT
  2
AcDbLayout
  3
ObjectDBX Classes
 90
        0
280
     0
281
     0
  0
CLASS
  1
DICTIONARYVAR
  2
AcDbDictionaryVar
  3
ObjectDBX Classes
 90
        0
280
     0
281
     0
  0
CLASS
  1
DIMASSOC
  2
AcDbDimAssoc
  3
"AcDbDimAssoc|Product Desc:     AcDim ARX App For Dimension|Company:          Autodesk, Inc.|WEB Address:      www.autodesk.com"
 90
    32768
280
     0
281
     0
  0
CLASS
  1
TABLESTYLE
  2
AcDbTableStyle
  3
ObjectDBX Classes
 90
     4095
280
     0
281
     0
  0
CLASS
  1
MATERIAL
  2
AcDbMaterial
  3
ObjectDBX Classes
 90
     1153
280
     0
281
     0
  0
CLASS
  1
VISUALSTYLE
  2
AcDbVisualStyle
  3
ObjectDBX Classes
 90
     4095
280
     0
281
     0
  0
CLASS
  1
SCALE
  2
AcDbScale
  3
ObjectDBX Classes
 90
     1153
280
     0
281
     0
  0
CLASS
  1
MLEADERSTYLE
  2
AcDbMLeaderStyle
  3
ACDB_MLEADERSTYLE_CLASS
 90
     4095
280
     0
281
     0
  0
CLASS
  1
BREAKDATA
  2
AcDbBreakData
  3
ObjectDBX Classes
 90
    33792
280
     0
281
     0
  0
CLASS
  1
SORTENTSTABLE
  2
AcDbSortentsTable
  3
ObjectDBX Classes
 90
    32768
280
     0
281
     0
  0
CLASS
  1
AEC_REFEDIT_STATUS_TRACKER
  2
AecDbRefEditStatusTracker
  3
AecArchBase60|Product Desc: Autodesk Architectural Desktop 2007 |Company: Autodesk,Inc. |WEB Address: www.autodesk.com
 90
    32897
280
     0
281
     0
  0
CLASS
  1
NPOCOLLECTION
  2
AcDbImpNonPersistentObjectsCollection
  3
ObjectDBX Classes
 90
    33921
280
     0
281
     0
  0
CLASS
  1
CELLSTYLEMAP
  2
AcDbCellStyleMap
  3
ObjectDBX Classes
 90
     1152
280
     0
281
     0
  0
CLASS
  1
SOLID_BACKGROUND
  2
AcDbSolidBackground
  3
SCENEOE
 90
    36863
280
     0
281
     0
  0
ENDSEC
  0
SECTION
  2
TABLES
  0
TABLE
  2
VPORT
  5
8
102
{ACAD_XDICTIONARY
360
8ED7
102
}
330
0
100
AcDbSymbolTable
 70
     1
  0
VPORT
  5
1068
330
8
100
AcDbSymbolTableRecord
100
AcDbViewportTableRecord
  2
*Active
 70
     0
 10
0.0
 20
0.0
 11
1.0
 21
1.0
 12
5488.529222405201
 22
2941.523594807313
 13
0.0
 23
0.0
 14
10.0
 24
10.0
 15
10.0
 25
10.0
 16
0.0
 26
0.0
 36
1.0
 17
0.0
 27
0.0
 37
0.0
 40
2.005921855535305
 41
1.645464025026068
 42
50.0
 43
0.0
 44
0.0
 50
0.0
 51
0.0
 71
     0
 72
   100
 73
     1
 74
     2
 75
     0
 76
     0
 77
     0
 78
     0
281
     0
 65
     1
110
0.0
120
0.0
130
0.0
111
1.0
121
0.0
131
0.0
112
0.0
122
1.0
132
0.0
 79
     0
146
0.0
  0
ENDTAB
  0
TABLE
  2
LTYPE
  5
5
330
0
100
AcDbSymbolTable
 70
     5
  0
LTYPE
  5
14
330
5
100
AcDbSymbolTableRecord
100
AcDbLinetypeTableRecord
  2
ByBlock
 70
     0
  3

 72
    65
 73
     0
 40
0.0
  0
LTYPE
  5
15
330
5
100
AcDbSymbolTableRecord
100
AcDbLinetypeTableRecord
  2
ByLayer
 70
     0
  3

 72
    65
 73
     0
 40
0.0
  0
LTYPE
  5
16
330
5
100
AcDbSymbolTableRecord
100
AcDbLinetypeTableRecord
  2
Continuous
 70
     0
  3
Solid line
 72
    65
 73
     0
 40
0.0
  0
LTYPE
  5
2D
330
5
100
AcDbSymbolTableRecord
100
AcDbLinetypeTableRecord
  2
DASHDOT
 70
     0
  3
Dash dot __ . __ . __ . __ . __ . __ . __ . __
 72
    65
 73
     4
 40
25.4
 49
12.7
 74
     0
 49
-6.349999999999999
 74
     0
 49
0.0
 74
     0
 49
-6.349999999999999
 74
     0
  0
LTYPE
  5
2E
330
5
100
AcDbSymbolTableRecord
100
AcDbLinetypeTableRecord
  2
HIDDEN
 70
     0
  3
Hidden __ __ __ __ __ __ __ __ __ __ __ __ __ _
 72
    65
 73
     2
 40
9.524999999999998
 49
6.349999999999999
 74
     0
 49
-3.174999999999999
 74
     0
  0
LTYPE
  5
C75
330
5
100
AcDbSymbolTableRecord
100
AcDbLinetypeTableRecord
  2
AM_ISO02W050
 70
     0
  3
__ __ __ __ __ __ __ __ __ __ __ __ __ __ __
 72
    65
 73
     2
 40
7.5
 49
6.0
 74
     0
 49
-1.5
 74
     0
  0
LTYPE
  5
C76
330
5
100
AcDbSymbolTableRecord
100
AcDbLinetypeTableRecord
  2
AM_ISO08W050
 70
     0
  3
____ . ____ . ____ . ____ . ____ . ____ . ____
 72
    65
 73
     4
 40
18.0
 49
12.0
 74
     0
 49
-1.5
 74
     0
 49
3.0
 74
     0
 49
-1.5
 74
     0
  0
ENDTAB
  0
TABLE
  2
LAYER
  5
2
102
{ACAD_XDICTIONARY
360
1051
102
}
330
0
100
AcDbSymbolTable
 70
    17
  0
LAYER
  5
10
102
{ACAD_XDICTIONARY
360
8E4F
102
}
330
2
100
AcDbSymbolTableRecord
100
AcDbLayerTableRecord
  2
0
 70
     0
 62
     7
  6
Continuous
370
    -3
390
F
  0
LAYER
  5
2F
102
{ACAD_XDICTIONARY
360
8E51
102
}
330
2
100
AcDbSymbolTableRecord
100
AcDbLayerTableRecord
  2
1
 70
     0
 62
     1
  6
Continuous
370
    -3
390
F
  0
LAYER
  5
30
102
{ACAD_XDICTIONARY
360
8E53
102
}
330
2
100
AcDbSymbolTableRecord
100
AcDbLayerTableRecord
  2
2
 70
     0
 62
     2
  6
Continuous
370
    -3
390
F
  0
LAYER
  5
31
102
{ACAD_XDICTIONARY
360
8E55
102
}
330
2
100
AcDbSymbolTableRecord
100
AcDbLayerTableRecord
  2
3
 70
     0
 62
     3
  6
Continuous
370
    -3
390
F
  0
LAYER
  5
32
102
{ACAD_XDICTIONARY
360
8E57
102
}
330
2
100
AcDbSymbolTableRecord
100
AcDbLayerTableRecord
  2
4
 70
     0
 62
     4
  6
Continuous
370
    -3
390
F
  0
LAYER
  5
33
102
{ACAD_XDICTIONARY
360
8E59
102
}
330
2
100
AcDbSymbolTableRecord
100
AcDbLayerTableRecord
  2
5
 70
     0
 62
     5
  6
Continuous
370
    -3
390
F
  0
LAYER
  5
34
102
{ACAD_XDICTIONARY
360
8E5B
102
}
330
2
100
AcDbSymbolTableRecord
100
AcDbLayerTableRecord
  2
6
 70
     0
 62
     6
  6
Continuous
370
    -3
390
F
  0
LAYER
  5
35
102
{ACAD_XDICTIONARY
360
8E5D
102
}
330
2
100
AcDbSymbolTableRecord
100
AcDbLayerTableRecord
  2
7
 70
     0
 62
     7
  6
Continuous
370
    -3
390
F
  0
LAYER
  5
36
102
{ACAD_XDICTIONARY
360
8E5F
102
}
330
2
100
AcDbSymbolTableRecord
100
AcDbLayerTableRecord
  2
cen
 70
     0
 62
     7
  6
DASHDOT
370
    -3
390
F
  0
LAYER
  5
37
102
{ACAD_XDICTIONARY
360
8E61
102
}
330
2
100
AcDbSymbolTableRecord
100
AcDbLayerTableRecord
  2
hid
 70
     0
 62
     7
  6
HIDDEN
370
    -3
390
F
  0
LAYER
  5
5D6
102
{ACAD_XDICTIONARY
360
8E63
102
}
330
2
100
AcDbSymbolTableRecord
100
AcDbLayerTableRecord
  2
hatch
 70
     0
 62
     9
  6
Continuous
370
    -3
390
F
  0
LAYER
  5
8AF
102
{ACAD_XDICTIONARY
360
8E65
102
}
330
2
100
AcDbSymbolTableRecord
100
AcDbLayerTableRecord
  2
9
 70
     0
 62
     9
  6
Continuous
370
    -3
390
F
  0
LAYER
  5
8F8
102
{ACAD_XDICTIONARY
360
8E67
102
}
330
2
100
AcDbSymbolTableRecord
100
AcDbLayerTableRecord
  2
leg fin
 70
     0
 62
     9
  6
Continuous
370
    -3
390
F
  0
LAYER
  5
91D
102
{ACAD_XDICTIONARY
360
8E69
102
}
330
2
100
AcDbSymbolTableRecord
100
AcDbLayerTableRecord
  2
cotas
 70
     0
 62
     1
  6
Continuous
370
    -3
390
F
  0
LAYER
  5
92F
330
2
100
AcDbSymbolTableRecord
100
AcDbLayerTableRecord
  2
Defpoints
 70
     0
 62
     7
  6
Continuous
290
     0
370
    -3
390
F
  0
LAYER
  5
C7B
102
{ACAD_XDICTIONARY
360
8E6B
102
}
330
2
100
AcDbSymbolTableRecord
100
AcDbLayerTableRecord
  2
SANINDUSA
 70
     0
 62
     3
  6
Continuous
370
    -3
390
F
  0
LAYER
  5
1060
102
{ACAD_XDICTIONARY
360
8E6D
102
}
330
2
100
AcDbSymbolTableRecord
100
AcDbLayerTableRecord
  2
hid1
 70
     0
 62
     9
  6
HIDDEN
370
    -3
390
F
1001
AcAecLayerStandard
1000

1000

  0
ENDTAB
  0
TABLE
  2
STYLE
  5
3
330
0
100
AcDbSymbolTable
 70
     4
  0
STYLE
  5
11
330
3
100
AcDbSymbolTableRecord
100
AcDbTextStyleTableRecord
  2
Standard
 70
     0
 40
0.0
 41
1.0
 50
0.0
 71
     0
 42
2.5
  3
Avgardn.ttf
  4

1001
ACAD
1000
AvantGarde Bk BT
1071
       34
  0
STYLE
  5
2C
330
3
100
AcDbSymbolTableRecord
100
AcDbTextStyleTableRecord
  2

 70
     1
 40
0.0
 41
1.0
 50
0.0
 71
     0
 42
2.5
  3
ltypeshp.shx
  4

  0
STYLE
  5
91F
330
3
100
AcDbSymbolTableRecord
100
AcDbTextStyleTableRecord
  2
SANINDUSA
 70
     0
 40
0.0
 41
1.0
 50
0.0
 71
     0
 42
2.5
  3
verdana.TTF
  4

1001
ACAD
1000
Verdana
1071
       34
  0
STYLE
  5
C7C
330
3
100
AcDbSymbolTableRecord
100
AcDbTextStyleTableRecord
  2
futura
 70
     0
 40
0.0
 41
1.0
 50
0.0
 71
     0
 42
2.5
  3
zuricrm_.ttf
  4

1001
ACAD
1000
Zurich BT
1071
       34
  0
ENDTAB
  0
TABLE
  2
VIEW
  5
6
330
0
100
AcDbSymbolTable
 70
     0
  0
ENDTAB
  0
TABLE
  2
UCS
  5
7
330
0
100
AcDbSymbolTable
 70
     0
  0
ENDTAB
  0
TABLE
  2
APPID
  5
9
330
0
100
AcDbSymbolTable
 70
    14
  0
APPID
  5
12
330
9
100
AcDbSymbolTableRecord
100
AcDbRegAppTableRecord
  2
ACAD
 70
     0
  0
APPID
  5
3A
330
9
100
AcDbSymbolTableRecord
100
AcDbRegAppTableRecord
  2
DCO15
 70
     0
  0
APPID
  5
EEE
330
9
100
AcDbSymbolTableRecord
100
AcDbRegAppTableRecord
  2
ACAD_DSTYLE_DIMTEXT_FILL
 70
     0
  0
APPID
  5
EEF
330
9
100
AcDbSymbolTableRecord
100
AcDbRegAppTableRecord
  2
ACAD_DSTYLE_DIMEXT_LENGTH
 70
     0
  0
APPID
  5
EF0
330
9
100
AcDbSymbolTableRecord
100
AcDbRegAppTableRecord
  2
ACAD_DSTYLE_DIMEXT_ENABLED
 70
     0
  0
APPID
  5
EF1
330
9
100
AcDbSymbolTableRecord
100
AcDbRegAppTableRecord
  2
ACAD_DSTYLE_DIM_LINETYPE
 70
     0
  0
APPID
  5
EF2
330
9
100
AcDbSymbolTableRecord
100
AcDbRegAppTableRecord
  2
ACAD_DSTYLE_DIM_EXT1_LINETYPE
 70
     0
  0
APPID
  5
EF3
330
9
100
AcDbSymbolTableRecord
100
AcDbRegAppTableRecord
  2
ACAD_DSTYLE_DIM_EXT2_LINETYPE
 70
     0
  0
APPID
  5
FAF
330
9
100
AcDbSymbolTableRecord
100
AcDbRegAppTableRecord
  2
ACAD_DSTYLE_DIMJOGGED_JOGANGLE_SYMBOL
 70
     0
  0
APPID
  5
1013
330
9
100
AcDbSymbolTableRecord
100
AcDbRegAppTableRecord
  2
ACAD_DSTYLE_DIMARC_LENGTH_SYMBOL
 70
     0
  0
APPID
  5
1061
330
9
100
AcDbSymbolTableRecord
100
AcDbRegAppTableRecord
  2
AcAecLayerStandard
 70
     0
  0
APPID
  5
12EC
330
9
100
AcDbSymbolTableRecord
100
AcDbRegAppTableRecord
  2
ACAD_PSEXT
 70
     0
  0
APPID
  5
12ED
330
9
100
AcDbSymbolTableRecord
100
AcDbRegAppTableRecord
  2
ACAD_DSTYLE_DIMRADIAL_EXTENSION
 70
     0
  0
APPID
  5
8F09
330
9
100
AcDbSymbolTableRecord
100
AcDbRegAppTableRecord
  2
ACAD_MLEADERVER
 70
     0
  0
ENDTAB
  0
TABLE
  2
DIMSTYLE
  5
A
330
0
100
AcDbSymbolTable
 70
     3
100
AcDbDimStyleTable
 71
     1
340
921
  0
DIMSTYLE
105
45
330
A
100
AcDbSymbolTableRecord
100
AcDbDimStyleTableRecord
  2
STANDARD
 70
     0
289
     0
340
11
  0
DIMSTYLE
105
921
330
A
100
AcDbSymbolTableRecord
100
AcDbDimStyleTableRecord
  2
SANINDUSA
 70
     0
 41
2.0
 42
1.0
 43
1.0
 44
1.0
 73
     0
 74
     0
 77
     1
 78
     8
140
2.0
141
0.0
143
0.03937007874016
147
1.0
171
     3
172
     1
176
   256
177
   256
178
   256
179
     1
271
     1
272
     1
274
     3
278
    44
283
     0
284
     8
340
91F
371
    -1
372
    -1
1001
ACAD_DSTYLE_DIMJOGGED_JOGANGLE_SYMBOL
1070
   384
1040
1.570796326794896
  0
DIMSTYLE
105
C7D
330
A
100
AcDbSymbolTableRecord
100
AcDbDimStyleTableRecord
  2
AM_ISO
 70
     0
  4
"
 41
2.5
 42
1.0
 43
10.0
 44
1.0
 47
0.1
 48
0.1
 73
     0
 74
     0
 77
     1
 78
     8
 79
     2
140
3.5
141
0.0
143
0.0393701
146
0.71
147
1.5
172
     1
176
   256
177
   256
178
     2
271
     2
272
     3
274
     4
283
     0
284
     8
340
11
371
    -1
372
    -1
  0
ENDTAB
  0
TABLE
  2
BLOCK_RECORD
  5
1
330
0
100
AcDbSymbolTable
 70
   104
  0
BLOCK_RECORD
  5
1F
330
1
100
AcDbSymbolTableRecord
100
AcDbBlockTableRecord
  2
*Model_Space
340
22
  0
BLOCK_RECORD
  5
1B
330
1
100
AcDbSymbolTableRecord
100
AcDbBlockTableRecord
  2
*Paper_Space
340
1E
  0
BLOCK_RECORD
  5
23
330
1
100
AcDbSymbolTableRecord
100
AcDbBlockTableRecord
  2
*Paper_Space0
340
26
  0
BLOCK_RECORD
  5
919
330
1
100
AcDbSymbolTableRecord
100
AcDbBlockTableRecord
  2
_DotSmall
340
0
  0
BLOCK_RECORD
  5
922
330
1
100
AcDbSymbolTableRecord
100
AcDbBlockTableRecord
  2
base para cotas
340
0
310
2800000020000000200000000100080000000000000400000000000000000000000000000000000000000000000080000080000000808000800000008000800080800000C0C0C000C0DCC000F0CAA6000020400000206000002080000020A0000020C0000020E00000400000004020000040400000406000004080000040A0
310
000040C0000040E00000600000006020000060400000606000006080000060A0000060C0000060E00000800000008020000080400000806000008080000080A0000080C0000080E00000A0000000A0200000A0400000A0600000A0800000A0A00000A0C00000A0E00000C0000000C0200000C0400000C0600000C0800000C0
310
A00000C0C00000C0E00000E0000000E0200000E0400000E0600000E0800000E0A00000E0C00000E0E00040000000400020004000400040006000400080004000A0004000C0004000E00040200000402020004020400040206000402080004020A0004020C0004020E000404000004040200040404000404060004040800040
310
40A0004040C0004040E00040600000406020004060400040606000406080004060A0004060C0004060E00040800000408020004080400040806000408080004080A0004080C0004080E00040A0000040A0200040A0400040A0600040A0800040A0A00040A0C00040A0E00040C0000040C0200040C0400040C0600040C08000
310
40C0A00040C0C00040C0E00040E0000040E0200040E0400040E0600040E0800040E0A00040E0C00040E0E00080000000800020008000400080006000800080008000A0008000C0008000E00080200000802020008020400080206000802080008020A0008020C0008020E00080400000804020008040400080406000804080
310
008040A0008040C0008040E00080600000806020008060400080606000806080008060A0008060C0008060E00080800000808020008080400080806000808080008080A0008080C0008080E00080A0000080A0200080A0400080A0600080A0800080A0A00080A0C00080A0E00080C0000080C0200080C0400080C0600080C0
310
800080C0A00080C0C00080C0E00080E0000080E0200080E0400080E0600080E0800080E0A00080E0C00080E0E000C0000000C0002000C0004000C0006000C0008000C000A000C000C000C000E000C0200000C0202000C0204000C0206000C0208000C020A000C020C000C020E000C0400000C0402000C0404000C0406000C0
310
408000C040A000C040C000C040E000C0600000C0602000C0604000C0606000C0608000C060A000C060C000C060E000C0800000C0802000C0804000C0806000C0808000C080A000C080C000C080E000C0A00000C0A02000C0A04000C0A06000C0A08000C0A0A000C0A0C000C0A0E000C0C00000C0C02000C0C04000C0C06000
310
C0C08000C0C0A000F0FBFF00A4A0A000808080000000FF0000FF000000FFFF00FF000000FF00FF00FFFF0000FFFFFF00A4A4A4A4A4A4A4A4A4A4A4A4A4A4A4A4A4A4A4A4A4A4A4A4A4A4A4A4A4A4A4A4A4A4A4A4A4A4A4A4A4A4A4A4A4A4A4A4A4A4A4A4A4A4A4A4A4A4A4A4A4A4A4A4A4A4A4A4A4A4A4A4A4A4A4A4A4A4A4
310
A4A4A4A4A4A4A4A4A4A4A4A4A4A4A4A4A4A4A4A4A4A4A4A4A4A4A4A4A4A4A4A4A4A4A4A4A4A4A4A4A4A4A4A4A4A4A4A4A4A4A4A4A4A4A4A4A4A4A4A4A4A4A4A4A4A4A4A4A4A4A4A4A4A4A4A4A4A4A4A4A4A4A4A4A4A4A4A4A4A4A4A4A4A4A4A4A4A4A4A4A4A4A4A4A4A4A4A4A4A4A4A4A4A4A4A4A4A4A4A4A4A4A4A4A4A4A4
310
A4A4A4A4A4A4A4A4A4A4A4A4A4A4A4A4A4A4A4A4A4A4A4A4A4A4A4A4A4A4A4A4A4A4A4A4A4A4A4A4A4A4A4A4A4A4A4A4A4A4A4A4A4A4A4A4A4A4A4A4A4A4A4A4A4A4A4A4A4A4A4A4A4A4A4A4A4A4A4A4A4A4A4A4A4A4A4A4A4A4A4A4A4A4A4A4A4A4A4A4A4A4A4A4A4A4A4A4A4A4A4A4A4A4A4A4A4A4A4A4A4A4A4A4A4A4A4
310
A4A4A4A4A4A4A4A4A4A4A4A4A4A4A4A4A4A4A4A4A4A4A4A4A4A4A4A4A4A4A4A4A4A4A4A4A4A4A4A4A4A4A4A4A4A4A4A4A4A4A4A4A4A4A4A4A4A4A4A4A4A4A4A4A4A4A4A4A4A4A4A4A4A4A4A4A4A4A4A4A4A4A4A4A4A4A4A4A4A4A4A4A4A4A4A4A4A4A4A4A4A4A4A4A4A4A4A4A4A4A4A4A4A4A4A4F9F9F9F9F9F9F9F9F9F9F9
310
F9F9F9F9F9F9F9F9F9F9F9F9F9F9F9F9F9F9F9A4A4F9F9F9F9F9F9F9F9F9F9F9F9F9F9F9F9F9F9F9F9F9F9F9F9F9F9F9F9F9F9A4A4F9F9F9F9F9F9F9F9F9F9F9F9F9F9F9F9F9F9F9F9F9F9F9F9F9F9F9F9F9F9A4A4F9A4A4A4A4A4A4A4A4A4A4A4A4A4A4A4A4A4A4A4A4A4A4A4A4A4A4A4A4F9A4A4A4A4A4A4A4A4A4A4A4A4
310
A4A4A4A4A4A4A4A4A4A4A4A4A4A4A4A4A4A4A4A4A4A4A4A4A4A4A4A4A4A4A4A4A4A4A4A4A4A4A4A4A4A4A4A4A4A4A4A4A4A4A4A4A4A4A4A4A4A4A4A4A4A4A4A4A4A4A4A4A4A4A4A4A4A4A4A4A4A4A4A4A4A4A4A4A4A4A4A4A4A4A4A4A4A4A4A4A4A4A4A4A4A4A4A4A4A4A4A4A4A4A4A4A4A4A4A4A4A4A4A4A4A4A4A4A4A4A4
310
A4A4A4A4A4A4A4A4A4A4A4A4A4A4A4A4A4A4A4A4A4A4A4A4A4A4A4A4A4A4A4A4A4A4A4A4A4A4A4A4A4A4A4A4A4A4A4A4A4A4A4A4A4A4A4A4A4A4A4A4A4A4A4A4A4A4A4A4A4A4A4A4A4A4A4A4A4A4A4A4A4A4A4A4A4A4A4A4A4A4A4A4A4A4A4A4A4A4A4A4A4A4A4A4A4A4A4A4A4A4A4A4A4A4A4A4A4A4A4A4A4A4A4A4A4A4A4
310
A4A4A4A4A4A4A4A4A4A4A4A4A4A4A4A4A4A4A4A4A4A4A4A4A4A4A4A4A4A4A4A4A4A4A4A4A4A4A4A4A4A4A4A4A4A4A4A4A4A4A4A4A4A4A4A4A4A4A4A4A4A4A4A4A4A4A4A4A4A4A4A4A4A4A4A4A4A4A4A4A4A4A4A4A4A4A4A4A4A4A4A4A4A4A4A4A4A4A4A4A4A4A4A4A4A4A4A4A4A4A4A4A4A4A4A4A4A4A4A4A4A4A4A4A4A4A4
310
A4A4A4A4A4A4A4A4A4A4A4A4A4A4A4A4A4A4A4A4A4A4A4A4A4A4A4A4A4A4A4A4A4A4A4A4A4A4A4A4A4A4A4A4A4A4A4A4A4A4A4A4A4A4A4A4
1001
ACAD
1000
DesignCenter Data
1002
{
1070
     1
1070
     4
1002
}
  0
BLOCK_RECORD
  5
AA8
330
1
100
AcDbSymbolTableRecord
100
AcDbBlockTableRecord
  2
_CLOSED
340
0
  0
BLOCK_RECORD
  5
B79
330
1
100
AcDbSymbolTableRecord
100
AcDbBlockTableRecord
  2
nota revisoes
340
0
1001
ACAD
1000
DesignCenter Data
1002
{
1070
     1
1070
     4
1002
}
  0
BLOCK_RECORD
  5
B8E
330
1
100
AcDbSymbolTableRecord
100
AcDbBlockTableRecord
  2
a3l
340
0
1001
ACAD
1000
DesignCenter Data
1002
{
1070
     1
1070
     4
1002
}
  0
BLOCK_RECORD
  5
B9E
330
1
100
AcDbSymbolTableRecord
100
AcDbBlockTableRecord
  2
legenda desenvolvimento
340
0
1001
ACAD
1000
DesignCenter Data
1002
{
1070
     1
1070
     4
1002
}
  0
ENDTAB
  0
ENDSEC
  0
SECTION
  2
BLOCKS
  0
BLOCK
  5
20
330
1F
100
AcDbEntity
  8
0
100
AcDbBlockBegin
  2
*Model_Space
 70
     0
 10
0.0
 20
0.0
 30
0.0
  3
*Model_Space
  1

  0
ENDBLK
  5
21
330
1F
100
AcDbEntity
  8
0
100
AcDbBlockEnd
  0
BLOCK
  5
1C
330
1B
100
AcDbEntity
 67
     1
  8
0
100
AcDbBlockBegin
  2
*Paper_Space
 70
     0
 10
0.0
 20
0.0
 30
0.0
  3
*Paper_Space
  1

  0
ENDBLK
  5
1D
330
1B
100
AcDbEntity
 67
     1
  8
0
100
AcDbBlockEnd
  0
BLOCK
  5
24
330
23
100
AcDbEntity
 67
     1
  8
0
100
AcDbBlockBegin
  2
*Paper_Space0
 70
     0
 10
0.0
 20
0.0
 30
0.0
  3
*Paper_Space0
  1

  0
ENDBLK
  5
25
330
23
100
AcDbEntity
 67
     1
  8
0
100
AcDbBlockEnd
  0
BLOCK
  5
91B
330
919
100
AcDbEntity
  8
0
100
AcDbBlockBegin
  2
_DotSmall
 70
     0
 10
0.0
 20
0.0
 30
0.0
  3
_DotSmall
  1

  0
LWPOLYLINE
  5
91A
330
919
100
AcDbEntity
  8
0
  6
ByBlock
 62
     0
100
AcDbPolyline
 90
        2
 70
     1
 43
0.5
 10
-0.0625
 20
0.0
 42
1.0
 10
0.0625
 20
0.0
 42
1.0
  0
ENDBLK
  5
91C
330
919
100
AcDbEntity
  8
0
100
AcDbBlockEnd
  0
BLOCK
  5
92A
330
922
100
AcDbEntity
  8
0
100
AcDbBlockBegin
  2
base para cotas
 70
     0
 10
0.0
 20
0.0
 30
0.0
  3
base para cotas
  1

  0
LINE
  5
B36
330
922
100
AcDbEntity
  8
cotas
100
AcDbLine
 10
0.0
 20
-30.0
 30
0.0
 11
327.1260136525398
 21
-30.0
 31
0.0
  0
LINE
  5
B37
330
922
100
AcDbEntity
  8
cotas
100
AcDbLine
 10
0.0
 20
-25.0
 30
0.0
 11
327.1260136525398
 21
-25.0
 31
0.0
  0
LINE
  5
B38
330
922
100
AcDbEntity
  8
cotas
100
AcDbLine
 10
0.0
 20
-20.0
 30
0.0
 11
327.1260136525398
 21
-20.0
 31
0.0
  0
LINE
  5
B39
330
922
100
AcDbEntity
  8
cotas
100
AcDbLine
 10
0.0
 20
-15.0
 30
0.0
 11
327.1260136525398
 21
-15.0
 31
0.0
  0
LINE
  5
B3A
330
922
100
AcDbEntity
  8
cotas
100
AcDbLine
 10
0.0
 20
-10.0
 30
0.0
 11
327.1260136525398
 21
-10.0
 31
0.0
  0
LINE
  5
B3B
330
922
100
AcDbEntity
  8
cotas
100
AcDbLine
 10
0.0
 20
0.0
 30
0.0
 11
0.0
 21
-30.0
 31
0.0
  0
LINE
  5
B3C
330
922
100
AcDbEntity
  8
cotas
100
AcDbLine
 10
327.1260136525398
 20
-30.0
 30
0.0
 11
327.1260136525398
 21
0.0
 31
0.0
  0
ENDBLK
  5
92B
330
922
100
AcDbEntity
  8
0
100
AcDbBlockEnd
  0
BLOCK
  5
AAD
330
AA8
100
AcDbEntity
  8
0
100
AcDbBlockBegin
  2
_CLOSED
 70
     0
 10
0.0
 20
0.0
 30
0.0
  3
_CLOSED
  1

  0
LINE
  5
AA9
330
AA8
100
AcDbEntity
  8
0
100
AcDbLine
 10
-1.0
 20
0.166667
 30
0.0
 11
0.0
 21
0.0
 31
0.0
  0
LINE
  5
AAA
330
AA8
100
AcDbEntity
  8
0
100
AcDbLine
 10
0.0
 20
0.0
 30
0.0
 11
-1.0
 21
-0.166667
 31
0.0
  0
LINE
  5
AAB
330
AA8
100
AcDbEntity
  8
0
100
AcDbLine
 10
-1.0
 20
0.166667
 30
0.0
 11
-1.0
 21
-0.166667
 31
0.0
  0
LINE
  5
AAC
330
AA8
100
AcDbEntity
  8
0
100
AcDbLine
 10
0.0
 20
0.0
 30
0.0
 11
-1.0
 21
0.0
 31
0.0
  0
ENDBLK
  5
AAE
330
AA8
100
AcDbEntity
  8
0
100
AcDbBlockEnd
  0
BLOCK
  5
B7C
330
B79
100
AcDbEntity
  8
0
100
AcDbBlockBegin
  2
nota revisoes
 70
     0
 10
0.0
 20
0.0
 30
0.0
  3
nota revisoes
  1

  0
CIRCLE
  5
B7A
330
B79
100
AcDbEntity
  8
4
100
AcDbCircle
 10
0.0
 20
0.0
 30
0.0
 40
13.69426055101189
  0
TEXT
  5
B7B
330
B79
100
AcDbEntity
  8
4
100
AcDbText
 10
-5.496248358154345
 20
-5.354545554066362
 30
0.0
 40
12.0
  1
1
  7
SANINDUSA
 72
     1
 11
-0.249774214433728
 21
-5.354545554066362
 31
0.0
100
AcDbText
  0
ENDBLK
  5
B7D
330
B79
100
AcDbEntity
  8
0
100
AcDbBlockEnd
  0
BLOCK
  5
B9C
330
B8E
100
AcDbEntity
  8
0
100
AcDbBlockBegin
  2
a3l
 70
     0
 10
0.0
 20
0.0
 30
0.0
  3
a3l
  1

  0
LINE
  5
B8F
330
B8E
100
AcDbEntity
  8
1
100
AcDbLine
 10
-364.2925296599447
 20
-362.1188951399395
 30
0.0
 11
-364.2925296599447
 21
-65.11889513993946
 31
0.0
  0
LINE
  5
B90
330
B8E
100
AcDbEntity
  8
4
100
AcDbLine
 10
-369.2925296599447
 20
-357.1188951399395
 30
0.0
 11
-369.2925296599447
 21
-70.11889513993946
 31
0.0
  0
LINE
  5
B91
330
B8E
100
AcDbEntity
  8
1
100
AcDbLine
 10
-784.2925296599446
 20
-65.11889513993946
 30
0.0
 11
-784.2925296599446
 21
-362.1188951399395
 31
0.0
  0
LINE
  5
B92
330
B8E
100
AcDbEntity
  8
4
100
AcDbLine
 10
-759.2925296599446
 20
-357.1188951399395
 30
0.0
 11
-759.2925296599446
 21
-70.11889513993946
 31
0.0
  0
LINE
  5
B93
330
B8E
100
AcDbEntity
  8
1
100
AcDbLine
 10
-784.2925296599446
 20
-362.1188951399395
 30
0.0
 11
-364.2925296599447
 21
-362.1188951399395
 31
0.0
  0
LINE
  5
B94
330
B8E
100
AcDbEntity
  8
4
100
AcDbLine
 10
-759.2925296599446
 20
-357.1188951399395
 30
0.0
 11
-369.2925296599447
 21
-357.1188951399395
 31
0.0
  0
LINE
  5
B95
330
B8E
100
AcDbEntity
  8
1
100
AcDbLine
 10
-654.2925296599446
 20
-357.1188951399395
 30
0.0
 11
-654.2925296599446
 21
-362.1188951399395
 31
0.0
  0
LINE
  5
B96
330
B8E
100
AcDbEntity
  8
1
100
AcDbLine
 10
-364.2925296599447
 20
-65.11889513993946
 30
0.0
 11
-784.2925296599446
 21
-65.11889513993946
 31
0.0
  0
LINE
  5
B97
330
B8E
100
AcDbEntity
  8
4
100
AcDbLine
 10
-369.2925296599447
 20
-70.11889513993946
 30
0.0
 11
-759.2925296599446
 21
-70.11889513993946
 31
0.0
  0
LINE
  5
B98
330
B8E
100
AcDbEntity
  8
1
100
AcDbLine
 10
-654.2925296599446
 20
-65.11889513993946
 30
0.0
 11
-654.2925296599446
 21
-70.11889513993946
 31
0.0
  0
LINE
  5
B99
330
B8E
100
AcDbEntity
  8
1
100
AcDbLine
 10
-549.2925296599446
 20
-70.11889513993946
 30
0.0
 11
-549.2925296599446
 21
-65.11889513993946
 31
0.0
  0
LINE
  5
B9A
330
B8E
100
AcDbEntity
  8
1
100
AcDbLine
 10
-369.2925296599447
 20
-65.11889513993946
 30
0.0
 11
-364.2925296599447
 21
-65.11889513993946
 31
0.0
  0
LINE
  5
B9B
330
B8E
100
AcDbEntity
  8
1
100
AcDbLine
 10
-549.2925296599446
 20
-357.1188951399395
 30
0.0
 11
-549.2925296599446
 21
-362.1188951399395
 31
0.0
  0
ENDBLK
  5
B9D
330
B8E
100
AcDbEntity
  8
0
100
AcDbBlockEnd
  0
BLOCK
  5
C13
330
B9E
100
AcDbEntity
  8
0
100
AcDbBlockBegin
  2
legenda desenvolvimento
 70
     2
 10
0.0
 20
0.0
 30
0.0
  3
legenda desenvolvimento
  1

  0
ATTDEF
  5
B9F
330
B9E
100
AcDbEntity
  8
1
100
AcDbText
 10
-108.606245802552
 20
55.5
 30
0.0
 40
4.0
  1
XXXXXXXXXXXXXX
 41
0.8
  7
SANINDUSA
 72
     4
 11
-87.5
 21
57.5
 31
0.0
100
AcDbAttributeDefinition
  3
Nome do Produto:
  2
PRODUTO
 70
     0
  0
ATTDEF
  5
BA0
330
B9E
100
AcDbEntity
  8
1
100
AcDbText
 10
-97.9997966101695
 20
41.25
 30
0.0
 40
3.0
  1
XXXXXXXXX
 41
0.8
  7
futura
 72
     4
 11
-87.5
 21
42.75
 31
0.0
100
AcDbAttributeDefinition
  3
Nome da Peça:
  2
PECA
 70
     0
  0
ATTDEF
  5
BA1
330
B9E
100
AcDbEntity
  8
1
100
AcDbText
 10
-133.4422431161853
 20
21.11745296763252
 30
0.0
 40
2.5
  1
X
 41
0.8
  7
SANINDUSA
 72
     4
 11
-132.5
 21
22.36745296763252
 31
0.0
100
AcDbAttributeDefinition
  3
Cod. TESTE:
  2
TESTE
 70
     0
  0
ATTDEF
  5
BA2
330
B9E
100
AcDbEntity
  8
1
100
AcDbText
 10
-124.3844862323707
 20
21.11745296763252
 30
0.0
 40
2.5
  1
XX
 41
0.8
  7
SANINDUSA
 72
     4
 11
-122.5
 21
22.36745296763252
 31
0.0
100
AcDbAttributeDefinition
  3
Cod. Ano:
  2
ANO
 70
     0
  0
ATTDEF
  5
BA3
330
B9E
100
AcDbEntity
  8
1
100
AcDbText
 10
-112.526889953052
 20
21.11745296763252
 30
0.0
 40
2.5
  1
XXX
 41
0.8
  7
SANINDUSA
 72
     4
 11
-109.700160604496
 21
22.36745296763252
 31
0.0
100
AcDbAttributeDefinition
  3
Cod. Sequência:
  2
SEQUENCIA
 70
     0
  0
ATTDEF
  5
BA4
330
B9E
100
AcDbEntity
  8
1
100
AcDbText
 10
-99.35382430979316
 20
21.11745296763252
 30
0.0
 40
2.5
  1
XX
 41
0.8
  7
SANINDUSA
 72
     4
 11
-97.46933807742244
 21
22.36745296763252
 31
0.0
100
AcDbAttributeDefinition
  3
Cod. Tipo:
  2
TIPO
 70
     0
  0
ATTDEF
  5
BA5
330
B9E
100
AcDbEntity
  8
1
100
AcDbText
 10
-87.42035911468438
 20
21.11745296763252
 30
0.0
 40
2.5
  1
XXX
 41
0.8
  7
SANINDUSA
 72
     4
 11
-84.59362976612828
 21
22.36745296763252
 31
0.0
100
AcDbAttributeDefinition
  3
Cod. Produto:
  2
PRODUTO
 70
     0
  0
ATTDEF
  5
BA6
330
B9E
100
AcDbEntity
  8
1
100
AcDbText
 10
-74.62051971917853
 20
21.11745296763252
 30
0.0
 40
2.5
  1
XXX
 41
0.8
  7
SANINDUSA
 72
     4
 11
-71.79379037062244
 21
22.36745296763252
 31
0.0
100
AcDbAttributeDefinition
  3
Cod. Peça:
  2
PECA
 70
     0
  0
ATTDEF
  5
BA7
330
B9E
100
AcDbEntity
  8
1
100
AcDbText
 10
-61.10603446650329
 20
21.11745296763252
 30
0.0
 40
2.5
  1
XX
 41
0.8
  7
SANINDUSA
 72
     4
 11
-59.22154823413257
 21
22.36745296763252
 31
0.0
100
AcDbAttributeDefinition
  3
Cod. Revisão:
  2
REV
 70
     0
  0
ATTDEF
  5
BA8
330
B9E
100
AcDbEntity
  8
1
100
AcDbText
 10
-48.43615325006194
 20
21.11745296763252
 30
0.0
 40
2.5
  1
XX
 41
0.8
  7
SANINDUSA
 72
     4
 11
-46.55166701769121
 21
22.36745296763252
 31
0.0
100
AcDbAttributeDefinition
  3
Cod. Alteração:
  2
ALT
 70
     0
  0
ATTDEF
  5
BA9
330
B9E
100
AcDbEntity
  8
1
100
AcDbText
 10
-35.19086635325722
 20
23.98875083948959
 30
0.0
 40
3.0
  1
1/XXX
 41
0.8
  7
SANINDUSA
 72
     4
 11
-30.0
 21
25.25
 31
0.0
100
AcDbAttributeDefinition
  3
Escala geral:
  2
ESCALA
 70
     0
  0
ATTDEF
  5
BAA
330
B9E
100
AcDbEntity
  8
1
100
AcDbText
 10
-15.65345869711215
 20
23.75
 30
0.0
 40
3.0
  1
XXXXX
 41
0.8
  7
SANINDUSA
 72
     4
 11
-10.0
 21
25.25
 31
0.0
100
AcDbAttributeDefinition
  3
Folha:
  2
FOLHA
 70
     0
  0
ATTDEF
  5
BAB
330
B9E
100
AcDbEntity
  8
1
100
AcDbText
 10
-178.5146998822042
 20
56.9531347542807
 30
0.0
 40
2.0
  1
xx
 41
0.8
  7
SANINDUSA
 72
     4
 11
-177.2123493113513
 21
57.70330265219877
 31
0.0
100
AcDbAttributeDefinition
  3
revisão
  2
REV.
 70
     0
  0
ATTDEF
  5
BAC
330
B9E
100
AcDbEntity
  8
1
100
AcDbText
 10
-172.7849640077129
 20
56.9531347542807
 30
0.0
 40
2.0
  1
xx
 41
0.8
  7
SANINDUSA
 72
     4
 11
-171.48261343686
 21
57.70330265219877
 31
0.0
100
AcDbAttributeDefinition
  3
alteração
  2
ALT.
 70
     0
  0
ATTDEF
  5
BAD
330
B9E
100
AcDbEntity
  8
1
100
AcDbText
 10
-168.007199951307
 20
56.70330265219877
 30
0.0
 40
2.0
  1
xx/xx/xxxx
 41
0.8
  7
SANINDUSA
 11
-168.007199951307
 21
57.70330265219877
 31
0.0
100
AcDbAttributeDefinition
  3
data
  2
DATA
 70
     0
 74
     2
  0
ATTDEF
  5
BAE
330
B9E
100
AcDbEntity
  8
1
100
AcDbText
 10
-168.5396372253371
 20
13.15916722632639
 30
0.0
 40
2.0
  1
XX/XX/XXXX
 41
0.8
  7
SANINDUSA
 72
     4
 11
-161.5099528734231
 21
14.0
 31
0.0
100
AcDbAttributeDefinition
  3
Data projecto
  2
DATA_PROJ
 70
     0
  0
ATTDEF
  5
BAF
330
B9E
100
AcDbEntity
  8
1
100
AcDbText
 10
-150.8658110728766
 20
13.24983210208193
 30
0.0
 40
2.0
  1
xxxxxxxx
 41
0.8
  7
SANINDUSA
 72
     4
 11
-145.6564087894649
 21
14.0
 31
0.0
100
AcDbAttributeDefinition
  3
nome de quem projectou
  2
NOME
 70
     0
  0
ATTDEF
  5
BB0
330
B9E
100
AcDbEntity
  8
1
100
AcDbText
 10
-168.5396372253371
 20
9.159167226326394
 30
0.0
 40
2.0
  1
XX/XX/XXXX
 41
0.8
  7
SANINDUSA
 72
     4
 11
-161.5099528734231
 21
10.0
 31
0.0
100
AcDbAttributeDefinition
  3
Data desenhou
  2
DATA_DES
 70
     0
  0
ATTDEF
  5
BB1
330
B9E
100
AcDbEntity
  8
1
100
AcDbText
 10
-151.516986358303
 20
9.249832102081933
 30
0.0
 40
2.0
  1
xxxxxxxxx
 41
0.8
  7
SANINDUSA
 72
     4
 11
-145.6564087894649
 21
10.0
 31
0.0
100
AcDbAttributeDefinition
  3
nome
  2
NOME
 70
     0
  0
ATTDEF
  5
BB2
330
B9E
100
AcDbEntity
  8
1
100
AcDbText
 10
-127.2924214135946
 20
14.1979876583216
 30
0.0
 40
2.0
  1
Vitreous China
 41
0.8
  7
SANINDUSA
 72
     4
 11
-119.231709526422
 21
15.22216495852308
 31
0.0
100
AcDbAttributeDefinition
  3
Nome do Material:
  2
MATERIAL
 70
     0
  0
ATTDEF
  5
BB3
330
B9E
100
AcDbEntity
  8
1
100
AcDbText
 10
-103.1563452122093
 20
14.38019043949261
 30
0.0
 40
2.0
  1
Branco
 41
0.8
  7
SANINDUSA
 72
     4
 11
-99.33418268702462
 21
15.35937109765245
 31
0.0
100
AcDbAttributeDefinition
  3
cor da peça
  2
COR
 70
     0
  0
ATTDEF
  5
BB4
330
B9E
100
AcDbEntity
  8
1
100
AcDbText
 10
-116.7235057085292
 20
5.975822699798522
 30
0.0
 40
2.0
  1
Vidrado
 41
0.8
  7
SANINDUSA
 72
     4
 11
-112.5
 21
7.0
 31
0.0
100
AcDbAttributeDefinition
  3
Tipo de acabamento:
  2
ACABAMENTO
 70
     0
  0
ATTDEF
  5
BB5
330
B9E
100
AcDbEntity
  8
1
100
AcDbText
 10
-79.18527869967246
 20
16.65066409850533
 30
0.0
 40
2.0
  1
XXXXXXX
 41
0.8
  7
SANINDUSA
 72
     4
 11
-73.90871724903445
 21
17.65066409850533
 31
0.0
100
AcDbAttributeDefinition
  3
Normas
  2
NORMAS
 70
     0
  0
ATTDEF
  5
BB6
330
B9E
100
AcDbEntity
  8
1
100
AcDbText
 10
-30.55312290127603
 20
14.0
 30
0.0
 40
2.0
  1
XXXXXXXXXXXXXX
 41
0.8
  7
SANINDUSA
 72
     4
 11
-20.0
 21
15.0
 31
0.0
100
AcDbAttributeDefinition
  3
Substitui o desenho:
  2
SUBSTITUI
 70
     0
  0
ATTDEF
  5
BB7
330
B9E
100
AcDbEntity
  8
1
100
AcDbText
 10
-31.30691739422431
 20
6.0
 30
0.0
 40
2.0
  1
XXXXXXXXXXXXXXX
 41
0.8
  7
SANINDUSA
 72
     4
 11
-20.0
 21
7.0
 31
0.0
100
AcDbAttributeDefinition
  3
Substituido por:
  2
SUBSTITUIDO
 70
     0
  0
ATTDEF
  5
BB8
330
B9E
100
AcDbEntity
  8
1
100
AcDbText
 10
-110.0220608548302
 20
1.478208457928303
 30
0.0
 40
2.0
  1
XXXXXXXXXXXXXXXXXXXXXXXXXXXXXXXXXX
 41
0.8
  7
SANINDUSA
 11
-110.0220608548302
 21
2.478208457928303
 31
0.0
100
AcDbAttributeDefinition
  3
Localização do desenho:
  2
LOC-DWG
 70
     0
 74
     2
  0
LINE
  5
BB9
330
B9E
100
AcDbEntity
  8
3
100
AcDbLine
 10
-135.0
 20
4.0
 30
0.0
 11
0.0000000000004547
 21
4.0
 31
0.0
  0
LINE
  5
BBA
330
B9E
100
AcDbEntity
  8
3
100
AcDbLine
 10
-90.00000000000046
 20
12.0
 30
0.0
 11
-135.0
 21
12.0
 31
0.0
  0
LINE
  5
BBB
330
B9E
100
AcDbEntity
  8
3
100
AcDbLine
 10
-135.0
 20
32.5
 30
0.0
 11
-40.0
 21
32.5
 31
0.0
  0
TEXT
  5
BBC
330
B9E
100
AcDbEntity
  8
1
100
AcDbText
 10
-134.0
 20
1.25
 30
0.0
 40
2.0
  1
Localização do des.:
 41
0.8
  7
SANINDUSA
 11
-134.0
 21
2.25
 31
0.0
100
AcDbText
 73
     2
  0
LINE
  5
BBD
330
B9E
100
AcDbEntity
  8
3
100
AcDbLine
 10
-180.0
 20
65.0
 30
0.0
 11
0.0
 21
65.0
 31
0.0
  0
LINE
  5
BBE
330
B9E
100
AcDbEntity
  8
leg fin
100
AcDbLine
 10
-40.0
 20
25.05956924886846
 30
0.0
 11
-135.0
 21
25.05956924886846
 31
0.0
  0
LINE
  5
BBF
330
B9E
100
AcDbEntity
  8
leg fin
100
AcDbLine
 10
-40.0
 20
28.5
 30
0.0
 11
-135.0
 21
28.5
 31
0.0
  0
LINE
  5
BC0
330
B9E
100
AcDbEntity
  8
3
100
AcDbLine
 10
-135.0
 20
50.0
 30
0.0
 11
-40.0
 21
50.0
 31
0.0
  0
TEXT
  5
BC1
330
B9E
100
AcDbEntity
  8
1
100
AcDbText
 10
-134.0
 20
29.75
 30
0.0
 40
2.0
  1
Desenho nº:
 41
0.8
  7
SANINDUSA
 11
-134.0
 21
30.75
 31
0.0
100
AcDbText
 73
     2
  0
TEXT
  5
BC2
330
B9E
100
AcDbEntity
  8
1
100
AcDbText
 10
-134.0
 20
9.25
 30
0.0
 40
2.0
  1
Acabamento:
 41
0.8
  7
SANINDUSA
 11
-134.0
 21
10.25
 31
0.0
100
AcDbText
 73
     2
  0
LINE
  5
BC3
330
B9E
100
AcDbEntity
  8
3
100
AcDbLine
 10
-180.0
 20
20.0
 30
0.0
 11
0.0
 21
20.0
 31
0.0
  0
LINE
  5
BC4
330
B9E
100
AcDbEntity
  8
1
100
AcDbLine
 10
-174.5810776056337
 20
55.5
 30
0.0
 11
-174.5810776056337
 21
65.0
 31
0.0
  0
LINE
  5
BC5
330
B9E
100
AcDbEntity
  8
1
100
AcDbLine
 10
-168.9210461879161
 20
55.5
 30
0.0
 11
-168.9210461879161
 21
65.0
 31
0.0
  0
LINE
  5
BC6
330
B9E
100
AcDbEntity
  8
1
100
AcDbLine
 10
-154.0988595589306
 20
55.5
 30
0.0
 11
-154.0988595589306
 21
65.0
 31
0.0
  0
LINE
  5
BC7
330
B9E
100
AcDbEntity
  8
3
100
AcDbLine
 10
-180.0
 20
65.0
 30
0.0
 11
-180.0
 21
0.0
 31
0.0
  0
LINE
  5
BC8
330
B9E
100
AcDbEntity
  8
3
100
AcDbLine
 10
-135.0
 20
0.0
 30
0.0
 11
-135.0
 21
65.0
 31
0.0
  0
TEXT
  5
BC9
330
B9E
100
AcDbEntity
  8
1
100
AcDbText
 10
-179.0
 20
9.75
 30
0.0
 40
1.5
  1
Des.
 41
0.8
  7
SANINDUSA
 11
-179.0
 21
10.5
 31
0.0
100
AcDbText
 73
     2
  0
LINE
  5
BCA
330
B9E
100
AcDbEntity
  8
1
100
AcDbLine
 10
-168.9210461879161
 20
20.0
 30
0.0
 11
-168.9210461879161
 21
0.0
 31
0.0
  0
LINE
  5
BCB
330
B9E
100
AcDbEntity
  8
1
100
AcDbLine
 10
-154.0988595589306
 20
20.0
 30
0.0
 11
-154.0988595589306
 21
0.0
 31
0.0
  0
LINE
  5
BCC
330
B9E
100
AcDbEntity
  8
1
100
AcDbLine
 10
-180.0
 20
4.0
 30
0.0
 11
-135.0
 21
4.0
 31
0.0
  0
LINE
  5
BCD
330
B9E
100
AcDbEntity
  8
1
100
AcDbLine
 10
-180.0
 20
8.0
 30
0.0
 11
-135.0
 21
8.0
 31
0.0
  0
TEXT
  5
BCE
330
B9E
100
AcDbEntity
  8
1
100
AcDbText
 10
-179.0
 20
1.73257823687436
 30
0.0
 40
1.5
  1
Aprov.
 41
0.8
  7
SANINDUSA
 11
-179.0
 21
2.48257823687436
 31
0.0
100
AcDbText
 73
     2
  0
TEXT
  5
BCF
330
B9E
100
AcDbEntity
  8
1
100
AcDbText
 10
-179.0
 20
5.75
 30
0.0
 40
1.5
  1
Ver.
 41
0.8
  7
SANINDUSA
 11
-179.0
 21
6.5
 31
0.0
100
AcDbText
 73
     2
  0
LINE
  5
BD0
330
B9E
100
AcDbEntity
  8
1
100
AcDbLine
 10
-180.0
 20
16.0
 30
0.0
 11
-135.0
 21
16.0
 31
0.0
  0
LINE
  5
BD1
330
B9E
100
AcDbEntity
  8
1
100
AcDbLine
 10
-180.0
 20
12.0
 30
0.0
 11
-135.0
 21
12.0
 31
0.0
  0
TEXT
  5
BD2
330
B9E
100
AcDbEntity
  8
1
100
AcDbText
 10
-179.0
 20
13.75
 30
0.0
 40
1.5
  1
Proj.
 41
0.8
  7
SANINDUSA
 11
-179.0
 21
14.5
 31
0.0
100
AcDbText
 73
     2
  0
TEXT
  5
BD3
330
B9E
100
AcDbEntity
  8
1
100
AcDbText
 10
-167.9210461879161
 20
17.75
 30
0.0
 40
1.5
  1
Data
 41
0.8
  7
SANINDUSA
 11
-167.9210461879161
 21
18.5
 31
0.0
100
AcDbText
 73
     2
  0
TEXT
  5
BD4
330
B9E
100
AcDbEntity
  8
1
100
AcDbText
 10
-153.0988595589306
 20
17.75
 30
0.0
 40
1.5
  1
Nome
 41
0.8
  7
SANINDUSA
 11
-153.0988595589306
 21
18.5
 31
0.0
100
AcDbText
 73
     2
  0
LINE
  5
BD5
330
B9E
100
AcDbEntity
  8
leg fin
100
AcDbLine
 10
-130.0
 20
20.0
 30
0.0
 11
-130.0
 21
28.5
 31
0.0
  0
TEXT
  5
BD6
330
B9E
100
AcDbEntity
  8
1
100
AcDbText
 10
-134.0
 20
17.25
 30
0.0
 40
2.0
  1
Material:
 41
0.8
  7
SANINDUSA
 11
-134.0
 21
18.25
 31
0.0
100
AcDbText
 73
     2
  0
TEXT
  5
BD7
330
B9E
100
AcDbEntity
  8
1
100
AcDbText
 10
-129.0
 20
26.43288406845113
 30
0.0
 40
1.5
  1
Ano:
 41
0.8
  7
SANINDUSA
 11
-129.0
 21
27.18288406845113
 31
0.0
100
AcDbText
 73
     2
  0
LINE
  5
BD8
330
B9E
100
AcDbEntity
  8
1
100
AcDbLine
 10
-180.0
 20
55.5
 30
0.0
 11
-135.0
 21
55.5
 31
0.0
  0
TEXT
  5
BD9
330
B9E
100
AcDbEntity
  8
1
100
AcDbText
 10
-179.0
 20
52.67772246885193
 30
0.0
 40
1.5
  1
descrição
 41
0.8
  7
SANINDUSA
 11
-179.0
 21
53.42772246885193
 31
0.0
100
AcDbText
 73
     2
  0
TEXT
  5
BDA
330
B9E
100
AcDbEntity
  8
1
100
AcDbText
 10
-134.0
 20
47.25
 30
0.0
 40
2.0
  1
Peça:
 41
0.8
  7
SANINDUSA
 11
-134.0
 21
48.25
 31
0.0
100
AcDbText
 73
     2
  0
LINE
  5
BDB
330
B9E
100
AcDbEntity
  8
1
100
AcDbLine
 10
-180.0
 20
59.5
 30
0.0
 11
-135.0
 21
59.5
 31
0.0
  0
TEXT
  5
BDC
330
B9E
100
AcDbEntity
  8
1
100
AcDbText
 10
-173.5810776056337
 20
62.75
 30
0.0
 40
1.5
  1
Alt.
 41
0.8
  7
SANINDUSA
 11
-173.5810776056337
 21
63.5
 31
0.0
100
AcDbText
 73
     2
  0
TEXT
  5
BDD
330
B9E
100
AcDbEntity
  8
1
100
AcDbText
 10
-179.0
 20
62.75
 30
0.0
 40
1.5
  1
Rev.
 41
0.8
  7
SANINDUSA
 11
-179.0
 21
63.5
 31
0.0
100
AcDbText
 73
     2
  0
TEXT
  5
BDE
330
B9E
100
AcDbEntity
  8
1
100
AcDbText
 10
-167.9210461879161
 20
62.75
 30
0.0
 40
1.5
  1
Data
 41
0.8
  7
SANINDUSA
 11
-167.9210461879161
 21
63.5
 31
0.0
100
AcDbText
 73
     2
  0
TEXT
  5
BDF
330
B9E
100
AcDbEntity
  8
1
100
AcDbText
 10
-153.0988595589306
 20
62.75
 30
0.0
 40
1.5
  1
Nome
 41
0.8
  7
SANINDUSA
 11
-153.0988595589306
 21
63.5
 31
0.0
100
AcDbText
 73
     2
  0
TEXT
  5
BE0
330
B9E
100
AcDbEntity
  8
1
100
AcDbText
 10
-134.0
 20
62.25
 30
0.0
 40
2.0
  1
Produto:
 41
0.8
  7
SANINDUSA
 11
-134.0
 21
63.25
 31
0.0
100
AcDbText
 73
     2
  0
LINE
  5
BE1
330
B9E
100
AcDbEntity
  8
3
100
AcDbLine
 10
-40.0
 20
4.0
 30
0.0
 11
-40.0
 21
65.0
 31
0.0
  0
LWPOLYLINE
  5
BE2
102
{ACAD_REACTORS
330
BEC
102
}
330
B9E
100
AcDbEntity
  8
9
100
AcDbPolyline
 90
       12
 70
     1
 43
0.0
 10
-3.038714600644652
 20
58.90010174665076
 10
-5.726962862472191
 20
58.90010174665076
 10
-5.726962862472191
 20
58.5001017466509
 10
-3.038748516195028
 20
58.5001017466509
 42
-0.4142135623731731
 10
-2.638748516194482
 20
58.1001017466508
 10
-2.638748516194482
 20
57.42799728675596
 10
-5.21497371544865
 20
57.42799728675596
 42
0.4142135623731289
 10
-6.014973715448377
 20
56.627997286756
 10
-6.014973715448377
 20
55.92380871629643
 42
0.4142135623731132
 10
-5.21497371544865
 20
55.12380871629648
 10
-2.23871460064447
 20
55.12380871629648
 10
-2.23871460064447
 20
58.10010174665103
 42
0.4142135623730717
  0
LWPOLYLINE
  5
BE3
102
{ACAD_REACTORS
330
BEC
102
}
330
B9E
100
AcDbEntity
  8
9
100
AcDbPolyline
 90
       20
 70
     1
 43
0.0
 10
-10.01531287095122
 20
57.82799728675581
 10
-10.01531287095122
 20
58.10010174665103
 42
-0.4142135623730744
 10
-9.615312870951584
 20
58.5001017466509
 10
-6.92703069357276
 20
58.5001017466509
 10
-6.92703069357276
 20
58.90010174665076
 10
-9.615346786501959
 20
58.90010174665076
 42
0.4142135623730883
 10
-10.41534678650168
 20
58.1001017466508
 10
-10.41534678650168
 20
57.82796337120567
 42
0.4142135623730717
 10
-9.615346786501959
 20
57.02796337120571
 10
-7.423079531965413
 20
57.02796337120571
 42
-0.4142135623730847
 10
-7.023079531965322
 20
56.62796337120562
 10
-7.023079531965322
 20
55.90786840766487
 42
-0.4142135623730744
 10
-7.423079531965413
 20
55.507868407665
 10
-10.41534678650168
 20
55.507868407665
 10
-10.41534678650168
 20
55.12380871629648
 10
-7.445787917283723
 20
55.12380871629648
 42
0.4114777732064574
 10
-6.645822882998345
 20
55.9163291493976
 10
-6.639238813324936
 20
56.62051771985716
 42
0.4169546541682913
 10
-7.439203847610315
 20
57.42799728675596
 10
-9.615312870951584
 20
57.42799728675596
 42
-0.4142135623731576
  0
LWPOLYLINE
  5
BE4
102
{ACAD_REACTORS
330
BEC
102
}
330
B9E
100
AcDbEntity
  8
9
100
AcDbPolyline
 90
       12
 70
     1
 43
0.0
 10
-14.41561811090378
 20
58.90010174665076
 10
-14.79964388672215
 20
58.90010174665076
 10
-14.79964388672215
 20
55.92380871629643
 42
0.4142135623731133
 10
-13.99964388672242
 20
55.12380871629648
 10
-11.8233508563676
 20
55.12380871629648
 42
0.4142135623730872
 10
-11.02335085636741
 20
55.92380871629643
 10
-11.02335085636741
 20
58.90010174665076
 10
-11.42338477191788
 20
58.90010174665076
 10
-11.42338477191788
 20
55.91567577726095
 42
-0.4131711701795318
 10
-11.82196067063523
 20
55.51567831234956
 10
-14.0141940096214
 20
55.50787335710947
 42
-0.4152567234624407
 10
-14.41561811090378
 20
55.90787082202087
  0
LWPOLYLINE
  5
BE5
102
{ACAD_REACTORS
330
BEC
102
}
330
B9E
100
AcDbEntity
  8
9
100
AcDbPolyline
 90
        6
 70
     1
 43
0.0
 10
-15.80771578768872
 20
55.507868407665
 10
-18.39994912667453
 20
55.507868407665
 42
-0.4142135623731731
 10
-18.79994912667462
 20
55.90786840766487
 10
-18.79994912667462
 20
58.10010174665103
 42
-0.4142135623730744
 10
-18.39994912667453
 20
58.5001017466509
 10
-15.80771578768872
 20
58.5001017466509
  0
LWPOLYLINE
  5
BE6
102
{ACAD_REACTORS
330
BEC
102
}
330
B9E
100
AcDbEntity
  8
9
100
AcDbPolyline
 90
        8
 70
     1
 43
0.0
 10
-15.4236900118708
 20
59.87619128370352
 10
-15.80771578768872
 20
59.87619128370352
 10
-15.80771578768872
 20
58.90010174665076
 10
-18.39176256411201
 20
58.90010174665076
 42
0.4131164467977967
 10
-19.19175694739761
 20
58.1030995310698
 10
-19.1999120763262
 20
55.92680650071542
 42
0.4153115297271718
 10
-18.39991769304061
 20
55.12380871629648
 10
-15.4236900118708
 20
55.12380871629648
  0
LWPOLYLINE
  5
BE7
102
{ACAD_REACTORS
330
BEC
102
}
330
B9E
100
AcDbEntity
  8
9
100
AcDbPolyline
 90
       10
 70
     1
 43
0.0
 10
-20.59201288790928
 20
58.90010174665076
 10
-23.56830591826338
 20
58.90010174665076
 10
-23.56830591826338
 20
55.12380871629648
 10
-23.18424622689509
 20
55.12380871629648
 10
-23.18424622689509
 20
58.5001017466509
 10
-20.59204680345965
 20
58.5001017466509
 42
-0.4142135623730898
 10
-20.19204680345956
 20
58.1001017466508
 10
-20.19204680345956
 20
55.12380871629648
 10
-19.79201288790909
 20
55.12380871629648
 10
-19.79201288790909
 20
58.10010174665103
 42
0.4142135623731132
  0
LWPOLYLINE
  5
BE8
102
{ACAD_REACTORS
330
BEC
102
}
330
B9E
100
AcDbEntity
  8
9
100
AcDbPolyline
 90
        4
 70
     1
 43
0.0
 10
-24.19231812786165
 20
58.90010174665076
 10
-24.57637781922995
 20
58.90010174665076
 10
-24.57637781922995
 20
55.12380871629648
 10
-24.19231812786165
 20
55.12380871629648
  0
LWPOLYLINE
  5
BE9
102
{ACAD_REACTORS
330
BEC
102
}
330
B9E
100
AcDbEntity
  8
9
100
AcDbPolyline
 90
       10
 70
     1
 43
0.0
 10
-28.57661522808212
 20
58.5001017466509
 10
-25.98444972019706
 20
58.5001017466509
 42
-0.4142135623731731
 10
-25.58444972019652
 20
58.1001017466508
 10
-25.58444972019652
 20
55.12380871629648
 10
-25.2004239443786
 20
55.12380871629648
 10
-25.2004239443786
 20
58.10010174665103
 42
0.4142135623730717
 10
-26.00042394437833
 20
58.90010174665076
 10
-28.97664914363259
 20
58.90010174665076
 10
-28.97664914363259
 20
55.12380871629648
 10
-28.57661522808212
 20
55.12380871629648
  0
LWPOLYLINE
  5
BEA
102
{ACAD_REACTORS
330
BEC
102
}
330
B9E
100
AcDbEntity
  8
9
100
AcDbPolyline
 90
       12
 70
     1
 43
0.0
 10
-29.58465321349832
 20
58.10010174665103
 42
0.4142135623730716
 10
-30.3846532134985
 20
58.90010174665076
 10
-33.07296930642724
 20
58.90010174665076
 10
-33.07296930642724
 20
58.5001017466509
 10
-30.38468712904842
 20
58.5001017466509
 42
-0.4142135623730067
 10
-29.98468712904878
 20
58.1001017466508
 10
-29.98468712904878
 20
57.42799728675618
 10
-32.56098015940324
 20
57.42799728675596
 42
0.4142135623731289
 10
-33.36098015940343
 20
56.627997286756
 10
-33.36098015940343
 20
55.92380871629643
 42
0.4142135623731132
 10
-32.56098015940324
 20
55.12380871629648
 10
-29.58465321349832
 20
55.12380871629648
  0
LWPOLYLINE
  5
BEB
102
{ACAD_REACTORS
330
BEC
102
}
330
B9E
100
AcDbEntity
  8
9
100
AcDbPolyline
 90
       20
 70
     1
 43
0.0
 10
-34.7850262845518
 20
57.42799728675596
 10
-36.96125148380543
 20
57.42799728675596
 42
-0.4142135623730898
 10
-37.36125148380552
 20
57.82799728675604
 10
-37.36125148380552
 20
58.10010174665103
 42
-0.4142135623730744
 10
-36.96125148380543
 20
58.5001017466509
 10
-34.27303713752781
 20
58.50010174665067
 10
-34.27303713752781
 20
58.90010174665076
 10
-36.96128539935535
 20
58.90010174665076
 42
0.4142135623731289
 10
-37.76128539935553
 20
58.1001017466508
 10
-37.76128539935553
 20
57.82796337120567
 42
0.4142135623730716
 10
-36.9612853993558
 20
57.02796337120571
 10
-34.76901814481926
 20
57.02796337120571
 42
-0.414213562373168
 10
-34.36901814481962
 20
56.62796337120562
 10
-34.36901814481962
 20
55.90786840766487
 42
-0.4142135623730744
 10
-34.76901814481926
 20
55.507868407665
 10
-37.76128539935553
 20
55.507868407665
 10
-37.76128539935553
 20
55.12380871629648
 10
-34.7850262845518
 20
55.12380871629648
 42
0.4142135623731289
 10
-33.98502628455162
 20
55.92380871629643
 10
-33.98502628455162
 20
56.627997286756
 42
0.4142135623731132
  0
HATCH
  5
BEC
330
B9E
100
AcDbEntity
  8
9
100
AcDbHatch
 10
0.0
 20
0.0
 30
0.0
210
0.0
220
0.0
230
1.0
  2
SOLID
 70
     1
 71
     1
 91
       13
 92
        7
 72
     1
 73
     1
 93
       20
 10
-34.36901814481962
 20
55.90786840766487
 42
-0.414213562372991
 10
-34.76901814481926
 20
55.507868407665
 42
0.0
 10
-37.76128539935553
 20
55.507868407665
 42
0.0
 10
-37.76128539935553
 20
55.12380871629648
 42
0.0
 10
-34.7850262845518
 20
55.12380871629648
 42
0.4142135623731705
 10
-33.98502628455162
 20
55.92380871629666
 42
0.0
 10
-33.98502628455162
 20
56.627997286756
 42
0.4142135623731547
 10
-34.7850262845518
 20
57.42799728675596
 42
0.0
 10
-36.96125148380543
 20
57.42799728675596
 42
-0.4142135623730898
 10
-37.36125148380552
 20
57.82799728675604
 42
0.0
 10
-37.36125148380552
 20
58.1001017466508
 42
-0.4142135623731575
 10
-36.96125148380543
 20
58.5001017466509
 42
0.0
 10
-34.27303713752781
 20
58.50010174665067
 42
0.0
 10
-34.27303713752781
 20
58.90010174665076
 42
0.0
 10
-36.96128539935535
 20
58.90010174665076
 42
0.4142135623731705
 10
-37.76128539935553
 20
58.10010174665058
 42
0.0
 10
-37.76128539935553
 20
57.82796337120544
 42
0.4142135623730299
 10
-36.9612853993558
 20
57.02796337120571
 42
0.0
 10
-34.76901814481926
 20
57.02796337120571
 42
-0.4142135623730015
 10
-34.36901814481962
 20
56.62796337120608
 42
0.0
 97
        1
330
BEB
 92
        7
 72
     1
 73
     1
 93
       12
 10
-33.36098015940343
 20
55.92380871629666
 42
0.4142135623731547
 10
-32.56098015940324
 20
55.12380871629648
 42
0.0
 10
-29.58465321349877
 20
55.12380871629648
 42
0.0
 10
-29.58465321349832
 20
58.10010174665058
 42
0.4142135623731964
 10
-30.3846532134985
 20
58.90010174665076
 42
0.0
 10
-33.07296930642724
 20
58.90010174665076
 42
0.0
 10
-33.07296930642724
 20
58.50010174665067
 42
0.0
 10
-30.38468712904887
 20
58.5001017466509
 42
-0.4142135623732564
 10
-29.98468712904878
 20
58.10010174665103
 42
0.0
 10
-29.98468712904923
 20
57.42799728675596
 42
0.0
 10
-32.56098015940324
 20
57.42799728675596
 42
0.4142135623731705
 10
-33.36098015940343
 20
56.627997286756
 42
0.0
 97
        1
330
BEA
 92
       22
 72
     1
 73
     1
 93
        6
 10
-32.97692046803468
 20
56.62796337120562
 42
-0.4142135623731576
 10
-32.57692046803459
 20
57.02796337120571
 42
0.0
 10
-29.98468712904878
 20
57.02796337120571
 42
0.0
 10
-29.98468712904878
 20
55.507868407665
 42
0.0
 10
-32.57692046803459
 20
55.507868407665
 42
-0.4142135623731731
 10
-32.97692046803468
 20
55.90786840766487
 42
0.0
 97
        1
330
C11
 92
        7
 72
     1
 73
     1
 93
       10
 10
-28.57661522808212
 20
58.5001017466509
 42
0.0
 10
-25.98444972019661
 20
58.5001017466509
 42
-0.4142135623730067
 10
-25.58444972019652
 20
58.10010174665058
 42
0.0
 10
-25.58444972019606
 20
55.12380871629648
 42
0.0
 10
-25.20042394437906
 20
55.12380871629648
 42
0.0
 10
-25.2004239443786
 20
58.1001017466508
 42
0.4142135623731134
 10
-26.00042394437833
 20
58.90010174665076
 42
0.0
 10
-28.97664914363259
 20
58.90010174665076
 42
0.0
 10
-28.97664914363259
 20
55.12380871629648
 42
0.0
 10
-28.57661522808212
 20
55.12380871629648
 42
0.0
 97
        1
330
BE9
 92
        7
 72
     0
 73
     1
 93
        4
 10
-24.57637781922995
 20
55.12380871629648
 10
-24.19231812786165
 20
55.12380871629648
 10
-24.19231812786165
 20
58.90010174665076
 10
-24.57637781922995
 20
58.90010174665076
 97
        1
330
BE8
 92
        7
 72
     0
 73
     1
 93
        4
 10
-24.19231812786165
 20
59.87619128370352
 10
-24.5763778192304
 20
59.87619128370352
 10
-24.5763778192304
 20
59.28412752246913
 10
-24.1923181278612
 20
59.28412752246913
 97
        1
330
C12
 92
        7
 72
     1
 73
     1
 93
       10
 10
-23.18424622689509
 20
58.5001017466509
 42
0.0
 10
-20.59204680345965
 20
58.5001017466509
 42
-0.4142135623730898
 10
-20.19204680345956
 20
58.1001017466508
 42
0.0
 10
-20.19204680345956
 20
55.12380871629648
 42
0.0
 10
-19.79201288790909
 20
55.12380871629648
 42
0.0
 10
-19.79201288790909
 20
58.1001017466508
 42
0.4142135623731547
 10
-20.59201288790928
 20
58.90010174665076
 42
0.0
 10
-23.56830591826338
 20
58.90010174665076
 42
0.0
 10
-23.56830591826338
 20
55.12380871629648
 42
0.0
 10
-23.18424622689463
 20
55.12380871629648
 42
0.0
 97
        1
330
BE7
 92
        7
 72
     1
 73
     1
 93
        8
 10
-19.1999120763262
 20
55.92680650071542
 42
0.4153115297271299
 10
-18.39991769304061
 20
55.12380871629648
 42
0.0
 10
-15.4236900118708
 20
55.12380871629648
 42
0.0
 10
-15.4236900118708
 20
59.87619128370352
 42
0.0
 10
-15.80771578768872
 20
59.87619128370352
 42
0.0
 10
-15.80771578768872
 20
58.90010174665076
 42
0.0
 10
-18.39176256411201
 20
58.90010174665076
 42
0.4131164467977965
 10
-19.19175694739761
 20
58.1030995310698
 42
0.0
 97
        1
330
BE6
 92
       22
 72
     1
 73
     1
 93
        6
 10
-18.79994912667462
 20
58.1001017466508
 42
-0.4142135623731575
 10
-18.39994912667453
 20
58.5001017466509
 42
0.0
 10
-15.80771578768872
 20
58.50010174665067
 42
0.0
 10
-15.80771578768827
 20
55.507868407665
 42
0.0
 10
-18.39994912667453
 20
55.507868407665
 42
-0.4142135623731731
 10
-18.79994912667462
 20
55.90786840766487
 42
0.0
 97
        1
330
BE5
 92
        7
 72
     1
 73
     1
 93
       12
 10
-14.79964388672215
 20
55.92380871629621
 42
0.4142135623729885
 10
-13.99964388672242
 20
55.12380871629648
 42
0.0
 10
-11.8233508563676
 20
55.12380871629648
 42
0.4142135623731289
 10
-11.02335085636741
 20
55.92380871629666
 42
0.0
 10
-11.02335085636741
 20
58.90010174665076
 42
0.0
 10
-11.42338477191788
 20
58.90010174665076
 42
0.0
 10
-11.42338477191788
 20
55.91567577726095
 42
-0.4131711701795319
 10
-11.82196067063523
 20
55.51567831234956
 42
0.0
 10
-14.01419400962095
 20
55.50787335710947
 42
-0.4152567234626918
 10
-14.41561811090378
 20
55.90787082202087
 42
0.0
 10
-14.41561811090378
 20
58.90010174665076
 42
0.0
 10
-14.7996438867226
 20
58.90010174665076
 42
0.0
 97
        1
330
BE4
 92
        7
 72
     1
 73
     1
 93
       20
 10
-7.423079531965413
 20
57.02796337120571
 42
-0.414213562373168
 10
-7.023079531965322
 20
56.62796337120562
 42
0.0
 10
-7.023079531965322
 20
55.90786840766487
 42
-0.4142135623731575
 10
-7.423079531965413
 20
55.507868407665
 42
0.0
 10
-10.41534678650168
 20
55.507868407665
 42
0.0
 10
-10.41534678650168
 20
55.12380871629648
 42
0.0
 10
-7.445787917283723
 20
55.12380871629648
 42
0.4114777732065809
 10
-6.645822882998345
 20
55.91632914939783
 42
0.0
 10
-6.639238813324936
 20
56.62051771985716
 42
0.4169546541682913
 10
-7.439203847610315
 20
57.42799728675596
 42
0.0
 10
-9.615312870951584
 20
57.42799728675596
 42
-0.4142135623729911
 10
-10.01531287095122
 20
57.82799728675581
 42
0.0
 10
-10.01531287095122
 20
58.10010174665103
 42
-0.414213562372991
 10
-9.615312870951584
 20
58.5001017466509
 42
0.0
 10
-6.92703069357276
 20
58.50010174665067
 42
0.0
 10
-6.927030693572305
 20
58.90010174665076
 42
0.0
 10
-9.615346786501959
 20
58.90010174665076
 42
0.4142135623730467
 10
-10.41534678650168
 20
58.10010174665103
 42
0.0
 10
-10.41534678650168
 20
57.82796337120544
 42
0.4142135623730301
 10
-9.615346786501959
 20
57.02796337120571
 42
0.0
 97
        1
330
BE3
 92
        7
 72
     1
 73
     1
 93
       12
 10
-5.21497371544865
 20
57.42799728675596
 42
0.4142135623730871
 10
-6.014973715448377
 20
56.627997286756
 42
0.0
 10
-6.014973715448377
 20
55.92380871629621
 42
0.4142135623730715
 10
-5.21497371544865
 20
55.12380871629648
 42
0.0
 10
-2.23871460064447
 20
55.12380871629648
 42
0.0
 10
-2.23871460064447
 20
58.10010174665058
 42
0.414213562373155
 10
-3.038714600644652
 20
58.90010174665076
 42
0.0
 10
-5.726962862471737
 20
58.90010174665076
 42
0.0
 10
-5.726962862472191
 20
58.5001017466509
 42
0.0
 10
-3.038748516194573
 20
58.5001017466509
 42
-0.4142135623730067
 10
-2.638748516194482
 20
58.10010174665058
 42
0.0
 10
-2.638748516194482
 20
57.42799728675596
 42
0.0
 97
        1
330
BE2
 92
       22
 72
     1
 73
     1
 93
        6
 10
-2.638748516194937
 20
57.02796337120571
 42
0.0
 10
-2.638748516194482
 20
55.50786840766477
 42
0.0
 10
-5.21497371544865
 20
55.507868407665
 42
-0.4142135623731731
 10
-5.614973715448741
 20
55.90786840766509
 42
0.0
 10
-5.614973715448741
 20
56.62796337120562
 42
-0.4142135623731576
 10
-5.21497371544865
 20
57.02796337120571
 42
0.0
 97
        1
330
C0D
 75
     0
 76
     1
 47
0.0407044778999864
 98
       13
 10
-34.18710075113677
 20
56.16907953933765
 10
-33.12851374392494
 20
56.49471602641233
 10
-33.12851374392494
 20
56.49471602641233
 10
-28.77202873835904
 20
57.51232930166111
 10
-24.41554807250941
 20
57.91937341678636
 10
-24.41554807250941
 20
59.384734621186
 10
-23.31624584658039
 20
58.3264175319116
 10
-19.04119127844888
 20
57.75655517324913
 10
-19.04119127844888
 20
57.75655517324913
 10
-14.64399105416578
 20
57.43091868617466
 10
-8.048195057457178
 20
57.22739662861204
 10
-4.017427461911665
 20
57.18669281458665
 10
-4.017427461911665
 20
57.18669281458665
  0
TEXT
  5
BED
330
B9E
100
AcDbEntity
  8
leg fin
100
AcDbText
 10
3.391127401597259
 20
2.107634911895729
 30
0.0
 40
1.5
  1
Este desenho é propriedade da Sanindusa, S.A., e não pode ser copiado nem divulgado sem nossa autorização.
 50
90.0
 41
0.8
  7
SANINDUSA
100
AcDbText
  0
LINE
  5
BEE
330
B9E
100
AcDbEntity
  8
3
100
AcDbLine
 10
-90.0
 20
4.0
 30
0.0
 11
-90.0
 21
12.0
 31
0.0
  0
TEXT
  5
BEF
330
B9E
100
AcDbEntity
  8
1
100
AcDbText
 10
-39.0
 20
9.25
 30
0.0
 40
2.0
  1
Substituido por:
 41
0.8
  7
SANINDUSA
 11
-39.0
 21
10.25
 31
0.0
100
AcDbText
 73
     2
  0
POINT
  5
BF0
330
B9E
100
AcDbEntity
  8
SANINDUSA
100
AcDbPoint
 10
0.0
 20
0.0
 30
0.0
  0
TEXT
  5
BF1
330
B9E
100
AcDbEntity
  8
1
100
AcDbText
 10
-89.0
 20
16.74927010445663
 30
0.0
 40
2.0
  1
Normas:
 41
0.8
  7
SANINDUSA
 11
-89.0
 21
17.74927010445663
 31
0.0
100
AcDbText
 73
     2
  0
LINE
  5
BF2
330
B9E
100
AcDbEntity
  8
3
100
AcDbLine
 10
-90.0
 20
12.0
 30
0.0
 11
-90.0
 21
20.0
 31
0.0
  0
LINE
  5
BF3
330
B9E
100
AcDbEntity
  8
3
100
AcDbLine
 10
-110.546019464768
 20
12.0
 30
0.0
 11
-110.546019464768
 21
20.0
 31
0.0
  0
TEXT
  5
BF4
330
B9E
100
AcDbEntity
  8
1
100
AcDbText
 10
-109.6177520618648
 20
17.25
 30
0.0
 40
2.0
  1
Cor:
 41
0.8
  7
SANINDUSA
 11
-109.6177520618648
 21
18.25
 31
0.0
100
AcDbText
 73
     2
  0
LINE
  5
BF5
330
B9E
100
AcDbEntity
  8
leg fin
100
AcDbLine
 10
-91.42857142857156
 20
20.0
 30
0.0
 11
-91.42857142857156
 21
28.5
 31
0.0
  0
LINE
  5
BF6
330
B9E
100
AcDbEntity
  8
leg fin
100
AcDbLine
 10
-104.2857142857142
 20
20.0
 30
0.0
 11
-104.2857142857142
 21
28.5
 31
0.0
  0
LINE
  5
BF7
330
B9E
100
AcDbEntity
  8
leg fin
100
AcDbLine
 10
-117.1428571428573
 20
20.0
 30
0.0
 11
-117.1428571428573
 21
28.5
 31
0.0
  0
POINT
  5
BF8
330
B9E
100
AcDbEntity
  8
SANINDUSA
100
AcDbPoint
 10
-117.1428571428573
 20
28.5
 30
0.0
  0
POINT
  5
BF9
330
B9E
100
AcDbEntity
  8
SANINDUSA
100
AcDbPoint
 10
-104.2857142857142
 20
28.5
 30
0.0
  0
POINT
  5
BFA
330
B9E
100
AcDbEntity
  8
SANINDUSA
100
AcDbPoint
 10
-91.42857142857156
 20
28.5
 30
0.0
  0
TEXT
  5
BFB
330
B9E
100
AcDbEntity
  8
1
100
AcDbText
 10
-116.200160604496
 20
26.43288406845113
 30
0.0
 40
1.5
  1
Nº Seq.:
 41
0.8
  7
SANINDUSA
 11
-116.200160604496
 21
27.18288406845113
 31
0.0
100
AcDbText
 73
     2
  0
TEXT
  5
BFC
330
B9E
100
AcDbEntity
  8
1
100
AcDbText
 10
-103.2106584078738
 20
26.43288406845113
 30
0.0
 40
1.5
  1
Tipo:
 41
0.8
  7
SANINDUSA
 11
-103.2106584078738
 21
27.18288406845113
 31
0.0
100
AcDbText
 73
     2
  0
TEXT
  5
BFD
330
B9E
100
AcDbEntity
  8
1
100
AcDbText
 10
-90.22114672289353
 20
26.43288406845113
 30
0.0
 40
1.5
  1
Prod.:
 41
0.8
  7
SANINDUSA
 11
-90.22114672289353
 21
27.18288406845113
 31
0.0
100
AcDbText
 73
     2
  0
TEXT
  5
BFE
330
B9E
100
AcDbEntity
  8
1
100
AcDbText
 10
-64.77320576346574
 20
26.43288406845113
 30
0.0
 40
1.5
  1
Rev.:
 41
0.8
  7
SANINDUSA
 11
-64.77320576346574
 21
27.18288406845113
 31
0.0
100
AcDbText
 73
     2
  0
LINE
  5
BFF
330
B9E
100
AcDbEntity
  8
leg fin
100
AcDbLine
 10
-52.85714285714266
 20
20.0
 30
0.0
 11
-52.85714285714266
 21
28.5
 31
0.0
  0
LINE
  5
C00
330
B9E
100
AcDbEntity
  8
leg fin
100
AcDbLine
 10
-65.71428571428578
 20
20.0
 30
0.0
 11
-65.71428571428578
 21
28.5
 31
0.0
  0
LINE
  5
C01
330
B9E
100
AcDbEntity
  8
leg fin
100
AcDbLine
 10
-78.57142857142844
 20
20.0
 30
0.0
 11
-78.57142857142844
 21
28.5
 31
0.0
  0
POINT
  5
C02
330
B9E
100
AcDbEntity
  8
SANINDUSA
100
AcDbPoint
 10
-78.57142857142844
 20
28.5
 30
0.0
  0
POINT
  5
C03
330
B9E
100
AcDbEntity
  8
SANINDUSA
100
AcDbPoint
 10
-65.71428571428578
 20
28.5
 30
0.0
  0
POINT
  5
C04
330
B9E
100
AcDbEntity
  8
SANINDUSA
100
AcDbPoint
 10
-52.85714285714266
 20
28.5
 30
0.0
  0
TEXT
  5
C05
330
B9E
100
AcDbEntity
  8
1
100
AcDbText
 10
-77.61097961686573
 20
26.43288406845113
 30
0.0
 40
1.5
  1
Peça:
 41
0.8
  7
SANINDUSA
 11
-77.61097961686573
 21
27.18288406845113
 31
0.0
100
AcDbText
 73
     2
  0
TEXT
  5
C06
330
B9E
100
AcDbEntity
  8
1
100
AcDbText
 10
-52.06538060077036
 20
26.43288406845113
 30
0.0
 40
1.5
  1
Alt.:
 41
0.8
  7
SANINDUSA
 11
-52.06538060077036
 21
27.18288406845113
 31
0.0
100
AcDbText
 73
     2
  0
LINE
  5
C07
330
B9E
100
AcDbEntity
  8
3
100
AcDbLine
 10
0.0
 20
12.0
 30
0.0
 11
-40.0
 21
12.0
 31
0.0
  0
LINE
  5
C08
330
B9E
100
AcDbEntity
  8
3
100
AcDbLine
 10
-40.0
 20
32.5
 30
0.0
 11
0.0
 21
32.5
 31
0.0
  0
TEXT
  5
C09
330
B9E
100
AcDbEntity
  8
1
100
AcDbText
 10
-19.0
 20
29.75
 30
0.0
 40
2.0
  1
Folha:
 41
0.8
  7
SANINDUSA
 11
-19.0
 21
30.75
 31
0.0
100
AcDbText
 73
     2
  0
LINE
  5
C0A
330
B9E
100
AcDbEntity
  8
3
100
AcDbLine
 10
-20.0
 20
32.5
 30
0.0
 11
-20.0
 21
20.0
 31
0.0
  0
TEXT
  5
C0B
330
B9E
100
AcDbEntity
  8
1
100
AcDbText
 10
-39.0
 20
29.75
 30
0.0
 40
2.0
  1
Escala:
 41
0.8
  7
SANINDUSA
 11
-39.0
 21
30.75
 31
0.0
100
AcDbText
 73
     2
  0
TEXT
  5
C0C
330
B9E
100
AcDbEntity
  8
1
100
AcDbText
 10
-39.0
 20
17.25
 30
0.0
 40
2.0
  1
Substitui:
 41
0.8
  7
SANINDUSA
 11
-39.0
 21
18.25
 31
0.0
100
AcDbText
 73
     2
  0
LWPOLYLINE
  5
C0D
102
{ACAD_REACTORS
330
BEC
102
}
330
B9E
100
AcDbEntity
  8
9
100
AcDbPolyline
 90
        6
 70
     1
 43
0.0
 10
-2.638748516194482
 20
57.02796337120571
 10
-2.638748516194482
 20
55.50786840766477
 10
-5.21497371544865
 20
55.507868407665
 42
-0.4142135623730898
 10
-5.614973715448741
 20
55.90786840766487
 10
-5.614973715448741
 20
56.62796337120562
 42
-0.4142135623731576
 10
-5.21497371544865
 20
57.02796337120571
  0
LINE
  5
C0E
330
B9E
100
AcDbEntity
  8
3
100
AcDbLine
 10
-40.0
 20
50.0
 30
0.0
 11
0.0
 21
50.0
 31
0.0
  0
ATTDEF
  5
C0F
330
B9E
100
AcDbEntity
  8
1
100
AcDbText
 10
-31.30691739422431
 20
40.25
 30
0.0
 40
2.0
  1
XXXXXXXXXXXXXXX
 41
0.8
  7
SANINDUSA
 72
     4
 11
-20.0
 21
41.25
 31
0.0
100
AcDbAttributeDefinition
  3
Observações:
  2
OBS
 70
     0
  0
TEXT
  5
C10
330
B9E
100
AcDbEntity
  8
1
100
AcDbText
 10
-39.0
 20
47.25
 30
0.0
 40
2.0
  1
Observações:
 41
0.8
  7
SANINDUSA
 11
-39.0
 21
48.25
 31
0.0
100
AcDbText
 73
     2
  0
LWPOLYLINE
  5
C11
102
{ACAD_REACTORS
330
BEC
102
}
330
B9E
100
AcDbEntity
  8
9
100
AcDbPolyline
 90
        6
 70
     1
 43
0.0
 10
-29.98468712904878
 20
57.02796337120571
 10
-29.98468712904878
 20
55.507868407665
 10
-32.57692046803459
 20
55.507868407665
 42
-0.4142135623731731
 10
-32.97692046803468
 20
55.90786840766487
 10
-32.97692046803468
 20
56.62796337120562
 42
-0.4142135623731576
 10
-32.57692046803459
 20
57.02796337120571
  0
LWPOLYLINE
  5
C12
102
{ACAD_REACTORS
330
BEC
102
}
330
B9E
100
AcDbEntity
  8
9
100
AcDbPolyline
 90
        4
 70
     1
 43
0.0
 10
-24.19231812786165
 20
59.87619128370352
 10
-24.57637781922995
 20
59.87619128370352
 10
-24.57637781922995
 20
59.28412752246913
 10
-24.19231812786165
 20
59.28412752246913
  0
ENDBLK
  5
C14
330
B9E
100
AcDbEntity
  8
0
100
AcDbBlockEnd
  0
ENDSEC
  0
SECTION
  2
ENTITIES
  0
SPLINE
  5
1774
330
1F
100
AcDbEntity
  8
SANINDUSA
100
AcDbSpline
210
0.0
220
0.0
230
1.0
 70
     8
 71
     3
 72
    10
 73
     6
 74
     0
 42
0.0000000001
 43
0.0000000001
 40
0.0
 40
0.0
 40
0.0
 40
0.0
 40
0.1713723200229452
 40
0.7283164587339122
 40
1.0
 40
1.0
 40
1.0
 40
1.0
 10
5488.725876113708
 20
2941.576946414419
 30
0.0
 10
5488.727869438434
 20
2941.561068832608
 30
0.0
 10
5488.736340883561
 20
2941.493590583164
 30
0.0
 10
5488.747810838626
 20
2941.400921067954
 30
0.0
 10
5488.75719391734
 20
2941.324118012941
 30
0.0
 10
5488.760270363028
 20
2941.29893646703
 30
0.0
  0
LINE
  5
1775
330
1F
100
AcDbEntity
  8
SANINDUSA
100
AcDbLine
 10
5489.047575867112
 20
2941.479006420233
 30
0.0
 11
5489.078002645011
 21
2941.50563086883
 31
0.0
  0
LINE
  5
1776
330
1F
100
AcDbEntity
  8
SANINDUSA
100
AcDbLine
 10
5489.012710452389
 20
2941.489127825358
 30
0.0
 11
5489.027660979266
 21
2941.503029163339
 31
0.0
  0
ARC
  5
1777
330
1F
100
AcDbEntity
  8
SANINDUSA
100
AcDbCircle
 10
5488.768764355333
 20
2941.626946413853
 30
0.0
 40
0.0080000000000004
100
AcDbArc
 50
230.2848627729451
 51
270.0
  0
ARC
  5
1778
330
1F
100
AcDbEntity
  8
SANINDUSA
100
AcDbCircle
 10
5488.760457731469
 20
2941.616946413853
 30
0.0
 40
0.005
100
AcDbArc
 50
50.2848627729451
 51
90.0
  0
ARC
  5
1779
330
1F
100
AcDbEntity
  8
SANINDUSA
100
AcDbCircle
 10
5488.71315869094
 20
2941.626946413853
 30
0.0
 40
0.0080000000000004
100
AcDbArc
 50
270.0
 51
309.7151372270549
  0
ARC
  5
177A
330
1F
100
AcDbEntity
  8
SANINDUSA
100
AcDbCircle
 10
5488.721465314803
 20
2941.616946413853
 30
0.0
 40
0.005
100
AcDbArc
 50
90.0
 51
129.7151372270549
  0
LINE
  5
177B
330
1F
100
AcDbEntity
  8
SANINDUSA
100
AcDbLine
 10
5489.280099561746
 20
2941.576946414419
 30
0.0
 11
5488.687154045637
 21
2941.576946414419
 31
0.0
  0
LINE
  5
1781
330
1F
100
AcDbEntity
  8
SANINDUSA
100
AcDbLine
 10
5488.687154045637
 20
2941.576946414419
 30
0.0
 11
5488.677160134847
 21
2941.576946414419
 31
0.0
  0
LINE
  5
1782
330
1F
100
AcDbEntity
  8
SANINDUSA
100
AcDbLine
 10
5488.677160134847
 20
2941.576946414419
 30
0.0
 11
5488.679436078603
 21
2941.642120912083
 31
0.0
  0
LINE
  5
1786
330
1F
100
AcDbEntity
  8
SANINDUSA
100
AcDbLine
 10
5489.288795313175
 20
2941.614120911219
 30
0.0
 11
5489.290093472536
 21
2941.576946414419
 31
0.0
  0
LINE
  5
1787
330
1F
100
AcDbEntity
  8
SANINDUSA
100
AcDbLine
 10
5489.290093472536
 20
2941.576946414419
 30
0.0
 11
5489.280099561746
 21
2941.576946414419
 31
0.0
  0
ARC
  5
1788
330
1F
100
AcDbEntity
  8
SANINDUSA
100
AcDbCircle
 10
5488.703802646192
 20
2941.628946413853
 30
0.0
 40
0.01
100
AcDbArc
 50
194.9999999902221
 51
270.0
  0
LINE
  5
178B
330
1F
100
AcDbEntity
  8
SANINDUSA
100
AcDbLine
 10
5488.703802636202
 20
2941.618946413853
 30
0.0
 11
5489.278801402385
 21
2941.618946413853
 31
0.0
  0
LINE
  5
178D
330
1F
100
AcDbEntity
  8
SANINDUSA
100
AcDbLine
 10
5489.278801402385
 20
2941.618946413853
 30
0.0
 11
5489.283798357781
 21
2941.618946413853
 31
0.0
  0
ARC
  5
178E
330
1F
100
AcDbEntity
  8
SANINDUSA
100
AcDbCircle
 10
5489.283798355049
 20
2941.613946413853
 30
0.0
 40
0.005
100
AcDbArc
 50
2.000000003753602
 51
90.0
  0
LINE
  5
178F
330
1F
100
AcDbEntity
  8
SANINDUSA
100
AcDbLine
 10
5488.69372465306
 20
2941.627921015367
 30
0.0
 11
5488.69414337569
 21
2941.626358223491
 31
0.0
  0
LWPOLYLINE
  5
1791
330
1F
100
AcDbEntity
  8
SANINDUSA
100
AcDbPolyline
 90
        9
 70
   128
 43
0.0
 10
5488.689619800385
 20
2941.643240508967
 10
5488.689908435876
 20
2941.642163333826
 10
5488.690281382139
 20
2941.640771453612
 10
5488.69073041373
 20
2941.63909558148
 10
5488.691245666082
 20
2941.637172696524
 10
5488.691815724905
 20
2941.635045226075
 10
5488.692428013618
 20
2941.632760112517
 10
5488.693069031771
 20
2941.630367780448
 10
5488.69372465306
 20
2941.627921015367
  0
ARC
  5
1794
330
1F
100
AcDbEntity
  8
SANINDUSA
100
AcDbCircle
 10
5488.684790163983
 20
2941.641946413853
 30
0.0
 40
0.0050000000000002
100
AcDbArc
 50
14.99999999022217
 51
90.0
  0
ARC
  5
1795
330
1F
100
AcDbEntity
  8
SANINDUSA
100
AcDbCircle
 10
5488.684433024343
 20
2941.641946413853
 30
0.0
 40
0.0050000000000001
100
AcDbArc
 50
90.0
 51
177.9999999962464
  0
LINE
  5
1796
330
1F
100
AcDbEntity
  8
SANINDUSA
100
AcDbLine
 10
5488.684433033998
 20
2941.646946414718
 30
0.0
 11
5488.684790155227
 21
2941.646946414718
 31
0.0
  0
SPLINE
  5
1797
330
1F
100
AcDbEntity
  8
SANINDUSA
100
AcDbSpline
210
0.0
220
0.0
230
1.0
 70
    24
 71
     3
 72
    17
 73
    13
 74
     0
 42
0.0000000001
 43
0.0000000001
 40
0.0
 40
0.0
 40
0.0
 40
0.0
 40
0.1059684083977117
 40
0.214980330576868
 40
0.3209588645187094
 40
0.4300597901181031
 40
0.53520106732369
 40
0.6434026118600473
 40
0.748398732209362
 40
0.8563886763406367
 40
0.9623443578587547
 40
1.0
 40
1.0
 40
1.0
 40
1.0
 10
5488.786021849449
 20
2941.298946421006
 30
0.0
 10
5488.784590291497
 20
2941.298946421006
 30
0.0
 10
5488.781686059883
 20
2941.298946421006
 30
0.0
 10
5488.777469226768
 20
2941.298946421006
 30
0.0
 10
5488.773456859759
 20
2941.298946421006
 30
0.0
 10
5488.769847866014
 20
2941.298946421006
 30
0.0
 10
5488.766678005879
 20
2941.298946421006
 30
0.0
 10
5488.764095618768
 20
2941.298946421006
 30
0.0
 10
5488.762099116286
 20
2941.298946421006
 30
0.0
 10
5488.760833188449
 20
2941.298946421006
 30
0.0
 10
5488.760244225315
 20
2941.298946421006
 30
0.0
 10
5488.760331304689
 20
2941.298946421006
 30
0.0
 10
5488.760354137356
 20
2941.298946421006
 30
0.0
  0
LINE
  5
1798
330
1F
100
AcDbEntity
  8
SANINDUSA
100
AcDbLine
 10
5489.192676266964
 20
2941.298946421006
 30
0.0
 11
5489.166893532808
 21
2941.298946421006
 31
0.0
  0
LINE
  5
1799
330
1F
100
AcDbEntity
  8
SANINDUSA
100
AcDbLine
 10
5489.216998106177
 20
2941.576946414419
 30
0.0
 11
5489.192676266964
 21
2941.298946421006
 31
0.0
  0
LINE
  5
179A
330
1F
100
AcDbEntity
  8
SANINDUSA
100
AcDbLine
 10
5488.786021849449
 20
2941.298946421006
 30
0.0
 11
5489.166893532808
 21
2941.298946421006
 31
0.0
  0
ELLIPSE
  5
17A4
330
1F
100
AcDbEntity
  8
SANINDUSA
100
AcDbEllipse
 10
5489.005839507584
 20
2941.497840479082
 30
0.0
 11
-0.0180836173736958
 21
0.1025214139844246
 31
0.0
210
0.0
220
0.0
230
0.9999999999999998
 40
0.0384118341600075
 41
1.132597711224797
 42
1.55559209264188
  0
ELLIPSE
  5
17A6
330
1F
100
AcDbEntity
  8
SANINDUSA
100
AcDbEllipse
 10
5489.063025439967
 20
2941.497840479082
 30
0.0
 11
0.1178280588665814
 21
0.102545013652194
 31
0.0
210
0.0
220
0.0
230
0.9999999999999998
 40
0.0254662841421823
 41
4.817653465203877
 42
5.24458682704771
  0
LINE
  5
17AA
330
1F
100
AcDbEntity
  8
SANINDUSA
100
AcDbLine
 10
5489.002717047307
 20
2941.492490987637
 30
0.0
 11
5489.001627435285
 21
2941.498702097096
 31
0.0
  0
SPLINE
  5
17B1
330
1F
100
AcDbEntity
  8
SANINDUSA
100
AcDbSpline
210
0.0
220
0.0
230
1.0
 70
     8
 71
     3
 72
    14
 73
    10
 74
     0
 42
0.0000000001
 43
0.0000000001
 40
0.0
 40
0.0
 40
0.0
 40
0.0
 40
0.1658528094559744
 40
0.3189989964145594
 40
0.4335707655608874
 40
0.5808207254120782
 40
0.7108327543219985
 40
0.8694110391621224
 40
0.9999999999999998
 40
0.9999999999999998
 40
0.9999999999999998
 40
0.9999999999999998
 10
5489.027540879632
 20
2941.502919118264
 30
0.0
 10
5489.028164064806
 20
2941.503380193215
 30
0.0
 10
5489.029362690537
 20
2941.504267018391
 30
0.0
 10
5489.031404911372
 20
2941.504611087874
 30
0.0
 10
5489.033320574785
 20
2941.504377427525
 30
0.0
 10
5489.03500541285
 20
2941.5036077704
 30
0.0
 10
5489.036490497246
 20
2941.502219762586
 30
0.0
 10
5489.037453577452
 20
2941.500468189684
 30
0.0
 10
5489.037572969275
 20
2941.499130450701
 30
0.0
 10
5489.037626887049
 20
2941.498526322999
 30
0.0
  0
LINE
  5
17B5
330
1F
100
AcDbEntity
  8
SANINDUSA
100
AcDbLine
 10
5489.037626797642
 20
2941.483527730563
 30
0.0
 11
5489.037626797642
 21
2941.497840482154
 31
0.0
  0
ELLIPSE
  5
17B6
330
1F
100
AcDbEntity
  8
SANINDUSA
100
AcDbEllipse
 10
5489.041626798923
 20
2941.497840479082
 30
0.0
 11
0.0
 21
0.1025201464949711
 31
0.0
210
0.0
220
0.0
230
1.0
 40
0.0390167214616354
 41
1.564106405082177
 42
1.570796326794907
  0
SPLINE
  5
17B7
330
1F
100
AcDbEntity
  8
SANINDUSA
100
AcDbSpline
210
0.0
220
0.0
230
1.0
 70
     8
 71
     3
 72
    15
 73
    11
 74
     0
 42
0.0000000001
 43
0.0000000001
 40
0.0
 40
0.0
 40
0.0
 40
0.0
 40
0.0000048281151459
 40
0.157031706972555
 40
0.3163507439766749
 40
0.4695385517537038
 40
0.629501137182842
 40
0.7866415301508818
 40
0.9378572383638898
 40
0.9999999999999998
 40
0.9999999999999998
 40
0.9999999999999998
 40
0.9999999999999998
 10
5489.012712454732
 20
2941.489133711316
 30
0.0
 10
5489.012712440452
 20
2941.489133696416
 30
0.0
 10
5489.012247983781
 20
2941.488649043277
 30
0.0
 10
5489.01105262695
 20
2941.487932303066
 30
0.0
 10
5489.009082326035
 20
2941.487428417124
 30
0.0
 10
5489.007030842718
 20
2941.487625647254
 30
0.0
 10
5489.005169358899
 20
2941.488484093151
 30
0.0
 10
5489.003711075536
 20
2941.489903702778
 30
0.0
 10
5489.002969001891
 20
2941.49134099605
 30
0.0
 10
5489.002773878826
 20
2941.492231592596
 30
0.0
 10
5489.002717047307
 20
2941.492490987637
 30
0.0
  0
SPLINE
  5
17B8
330
1F
100
AcDbEntity
  8
SANINDUSA
100
AcDbSpline
210
0.0
220
0.0
230
1.0
 70
     8
 71
     3
 72
    14
 73
    10
 74
     0
 42
0.0000000001
 43
0.0000000001
 40
0.0
 40
0.0
 40
0.0
 40
0.0
 40
0.0034183850479227
 40
0.0034183850479227
 40
0.0068367700958455
 40
0.0068367700958455
 40
0.0102551551437682
 40
0.0102551551437682
 40
0.0136735401916909
 40
0.0136735401916909
 40
0.0136735401916909
 40
0.0136735401916909
 10
5489.047577911804
 20
2941.479012340617
 30
0.0
 10
5489.046707015029
 20
2941.478250276912
 30
0.0
 10
5489.045636896573
 20
2941.477758501065
 30
0.0
 10
5489.043359661134
 20
2941.47742420564
 30
0.0
 10
5489.042181385638
 20
2941.477593866154
 30
0.0
 10
5489.040105638731
 20
2941.478537615025
 30
0.0
 10
5489.039197239924
 20
2941.479322911193
 30
0.0
 10
5489.037963192789
 20
2941.481241931325
 30
0.0
 10
5489.037626798923
 20
2941.482383732034
 30
0.0
 10
5489.037626798923
 20
2941.483527726203
 30
0.0
  0
LINE
  5
17C2
330
1F
100
AcDbEntity
  8
SANINDUSA
100
AcDbLine
 10
5488.759915074641
 20
2941.621946413879
 30
0.0
 11
5488.760457730229
 21
2941.621946413879
 31
0.0
  0
LINE
  5
17C4
330
1F
100
AcDbEntity
  8
SANINDUSA
100
AcDbLine
 10
5488.721757522161
 20
2941.621946413879
 30
0.0
 11
5488.759915074641
 21
2941.621946413879
 31
0.0
  0
LINE
  5
17C9
330
1F
100
AcDbEntity
  8
SANINDUSA
100
AcDbLine
 10
5488.732368728454
 20
2941.525121408858
 30
0.0
 11
5488.692127844627
 21
2941.575082789519
 31
0.0
  0
ARC
  5
17CB
330
1F
100
AcDbEntity
  8
SANINDUSA
100
AcDbCircle
 10
5488.688233847922
 20
2941.571946413853
 30
0.0
 40
0.005
100
AcDbArc
 50
38.84936023864671
 51
90.0
  0
SPLINE
  5
17CD
330
1F
100
AcDbEntity
  8
SANINDUSA
100
AcDbSpline
210
0.0
220
0.0
230
1.0
 70
     8
 71
     3
 72
     9
 73
     5
 74
     0
 42
0.0000000001
 43
0.0000000001
 40
0.0
 40
0.0
 40
0.0
 40
0.0
 40
0.006995969121508
 40
1.0
 40
1.0
 40
1.0
 40
1.0
 10
5488.720163068111
 20
2941.630847733812
 30
0.0
 10
5488.720147769182
 20
2941.630853679554
 30
0.0
 10
5488.717960948513
 20
2941.631703560627
 30
0.0
 10
5488.715798914358
 20
2941.632618618465
 30
0.0
 10
5488.713652005728
 20
2941.633527274587
 30
0.0
  0
SPLINE
  5
17CE
330
1F
100
AcDbEntity
  8
SANINDUSA
100
AcDbSpline
210
0.0
220
0.0
230
1.0
 70
     8
 71
     3
 72
    10
 73
     6
 74
     0
 42
0.0000000001
 43
0.0000000001
 40
0.0
 40
0.0
 40
0.0
 40
0.0
 40
0.3380506549756036
 40
0.6763036364470162
 40
1.0
 40
1.0
 40
1.0
 40
1.0
 10
5488.720163068111
 20
2941.630847733812
 30
0.0
 10
5488.723670757102
 20
2941.62956299945
 30
0.0
 10
5488.730688234468
 20
2941.6269927618
 30
0.0
 10
5488.741204402039
 20
2941.624009862623
 30
0.0
 10
5488.748210197058
 20
2941.622624072037
 30
0.0
 10
5488.751636063988
 20
2941.621946413879
 30
0.0
  0
SPLINE
  5
17CF
330
1F
100
AcDbEntity
  8
SANINDUSA
100
AcDbSpline
210
0.0
220
0.0
230
1.0
 70
     8
 71
     3
 72
    11
 73
     7
 74
     0
 42
0.0000000001
 43
0.0000000001
 40
0.0
 40
0.0
 40
0.0
 40
0.0
 40
0.0152763623976084
 40
0.6671612134154226
 40
0.9956650832727957
 40
1.0
 40
1.0
 40
1.0
 40
1.0
 10
5488.765124133165
 20
2941.619936494617
 30
0.0
 10
5488.765218157329
 20
2941.619923274189
 30
0.0
 10
5488.769324453911
 20
2941.619345901339
 30
0.0
 10
5488.775471132036
 20
2941.61908909972
 30
0.0
 10
5488.78154634848
 20
2941.618946679872
 30
0.0
 10
5488.783600053112
 20
2941.618946417273
 30
0.0
 10
5488.783626800711
 20
2941.618946413853
 30
0.0
  0
LINE
  5
17D7
330
1F
100
AcDbEntity
  8
SANINDUSA
100
AcDbLine
 10
5488.684790155227
 20
2941.646946414718
 30
0.0
 11
5488.687164357241
 21
2941.646946414718
 31
0.0
  0
SPLINE
  5
17D9
330
1F
100
AcDbEntity
  8
SANINDUSA
100
AcDbSpline
210
0.0
220
0.0
230
1.0
 70
     8
 71
     3
 72
    11
 73
     7
 74
     0
 42
0.0000000001
 43
0.0000000001
 40
0.0
 40
0.0
 40
0.0
 40
0.0
 40
0.2051461357038524
 40
0.5283372721396808
 40
0.8651014295652167
 40
1.0
 40
1.0
 40
1.0
 40
1.0
 10
5488.68984149986
 20
2941.646169330337
 30
0.0
 10
5488.690401683758
 20
2941.64581654712
 30
0.0
 10
5488.691844392054
 20
2941.644907982493
 30
0.0
 10
5488.694751113815
 20
2941.643151713286
 30
0.0
 10
5488.697681772682
 20
2941.641467096963
 30
0.0
 10
5488.699516277192
 20
2941.640463420592
 30
0.0
 10
5488.700040957268
 20
2941.640176362702
 30
0.0
  0
SPLINE
  5
17DA
330
1F
100
AcDbEntity
  8
SANINDUSA
100
AcDbSpline
210
0.0
220
0.0
230
1.0
 70
     8
 71
     3
 72
     9
 73
     5
 74
     0
 42
0.0000000001
 43
0.0000000001
 40
0.0
 40
0.0
 40
0.0
 40
0.0
 40
0.9941770878697258
 40
1.0
 40
1.0
 40
1.0
 40
1.0
 10
5488.704917958314
 20
2941.637619491079
 30
0.0
 10
5488.703291555572
 20
2941.63845696107
 30
0.0
 10
5488.701655626961
 20
2941.639299336137
 30
0.0
 10
5488.700050304917
 20
2941.640171285417
 30
0.0
 10
5488.700040957268
 20
2941.640176362702
 30
0.0
  0
ARC
  5
17DC
330
1F
100
AcDbEntity
  8
SANINDUSA
100
AcDbCircle
 10
5488.687164371004
 20
2941.641946413853
 30
0.0
 40
0.0050000000000001
100
AcDbArc
 50
57.62730766253281
 51
90.0
  0
LINE
  5
17DE
330
1F
100
AcDbEntity
  8
SANINDUSA
100
AcDbLine
 10
5488.713652005728
 20
2941.633527274587
 30
0.0
 11
5488.704917958314
 21
2941.637619491079
 31
0.0
  0
ELLIPSE
  5
17E3
330
1F
100
AcDbEntity
  8
SANINDUSA
100
AcDbEllipse
 10
5489.005839507584
 20
2941.497840479082
 30
0.0
 11
-0.0180836173737203
 21
0.102521413984573
 31
0.0
210
0.0
220
0.0
230
1.0
 40
0.0384118341599532
 41
0.6826899202113746
 42
1.132597711225475
  0
ELLIPSE
  5
17E4
330
1F
100
AcDbEntity
  8
SANINDUSA
100
AcDbEllipse
 10
5489.063025439967
 20
2941.497840479082
 30
0.0
 11
0.1178280588665814
 21
0.102545013652194
 31
0.0
210
0.0
220
0.0
230
0.9999999999999998
 40
0.0254662841421823
 41
5.24458682704771
 42
5.622203638597451
  0
ARC
  5
17EF
330
1F
100
AcDbEntity
  8
SANINDUSA
100
AcDbCircle
 10
5488.342772777407
 20
2941.472651463047
 30
0.0
 40
0.0050000236720267
100
AcDbArc
 50
86.70726247287399
 51
171.9910346527808
  0
ARC
  5
17F0
330
1F
100
AcDbEntity
  8
SANINDUSA
100
AcDbCircle
 10
5487.809559445841
 20
2941.472651461121
 30
0.0
 40
0.0050000155515499
100
AcDbArc
 50
8.002448217322873
 51
93.12911243673193
  0
LINE
  5
17F1
330
1F
100
AcDbEntity
  8
SANINDUSA
100
AcDbLine
 10
5488.343008616781
 20
2941.47764598892
 30
0.0
 11
5488.345248350715
 21
2941.477528612473
 31
0.0
  0
ARC
  5
17F2
330
1F
100
AcDbEntity
  8
SANINDUSA
100
AcDbCircle
 10
5488.345457685539
 20
2941.481523120287
 30
0.0
 40
0.0040000000520616
100
AcDbArc
 50
267.0639395078751
 51
357.0000217822404
  0
LINE
  5
17F3
330
1F
100
AcDbEntity
  8
SANINDUSA
100
AcDbLine
 10
5487.807083854294
 20
2941.477528612473
 30
0.0
 11
5487.809317419147
 21
2941.477645661094
 31
0.0
  0
ARC
  5
17F4
330
1F
100
AcDbEntity
  8
SANINDUSA
100
AcDbCircle
 10
5487.806874519493
 20
2941.48152311984
 30
0.0
 40
0.0040000000531412
100
AcDbArc
 50
182.9999933238987
 51
273.0639482121597
  0
SPLINE
  5
1807
330
1F
100
AcDbEntity
  8
SANINDUSA
100
AcDbSpline
210
0.0
220
0.0
230
1.0
 70
     8
 71
     3
 72
    14
 73
    10
 74
     0
 42
0.0000000001
 43
0.0000000001
 40
0.0
 40
0.0
 40
0.0
 40
0.0
 40
0.0661261535460679
 40
0.1619502476554
 40
0.2754064487276972
 40
0.4140780223976084
 40
0.5811633478824896
 40
0.7757509583535003
 40
1.0
 40
1.0
 40
1.0
 40
1.0
 10
5487.761194834327
 20
2941.645052052447
 30
0.0
 10
5487.760940741143
 20
2941.644707033092
 30
0.0
 10
5487.760318438891
 20
2941.643862042615
 30
0.0
 10
5487.759487212492
 20
2941.642288356131
 30
0.0
 10
5487.758643743452
 20
2941.640223624565
 30
0.0
 10
5487.75787013612
 20
2941.637661382392
 30
0.0
 10
5487.757199306545
 20
2941.634551468693
 30
0.0
 10
5487.756664708418
 20
2941.630870160113
 30
0.0
 10
5487.756518624775
 20
2941.628220220099
 30
0.0
 10
5487.756440410232
 20
2941.626801417553
 30
0.0
  0
SPLINE
  5
1808
330
1F
100
AcDbEntity
  8
SANINDUSA
100
AcDbSpline
210
0.0
220
0.0
230
1.0
 70
     8
 71
     3
 72
    12
 73
     8
 74
     0
 42
0.0000000001
 43
0.0000000001
 40
0.0
 40
0.0
 40
0.0
 40
0.0
 40
0.0495063993735081
 40
0.3401065848226045
 40
0.6244715618218409
 40
0.9149868099403024
 40
1.0
 40
1.0
 40
1.0
 40
1.0
 10
5488.395382562494
 20
2941.640741673642
 30
0.0
 10
5488.395386835749
 20
2941.640822938687
 30
0.0
 10
5488.395416192809
 20
2941.641381225648
 30
0.0
 10
5488.395175267265
 20
2941.642397015332
 30
0.0
 10
5488.39466651688
 20
2941.643704948614
 30
0.0
 10
5488.394110027756
 20
2941.644632233069
 30
0.0
 10
5488.39369664792
 20
2941.64508048741
 30
0.0
 10
5488.393603065824
 20
2941.645181964495
 30
0.0
  0
ARC
  5
1809
330
1F
100
AcDbEntity
  8
SANINDUSA
100
AcDbCircle
 10
5488.389817155134
 20
2941.641946413853
 30
0.0
 40
0.0050000000000001
100
AcDbArc
 50
40.51871555357148
 51
90.0
  0
ARC
  5
180A
330
1F
100
AcDbEntity
  8
SANINDUSA
100
AcDbCircle
 10
5487.76511337131
 20
2941.641946413853
 30
0.0
 40
0.005
100
AcDbArc
 50
90.0
 51
141.601466227382
  0
LINE
  5
180B
330
1F
100
AcDbEntity
  8
SANINDUSA
100
AcDbLine
 10
5488.397632786846
 20
2941.576946414419
 30
0.0
 11
5488.387638876056
 21
2941.576946414419
 31
0.0
  0
LINE
  5
180E
330
1F
100
AcDbEntity
  8
SANINDUSA
100
AcDbLine
 10
5488.396334627485
 20
2941.614120911219
 30
0.0
 11
5488.397632786846
 21
2941.576946414419
 31
0.0
  0
LINE
  5
180F
330
1F
100
AcDbEntity
  8
SANINDUSA
100
AcDbLine
 10
5487.764693328952
 20
2941.576946414419
 30
0.0
 11
5487.754699418163
 21
2941.576946414419
 31
0.0
  0
LINE
  5
1810
330
1F
100
AcDbEntity
  8
SANINDUSA
100
AcDbLine
 10
5487.754699418163
 20
2941.576946414419
 30
0.0
 11
5487.755997577524
 21
2941.614120911219
 31
0.0
  0
LINE
  5
1813
330
1F
100
AcDbEntity
  8
SANINDUSA
100
AcDbLine
 10
5488.387638876056
 20
2941.576946414419
 30
0.0
 11
5487.764693328952
 21
2941.576946414419
 31
0.0
  0
LINE
  5
1815
330
1F
100
AcDbEntity
  8
SANINDUSA
100
AcDbLine
 10
5487.765991488313
 20
2941.618946413853
 30
0.0
 11
5488.386340716695
 21
2941.618946413853
 31
0.0
  0
LINE
  5
1818
330
1F
100
AcDbEntity
  8
SANINDUSA
100
AcDbLine
 10
5487.760994532919
 20
2941.618946413853
 30
0.0
 11
5487.765991488313
 21
2941.618946413853
 31
0.0
  0
ARC
  5
1819
330
1F
100
AcDbEntity
  8
SANINDUSA
100
AcDbCircle
 10
5487.760994546378
 20
2941.613946413853
 30
0.0
 40
0.0050000000000001
100
AcDbArc
 50
90.0
 51
177.9999999962464
  0
LINE
  5
181A
330
1F
100
AcDbEntity
  8
SANINDUSA
100
AcDbLine
 10
5488.386340716695
 20
2941.618946413853
 30
0.0
 11
5488.391337672091
 21
2941.618946413853
 31
0.0
  0
ARC
  5
181B
330
1F
100
AcDbEntity
  8
SANINDUSA
100
AcDbCircle
 10
5488.39133765863
 20
2941.613946413853
 30
0.0
 40
0.0050000000000001
100
AcDbArc
 50
2.000000003753602
 51
90.0
  0
LINE
  5
181C
330
1F
100
AcDbEntity
  8
SANINDUSA
100
AcDbLine
 10
5487.864958280539
 20
2941.298946421006
 30
0.0
 11
5487.839021244859
 21
2941.298946421006
 31
0.0
  0
LINE
  5
181D
330
1F
100
AcDbEntity
  8
SANINDUSA
100
AcDbLine
 10
5487.839021244859
 20
2941.298946421006
 30
0.0
 11
5487.799950877047
 21
2941.576946414419
 31
0.0
  0
LINE
  5
181E
330
1F
100
AcDbEntity
  8
SANINDUSA
100
AcDbLine
 10
5488.313310960149
 20
2941.298946421006
 30
0.0
 11
5488.28737392447
 21
2941.298946421006
 31
0.0
  0
LINE
  5
181F
330
1F
100
AcDbEntity
  8
SANINDUSA
100
AcDbLine
 10
5488.352381327962
 20
2941.576946414419
 30
0.0
 11
5488.313310960149
 21
2941.298946421006
 31
0.0
  0
LINE
  5
1820
330
1F
100
AcDbEntity
  8
SANINDUSA
100
AcDbLine
 10
5487.864958280539
 20
2941.298946421006
 30
0.0
 11
5488.28737392447
 21
2941.298946421006
 31
0.0
  0
LINE
  5
1825
330
1F
100
AcDbEntity
  8
SANINDUSA
100
AcDbLine
 10
5488.354464093065
 20
2941.576946414419
 30
0.0
 11
5488.349478075122
 21
2941.481807346799
 31
0.0
  0
LINE
  5
1827
330
1F
100
AcDbEntity
  8
SANINDUSA
100
AcDbLine
 10
5487.802854129887
 20
2941.481807346799
 30
0.0
 11
5487.797868111943
 21
2941.576946414419
 31
0.0
  0
SPLINE
  5
182F
330
1F
100
AcDbEntity
  8
SANINDUSA
100
AcDbSpline
210
0.0
220
0.0
230
1.0
 70
     8
 71
     3
 72
    15
 73
    11
 74
     0
 42
0.0000000001
 43
0.0000000001
 40
0.0
 40
0.0
 40
0.0
 40
0.0
 40
0.0011530489582683
 40
0.1021724920419808
 40
0.268615104109214
 40
0.4351377955637312
 40
0.6015411353084815
 40
0.7343784190041607
 40
0.8672840008274805
 40
1.0
 40
1.0
 40
1.0
 40
1.0
 10
5488.376166114425
 20
2941.618946413853
 30
0.0
 10
5488.376171458956
 20
2941.618946416705
 30
0.0
 10
5488.376645041615
 20
2941.618946669334
 30
0.0
 10
5488.377891308339
 20
2941.619036645091
 30
0.0
 10
5488.379871984097
 20
2941.619555552698
 30
0.0
 10
5488.382002230362
 20
2941.620698710571
 30
0.0
 10
5488.383743532168
 20
2941.622282591545
 30
0.0
 10
5488.385064551369
 20
2941.624206581361
 30
0.0
 10
5488.385968915299
 20
2941.626330047058
 30
0.0
 10
5488.386100406309
 20
2941.628074706512
 30
0.0
 10
5488.386166104889
 20
2941.62894641363
 30
0.0
  0
LWPOLYLINE
  5
1838
330
1F
100
AcDbEntity
  8
SANINDUSA
100
AcDbPolyline
 90
       13
 70
   128
 43
0.0
 10
5488.395405122852
 20
2941.640737691307
 10
5488.395550409173
 20
2941.636577221908
 10
5488.395684132195
 20
2941.632748591126
 10
5488.395805964088
 20
2941.629259853968
 10
5488.395915666437
 20
2941.62611835298
 10
5488.396013000822
 20
2941.62333069683
 10
5488.396097788429
 20
2941.620902751683
 10
5488.396169820642
 20
2941.618839626908
 10
5488.396228978253
 20
2941.617145663238
 10
5488.396275112247
 20
2941.615824425238
 10
5488.396308163022
 20
2941.614878693007
 10
5488.396327981567
 20
2941.614310456318
 10
5488.396334627485
 20
2941.614120911219
  0
LINE
  5
1856
330
1F
100
AcDbEntity
  8
SANINDUSA
100
AcDbLine
 10
5488.386166104889
 20
2941.62894641363
 30
0.0
 11
5488.386166104889
 21
2941.633158249193
 31
0.0
  0
SPLINE
  5
1858
330
1F
100
AcDbEntity
  8
SANINDUSA
100
AcDbSpline
210
0.0
220
0.0
230
1.0
 70
     8
 71
     3
 72
    18
 73
    14
 74
     0
 42
0.0000000001
 43
0.0000000001
 40
0.0
 40
0.0
 40
0.0
 40
0.0
 40
0.2500000000000037
 40
0.2500000000000037
 40
0.3750000000000053
 40
0.3750000000000053
 40
0.5000000000000071
 40
0.5000000000000071
 40
0.7500000000000071
 40
0.7500000000000071
 40
0.8750000000000035
 40
0.8750000000000035
 40
1.0
 40
1.0
 40
1.0
 40
1.0
 10
5488.386166102504
 20
2941.633158249255
 30
0.0
 10
5488.386166102504
 20
2941.63399200371
 30
0.0
 10
5488.386069680785
 20
2941.634832757915
 30
0.0
 10
5488.38578958058
 20
2941.636103471316
 30
0.0
 10
5488.385673380549
 20
2941.636528624421
 30
0.0
 10
5488.385393577064
 20
2941.637381730061
 30
0.0
 10
5488.385230500216
 20
2941.637807763712
 30
0.0
 10
5488.384672344151
 20
2941.639073804473
 30
0.0
 10
5488.384209481425
 20
2941.639906066122
 30
0.0
 10
5488.383339265693
 20
2941.641123130609
 30
0.0
 10
5488.383018617958
 20
2941.641524444515
 30
0.0
 10
5488.382304117834
 20
2941.642307059007
 30
0.0
 10
5488.381914083946
 20
2941.64268467299
 30
0.0
 10
5488.381480233575
 20
2941.643042658494
 30
0.0
  0
LWPOLYLINE
  5
1861
330
1F
100
AcDbEntity
  8
SANINDUSA
100
AcDbPolyline
 90
        9
 70
   128
 43
0.0
 10
5487.755997577524
 20
2941.614120911219
 10
5487.756004581069
 20
2941.614321261522
 10
5487.756025383091
 20
2941.61491695919
 10
5487.756059447145
 20
2941.615892092342
 10
5487.756105849361
 20
2941.617220611189
 10
5487.75616333804
 20
2941.618867026804
 10
5487.756230393266
 20
2941.620787357789
 10
5487.756305226898
 20
2941.622930305888
 10
5487.75638584218
 20
2941.625238625676
  0
LINE
  5
1869
330
1F
100
AcDbEntity
  8
SANINDUSA
100
AcDbLine
 10
5487.75638584218
 20
2941.625238625676
 30
0.0
 11
5487.756440410232
 21
2941.626801417553
 31
0.0
  0
LWPOLYLINE
  5
186B
330
1F
100
AcDbEntity
  8
SANINDUSA
100
AcDbPolyline
 90
        9
 70
   128
 43
0.0
 10
5488.381480226134
 20
2941.643042658799
 10
5488.381618210888
 20
2941.643846261658
 10
5488.381827751016
 20
2941.644595913001
 10
5488.382102886056
 20
2941.645270322793
 10
5488.382435777998
 20
2941.645850335591
 10
5488.382816979504
 20
2941.646319485613
 10
5488.38323567233
 20
2941.646664443769
 10
5488.383679995155
 20
2941.646875418135
 10
5488.384137311792
 20
2941.646946414718
  0
LINE
  5
186D
330
1F
100
AcDbEntity
  8
SANINDUSA
100
AcDbLine
 10
5488.376166114425
 20
2941.646946414718
 30
0.0
 11
5488.384137311792
 21
2941.646946414718
 31
0.0
  0
LINE
  5
186E
330
1F
100
AcDbEntity
  8
SANINDUSA
100
AcDbLine
 10
5488.384137311792
 20
2941.646946414718
 30
0.0
 11
5488.389817157602
 21
2941.646946414718
 31
0.0
  0
LINE
  5
1871
330
1F
100
AcDbEntity
  8
SANINDUSA
100
AcDbLine
 10
5487.765113362884
 20
2941.646946414718
 30
0.0
 11
5488.376166114425
 21
2941.646946414718
 31
0.0
  0
SPLINE
  5
1879
330
1F
100
AcDbEntity
  8
SANINDUSA
100
AcDbSpline
210
0.0
220
0.0
230
1.0
 70
    24
 71
     3
 72
    10
 73
     6
 74
     0
 42
0.0000000001
 43
0.0000000001
 40
0.0
 40
0.0
 40
0.0
 40
0.0
 40
0.4759944494379267
 40
0.9520979455062485
 40
1.0
 40
1.0
 40
1.0
 40
1.0
 10
5488.349478075122
 20
2941.481807346799
 30
0.0
 10
5488.349471404486
 20
2941.481680349907
 30
0.0
 10
5488.349458061683
 20
2941.481426327031
 30
0.0
 10
5488.349450871456
 20
2941.481287192162
 30
0.0
 10
5488.349452559072
 20
2941.481320587377
 30
0.0
 10
5488.349452713347
 20
2941.481323640206
 30
0.0
  0
SPLINE
  5
187B
330
1F
100
AcDbEntity
  8
SANINDUSA
100
AcDbSpline
210
0.0
220
0.0
230
1.0
 70
    24
 71
     3
 72
    10
 73
     6
 74
     0
 42
0.0000000001
 43
0.0000000001
 40
0.0
 40
0.0
 40
0.0
 40
0.0
 40
0.0478609618386049
 40
0.5239837142194578
 40
1.0
 40
1.0
 40
1.0
 40
1.0
 10
5487.802879491663
 20
2941.481323625305
 30
0.0
 10
5487.802879645917
 20
2941.481320578074
 30
0.0
 10
5487.8028813347
 20
2941.481287216875
 30
0.0
 10
5487.802874142692
 20
2941.481426320529
 30
0.0
 10
5487.802860800324
 20
2941.481680347511
 30
0.0
 10
5487.802854129887
 20
2941.481807346799
 30
0.0
  0
SPLINE
  5
188F
330
1F
100
AcDbEntity
  8
SANINDUSA
100
AcDbSpline
210
0.0
220
0.0
230
1.0
 70
     8
 71
     3
 72
    18
 73
    14
 74
     0
 42
0.0000000001
 43
0.0000000001
 40
0.0
 40
0.0
 40
0.0
 40
0.0
 40
0.2500000000000037
 40
0.2500000000000037
 40
0.3750000000000053
 40
0.3750000000000053
 40
0.5000000000000071
 40
0.5000000000000071
 40
0.7500000000000071
 40
0.7500000000000071
 40
0.8750000000000035
 40
0.8750000000000035
 40
1.0
 40
1.0
 40
1.0
 40
1.0
 10
5487.516597750492
 20
2941.804547518587
 30
0.0
 10
5487.516597750492
 20
2941.80560720746
 30
0.0
 10
5487.516501328773
 20
2941.806647364797
 30
0.0
 10
5487.516221228568
 20
2941.808180366685
 30
0.0
 10
5487.516105028537
 20
2941.808686804093
 30
0.0
 10
5487.515825225051
 20
2941.809690602738
 30
0.0
 10
5487.515662148203
 20
2941.810185677458
 30
0.0
 10
5487.515103992138
 20
2941.811639803131
 30
0.0
 10
5487.514641129411
 20
2941.812572749363
 30
0.0
 10
5487.513770913681
 20
2941.813909061856
 30
0.0
 10
5487.513450265945
 20
2941.814344891698
 30
0.0
 10
5487.512735765822
 20
2941.815186492405
 30
0.0
 10
5487.512345731933
 20
2941.815588308151
 30
0.0
 10
5487.511911881561
 20
2941.815965995184
 30
0.0
  0
ARC
  5
1893
330
1F
100
AcDbEntity
  8
SANINDUSA
100
AcDbCircle
 10
5487.515788477351
 20
2941.817785534819
 30
0.0
 40
0.0100000067067314
100
AcDbArc
 50
26.96981058547224
 51
89.96508631487172
  0
LINE
  5
189F
330
1F
100
AcDbEntity
  8
SANINDUSA
100
AcDbLine
 10
5486.897400920696
 20
2941.82778552828
 30
0.0
 11
5487.515794580287
 21
2941.82778552828
 31
0.0
  0
ELLIPSE
  5
18A3
330
1F
100
AcDbEntity
  8
SANINDUSA
100
AcDbEllipse
 10
5487.506597750492
 20
2941.806902300194
 30
0.0
 11
0.0
 21
-0.0106995135747059
 31
0.0
210
0.0
220
0.0
230
1.0
 40
0.9346219274528943
 41
2.581324814306894
 42
3.141592653589793
  0
LINE
  5
18A4
330
1F
100
AcDbEntity
  8
SANINDUSA
100
AcDbLine
 10
5487.506597762412
 20
2941.8176018065
 30
0.0
 11
5486.895545010871
 21
2941.8176018065
 31
0.0
  0
ARC
  5
18A6
330
1F
100
AcDbEntity
  8
SANINDUSA
100
AcDbCircle
 10
5486.897407023633
 20
2941.817785534819
 30
0.0
 40
0.0100000062676198
100
AcDbArc
 50
90.03491368512829
 51
111.8148797419822
  0
LWPOLYLINE
  5
18A8
330
1F
100
AcDbEntity
  8
SANINDUSA
100
AcDbPolyline
 90
       11
 70
   128
 43
0.0
 10
5486.895545010871
 20
2941.8176018065
 10
5486.894503002472
 20
2941.817977583982
 10
5486.893534069366
 20
2941.818665630199
 10
5486.892706101246
 20
2941.819617724993
 10
5486.892077182837
 20
2941.820767081358
 10
5486.891691421575
 20
2941.822033143618
 10
5486.891575848169
 20
2941.823327130653
 10
5486.891738568849
 20
2941.824558294393
 10
5486.892168169326
 20
2941.825640357114
 10
5486.892834519452
 20
2941.826497442104
 10
5486.893690918989
 20
2941.827069438078
  0
SPLINE
  5
18A9
330
1F
100
AcDbEntity
  8
SANINDUSA
100
AcDbSpline
210
0.0
220
0.0
230
1.0
 70
     8
 71
     3
 72
    10
 73
     6
 74
     0
 42
0.0000000001
 43
0.0000000001
 40
0.0
 40
0.0
 40
0.0
 40
0.0
 40
0.4032271749312497
 40
0.8207619671965728
 40
1.0
 40
1.0
 40
1.0
 40
1.0
 10
5487.524700944728
 20
2941.822320736029
 30
0.0
 10
5487.524962435437
 20
2941.821746999358
 30
0.0
 10
5487.525494695271
 20
2941.820579168251
 30
0.0
 10
5487.525790627793
 20
2941.819040199014
 30
0.0
 10
5487.525826113013
 20
2941.818117158208
 30
0.0
 10
5487.525836770839
 20
2941.817839927055
 30
0.0
  0
ELLIPSE
  5
18AD
330
1F
100
AcDbEntity
  8
SANINDUSA
100
AcDbEllipse
 10
5486.896871352534
 20
2941.818321205917
 30
0.0
 11
0.0094082815556611
 21
0.0037377724697842
 31
0.0
210
0.0
220
0.0
230
1.0
 40
0.9194175093598657
 41
1.543700786675213
 42
2.733146917083419
  0
ELLIPSE
  5
18AF
330
1F
100
AcDbEntity
  8
SANINDUSA
100
AcDbEllipse
 10
5487.520474909977
 20
2941.72359480796
 30
0.0
 11
0.0
 21
-0.1801607142857142
 31
0.0
210
0.0
220
0.0
230
1.0
 40
0.0349207694917476
 41
1.570796326794896
 42
2.12130046299742
  0
ELLIPSE
  5
18B7
330
1F
100
AcDbEntity
  8
SANINDUSA
100
AcDbEllipse
 10
5487.518058327367
 20
2941.820055384836
 30
0.0
 11
-0.007079685445992
 21
-0.0070796854459917
 31
0.0
210
0.0
220
0.0
230
1.0
 40
0.998782765958717
 41
2.356803477777948
 42
3.926381829401691
  0
ELLIPSE
  5
18BA
330
1F
100
AcDbEntity
  8
SANINDUSA
100
AcDbEllipse
 10
5486.895137173616
 20
2941.820055384836
 30
0.0
 11
0.007079685445992
 21
-0.0070796854459917
 31
0.0
210
0.0
220
0.0
230
1.0
 40
0.9987827659587269
 41
2.356803477777928
 42
3.926381829401646
  0
LINE
  5
18BD
330
1F
100
AcDbEntity
  8
SANINDUSA
100
AcDbLine
 10
5486.895124976939
 20
2941.830061472036
 30
0.0
 11
5486.898597752161
 21
2941.830061472036
 31
0.0
  0
LINE
  5
18BE
330
1F
100
AcDbEntity
  8
SANINDUSA
100
AcDbLine
 10
5486.898597752161
 20
2941.830061472036
 30
0.0
 11
5487.514597748823
 21
2941.830061472036
 31
0.0
  0
LINE
  5
18BF
330
1F
100
AcDbEntity
  8
SANINDUSA
100
AcDbLine
 10
5487.514597748823
 20
2941.830061472036
 30
0.0
 11
5487.518070524044
 21
2941.830061472036
 31
0.0
  0
LINE
  5
18C0
330
1F
100
AcDbEntity
  8
SANINDUSA
100
AcDbLine
 10
5487.528064434833
 20
2941.820067561247
 30
0.0
 11
5487.528064434833
 21
2941.227122045138
 31
0.0
  0
LINE
  5
18C3
330
1F
100
AcDbEntity
  8
SANINDUSA
100
AcDbLine
 10
5487.516597752875
 20
2941.795565790512
 30
0.0
 11
5487.516597752875
 21
2941.804547525026
 31
0.0
  0
SPLINE
  5
18C5
330
1F
100
AcDbEntity
  8
SANINDUSA
100
AcDbSpline
210
0.0
220
0.0
230
1.0
 70
     8
 71
     3
 72
    15
 73
    11
 74
     0
 42
0.0000000001
 43
0.0000000001
 40
0.0
 40
0.0
 40
0.0
 40
0.0
 40
0.0011530920451345
 40
0.1021763099999748
 40
0.3512171796135282
 40
0.4763849508953088
 40
0.6015469201423276
 40
0.8000212152274919
 40
0.900019983636252
 40
1.0
 40
1.0
 40
1.0
 40
1.0
 10
5487.506597762412
 20
2941.723594806172
 30
0.0
 10
5487.506603106934
 20
2941.723622616713
 30
0.0
 10
5487.507076688854
 20
2941.726086928639
 30
0.0
 10
5487.508706808721
 20
2941.734557071259
 30
0.0
 10
5487.510859120799
 20
2941.746018399809
 30
0.0
 10
5487.512901741257
 20
2941.758038322925
 30
0.0
 10
5487.51454449214
 20
2941.768823934238
 30
0.0
 10
5487.515757639521
 20
2941.778975119295
 30
0.0
 10
5487.516478953077
 20
2941.788471948939
 30
0.0
 10
5487.516558155419
 20
2941.793201324479
 30
0.0
 10
5487.516597752875
 20
2941.795565790512
 30
0.0
  0
LINE
  5
18CC
330
1F
100
AcDbEntity
  8
SANINDUSA
100
AcDbLine
 10
5486.886817490167
 20
2941.817907846548
 30
0.0
 11
5486.88687205822
 21
2941.81832659898
 31
0.0
  0
LINE
  5
18CD
330
1F
100
AcDbEntity
  8
SANINDUSA
100
AcDbLine
 10
5486.88513106615
 20
2941.227122045138
 30
0.0
 11
5486.88513106615
 21
2941.820067561247
 31
0.0
  0
ELLIPSE
  5
18CE
330
1F
100
AcDbEntity
  8
SANINDUSA
100
AcDbEllipse
 10
5486.886953051773
 20
2941.803418960692
 30
0.0
 11
0.0
 21
-0.015
 31
0.0
210
0.0
220
0.0
230
1.0
 40
0.0349207694917482
 41
3.403392041389301
 42
4.712388980384689
  0
LINE
  5
18CF
330
1F
100
AcDbEntity
  8
SANINDUSA
100
AcDbLine
 10
5486.886429225511
 20
2941.228420204498
 30
0.0
 11
5486.886429225511
 21
2941.803418970682
 31
0.0
  0
ARC
  5
18D6
330
1F
100
AcDbEntity
  8
SANINDUSA
100
AcDbCircle
 10
5487.455097750491
 20
2941.785338867776
 30
0.0
 40
0.0036122796369358
100
AcDbArc
 50
342.5423968656327
 51
162.5423968656326
  0
LINE
  5
18D9
330
1F
100
AcDbEntity
  8
SANINDUSA
100
AcDbLine
 10
5487.446543639011
 20
2941.746097615935
 30
0.0
 11
5487.458543633527
 21
2941.784255183317
 31
0.0
  0
LINE
  5
18DE
330
1F
100
AcDbEntity
  8
SANINDUSA
100
AcDbLine
 10
5487.451651861377
 20
2941.786422557213
 30
0.0
 11
5487.439651851959
 21
2941.748264989831
 31
0.0
  0
ARC
  5
18DF
330
1F
100
AcDbEntity
  8
SANINDUSA
100
AcDbCircle
 10
5487.443097750491
 20
2941.747181299719
 30
0.0
 40
0.003612279636936
100
AcDbArc
 50
162.5423968656326
 51
342.5423968656327
  0
ARC
  5
18E2
330
1F
100
AcDbEntity
  8
SANINDUSA
100
AcDbCircle
 10
5487.435097750491
 20
2941.785338867776
 30
0.0
 40
0.0036122796369358
100
AcDbArc
 50
342.5423968656327
 51
162.5423968656326
  0
LINE
  5
18E5
330
1F
100
AcDbEntity
  8
SANINDUSA
100
AcDbLine
 10
5487.426543643183
 20
2941.746097615935
 30
0.0
 11
5487.438543652601
 21
2941.784255183317
 31
0.0
  0
LINE
  5
18EA
330
1F
100
AcDbEntity
  8
SANINDUSA
100
AcDbLine
 10
5487.431651850648
 20
2941.786422557213
 30
0.0
 11
5487.419651856131
 21
2941.748264989831
 31
0.0
  0
ARC
  5
18EB
330
1F
100
AcDbEntity
  8
SANINDUSA
100
AcDbCircle
 10
5487.423097750491
 20
2941.747181299719
 30
0.0
 40
0.003612279636936
100
AcDbArc
 50
162.5423968656326
 51
342.5423968656327
  0
ARC
  5
18EE
330
1F
100
AcDbEntity
  8
SANINDUSA
100
AcDbCircle
 10
5487.415097750492
 20
2941.785338867776
 30
0.0
 40
0.0036122796369358
100
AcDbArc
 50
342.5423968656327
 51
162.5423968656326
  0
LINE
  5
18F1
330
1F
100
AcDbEntity
  8
SANINDUSA
100
AcDbLine
 10
5487.406543647356
 20
2941.746097615935
 30
0.0
 11
5487.418543641872
 21
2941.784255183317
 31
0.0
  0
LINE
  5
18F6
330
1F
100
AcDbEntity
  8
SANINDUSA
100
AcDbLine
 10
5487.41165185482
 20
2941.786422557213
 30
0.0
 11
5487.399651860304
 21
2941.748264989831
 31
0.0
  0
ARC
  5
18F7
330
1F
100
AcDbEntity
  8
SANINDUSA
100
AcDbCircle
 10
5487.403097750491
 20
2941.747181299719
 30
0.0
 40
0.003612279636936
100
AcDbArc
 50
162.5423968656326
 51
342.5423968656327
  0
ARC
  5
18FA
330
1F
100
AcDbEntity
  8
SANINDUSA
100
AcDbCircle
 10
5487.395097750492
 20
2941.785338867776
 30
0.0
 40
0.0036122796369358
100
AcDbArc
 50
342.5423968656327
 51
162.5423968656326
  0
LINE
  5
18FD
330
1F
100
AcDbEntity
  8
SANINDUSA
100
AcDbLine
 10
5487.386543651528
 20
2941.746097615935
 30
0.0
 11
5487.398543646044
 21
2941.784255183317
 31
0.0
  0
LINE
  5
1902
330
1F
100
AcDbEntity
  8
SANINDUSA
100
AcDbLine
 10
5487.391651858992
 20
2941.786422557213
 30
0.0
 11
5487.379651849574
 21
2941.748264989831
 31
0.0
  0
ARC
  5
1903
330
1F
100
AcDbEntity
  8
SANINDUSA
100
AcDbCircle
 10
5487.383097750491
 20
2941.747181299719
 30
0.0
 40
0.0036122796369358
100
AcDbArc
 50
162.5423968656326
 51
342.5423968656327
  0
ARC
  5
1906
330
1F
100
AcDbEntity
  8
SANINDUSA
100
AcDbCircle
 10
5487.476597750491
 20
2943.826451950817
 30
0.0
 40
2.119055095718255
100
AcDbArc
 50
255.9796150266596
 51
269.4161573403682
  0
ARC
  5
1908
330
1F
100
AcDbEntity
  8
SANINDUSA
100
AcDbCircle
 10
5486.958965200944
 20
2941.751034930889
 30
0.0
 40
0.0199485521226519
100
AcDbArc
 50
77.68361427490839
 51
180.4940121947651
  0
ARC
  5
192A
330
1F
100
AcDbEntity
  8
SANINDUSA
100
AcDbCircle
 10
5487.454375445521
 20
2941.687711280485
 30
0.0
 40
0.0198055994141981
100
AcDbArc
 50
359.0159450548654
 51
88.17846386529179
  0
ARC
  5
192E
330
1F
100
AcDbEntity
  8
SANINDUSA
100
AcDbCircle
 10
5487.516766258896
 20
2941.228426299556
 30
0.0
 40
0.0100000037131794
100
AcDbArc
 50
270.0349136851283
 51
359.9650863409427
  0
LINE
  5
1937
330
1F
100
AcDbEntity
  8
SANINDUSA
100
AcDbLine
 10
5487.516772364682
 20
2941.218426293709
 30
0.0
 11
5486.8964231363
 21
2941.218426293709
 31
0.0
  0
LINE
  5
193A
330
1F
100
AcDbEntity
  8
SANINDUSA
100
AcDbLine
 10
5487.474178110666
 20
2941.520626992468
 30
0.0
 11
5487.474178110666
 21
2941.687371141292
 31
0.0
  0
LINE
  5
193D
330
1F
100
AcDbEntity
  8
SANINDUSA
100
AcDbLine
 10
5487.474178110666
 20
2941.319878912546
 30
0.0
 11
5487.474178110666
 21
2941.324621236898
 31
0.0
  0
ARC
  5
1940
330
1F
100
AcDbEntity
  8
SANINDUSA
100
AcDbCircle
 10
5487.454132546186
 20
2941.320240842063
 30
0.0
 40
0.0200488315928713
100
AcDbArc
 50
269.8508043457825
 51
358.9656175196034
  0
LINE
  5
1944
330
1F
100
AcDbEntity
  8
SANINDUSA
100
AcDbLine
 10
5486.959115167564
 20
2941.300192079522
 30
0.0
 11
5487.454080333418
 21
2941.300192079522
 31
0.0
  0
ARC
  5
1946
330
1F
100
AcDbEntity
  8
SANINDUSA
100
AcDbCircle
 10
5486.959062982794
 20
2941.320240871729
 30
0.0
 40
0.0200488601224727
100
AcDbArc
 50
181.0344658183214
 51
270.1491341639735
  0
LINE
  5
1949
330
1F
100
AcDbEntity
  8
SANINDUSA
100
AcDbLine
 10
5486.939017390318
 20
2941.75086294768
 30
0.0
 11
5486.939017390318
 21
2941.520626992468
 31
0.0
  0
LINE
  5
194D
330
1F
100
AcDbEntity
  8
SANINDUSA
100
AcDbLine
 10
5486.939017390318
 20
2941.319878912546
 30
0.0
 11
5486.939017390318
 21
2941.324621236898
 31
0.0
  0
ARC
  5
194E
330
1F
100
AcDbEntity
  8
SANINDUSA
100
AcDbCircle
 10
5486.896429242086
 20
2941.228426299556
 30
0.0
 40
0.0100000037131794
100
AcDbArc
 50
180.0349136590573
 51
269.9650863148717
  0
ELLIPSE
  5
1950
330
1F
100
AcDbEntity
  8
SANINDUSA
100
AcDbEllipse
 10
5487.518058327367
 20
2941.227134231084
 30
0.0
 11
-0.007079685445992
 21
0.0070796854459917
 31
0.0
210
0.0
220
0.0
230
1.0
 40
0.9987827659586969
 41
2.356803477777898
 42
3.926381829401547
  0
ELLIPSE
  5
1952
330
1F
100
AcDbEntity
  8
SANINDUSA
100
AcDbEllipse
 10
5486.895137173616
 20
2941.227134231084
 30
0.0
 11
0.007079685445992
 21
0.0070796854459917
 31
0.0
210
0.0
220
0.0
230
1.0
 40
0.998782765958777
 41
2.356803477778092
 42
3.926381829401646
  0
LINE
  5
1954
330
1F
100
AcDbEntity
  8
SANINDUSA
100
AcDbLine
 10
5487.518070524044
 20
2941.217128134347
 30
0.0
 11
5486.895124976939
 21
2941.217128134347
 31
0.0
  0
SPLINE
  5
1957
330
1F
100
AcDbEntity
  8
SANINDUSA
100
AcDbSpline
210
0.0
220
0.0
230
1.0
 70
     8
 71
     3
 72
    12
 73
     8
 74
     0
 42
0.0000000001
 43
0.0000000001
 40
0.0
 40
0.0
 40
0.0
 40
0.0
 40
0.0357681520485374
 40
0.2745721606594876
 40
0.5151512689909507
 40
0.7573697082160561
 40
0.9999999999999998
 40
0.9999999999999998
 40
0.9999999999999998
 40
0.9999999999999998
 10
5487.418104206629
 20
2941.68465239463
 30
0.0
 10
5487.418187055534
 20
2941.684650472867
 30
0.0
 10
5487.418823040393
 20
2941.684635720568
 30
0.0
 10
5487.420008549652
 20
2941.684630945368
 30
0.0
 10
5487.421416236146
 20
2941.684677254567
 30
0.0
 10
5487.422474138785
 20
2941.684770043072
 30
0.0
 10
5487.422738428603
 20
2941.684859720155
 30
0.0
 10
5487.422870685763
 20
2941.684904596784
 30
0.0
  0
SPLINE
  5
1958
330
1F
100
AcDbEntity
  8
SANINDUSA
100
AcDbSpline
210
0.0
220
0.0
230
1.0
 70
     8
 71
     3
 72
    19
 73
    15
 74
     0
 42
0.0000000001
 43
0.0000000001
 40
0.0
 40
0.0
 40
0.0
 40
0.0
 40
0.0960238868565314
 40
0.1920559519482635
 40
0.2880749018645258
 40
0.3600694621078075
 40
0.4320683345148259
 40
0.5265519206183768
 40
0.6210436766410064
 40
0.7155271843354938
 40
0.7866035926258498
 40
0.8576832376474529
 40
0.9288415494876861
 40
1.0
 40
1.0
 40
1.0
 40
1.0
 10
5486.998813261695
 20
2941.737835994937
 30
0.0
 10
5487.012028174529
 20
2941.734851458804
 30
0.0
 10
5487.038459125693
 20
2941.728882132349
 30
0.0
 10
5487.07831403772
 20
2941.720890805863
 30
0.0
 10
5487.114978273656
 20
2941.714228103183
 30
0.0
 10
5487.148421438494
 20
2941.708800251375
 30
0.0
 10
5487.181724389952
 20
2941.703902723398
 30
0.0
 10
5487.21825146546
 20
2941.699118556815
 30
0.0
 10
5487.258015870636
 20
2941.694669988449
 30
0.0
 10
5487.294565541455
 20
2941.691257881735
 30
0.0
 10
5487.327872907244
 20
2941.688729287266
 30
0.0
 10
5487.357919942851
 20
2941.686924351225
 30
0.0
 10
5487.387997620606
 20
2941.685517624691
 30
0.0
 10
5487.408068671435
 20
2941.684940804838
 30
0.0
 10
5487.418104206629
 20
2941.68465239463
 30
0.0
  0
SPLINE
  5
1959
330
1F
100
AcDbEntity
  8
SANINDUSA
100
AcDbSpline
210
0.0
220
0.0
230
1.0
 70
     8
 71
     3
 72
    14
 73
    10
 74
     0
 42
0.0000000001
 43
0.0000000001
 40
0.0
 40
0.0
 40
0.0
 40
0.0
 40
0.25
 40
0.25
 40
0.5
 40
0.5
 40
0.75
 40
0.75
 40
1.0
 40
1.0
 40
1.0
 40
1.0
 10
5486.994011244028
 20
2941.73933044263
 30
0.0
 10
5486.99409434132
 20
2941.739257712027
 30
0.0
 10
5486.994277196095
 20
2941.739165155492
 30
0.0
 10
5486.994835473356
 20
2941.738941938139
 30
0.0
 10
5486.995196176076
 20
2941.73881728495
 30
0.0
 10
5486.996071789296
 20
2941.738544678352
 30
0.0
 10
5486.996564865279
 20
2941.738403517743
 30
0.0
 10
5486.997654865406
 20
2941.738113688587
 30
0.0
 10
5486.998223211212
 20
2941.737972595961
 30
0.0
 10
5486.998813264934
 20
2941.737835998134
 30
0.0
  0
SPLINE
  5
195F
330
1F
100
AcDbEntity
  8
SANINDUSA
100
AcDbSpline
210
0.0
220
0.0
230
1.0
 70
     8
 71
     3
 72
    22
 73
    18
 74
     0
 42
0.0000000001
 43
0.0000000001
 40
0.0
 40
0.0
 40
0.0
 40
0.0
 40
0.125
 40
0.125
 40
0.25
 40
0.25
 40
0.375
 40
0.375
 40
0.5
 40
0.5
 40
0.625
 40
0.625
 40
0.75
 40
0.75
 40
0.875
 40
0.875
 40
1.0
 40
1.0
 40
1.0
 40
1.0
 10
5487.422870680353
 20
2941.684904593413
 30
0.0
 10
5487.423729458889
 20
2941.684872720059
 30
0.0
 10
5487.42461701944
 20
2941.684764348757
 30
0.0
 10
5487.426409065989
 20
2941.684369311219
 30
0.0
 10
5487.42731337257
 20
2941.684082388933
 30
0.0
 10
5487.429085881338
 20
2941.68331996507
 30
0.0
 10
5487.42995375086
 20
2941.682844327985
 30
0.0
 10
5487.431595799486
 20
2941.68171606599
 30
0.0
 10
5487.432369592539
 20
2941.681063521534
 30
0.0
 10
5487.433772600609
 20
2941.679616040398
 30
0.0
 10
5487.434401531028
 20
2941.678821397334
 30
0.0
 10
5487.435481290252
 20
2941.67714157461
 30
0.0
 10
5487.435932048847
 20
2941.676256785218
 30
0.0
 10
5487.436644972015
 20
2941.674454993007
 30
0.0
 10
5487.436907279636
 20
2941.67353832132
 30
0.0
 10
5487.437254626851
 20
2941.671726149804
 30
0.0
 10
5487.437339925414
 20
2941.670830823944
 30
0.0
 10
5487.437349931806
 20
2941.669966373305
 30
0.0
  0
SPLINE
  5
1960
330
1F
100
AcDbEntity
  8
SANINDUSA
100
AcDbSpline
210
0.0
220
0.0
230
1.0
 70
     8
 71
     3
 72
    22
 73
    18
 74
     0
 42
0.0000000001
 43
0.0000000001
 40
0.0
 40
0.0
 40
0.0
 40
0.0
 40
0.125
 40
0.125
 40
0.25
 40
0.25
 40
0.375
 40
0.375
 40
0.5
 40
0.5
 40
0.625
 40
0.625
 40
0.75
 40
0.75
 40
0.875
 40
0.875
 40
1.0
 40
1.0
 40
1.0
 40
1.0
 10
5486.994011244028
 20
2941.73933044263
 30
0.0
 10
5486.992936577475
 20
2941.73956281397
 30
0.0
 10
5486.991833987342
 20
2941.739674219598
 30
0.0
 10
5486.989627292646
 20
2941.739649609654
 30
0.0
 10
5486.988523278514
 20
2941.73951359509
 30
0.0
 10
5486.986368319588
 20
2941.739000849219
 30
0.0
 10
5486.985317463105
 20
2941.738624138924
 30
0.0
 10
5486.983320779536
 20
2941.737648606905
 30
0.0
 10
5486.982375034274
 20
2941.737049825158
 30
0.0
 10
5486.980635340628
 20
2941.735659736576
 30
0.0
 10
5486.979841463536
 20
2941.734868486707
 30
0.0
 10
5486.978444768989
 20
2941.73313256652
 30
0.0
 10
5486.977842008769
 20
2941.73218796734
 30
0.0
 10
5486.97685736487
 20
2941.730192038166
 30
0.0
 10
5486.976475521542
 20
2941.729140789965
 30
0.0
 10
5486.975951608364
 20
2941.726983529075
 30
0.0
 10
5486.975809559982
 20
2941.725877604789
 30
0.0
 10
5486.975790919694
 20
2941.724771635183
 30
0.0
  0
LINE
  5
196E
330
1F
100
AcDbEntity
  8
SANINDUSA
100
AcDbLine
 10
5487.474168484516
 20
2941.325182280519
 30
0.0
 11
5487.474168484516
 21
2941.520154988525
 31
0.0
  0
LINE
  5
196F
330
1F
100
AcDbEntity
  8
SANINDUSA
100
AcDbLine
 10
5486.939027016468
 20
2941.520154988525
 30
0.0
 11
5486.939027016468
 21
2941.325182280519
 31
0.0
  0
SPLINE
  5
1973
330
1F
100
AcDbEntity
  8
SANINDUSA
100
AcDbSpline
210
0.0
220
0.0
230
1.0
 70
     8
 71
     3
 72
    13
 73
     9
 74
     0
 42
0.0000000001
 43
0.0000000001
 40
0.0
 40
0.0
 40
0.0
 40
0.0
 40
0.0807418300136043
 40
0.2804771179751432
 40
0.4802135404658042
 40
0.7400960543198387
 40
0.870047338154206
 40
1.0
 40
1.0
 40
1.0
 40
1.0
 10
5487.437349935479
 20
2941.669966376402
 30
0.0
 10
5487.437330175531
 20
2941.661028324556
 30
0.0
 10
5487.437261534363
 20
2941.62997974637
 30
0.0
 10
5487.437299851922
 20
2941.576812055378
 30
0.0
 10
5487.437293243264
 20
2941.503815010607
 30
0.0
 10
5487.437277323437
 20
2941.438542017479
 30
0.0
 10
5487.437346323975
 20
2941.380996952238
 30
0.0
 10
5487.437418399412
 20
2941.352227140296
 30
0.0
 10
5487.437454437323
 20
2941.337842158057
 30
0.0
  0
SPLINE
  5
1984
330
1F
100
AcDbEntity
  8
SANINDUSA
100
AcDbSpline
210
0.0
220
0.0
230
1.0
 70
     8
 71
     3
 72
    26
 73
    22
 74
     0
 42
0.0000000001
 43
0.0000000001
 40
0.0
 40
0.0
 40
0.0
 40
0.0
 40
0.125
 40
0.125
 40
0.1875000000000001
 40
0.1875000000000001
 40
0.2500000000000001
 40
0.2500000000000001
 40
0.5000000000000002
 40
0.5000000000000002
 40
0.7500000000000004
 40
0.7500000000000004
 40
0.8125000000000003
 40
0.8125000000000003
 40
0.8437500000000001
 40
0.8437500000000001
 40
0.8750000000000001
 40
0.8750000000000001
 40
0.9375000000000001
 40
0.9375000000000001
 40
1.0
 40
1.0
 40
1.0
 40
1.0
 10
5486.975740976419
 20
2941.337842060731
 30
0.0
 10
5486.975783081588
 20
2941.353962853918
 30
0.0
 10
5486.975819930756
 20
2941.370083884736
 30
0.0
 10
5486.975863265143
 20
2941.394265970755
 30
0.0
 10
5486.975875701994
 20
2941.402326756876
 30
0.0
 10
5486.975894442148
 20
2941.418448606424
 30
0.0
 10
5486.97590081136
 20
2941.42650966687
 30
0.0
 10
5486.975903396247
 20
2941.466816292036
 30
0.0
 10
5486.975905008974
 20
2941.499061612748
 30
0.0
 10
5486.975904378646
 20
2941.563552428497
 30
0.0
 10
5486.97590186579
 20
2941.59579790303
 30
0.0
 10
5486.975898096623
 20
2941.636104700024
 30
0.0
 10
5486.975897314482
 20
2941.644166059185
 30
0.0
 10
5486.975896132616
 20
2941.656258097855
 30
0.0
 10
5486.975895736941
 20
2941.660288777397
 30
0.0
 10
5486.97589494645
 20
2941.668350136488
 30
0.0
 10
5486.975894956041
 20
2941.672380819425
 30
0.0
 10
5486.975888871327
 20
2941.68447281704
 30
0.0
 10
5486.975878459776
 20
2941.692534334374
 30
0.0
 10
5486.975844896091
 20
2941.708654693205
 30
0.0
 10
5486.975821790149
 20
2941.716713814038
 30
0.0
 10
5486.975790919694
 20
2941.724771635183
 30
0.0
  0
ELLIPSE
  5
198B
330
1F
100
AcDbEntity
  8
SANINDUSA
100
AcDbEllipse
 10
5487.465388843848
 20
2941.429527297166
 30
0.0
 11
0.0087585621808125
 21
-0.1047879155729294
 31
0.0
210
0.0
220
0.0
230
0.9999999999999998
 40
0.0060599385164729
 41
4.977227407808459
 42
6.311793895263058
  0
ELLIPSE
  5
198C
330
1F
100
AcDbEntity
  8
SANINDUSA
100
AcDbEllipse
 10
5487.465388843848
 20
2941.504137356041
 30
0.0
 11
-0.0086101876348437
 21
-0.0165319397916102
 31
0.0
210
0.0
220
0.0
230
1.0
 40
0.1040134189869663
 41
3.002058210070319
 42
4.336624697523763
  0
ELLIPSE
  5
198E
330
1F
100
AcDbEntity
  8
SANINDUSA
100
AcDbEllipse
 10
5486.947806657135
 20
2941.429527297166
 30
0.0
 11
-0.0087585621808131
 21
-0.1047879155729378
 31
0.0
210
0.0
220
0.0
230
0.9999999999999998
 40
0.0060599385164711
 41
6.254576719095439
 42
7.589143206550893
  0
ELLIPSE
  5
1990
330
1F
100
AcDbEntity
  8
SANINDUSA
100
AcDbEllipse
 10
5486.947806657135
 20
2941.504137356041
 30
0.0
 11
0.0086101876348434
 21
-0.0165319397916102
 31
0.0
210
0.0
220
0.0
230
0.9999999999999998
 40
0.1040134189869738
 41
1.946560609655966
 42
3.281127097111406
  0
LINE
  5
1994
330
1F
100
AcDbEntity
  8
SANINDUSA
100
AcDbLine
 10
5486.948750620193
 20
2941.459259591081
 30
0.0
 11
5486.946126942939
 21
2941.402047484197
 31
0.0
  0
LINE
  5
1997
330
1F
100
AcDbEntity
  8
SANINDUSA
100
AcDbLine
 10
5487.467068558044
 20
2941.402047484197
 30
0.0
 11
5487.46444488079
 21
2941.459259591081
 31
0.0
  0
LINE
  5
1999
330
1F
100
AcDbEntity
  8
SANINDUSA
100
AcDbLine
 10
5487.465168958015
 20
2941.505078649163
 30
0.0
 11
5487.466949080534
 21
2941.511037395351
 31
0.0
  0
LINE
  5
199D
330
1F
100
AcDbEntity
  8
SANINDUSA
100
AcDbLine
 10
5486.94624642045
 20
2941.511037395351
 30
0.0
 11
5486.948026542968
 21
2941.505078649163
 31
0.0
  0
SPLINE
  5
19AB
330
1F
100
AcDbEntity
  8
SANINDUSA
100
AcDbSpline
210
0.0
220
0.0
230
1.0
 70
     8
 71
     3
 72
    13
 73
     9
 74
     0
 42
0.0000000001
 43
0.0000000001
 40
0.0
 40
0.0
 40
0.0
 40
0.0
 40
0.1495407679736093
 40
0.2990849584317789
 40
0.5981785610818088
 40
0.7990878805250348
 40
0.8995446304515807
 40
0.9999999999999998
 40
0.9999999999999998
 40
0.9999999999999998
 40
0.9999999999999998
 10
5487.42263298244
 20
2941.322873539306
 30
0.0
 10
5487.401095999127
 20
2941.322888360772
 30
0.0
 10
5487.358021539593
 20
2941.322918004043
 30
0.0
 10
5487.27186880679
 20
2941.32290016549
 30
0.0
 10
5487.178318378767
 20
2941.322908922139
 30
0.0
 10
5487.091837804162
 20
2941.322904497896
 30
0.0
 10
5487.033965321473
 20
2941.322907888548
 30
0.0
 10
5487.005030102924
 20
2941.322885018804
 30
0.0
 10
5486.990562593049
 20
2941.32287358401
 30
0.0
  0
LINE
  5
19AD
330
1F
100
AcDbEntity
  8
SANINDUSA
100
AcDbLine
 10
5487.459982787676
 20
2941.458743943848
 30
0.0
 11
5487.467068558044
 21
2941.402047484197
 31
0.0
  0
LINE
  5
19B0
330
1F
100
AcDbEntity
  8
SANINDUSA
100
AcDbLine
 10
5486.946126942939
 20
2941.402047484197
 30
0.0
 11
5486.953212713308
 21
2941.458743943848
 31
0.0
  0
LINE
  5
19B3
330
1F
100
AcDbEntity
  8
SANINDUSA
100
AcDbLine
 10
5487.466949080534
 20
2941.511037395351
 30
0.0
 11
5487.462184583254
 21
2941.505596866846
 31
0.0
  0
LINE
  5
19B5
330
1F
100
AcDbEntity
  8
SANINDUSA
100
AcDbLine
 10
5486.95101091773
 20
2941.505596866846
 30
0.0
 11
5486.94624642045
 21
2941.511037395351
 31
0.0
  0
SPLINE
  5
19BA
330
1F
100
AcDbEntity
  8
SANINDUSA
100
AcDbSpline
210
0.0
220
0.0
230
1.0
 70
     8
 71
     3
 72
    34
 73
    30
 74
     0
 42
0.0000000001
 43
0.0000000001
 40
0.0
 40
0.0
 40
0.0
 40
0.0
 40
0.0312499999999997
 40
0.0312499999999997
 40
0.0624999999999993
 40
0.0624999999999993
 40
0.1249999999999977
 40
0.1249999999999977
 40
0.2499999999999976
 40
0.2499999999999976
 40
0.3124999999999967
 40
0.3124999999999967
 40
0.3749999999999957
 40
0.3749999999999957
 40
0.4374999999999948
 40
0.4374999999999948
 40
0.4999999999999938
 40
0.4999999999999938
 40
0.6249999999999951
 40
0.6249999999999951
 40
0.6874999999999958
 40
0.6874999999999958
 40
0.7499999999999965
 40
0.7499999999999965
 40
0.8124999999999971
 40
0.8124999999999971
 40
0.874999999999998
 40
0.874999999999998
 40
1.0
 40
1.0
 40
1.0
 40
1.0
 10
5487.465490593539
 20
2941.470177640447
 30
0.0
 10
5487.465497435689
 20
2941.47017764047
 30
0.0
 10
5487.465504388234
 20
2941.470182488791
 30
0.0
 10
5487.465518069489
 20
2941.47020157313
 30
0.0
 10
5487.465524874178
 20
2941.470215809751
 30
0.0
 10
5487.465545185993
 20
2941.470272447389
 30
0.0
 10
5487.465558594704
 20
2941.470328674764
 30
0.0
 10
5487.465598333749
 20
2941.470555080961
 30
0.0
 10
5487.465623134053
 20
2941.470775441914
 30
0.0
 10
5487.465657610661
 20
2941.471206048959
 30
0.0
 10
5487.465668650532
 20
2941.47136734678
 30
0.0
 10
5487.465689145135
 20
2941.471713845091
 30
0.0
 10
5487.46569869859
 20
2941.471900138562
 30
0.0
 10
5487.465716356776
 20
2941.472299045381
 30
0.0
 10
5487.465724517395
 20
2941.472513545834
 30
0.0
 10
5487.465739042557
 20
2941.472959701312
 30
0.0
 10
5487.465745411189
 20
2941.473190749179
 30
0.0
 10
5487.465761792839
 20
2941.47390752228
 30
0.0
 10
5487.465769167888
 20
2941.474423786245
 30
0.0
 10
5487.465774112894
 20
2941.47520032798
 30
0.0
 10
5487.465774765649
 20
2941.475460943518
 30
0.0
 10
5487.465774112645
 20
2941.475985743486
 30
0.0
 10
5487.465772784545
 20
2941.47625014229
 30
0.0
 10
5487.465768167083
 20
2941.476765367026
 30
0.0
 10
5487.465764881125
 20
2941.477018396579
 30
0.0
 10
5487.465756427202
 20
2941.477515396673
 30
0.0
 10
5487.46575120387
 20
2941.477761315296
 30
0.0
 10
5487.465732904041
 20
2941.47846713172
 30
0.0
 10
5487.465717407985
 20
2941.478896307919
 30
0.0
 10
5487.465698550039
 20
2941.479283297079
 30
0.0
  0
SPLINE
  5
19BD
330
1F
100
AcDbEntity
  8
SANINDUSA
100
AcDbSpline
210
0.0
220
0.0
230
1.0
 70
     8
 71
     3
 72
    34
 73
    30
 74
     0
 42
0.0000000001
 43
0.0000000001
 40
0.0
 40
0.0
 40
0.0
 40
0.0
 40
0.0312499999999999
 40
0.0312499999999999
 40
0.0624999999999997
 40
0.0624999999999997
 40
0.1249999999999994
 40
0.1249999999999994
 40
0.1874999999999991
 40
0.1874999999999991
 40
0.2499999999999987
 40
0.2499999999999987
 40
0.3124999999999984
 40
0.3124999999999984
 40
0.3749999999999981
 40
0.3749999999999981
 40
0.4999999999999974
 40
0.4999999999999974
 40
0.5624999999999977
 40
0.5624999999999977
 40
0.6249999999999981
 40
0.6249999999999981
 40
0.6874999999999984
 40
0.6874999999999984
 40
0.7499999999999987
 40
0.7499999999999987
 40
0.8749999999999992
 40
0.8749999999999992
 40
1.0
 40
1.0
 40
1.0
 40
1.0
 10
5486.947496950944
 20
2941.479283297079
 30
0.0
 10
5486.947492303433
 20
2941.479187921631
 30
0.0
 10
5486.947487741549
 20
2941.479087096351
 30
0.0
 10
5486.947479165875
 20
2941.478882970299
 30
0.0
 10
5486.947475085191
 20
2941.478778297715
 30
0.0
 10
5486.947463450679
 20
2941.478456569689
 30
0.0
 10
5486.947456496968
 20
2941.478231858581
 30
0.0
 10
5486.947444297075
 20
2941.477761313702
 30
0.0
 10
5486.947439073755
 20
2941.477515395344
 30
0.0
 10
5486.94743061984
 20
2941.477018395314
 30
0.0
 10
5486.947427333884
 20
2941.47676536563
 30
0.0
 10
5486.947422716425
 20
2941.476250140264
 30
0.0
 10
5486.947421388331
 20
2941.475985741032
 30
0.0
 10
5486.947420735337
 20
2941.475460941873
 30
0.0
 10
5486.947421388094
 20
2941.475200326498
 30
0.0
 10
5486.947426333113
 20
2941.474423784567
 30
0.0
 10
5486.947433708171
 20
2941.473907520738
 30
0.0
 10
5486.947450089827
 20
2941.473190747931
 30
0.0
 10
5486.947456458466
 20
2941.472959699945
 30
0.0
 10
5486.947470983657
 20
2941.472513543875
 30
0.0
 10
5486.947479144263
 20
2941.472299043979
 30
0.0
 10
5486.947496802441
 20
2941.471900137606
 30
0.0
 10
5486.947506355896
 20
2941.471713844156
 30
0.0
 10
5486.947526850525
 20
2941.471367345631
 30
0.0
 10
5486.947537890415
 20
2941.471206047701
 30
0.0
 10
5486.94757236698
 20
2941.47077544151
 30
0.0
 10
5486.947597167391
 20
2941.470555079841
 30
0.0
 10
5486.947650152689
 20
2941.470253205907
 30
0.0
 10
5486.94767723473
 20
2941.470177640447
 30
0.0
 10
5486.947704907445
 20
2941.470177640447
 30
0.0
  0
LINE
  5
19BF
330
1F
100
AcDbEntity
  8
SANINDUSA
100
AcDbLine
 10
5487.465698545284
 20
2941.479283298381
 30
0.0
 11
5487.464975958175
 21
2941.494111984052
 31
0.0
  0
LINE
  5
19C2
330
1F
100
AcDbEntity
  8
SANINDUSA
100
AcDbLine
 10
5486.948219542808
 20
2941.494111984052
 30
0.0
 11
5486.9474969557
 21
2941.479283298381
 31
0.0
  0
SPLINE
  5
19C4
330
1F
100
AcDbEntity
  8
SANINDUSA
100
AcDbSpline
210
0.0
220
0.0
230
1.0
 70
     8
 71
     3
 72
    40
 73
    36
 74
     0
 42
0.0000000001
 43
0.0000000001
 40
0.0
 40
0.0
 40
0.0
 40
0.0
 40
0.0312500000000006
 40
0.0312500000000006
 40
0.0625000000000012
 40
0.0625000000000012
 40
0.1250000000000019
 40
0.1250000000000019
 40
0.1875000000000025
 40
0.1875000000000025
 40
0.2500000000000031
 40
0.2500000000000031
 40
0.3125000000000038
 40
0.3125000000000038
 40
0.3750000000000044
 40
0.3750000000000044
 40
0.4375000000000052
 40
0.4375000000000052
 40
0.5000000000000058
 40
0.5000000000000058
 40
0.6250000000000053
 40
0.6250000000000053
 40
0.6875000000000043
 40
0.6875000000000043
 40
0.7500000000000032
 40
0.7500000000000032
 40
0.8125000000000021
 40
0.8125000000000021
 40
0.8750000000000012
 40
0.8750000000000012
 40
0.9375000000000001
 40
0.9375000000000001
 40
0.9687500000000001
 40
0.9687500000000001
 40
1.0
 40
1.0
 40
1.0
 40
1.0
 10
5487.463376815945
 20
2941.479005818566
 30
0.0
 10
5487.463382653391
 20
2941.478917595367
 30
0.0
 10
5487.463388398403
 20
2941.478824683395
 30
0.0
 10
5487.463399252634
 20
2941.47863602662
 30
0.0
 10
5487.463404432322
 20
2941.478539218045
 30
0.0
 10
5487.46341919082
 20
2941.478241435746
 30
0.0
 10
5487.463427987443
 20
2941.47803315788
 30
0.0
 10
5487.463443329503
 20
2941.477596305498
 30
0.0
 10
5487.463449919693
 20
2941.477370526986
 30
0.0
 10
5487.463460604447
 20
2941.476911595462
 30
0.0
 10
5487.463464736278
 20
2941.476677392097
 30
0.0
 10
5487.463470534494
 20
2941.476199263981
 30
0.0
 10
5487.463472240359
 20
2941.475954525277
 30
0.0
 10
5487.463473056706
 20
2941.475470818742
 30
0.0
 10
5487.46347220018
 20
2941.475229953213
 30
0.0
 10
5487.463468058874
 20
2941.474750210246
 30
0.0
 10
5487.463464688767
 20
2941.474509414287
 30
0.0
 10
5487.463455507477
 20
2941.474040761466
 30
0.0
 10
5487.463449730784
 20
2941.473813197545
 30
0.0
 10
5487.463429203235
 20
2941.473150515398
 30
0.0
 10
5487.463410281457
 20
2941.472730798836
 30
0.0
 10
5487.463377161143
 20
2941.472179324093
 30
0.0
 10
5487.463365095358
 20
2941.472007138126
 30
0.0
 10
5487.463339050584
 20
2941.47168624424
 30
0.0
 10
5487.463325055787
 20
2941.471537800099
 30
0.0
 10
5487.463296388026
 20
2941.471274422957
 30
0.0
 10
5487.463281319784
 20
2941.471158118937
 30
0.0
 10
5487.46324995945
 20
2941.470955900726
 30
0.0
 10
5487.463233530712
 20
2941.470869489976
 30
0.0
 10
5487.463200601633
 20
2941.470732392975
 30
0.0
 10
5487.463183780643
 20
2941.470681388929
 30
0.0
 10
5487.463158233975
 20
2941.470630344473
 30
0.0
 10
5487.463149666732
 20
2941.470617595701
 30
0.0
 10
5487.463132474015
 20
2941.470600755702
 30
0.0
 10
5487.463123745556
 20
2941.470596668489
 30
0.0
 10
5487.463115218911
 20
2941.470597057881
 30
0.0
  0
SPLINE
  5
19C7
330
1F
100
AcDbEntity
  8
SANINDUSA
100
AcDbSpline
210
0.0
220
0.0
230
1.0
 70
     8
 71
     3
 72
    40
 73
    36
 74
     0
 42
0.0000000001
 43
0.0000000001
 40
0.0
 40
0.0
 40
0.0
 40
0.0
 40
0.0312500000000021
 40
0.0312500000000021
 40
0.0625000000000042
 40
0.0625000000000042
 40
0.125000000000004
 40
0.125000000000004
 40
0.1875000000000039
 40
0.1875000000000039
 40
0.2500000000000038
 40
0.2500000000000038
 40
0.3125000000000036
 40
0.3125000000000036
 40
0.3750000000000035
 40
0.3750000000000035
 40
0.5000000000000034
 40
0.5000000000000034
 40
0.5625000000000032
 40
0.5625000000000032
 40
0.6250000000000031
 40
0.6250000000000031
 40
0.6875000000000029
 40
0.6875000000000029
 40
0.7500000000000028
 40
0.7500000000000028
 40
0.8125000000000026
 40
0.8125000000000026
 40
0.8750000000000024
 40
0.8750000000000024
 40
0.9375000000000023
 40
0.9375000000000023
 40
0.9687500000000012
 40
0.9687500000000012
 40
1.0
 40
1.0
 40
1.0
 40
1.0
 10
5486.950080282072
 20
2941.470597057881
 30
0.0
 10
5486.950071775446
 20
2941.470596669404
 30
0.0
 10
5486.950063026977
 20
2941.470600755695
 30
0.0
 10
5486.950045834261
 20
2941.470617595689
 30
0.0
 10
5486.950037267018
 20
2941.470630344458
 30
0.0
 10
5486.950011720349
 20
2941.470681388907
 30
0.0
 10
5486.949994899358
 20
2941.470732392948
 30
0.0
 10
5486.949961970277
 20
2941.470869489942
 30
0.0
 10
5486.94994554154
 20
2941.47095590069
 30
0.0
 10
5486.949914181204
 20
2941.471158118899
 30
0.0
 10
5486.949899112961
 20
2941.471274422918
 30
0.0
 10
5486.949870445199
 20
2941.471537800061
 30
0.0
 10
5486.949856450402
 20
2941.471686244203
 30
0.0
 10
5486.949830405628
 20
2941.472007138092
 30
0.0
 10
5486.949818339843
 20
2941.472179324064
 30
0.0
 10
5486.949785219527
 20
2941.472730798815
 30
0.0
 10
5486.949766297748
 20
2941.473150515387
 30
0.0
 10
5486.9497457702
 20
2941.47381319755
 30
0.0
 10
5486.949739993507
 20
2941.474040761477
 30
0.0
 10
5486.949730812217
 20
2941.47450941431
 30
0.0
 10
5486.949727442109
 20
2941.474750210275
 30
0.0
 10
5486.949723300803
 20
2941.475229953255
 30
0.0
 10
5486.949722444276
 20
2941.475470818789
 30
0.0
 10
5486.949723260625
 20
2941.475954525336
 30
0.0
 10
5486.94972496649
 20
2941.476199264046
 30
0.0
 10
5486.949730764706
 20
2941.476677392171
 30
0.0
 10
5486.949734896537
 20
2941.476911595542
 30
0.0
 10
5486.949745581292
 20
2941.477370527075
 30
0.0
 10
5486.949752171483
 20
2941.477596305591
 30
0.0
 10
5486.949767513543
 20
2941.478033157978
 30
0.0
 10
5486.949776310169
 20
2941.478241435845
 30
0.0
 10
5486.949791068667
 20
2941.478539218147
 30
0.0
 10
5486.949796248355
 20
2941.478636026723
 30
0.0
 10
5486.949807102587
 20
2941.478824683499
 30
0.0
 10
5486.949812861295
 20
2941.478917802473
 30
0.0
 10
5486.949818685037
 20
2941.479005818566
 30
0.0
  0
LINE
  5
19CE
330
1F
100
AcDbEntity
  8
SANINDUSA
100
AcDbLine
 10
5486.949818675823
 20
2941.479005820133
 30
0.0
 11
5486.951769595451
 21
2941.493687705152
 31
0.0
  0
LINE
  5
19CF
330
1F
100
AcDbEntity
  8
SANINDUSA
100
AcDbLine
 10
5487.461425905532
 20
2941.493687705152
 30
0.0
 11
5487.463376825161
 21
2941.479005820133
 31
0.0
  0
LINE
  5
19D4
330
1F
100
AcDbEntity
  8
SANINDUSA
100
AcDbLine
 10
5486.952178721733
 20
2941.4708287744
 30
0.0
 11
5486.950080280609
 21
2941.470597057618
 31
0.0
  0
LINE
  5
19D5
330
1F
100
AcDbEntity
  8
SANINDUSA
100
AcDbLine
 10
5487.463115220375
 20
2941.470597057618
 30
0.0
 11
5487.461016779251
 21
2941.4708287744
 31
0.0
  0
LINE
  5
19D7
330
1F
100
AcDbEntity
  8
SANINDUSA
100
AcDbLine
 10
5487.464704488821
 20
2941.470177642085
 30
0.0
 11
5487.465490584678
 21
2941.470177642085
 31
0.0
  0
LINE
  5
19D9
330
1F
100
AcDbEntity
  8
SANINDUSA
100
AcDbLine
 10
5486.947704916305
 20
2941.470177642085
 30
0.0
 11
5486.948491012163
 21
2941.470177642085
 31
0.0
  0
SPLINE
  5
19DD
330
1F
100
AcDbEntity
  8
SANINDUSA
100
AcDbSpline
210
0.0
220
0.0
230
1.0
 70
     8
 71
     3
 72
    32
 73
    28
 74
     0
 42
0.0000000001
 43
0.0000000001
 40
0.0
 40
0.0
 40
0.0
 40
0.0
 40
0.0312500000000008
 40
0.0312500000000008
 40
0.0625000000000015
 40
0.0625000000000015
 40
0.125000000000003
 40
0.125000000000003
 40
0.1875000000000046
 40
0.1875000000000046
 40
0.250000000000006
 40
0.250000000000006
 40
0.3750000000000083
 40
0.3750000000000083
 40
0.4375000000000078
 40
0.4375000000000078
 40
0.5000000000000071
 40
0.5000000000000071
 40
0.6250000000000053
 40
0.6250000000000053
 40
0.7500000000000034
 40
0.7500000000000034
 40
0.8125000000000019
 40
0.8125000000000019
 40
0.8750000000000007
 40
0.8750000000000007
 40
1.0
 40
1.0
 40
1.0
 40
1.0
 10
5486.948026543398
 20
2941.505078648835
 30
0.0
 10
5486.948034093519
 20
2941.505053375232
 30
0.0
 10
5486.948041774617
 20
2941.505022557929
 30
0.0
 10
5486.948056744125
 20
2941.504952342976
 30
0.0
 10
5486.948064141515
 20
2941.504912580332
 30
0.0
 10
5486.948086072454
 20
2941.504779544401
 30
0.0
 10
5486.948100344139
 20
2941.504672604195
 30
0.0
 10
5486.948128209096
 20
2941.504421423866
 30
0.0
 10
5486.948141879587
 20
2941.504275990595
 30
0.0
 10
5486.948167746485
 20
2941.50395545494
 30
0.0
 10
5486.948180023507
 20
2941.503779889537
 30
0.0
 10
5486.948214949827
 20
2941.503207578151
 30
0.0
 10
5486.948235870062
 20
2941.502758923265
 30
0.0
 10
5486.948261609868
 20
2941.502029805274
 30
0.0
 10
5486.948269325752
 20
2941.501776480766
 30
0.0
 10
5486.948282989249
 20
2941.501249221983
 30
0.0
 10
5486.94828896443
 20
2941.500973220229
 30
0.0
 10
5486.948303736621
 20
2941.500135308087
 30
0.0
 10
5486.948309579848
 20
2941.499560097877
 30
0.0
 10
5486.948313102991
 20
2941.498375849784
 30
0.0
 10
5486.948310685079
 20
2941.497788793351
 30
0.0
 10
5486.948300986718
 20
2941.496926261915
 30
0.0
 10
5486.948296689182
 20
2941.496639179021
 30
0.0
 10
5486.948286206224
 20
2941.496084409248
 30
0.0
 10
5486.948280028038
 20
2941.495815827958
 30
0.0
 10
5486.948258767789
 20
2941.495036209776
 30
0.0
 10
5486.948240748
 20
2941.494546963541
 30
0.0
 10
5486.948219551491
 20
2941.494111984075
 30
0.0
  0
SPLINE
  5
19DE
330
1F
100
AcDbEntity
  8
SANINDUSA
100
AcDbSpline
210
0.0
220
0.0
230
1.0
 70
     8
 71
     3
 72
    30
 73
    26
 74
     0
 42
0.0000000001
 43
0.0000000001
 40
0.0
 40
0.0
 40
0.0
 40
0.0
 40
0.0624999999999996
 40
0.0624999999999996
 40
0.1249999999999991
 40
0.1249999999999991
 40
0.1874999999999986
 40
0.1874999999999986
 40
0.2499999999999982
 40
0.2499999999999982
 40
0.3749999999999972
 40
0.3749999999999972
 40
0.4999999999999964
 40
0.4999999999999964
 40
0.5624999999999966
 40
0.5624999999999966
 40
0.6249999999999968
 40
0.6249999999999968
 40
0.7500000000000005
 40
0.7500000000000005
 40
0.8125000000000001
 40
0.8125000000000001
 40
0.875
 40
0.875
 40
1.0
 40
1.0
 40
1.0
 40
1.0
 10
5487.464975949492
 20
2941.494111984075
 30
0.0
 10
5487.464965370784
 20
2941.494329077509
 30
0.0
 10
5487.464955532466
 20
2941.494560463631
 30
0.0
 10
5487.464937641476
 20
2941.495044919242
 30
0.0
 10
5487.46492964644
 20
2941.495296082665
 30
0.0
 10
5487.464915472941
 20
2941.495815828156
 30
0.0
 10
5487.464909294753
 20
2941.496084409464
 30
0.0
 10
5487.464898811798
 20
2941.496639179277
 30
0.0
 10
5487.464894514262
 20
2941.496926262189
 30
0.0
 10
5487.464884815903
 20
2941.497788793677
 30
0.0
 10
5487.464882397992
 20
2941.498375850157
 30
0.0
 10
5487.464885921138
 20
2941.499560098298
 30
0.0
 10
5487.464891764368
 20
2941.500135308531
 30
0.0
 10
5487.464906536562
 20
2941.500973220703
 30
0.0
 10
5487.464912511745
 20
2941.501249222463
 30
0.0
 10
5487.464926175245
 20
2941.501776481249
 30
0.0
 10
5487.46493389113
 20
2941.502029805757
 30
0.0
 10
5487.464959630941
 20
2941.502758923747
 30
0.0
 10
5487.46498055118
 20
2941.503207578618
 30
0.0
 10
5487.465015477505
 20
2941.503779889964
 30
0.0
 10
5487.465027754527
 20
2941.503955455353
 30
0.0
 10
5487.465053621431
 20
2941.504275990975
 30
0.0
 10
5487.465067291925
 20
2941.504421424229
 30
0.0
 10
5487.465109089349
 20
2941.50479819453
 30
0.0
 10
5487.465138321077
 20
2941.5049760965
 30
0.0
 10
5487.465168957585
 20
2941.505078648835
 30
0.0
  0
SPLINE
  5
19DF
330
1F
100
AcDbEntity
  8
SANINDUSA
100
AcDbSpline
210
0.0
220
0.0
230
1.0
 70
     8
 71
     3
 72
    16
 73
    12
 74
     0
 42
0.0000000001
 43
0.0000000001
 40
0.0
 40
0.0
 40
0.0
 40
0.0
 40
0.0000044422865702
 40
0.154885525402413
 40
0.309752197329751
 40
0.464193355931361
 40
0.6185297276106453
 40
0.7731717058756816
 40
0.9284439737570957
 40
0.9999956500650293
 40
1.0
 40
1.0
 40
1.0
 40
1.0
 10
5486.951769595451
 20
2941.493687705152
 30
0.0
 10
5486.951769605385
 20
2941.493687719432
 30
0.0
 10
5486.952115973876
 20
2941.494185615903
 30
0.0
 10
5486.951930595115
 20
2941.49564209009
 30
0.0
 10
5486.952188152996
 20
2941.497955372479
 30
0.0
 10
5486.952115668727
 20
2941.500397097202
 30
0.0
 10
5486.951928839812
 20
2941.502612634338
 30
0.0
 10
5486.951657236883
 20
2941.504375487055
 30
0.0
 10
5486.951192555159
 20
2941.505277059295
 30
0.0
 10
5486.951174346004
 20
2941.505545797192
 30
0.0
 10
5486.951010927665
 20
2941.505596863742
 30
0.0
 10
5486.95101091773
 20
2941.505596866846
 30
0.0
  0
SPLINE
  5
19E0
330
1F
100
AcDbEntity
  8
SANINDUSA
100
AcDbSpline
210
0.0
220
0.0
230
1.0
 70
     8
 71
     3
 72
    16
 73
    12
 74
     0
 42
0.0000000001
 43
0.0000000001
 40
0.0
 40
0.0
 40
0.0
 40
0.0
 40
0.0000043499355237
 40
0.0715642494491235
 40
0.2268358572886262
 40
0.3814775592751709
 40
0.5358140479191565
 40
0.6902552298772744
 40
0.8451182071122358
 40
0.9999955577128648
 40
1.0
 40
1.0
 40
1.0
 40
1.0
 10
5487.462184583254
 20
2941.505596866846
 30
0.0
 10
5487.46218457332
 20
2941.505596863742
 30
0.0
 10
5487.46202113622
 20
2941.50554579133
 30
0.0
 10
5487.462002917807
 20
2941.505277043251
 30
0.0
 10
5487.461538225877
 20
2941.504375414871
 30
0.0
 10
5487.461266670896
 20
2941.502612534277
 30
0.0
 10
5487.461079829884
 20
2941.500396986985
 30
0.0
 10
5487.461007348359
 20
2941.497955275013
 30
0.0
 10
5487.461264901575
 20
2941.495642042531
 30
0.0
 10
5487.461079535496
 20
2941.494185603841
 30
0.0
 10
5487.461425895598
 20
2941.493687719432
 30
0.0
 10
5487.461425905532
 20
2941.493687705152
 30
0.0
  0
SPLINE
  5
19E1
330
1F
100
AcDbEntity
  8
SANINDUSA
100
AcDbSpline
210
0.0
220
0.0
230
1.0
 70
     8
 71
     3
 72
    44
 73
    40
 74
     0
 42
0.0000000001
 43
0.0000000001
 40
0.0
 40
0.0
 40
0.0
 40
0.0
 40
0.015625000000001
 40
0.015625000000001
 40
0.031250000000002
 40
0.031250000000002
 40
0.062500000000003
 40
0.062500000000003
 40
0.1250000000000023
 40
0.1250000000000023
 40
0.1875000000000016
 40
0.1875000000000016
 40
0.2500000000000009
 40
0.2500000000000009
 40
0.3125000000000002
 40
0.3125000000000002
 40
0.3749999999999996
 40
0.3749999999999996
 40
0.4374999999999989
 40
0.4374999999999989
 40
0.4999999999999982
 40
0.4999999999999982
 40
0.5624999999999976
 40
0.5624999999999976
 40
0.6249999999999968
 40
0.6249999999999968
 40
0.6874999999999961
 40
0.6874999999999961
 40
0.7499999999999955
 40
0.7499999999999955
 40
0.8749999999999955
 40
0.8749999999999955
 40
0.9374999999999985
 40
0.9374999999999985
 40
0.9687499999999968
 40
0.9687499999999968
 40
0.9843749999999984
 40
0.9843749999999984
 40
1.0
 40
1.0
 40
1.0
 40
1.0
 10
5486.953212722025
 20
2941.458743944009
 30
0.0
 10
5486.953223613444
 20
2941.458808712603
 30
0.0
 10
5486.953234555006
 20
2941.458876274747
 30
0.0
 10
5486.953255599999
 20
2941.459011274849
 30
0.0
 10
5486.953265862534
 20
2941.45907965838
 30
0.0
 10
5486.953295889247
 20
2941.459287419668
 30
0.0
 10
5486.95331489424
 20
2941.459429403582
 30
0.0
 10
5486.953368958945
 20
2941.459865636956
 30
0.0
 10
5486.953401096407
 20
2941.460170093936
 30
0.0
 10
5486.953457368478
 20
2941.460807244425
 30
0.0
 10
5486.953481255776
 20
2941.461140072945
 30
0.0
 10
5486.953519371439
 20
2941.461811917026
 30
0.0
 10
5486.953533866349
 20
2941.462153637622
 30
0.0
 10
5486.953553601791
 20
2941.462848824887
 30
0.0
 10
5486.953558765447
 20
2941.46320535499
 30
0.0
 10
5486.953559418854
 20
2941.463911867928
 30
0.0
 10
5486.953555020075
 20
2941.464262161967
 30
0.0
 10
5486.9535367557
 20
2941.464956884985
 30
0.0
 10
5486.953522899876
 20
2941.46530183929
 30
0.0
 10
5486.953485633655
 20
2941.46598353413
 30
0.0
 10
5486.953462648404
 20
2941.46631272998
 30
0.0
 10
5486.953408048673
 20
2941.466948568367
 30
0.0
 10
5486.953376554137
 20
2941.46725521601
 30
0.0
 10
5486.95330504516
 20
2941.467845741846
 30
0.0
 10
5486.953265030882
 20
2941.468128600289
 30
0.0
 10
5486.953178696743
 20
2941.468652764145
 30
0.0
 10
5486.953132285765
 20
2941.46889659752
 30
0.0
 10
5486.953032942846
 20
2941.469348170246
 30
0.0
 10
5486.952979527485
 20
2941.46955727488
 30
0.0
 10
5486.952812934631
 20
2941.470111855051
 30
0.0
 10
5486.952694059977
 20
2941.470391034014
 30
0.0
 10
5486.952503442942
 20
2941.470668725426
 30
0.0
 10
5486.952439387152
 20
2941.470735555268
 30
0.0
 10
5486.952342407409
 20
2941.470798728918
 30
0.0
 10
5486.952309927076
 20
2941.470813574144
 30
0.0
 10
5486.952260939499
 20
2941.47082641824
 30
0.0
 10
5486.952244565694
 20
2941.470829126966
 30
0.0
 10
5486.952211721552
 20
2941.470831356642
 30
0.0
 10
5486.952195015948
 20
2941.470830847672
 30
0.0
 10
5486.952178728714
 20
2941.470828774619
 30
0.0
  0
SPLINE
  5
19E2
330
1F
100
AcDbEntity
  8
SANINDUSA
100
AcDbSpline
210
0.0
220
0.0
230
1.0
 70
     8
 71
     3
 72
    40
 73
    36
 74
     0
 42
0.0000000001
 43
0.0000000001
 40
0.0
 40
0.0
 40
0.0
 40
0.0
 40
0.0312500000000007
 40
0.0312500000000007
 40
0.0625000000000013
 40
0.0625000000000013
 40
0.1250000000000046
 40
0.1250000000000046
 40
0.2500000000000068
 40
0.2500000000000068
 40
0.3125000000000062
 40
0.3125000000000062
 40
0.3750000000000055
 40
0.3750000000000055
 40
0.437500000000005
 40
0.437500000000005
 40
0.5000000000000044
 40
0.5000000000000044
 40
0.5625000000000037
 40
0.5625000000000037
 40
0.6250000000000031
 40
0.6250000000000031
 40
0.6875000000000023
 40
0.6875000000000023
 40
0.7500000000000016
 40
0.7500000000000016
 40
0.8125000000000008
 40
0.8125000000000008
 40
0.8750000000000001
 40
0.8750000000000001
 40
0.9374999999999996
 40
0.9374999999999996
 40
0.9687499999999998
 40
0.9687499999999998
 40
1.0
 40
1.0
 40
1.0
 40
1.0
 10
5487.461016772268
 20
2941.470828774619
 30
0.0
 10
5487.460984086389
 20
2941.470832934905
 30
0.0
 10
5487.460950890643
 20
2941.4708306996
 30
0.0
 10
5487.460885573891
 20
2941.470813574137
 30
0.0
 10
5487.460853093566
 20
2941.470798728911
 30
0.0
 10
5487.460756113861
 20
2941.470735555289
 30
0.0
 10
5487.460692058107
 20
2941.470668725491
 30
0.0
 10
5487.460501441211
 20
2941.470391034378
 30
0.0
 10
5487.460382566364
 20
2941.470111855038
 30
0.0
 10
5487.460215973602
 20
2941.469557275251
 30
0.0
 10
5487.460162558211
 20
2941.469348170561
 30
0.0
 10
5487.460063215253
 20
2941.468896597701
 30
0.0
 10
5487.460016804274
 20
2941.468652764325
 30
0.0
 10
5487.45993047016
 20
2941.46812860068
 30
0.0
 10
5487.459890455913
 20
2941.467845742537
 30
0.0
 10
5487.459818946883
 20
2941.467255216378
 30
0.0
 10
5487.45978745234
 20
2941.466948568667
 30
0.0
 10
5487.459732852609
 20
2941.466312730378
 30
0.0
 10
5487.459709867367
 20
2941.465983534694
 30
0.0
 10
5487.459672601165
 20
2941.465301840482
 30
0.0
 10
5487.459658745301
 20
2941.464956885483
 30
0.0
 10
5487.459640480915
 20
2941.464262162403
 30
0.0
 10
5487.459636082135
 20
2941.463911868459
 30
0.0
 10
5487.459636735528
 20
2941.463205355977
 30
0.0
 10
5487.459641899175
 20
2941.462848825648
 30
0.0
 10
5487.459661634616
 20
2941.462153638057
 30
0.0
 10
5487.459676129526
 20
2941.461811917399
 30
0.0
 10
5487.459714245178
 20
2941.461140073373
 30
0.0
 10
5487.459738132459
 20
2941.460807244994
 30
0.0
 10
5487.459794404542
 20
2941.460170094274
 30
0.0
 10
5487.459826542008
 20
2941.459865637217
 30
0.0
 10
5487.459880606718
 20
2941.459429403772
 30
0.0
 10
5487.459899611714
 20
2941.459287419841
 30
0.0
 10
5487.45993964733
 20
2941.459010404771
 30
0.0
 10
5487.459960921619
 20
2941.458873924238
 30
0.0
 10
5487.459982778958
 20
2941.458743944009
 30
0.0
  0
SPLINE
  5
19E3
330
1F
100
AcDbEntity
  8
SANINDUSA
100
AcDbSpline
210
0.0
220
0.0
230
1.0
 70
     8
 71
     3
 72
    15
 73
    11
 74
     0
 42
0.0000000001
 43
0.0000000001
 40
0.0
 40
0.0
 40
0.0
 40
0.0
 40
0.0000044392325241
 40
0.1476928102313948
 40
0.2953933035090217
 40
0.4431028441297375
 40
0.5907583175801128
 40
0.7381926748745622
 40
0.8853092824773145
 40
1.0
 40
1.0
 40
1.0
 40
1.0
 10
5486.948491012163
 20
2941.470177642085
 30
0.0
 10
5486.948491022097
 20
2941.470177642085
 30
0.0
 10
5486.948821533893
 20
2941.470177643352
 30
0.0
 10
5486.948472256345
 20
2941.469924584421
 30
0.0
 10
5486.948747338449
 20
2941.468828216177
 30
0.0
 10
5486.948779816513
 20
2941.467139163163
 30
0.0
 10
5486.948836964466
 20
2941.465046548754
 30
0.0
 10
5486.948839062864
 20
2941.462800880055
 30
0.0
 10
5486.948810149959
 20
2941.460776198317
 30
0.0
 10
5486.948768754448
 20
2941.459721587565
 30
0.0
 10
5486.948750620193
 20
2941.459259591081
 30
0.0
  0
SPLINE
  5
19E4
330
1F
100
AcDbEntity
  8
SANINDUSA
100
AcDbSpline
210
0.0
220
0.0
230
1.0
 70
     8
 71
     3
 72
    15
 73
    11
 74
     0
 42
0.0000000001
 43
0.0000000001
 40
0.0
 40
0.0
 40
0.0
 40
0.0
 40
0.0000042114272018
 40
0.1146908407488838
 40
0.2618074990030911
 40
0.4092419070583948
 40
0.5568974313457535
 40
0.7046070228220676
 40
0.8523075669521778
 40
1.0
 40
1.0
 40
1.0
 40
1.0
 10
5487.46444488079
 20
2941.459259591081
 30
0.0
 10
5487.46444488079
 20
2941.459259605982
 30
0.0
 10
5487.464444881167
 20
2941.459665411827
 30
0.0
 10
5487.464374599273
 20
2941.460809970452
 30
0.0
 10
5487.464358963951
 20
2941.462791048834
 30
0.0
 10
5487.464360270525
 20
2941.46504858547
 30
0.0
 10
5487.464406199684
 20
2941.467140876219
 30
0.0
 10
5487.464484375855
 20
2941.468819322625
 30
0.0
 10
5487.464587896334
 20
2941.469958451126
 30
0.0
 10
5487.46466562537
 20
2941.470104579769
 30
0.0
 10
5487.464704488821
 20
2941.470177642085
 30
0.0
  0
ARC
  5
19F0
330
1F
100
AcDbEntity
  8
SANINDUSA
100
AcDbCircle
 10
5486.990924265627
 20
2941.338158509961
 30
0.0
 40
0.0151865888674225
100
AcDbArc
 50
181.1940086145137
 51
268.7240378458006
  0
ARC
  5
19F1
330
1F
100
AcDbEntity
  8
SANINDUSA
100
AcDbCircle
 10
5487.422270865686
 20
2941.338159332765
 30
0.0
 40
0.0151868840592713
100
AcDbArc
 50
271.277444849299
 51
358.803303345842
  0
SPLINE
  5
19F6
330
1F
100
AcDbEntity
  8
SANINDUSA
100
AcDbSpline
210
0.0
220
0.0
230
1.0
 70
    11
 71
     3
 72
   172
 73
   168
 74
     0
 42
0.0000000001
 43
0.0000000001
 40
0.0
 40
0.0
 40
0.0
 40
0.0
 40
0.015106750994091
 40
0.0315978793264592
 40
0.0381827759759688
 40
0.0455974459873801
 40
0.0538569952249875
 40
0.0629887934471956
 40
0.0654618445800306
 40
0.0675900294984797
 40
0.0693921929741057
 40
0.0708415864539071
 40
0.0734315859038078
 40
0.0760354923661085
 40
0.0786438039865388
 40
0.086365053248304
 40
0.0941636419632301
 40
0.1019064288419084
 40
0.1096849255444393
 40
0.1135885100713661
 40
0.1174885631464285
 40
0.1209201574429541
 40
0.1253425673699537
 40
0.1301481603076752
 40
0.135115593822352
 40
0.1402494106154036
 40
0.1455538160465431
 40
0.1510294131169819
 40
0.1566773677423942
 40
0.1702926541870089
 40
0.1881352735435981
 40
0.2026173359282148
 40
0.2131726244984126
 40
0.2194194597689537
 40
0.2251196671584892
 40
0.2306432608277371
 40
0.235987610449642
 40
0.2411513119132794
 40
0.2461329768036632
 40
0.2509318705586162
 40
0.267017745528919
 40
0.282369201437099
 40
0.2903333477026052
 40
0.298188284431367
 40
0.3021247938455857
 40
0.3060263384582476
 40
0.3090470601584517
 40
0.311640648480942
 40
0.3137922673559244
 40
0.3192253153068684
 40
0.3244100393861292
 40
0.3293045439837285
 40
0.3373155806050446
 40
0.3447957445701309
 40
0.3518884794524011
 40
0.3585200427719064
 40
0.364582090857796
 40
0.3699824847870559
 40
0.3746532566701859
 40
0.3759092709062592
 40
0.3771236349726829
 40
0.3783283844018489
 40
0.3795618875378611
 40
0.3808308522397597
 40
0.3821404001467074
 40
0.3834958160677303
 40
0.3849026116429935
 40
0.3863665826045048
 40
0.3878938576706591
 40
0.3894909378256568
 40
0.3929961150568678
 40
0.3967296228045965
 40
0.4007351323188533
 40
0.4050584609522706
 40
0.4120799568371685
 40
0.4208985078996401
 40
0.4258241049986133
 40
0.4310821711753748
 40
0.4366773965376768
 40
0.4402902090346925
 40
0.4439200831490873
 40
0.447548410705068
 40
0.451156988085446
 40
0.4547281848585145
 40
0.4582450764178326
 40
0.4616915512162258
 40
0.4650524004570735
 40
0.4683133963690538
 40
0.4842636762989136
 40
0.5000804070786957
 40
0.51564111156857
 40
0.5317264754339475
 40
0.5393622593719694
 40
0.5474776471596319
 40
0.5545962222397205
 40
0.5633140698293854
 40
0.5705214205657717
 40
0.5756618665082629
 40
0.5790553050669881
 40
0.5848276050941968
 40
0.5899839731702777
 40
0.5946122877578968
 40
0.5989406124741831
 40
0.6030939387058499
 40
0.6070926737748515
 40
0.6109577443700306
 40
0.6147105450010644
 40
0.6183723013766035
 40
0.6219641169603127
 40
0.6255070828513161
 40
0.626520450000618
 40
0.6275912892905641
 40
0.6287394138952998
 40
0.6299755953312482
 40
0.6313045659962629
 40
0.6327289689517074
 40
0.6363059995831449
 40
0.6401907516430977
 40
0.6474111472934778
 40
0.6553867379571062
 40
0.6697924041796508
 40
0.6862048641067965
 40
0.6881687710197406
 40
0.6901262527757395
 40
0.6920844037366692
 40
0.6940568094806027
 40
0.6954256932192741
 40
0.6971913750114427
 40
0.6993589833844489
 40
0.7019345102577938
 40
0.7096629155989501
 40
0.7176386290811403
 40
0.7325583129750122
 40
0.7490855807164801
 40
0.7621528988428135
 40
0.7803881172315588
 40
0.7908082351995115
 40
0.7994577621494825
 40
0.8064419915255204
 40
0.8118589515120183
 40
0.8248853068980006
 40
0.8368659861051273
 40
0.8417494557918519
 40
0.8460369215627107
 40
0.8497618013772491
 40
0.8529682250412989
 40
0.8557419008235036
 40
0.8621048482778485
 40
0.8683681280536935
 40
0.8744651267759952
 40
0.8808420130504622
 40
0.8872299521765761
 40
0.8935402747249229
 40
0.8996807108872804
 40
0.9055657776799455
 40
0.9082999242154642
 40
0.9134171942240284
 40
0.9161529814282481
 40
0.9187723825693005
 40
0.9212767779667766
 40
0.9294455464065155
 40
0.9369602700907242
 40
0.9514426525091636
 40
0.9649536591584235
 40
0.9790708585687168
 40
0.9928806435062615
 40
1.0
 40
1.0
 40
1.0
 40
1.0
 10
5487.199601549189
 20
2941.585067184743
 30
0.0
 10
5487.198231020563
 20
2941.585286023746
 30
0.0
 10
5487.195385419547
 20
2941.585880342187
 30
0.0
 10
5487.192030252055
 20
2941.586926011103
 30
0.0
 10
5487.189424785608
 20
2941.587955587509
 30
0.0
 10
5487.187556297959
 20
2941.588787755984
 30
0.0
 10
5487.185519452545
 20
2941.589811574107
 30
0.0
 10
5487.183937180101
 20
2941.59072271481
 30
0.0
 10
5487.182864813082
 20
2941.591387107605
 30
0.0
 10
5487.182368447094
 20
2941.591702829994
 30
0.0
 10
5487.181958413664
 20
2941.591978733653
 30
0.0
 10
5487.181515574636
 20
2941.592281779837
 30
0.0
 10
5487.181013923819
 20
2941.592629330035
 30
0.0
 10
5487.180432579856
 20
2941.59304860481
 30
0.0
 10
5487.179480270308
 20
2941.593759036179
 30
0.0
 10
5487.178178027994
 20
2941.594798241638
 30
0.0
 10
5487.176577672038
 20
2941.596215687155
 30
0.0
 10
5487.175045145756
 20
2941.59771373356
 30
0.0
 10
5487.173834003721
 20
2941.599025227399
 30
0.0
 10
5487.172901524667
 20
2941.600111374492
 30
0.0
 10
5487.172250238949
 20
2941.600912090431
 30
0.0
 10
5487.171583021378
 20
2941.601761104299
 30
0.0
 10
5487.170895588072
 20
2941.602699295625
 30
0.0
 10
5487.170148769089
 20
2941.60376838678
 30
0.0
 10
5487.169401096849
 20
2941.60491586832
 30
0.0
 10
5487.168665813943
 20
2941.606125262264
 30
0.0
 10
5487.167947680177
 20
2941.607398831557
 30
0.0
 10
5487.167250865194
 20
2941.608737710362
 30
0.0
 10
5487.16627158226
 20
2941.610788737985
 30
0.0
 10
5487.164984961349
 20
2941.613949659857
 30
0.0
 10
5487.163790721222
 20
2941.61800698993
 30
0.0
 10
5487.163065185044
 20
2941.621884005889
 30
0.0
 10
5487.162758876877
 20
2941.624743124295
 30
0.0
 10
5487.162630712419
 20
2941.626806684694
 30
0.0
 10
5487.162601744256
 20
2941.628411698361
 30
0.0
 10
5487.162625222202
 20
2941.629933717664
 30
0.0
 10
5487.16269775728
 20
2941.631404873949
 30
0.0
 10
5487.162813353467
 20
2941.632823282615
 30
0.0
 10
5487.162967479513
 20
2941.634187630911
 30
0.0
 10
5487.163306633371
 20
2941.636539630312
 30
0.0
 10
5487.163996543956
 20
2941.639802256076
 30
0.0
 10
5487.165083961507
 20
2941.643260445971
 30
0.0
 10
5487.166139904157
 20
2941.645923075053
 30
0.0
 10
5487.166890269343
 20
2941.647576328494
 30
0.0
 10
5487.167534389527
 20
2941.648866173384
 30
0.0
 10
5487.168004171059
 20
2941.649746223897
 30
0.0
 10
5487.168428853905
 20
2941.650510342499
 30
0.0
 10
5487.168791605408
 20
2941.651124696581
 30
0.0
 10
5487.169279894558
 20
2941.651922064898
 30
0.0
 10
5487.169914273593
 20
2941.652909040601
 30
0.0
 10
5487.170727312725
 20
2941.654079683587
 30
0.0
 10
5487.171720212401
 20
2941.655412515221
 30
0.0
 10
5487.172899284331
 20
2941.65686862464
 30
0.0
 10
5487.174290568739
 20
2941.658408648173
 30
0.0
 10
5487.175662450541
 20
2941.65979228144
 30
0.0
 10
5487.177003292654
 20
2941.661020319391
 30
0.0
 10
5487.178286871336
 20
2941.662077045252
 30
0.0
 10
5487.179478556208
 20
2941.662958448363
 30
0.0
 10
5487.180346382146
 20
2941.663532183045
 30
0.0
 10
5487.180902354452
 20
2941.663879126819
 30
0.0
 10
5487.181189903926
 20
2941.664055272856
 30
0.0
 10
5487.181480105045
 20
2941.664222781152
 30
0.0
 10
5487.181770989981
 20
2941.664398894912
 30
0.0
 10
5487.182069223987
 20
2941.664581330292
 30
0.0
 10
5487.182376296647
 20
2941.664770693665
 30
0.0
 10
5487.182694350609
 20
2941.664966286563
 30
0.0
 10
5487.183025381511
 20
2941.665167777534
 30
0.0
 10
5487.183371540741
 20
2941.665374683657
 30
0.0
 10
5487.18373488724
 20
2941.665586808162
 30
0.0
 10
5487.184264377836
 20
2941.665885466971
 30
0.0
 10
5487.184975491704
 20
2941.666273772278
 30
0.0
 10
5487.185888380827
 20
2941.66675309357
 30
0.0
 10
5487.186878996372
 20
2941.667245378217
 30
0.0
 10
5487.188154926857
 20
2941.667840289966
 30
0.0
 10
5487.189855044453
 20
2941.668569154344
 30
0.0
 10
5487.191641882329
 20
2941.669232527139
 30
0.0
 10
5487.193301316132
 20
2941.669768244353
 30
0.0
 10
5487.194693353824
 20
2941.670167531728
 30
0.0
 10
5487.195977811123
 20
2941.670503969236
 30
0.0
 10
5487.197125307031
 20
2941.670772453503
 30
0.0
 10
5487.198103492736
 20
2941.670970686402
 30
0.0
 10
5487.199085859123
 20
2941.671145083134
 30
0.0
 10
5487.200066787425
 20
2941.671295697111
 30
0.0
 10
5487.20104067744
 20
2941.671423587056
 30
0.0
 10
5487.202002295945
 20
2941.671529442102
 30
0.0
 10
5487.202946683682
 20
2941.671613949347
 30
0.0
 10
5487.203869203014
 20
2941.671677723112
 30
0.0
 10
5487.205939914806
 20
2941.671778305498
 30
0.0
 10
5487.209162872715
 20
2941.671733058957
 30
0.0
 10
5487.213492235242
 20
2941.671265510482
 30
0.0
 10
5487.217762938702
 20
2941.670355589891
 30
0.0
 10
5487.221213040117
 20
2941.669278504157
 30
0.0
 10
5487.223929422553
 20
2941.668195080373
 30
0.0
 10
5487.225842368101
 20
2941.66732676544
 30
0.0
 10
5487.227798117266
 20
2941.666320328159
 30
0.0
 10
5487.229632854627
 20
2941.665265965137
 30
0.0
 10
5487.23126195061
 20
2941.664223884379
 30
0.0
 10
5487.232447498413
 20
2941.663398215863
 30
0.0
 10
5487.233501961894
 20
2941.662616407286
 30
0.0
 10
5487.234540171236
 20
2941.661810585564
 30
0.0
 10
5487.23563641816
 20
2941.660896367656
 30
0.0
 10
5487.236605501641
 20
2941.660037717428
 30
0.0
 10
5487.237486344253
 20
2941.65921882908
 30
0.0
 10
5487.238306123412
 20
2941.658419549874
 30
0.0
 10
5487.239076397138
 20
2941.657630823586
 30
0.0
 10
5487.23980199713
 20
2941.656850248776
 30
0.0
 10
5487.240488078723
 20
2941.656075488527
 30
0.0
 10
5487.241139062844
 20
2941.655303489552
 30
0.0
 10
5487.241761581078
 20
2941.654532797931
 30
0.0
 10
5487.242215233251
 20
2941.653938447823
 30
0.0
 10
5487.242529606344
 20
2941.653528788155
 30
0.0
 10
5487.242712348262
 20
2941.653295088442
 30
0.0
 10
5487.242902570542
 20
2941.653041309616
 30
0.0
 10
5487.243105619752
 20
2941.652767511827
 30
0.0
 10
5487.243320488275
 20
2941.652470871188
 30
0.0
 10
5487.243653880167
 20
2941.651994755217
 30
0.0
 10
5487.244106930319
 20
2941.651315943095
 30
0.0
 10
5487.244822252435
 20
2941.650172787939
 30
0.0
 10
5487.245689479276
 20
2941.648648839624
 30
0.0
 10
5487.246904919775
 20
2941.646215346613
 30
0.0
 10
5487.248265149788
 20
2941.642915673868
 30
0.0
 10
5487.249116880811
 20
2941.640019939343
 30
0.0
 10
5487.249538186507
 20
2941.63820020453
 30
0.0
 10
5487.249651582863
 20
2941.637672100041
 30
0.0
 10
5487.249755750598
 20
2941.637141332787
 30
0.0
 10
5487.249854268942
 20
2941.636664586081
 30
0.0
 10
5487.249942265139
 20
2941.636203751329
 30
0.0
 10
5487.250022770467
 20
2941.635723351446
 30
0.0
 10
5487.250113761414
 20
2941.635132394294
 30
0.0
 10
5487.250273596426
 20
2941.633997922764
 30
0.0
 10
5487.250457817649
 20
2941.632328162078
 30
0.0
 10
5487.250629235649
 20
2941.629519210028
 30
0.0
 10
5487.250590299201
 20
2941.625892808982
 30
0.0
 10
5487.250154890332
 20
2941.621819022686
 30
0.0
 10
5487.249271552854
 20
2941.617510919352
 30
0.0
 10
5487.24815488591
 20
2941.613835146302
 30
0.0
 10
5487.246864199846
 20
2941.610658314969
 30
0.0
 10
5487.245832636953
 20
2941.608497376864
 30
0.0
 10
5487.244912345762
 20
2941.606795933555
 30
0.0
 10
5487.243721829694
 20
2941.604785986632
 30
0.0
 10
5487.24216351585
 20
2941.602462080033
 30
0.0
 10
5487.240459165588
 20
2941.600305811861
 30
0.0
 10
5487.239174111062
 20
2941.598848140283
 30
0.0
 10
5487.238364523462
 20
2941.597983137135
 30
0.0
 10
5487.237642906175
 20
2941.597247337515
 30
0.0
 10
5487.237008064948
 20
2941.596621326352
 30
0.0
 10
5487.236180317029
 20
2941.59584636729
 30
0.0
 10
5487.235122365831
 20
2941.594906681021
 30
0.0
 10
5487.233789909073
 20
2941.593818338823
 30
0.0
 10
5487.232413196219
 20
2941.592784582081
 30
0.0
 10
5487.230990238075
 20
2941.591795265838
 30
0.0
 10
5487.229512334331
 20
2941.590852834841
 30
0.0
 10
5487.228013353588
 20
2941.589987056769
 30
0.0
 10
5487.226520926553
 20
2941.589204914047
 30
0.0
 10
5487.225293092107
 20
2941.588629463266
 30
0.0
 10
5487.224146408775
 20
2941.58810253716
 30
0.0
 10
5487.223243306743
 20
2941.587740610855
 30
0.0
 10
5487.222347135105
 20
2941.587390965698
 30
0.0
 10
5487.221669559384
 20
2941.587141505438
 30
0.0
 10
5487.220517494083
 20
2941.586736837465
 30
0.0
 10
5487.218922871218
 20
2941.586235474487
 30
0.0
 10
5487.216241663059
 20
2941.585532367978
 30
0.0
 10
5487.213031824654
 20
2941.584926006067
 30
0.0
 10
5487.209179355538
 20
2941.584531561892
 30
0.0
 10
5487.205368269649
 20
2941.584475096091
 30
0.0
 10
5487.202152762003
 20
2941.584703504697
 30
0.0
 10
5487.200247438028
 20
2941.584964052517
 30
0.0
 10
5487.199601549189
 20
2941.585067184743
 30
0.0
  0
ARC
  5
19FF
330
1F
100
AcDbEntity
  8
SANINDUSA
100
AcDbCircle
 10
5489.924504342862
 20
2941.305580362646
 30
0.0
 40
0.0020000018629488
100
AcDbArc
 50
91.46947494918846
 51
179.7363059142889
  0
ARC
  5
1A01
330
1F
100
AcDbEntity
  8
SANINDUSA
100
AcDbCircle
 10
5489.651984627048
 20
2941.626946413853
 30
0.0
 40
0.0080000000000001
100
AcDbArc
 50
230.2848627729451
 51
270.0
  0
ARC
  5
1A02
330
1F
100
AcDbEntity
  8
SANINDUSA
100
AcDbCircle
 10
5489.643678003185
 20
2941.616946413853
 30
0.0
 40
0.005
100
AcDbArc
 50
50.2848627729451
 51
90.0
  0
ARC
  5
1A03
330
1F
100
AcDbEntity
  8
SANINDUSA
100
AcDbCircle
 10
5489.596378962655
 20
2941.626946413853
 30
0.0
 40
0.0080000000000003
100
AcDbArc
 50
270.0
 51
309.7151372270549
  0
ARC
  5
1A04
330
1F
100
AcDbEntity
  8
SANINDUSA
100
AcDbCircle
 10
5489.604685586518
 20
2941.616946413853
 30
0.0
 40
0.005
100
AcDbArc
 50
90.0
 51
129.7151372270549
  0
SPLINE
  5
1A05
330
1F
100
AcDbEntity
  8
SANINDUSA
100
AcDbSpline
210
0.0
220
0.0
230
1.0
 70
     8
 71
     3
 72
    11
 73
     7
 74
     0
 42
0.0000000001
 43
0.0000000001
 40
0.0
 40
0.0
 40
0.0
 40
0.0
 40
0.2076392214495875
 40
0.4787242435620993
 40
0.7497886768533565
 40
0.9999999999999998
 40
0.9999999999999998
 40
0.9999999999999998
 40
0.9999999999999998
 10
5489.714204601828
 20
2941.299728195526
 30
0.0
 10
5489.713953323212
 20
2941.300553443142
 30
0.0
 10
5489.713373985818
 20
2941.302456099288
 30
0.0
 10
5489.711420191643
 20
2941.304950234069
 30
0.0
 10
5489.708663245068
 20
2941.306859890918
 30
0.0
 10
5489.706533767162
 20
2941.307285480978
 30
0.0
 10
5489.705511622015
 20
2941.307489763357
 30
0.0
  0
SPLINE
  5
1A06
330
1F
100
AcDbEntity
  8
SANINDUSA
100
AcDbSpline
210
0.0
220
0.0
230
1.0
 70
     8
 71
     3
 72
    11
 73
     7
 74
     0
 42
0.0000000001
 43
0.0000000001
 40
0.0
 40
0.0
 40
0.0
 40
0.0
 40
0.3178777678394506
 40
0.6357562815434488
 40
0.9536349586808478
 40
1.0
 40
1.0
 40
1.0
 40
1.0
 10
5489.818200424198
 20
2941.304828058341
 30
0.0
 10
5489.817078864279
 20
2941.304688267174
 30
0.0
 10
5489.814835741811
 20
2941.304408684512
 30
0.0
 10
5489.811893758933
 20
2941.302606688239
 30
0.0
 10
5489.810300138397
 20
2941.300750980359
 30
0.0
 10
5489.809686208642
 20
2941.299624786882
 30
0.0
 10
5489.809608060751
 20
2941.299481432297
 30
0.0
  0
LINE
  5
1A07
330
1F
100
AcDbEntity
  8
SANINDUSA
100
AcDbLine
 10
5489.705511622015
 20
2941.307489763357
 30
0.0
 11
5489.696726314608
 21
2941.308431546547
 31
0.0
  0
LWPOLYLINE
  5
1A08
330
1F
100
AcDbEntity
  8
SANINDUSA
100
AcDbPolyline
 90
        3
 70
   128
 43
0.0
 10
5489.844547433663
 20
2941.30551446543
 10
5489.842954788241
 20
2941.305473010399
 10
5489.818200424198
 20
2941.304828058341
  0
LINE
  5
1A0A
330
1F
100
AcDbEntity
  8
SANINDUSA
100
AcDbLine
 10
5489.914388596896
 20
2941.30733079777
 30
0.0
 11
5489.894475817565
 21
2941.30681313143
 31
0.0
  0
LWPOLYLINE
  5
1A0B
330
1F
100
AcDbEntity
  8
SANINDUSA
100
AcDbPolyline
 90
        3
 70
   128
 43
0.0
 10
5489.963167399053
 20
2941.308598588564
 10
5489.941003017012
 20
2941.308022569277
 10
5489.924453054086
 20
2941.307579706766
  0
LINE
  5
1A0D
330
1F
100
AcDbEntity
  8
SANINDUSA
100
AcDbLine
 10
5490.060119978968
 20
2941.311117987492
 30
0.0
 11
5490.028670690838
 21
2941.31030077801
 31
0.0
  0
SPLINE
  5
1A0E
330
1F
100
AcDbEntity
  8
SANINDUSA
100
AcDbSpline
210
0.0
220
0.0
230
1.0
 70
     8
 71
     3
 72
    11
 73
     7
 74
     0
 42
0.0000000001
 43
0.0000000001
 40
0.0
 40
0.0
 40
0.0
 40
0.0
 40
0.3102129093846441
 40
0.6204464141539528
 40
0.9306603357199541
 40
1.0
 40
1.0
 40
1.0
 40
1.0
 10
5489.808722749237
 20
2941.298946421006
 30
0.0
 10
5489.808835241275
 20
2941.298957458716
 30
0.0
 10
5489.809060232819
 20
2941.298979534869
 30
0.0
 10
5489.809358854855
 20
2941.299152115002
 30
0.0
 10
5489.809529398197
 20
2941.299339787185
 30
0.0
 10
5489.8095959099
 20
2941.299459552653
 30
0.0
 10
5489.809608060751
 20
2941.299481432297
 30
0.0
  0
SPLINE
  5
1A0F
330
1F
100
AcDbEntity
  8
SANINDUSA
100
AcDbSpline
210
0.0
220
0.0
230
1.0
 70
     8
 71
     3
 72
    10
 73
     6
 74
     0
 42
0.0000000001
 43
0.0000000001
 40
0.0
 40
0.0
 40
0.0
 40
0.0
 40
0.5
 40
0.5
 40
1.0
 40
1.0
 40
1.0
 40
1.0
 10
5489.714204596861
 20
2941.299728185808
 30
0.0
 10
5489.714254199573
 20
2941.299506366813
 30
0.0
 10
5489.714377923195
 20
2941.299308032454
 30
0.0
 10
5489.714732679725
 20
2941.299023855811
 30
0.0
 10
5489.714953198364
 20
2941.298946413854
 30
0.0
 10
5489.71518049573
 20
2941.298946413854
 30
0.0
  0
SPLINE
  5
1A10
330
1F
100
AcDbEntity
  8
SANINDUSA
100
AcDbSpline
210
0.0
220
0.0
230
1.0
 70
     8
 71
     3
 72
    94
 73
    90
 74
     0
 42
0.0000000001
 43
0.0000000001
 40
0.0
 40
0.0
 40
0.0
 40
0.0
 40
0.005064599788094
 40
0.010139331109653
 40
0.0152188771237403
 40
0.0202966614423456
 40
0.0253662187952504
 40
0.0304212066717872
 40
0.0354554165122095
 40
0.0404627846617506
 40
0.0454374032879923
 40
0.0503735314557474
 40
0.081519688723955
 40
0.1137159991797829
 40
0.1289997112735661
 40
0.1452433938453614
 40
0.1594918656362279
 40
0.1769414259851603
 40
0.1913675902805295
 40
0.2016566577104609
 40
0.2084489318712375
 40
0.2200027123934311
 40
0.2303236494136596
 40
0.2395876396222345
 40
0.2482511729737642
 40
0.2565644310323468
 40
0.2645682608984083
 40
0.272304549232173
 40
0.2798161190795706
 40
0.287145455616012
 40
0.2943347993325128
 40
0.301426365971343
 40
0.3034547119644908
 40
0.3055980936446288
 40
0.3078961688716126
 40
0.3103704978096851
 40
0.3130305527811238
 40
0.3158816241122734
 40
0.3230413744097261
 40
0.3308170569751278
 40
0.345269331845572
 40
0.3612331978310652
 40
0.3900674415513702
 40
0.4229184643557473
 40
0.4268494016478522
 40
0.4307674784072729
 40
0.4346868946408819
 40
0.4386348431118043
 40
0.4413747877097043
 40
0.444908959496096
 40
0.4492476236822497
 40
0.4544027736369251
 40
0.4698718758452948
 40
0.4858359876632469
 40
0.5156990842378818
 40
0.548779905265265
 40
0.5749353242375436
 40
0.6114347629439053
 40
0.6322915713997382
 40
0.6496043818097487
 40
0.6635839485244091
 40
0.674426483819957
 40
0.7004999121629588
 40
0.7244803250682955
 40
0.7342550312826716
 40
0.742836781759851
 40
0.7502924655680156
 40
0.7567104125044142
 40
0.7622621754197621
 40
0.7749981901825464
 40
0.7875347110733705
 40
0.7997384053979073
 40
0.8125023199697224
 40
0.8252883578236735
 40
0.8379190390779719
 40
0.850209677367043
 40
0.8619891707683557
 40
0.8674618123216351
 40
0.8777044910238968
 40
0.883180416523955
 40
0.8884233847932151
 40
0.8934361586661669
 40
0.9097866874405701
 40
0.9248280864882669
 40
0.9538158846124812
 40
0.9808593862883519
 40
0.9872607286713964
 40
0.9936419562291744
 40
1.0
 40
1.0
 40
1.0
 40
1.0
 10
5489.718693207292
 20
2941.318145567426
 30
0.0
 10
5489.718695250507
 20
2941.31814886537
 30
0.0
 10
5489.718699341025
 20
2941.318155467857
 30
0.0
 10
5489.718719264981
 20
2941.318163828011
 30
0.0
 10
5489.718749165721
 20
2941.318171076577
 30
0.0
 10
5489.718789908348
 20
2941.318177102376
 30
0.0
 10
5489.718841105312
 20
2941.31818193537
 30
0.0
 10
5489.718902710374
 20
2941.318185567482
 30
0.0
 10
5489.718974591469
 20
2941.318188000865
 30
0.0
 10
5489.719056646297
 20
2941.318189234787
 30
0.0
 10
5489.719148765889
 20
2941.318189269872
 30
0.0
 10
5489.719431944827
 20
2941.318186036925
 30
0.0
 10
5489.720086452789
 20
2941.318160081123
 30
0.0
 10
5489.721163354978
 20
2941.318093903104
 30
0.0
 10
5489.722246802048
 20
2941.318016890012
 30
0.0
 10
5489.723115112256
 20
2941.317951721508
 30
0.0
 10
5489.724121550728
 20
2941.317873043815
 30
0.0
 10
5489.725175913392
 20
2941.317788426945
 30
0.0
 10
5489.726217994231
 20
2941.317703418547
 30
0.0
 10
5489.727043662735
 20
2941.317635595991
 30
0.0
 10
5489.727825471312
 20
2941.317571237713
 30
0.0
 10
5489.728631293035
 20
2941.317505241084
 30
0.0
 10
5489.729545510943
 20
2941.317430961568
 30
0.0
 10
5489.73040416117
 20
2941.317362158182
 30
0.0
 10
5489.731223049518
 20
2941.31729782529
 30
0.0
 10
5489.732022328724
 20
2941.317236513465
 30
0.0
 10
5489.732811055013
 20
2941.317177691958
 30
0.0
 10
5489.733591629822
 20
2941.317121365051
 30
0.0
 10
5489.734366390071
 20
2941.317067546206
 30
0.0
 10
5489.735138389047
 20
2941.317016215255
 30
0.0
 10
5489.735909080667
 20
2941.31696745536
 30
0.0
 10
5489.736503430776
 20
2941.316931893653
 30
0.0
 10
5489.736913090443
 20
2941.31690836702
 30
0.0
 10
5489.737146790156
 20
2941.316895651331
 30
0.0
 10
5489.737400568983
 20
2941.316882985129
 30
0.0
 10
5489.737674366772
 20
2941.316870351037
 30
0.0
 10
5489.737971007411
 20
2941.316857724428
 30
0.0
 10
5489.73844712338
 20
2941.316838984636
 30
0.0
 10
5489.739125935503
 20
2941.316815856957
 30
0.0
 10
5489.74026909066
 20
2941.316783816935
 30
0.0
 10
5489.741793038975
 20
2941.316751576448
 30
0.0
 10
5489.744226531986
 20
2941.316715442919
 30
0.0
 10
5489.74752620473
 20
2941.316687951533
 30
0.0
 10
5489.750421939255
 20
2941.31667839213
 30
0.0
 10
5489.752241674068
 20
2941.316675949656
 30
0.0
 10
5489.752769778557
 20
2941.316675379765
 30
0.0
 10
5489.753300545811
 20
2941.316674940658
 30
0.0
 10
5489.753777292516
 20
2941.31667476757
 30
0.0
 10
5489.754238127268
 20
2941.31667445408
 30
0.0
 10
5489.754718527152
 20
2941.31667383843
 30
0.0
 10
5489.755309484304
 20
2941.31667294073
 30
0.0
 10
5489.756443955834
 20
2941.316671015452
 30
0.0
 10
5489.758113716521
 20
2941.316667439276
 30
0.0
 10
5489.760922668571
 20
2941.31665938343
 30
0.0
 10
5489.764549069617
 20
2941.31664542156
 30
0.0
 10
5489.768622855912
 20
2941.316625601212
 30
0.0
 10
5489.772930959246
 20
2941.31660079258
 30
0.0
 10
5489.776606732296
 20
2941.316578098538
 30
0.0
 10
5489.77978356363
 20
2941.316556931746
 30
0.0
 10
5489.781944501735
 20
2941.316541861534
 30
0.0
 10
5489.783645945044
 20
2941.31652946738
 30
0.0
 10
5489.785655891965
 20
2941.316514392335
 30
0.0
 10
5489.787979798565
 20
2941.316496355595
 30
0.0
 10
5489.790136066737
 20
2941.316478575053
 30
0.0
 10
5489.791593738315
 20
2941.316465959403
 30
0.0
 10
5489.792458741463
 20
2941.316458238146
 30
0.0
 10
5489.793194541084
 20
2941.316451571566
 30
0.0
 10
5489.793820552247
 20
2941.316445888876
 30
0.0
 10
5489.794595511309
 20
2941.316439165203
 30
0.0
 10
5489.795535197577
 20
2941.316431975061
 30
0.0
 10
5489.796623539775
 20
2941.316425175646
 30
0.0
 10
5489.797657296517
 20
2941.316420308869
 30
0.0
 10
5489.798646612761
 20
2941.316417632895
 30
0.0
 10
5489.799589043758
 20
2941.316417257407
 30
0.0
 10
5489.800454821829
 20
2941.316419148859
 30
0.0
 10
5489.801236964551
 20
2941.316423404031
 30
0.0
 10
5489.801812415332
 20
2941.316428693994
 30
0.0
 10
5489.80233934144
 20
2941.316435790367
 30
0.0
 10
5489.802701267736
 20
2941.316441661367
 30
0.0
 10
5489.803050912914
 20
2941.316447436436
 30
0.0
 10
5489.803300373111
 20
2941.316451705054
 30
0.0
 10
5489.803705041472
 20
2941.316458819569
 30
0.0
 10
5489.8042063996
 20
2941.316468178057
 30
0.0
 10
5489.804909531283
 20
2941.316482462792
 30
0.0
 10
5489.805515717457
 20
2941.316496576748
 30
0.0
 10
5489.805808395394
 20
2941.316505295246
 30
0.0
 10
5489.805897820558
 20
2941.316509099125
 30
0.0
 10
5489.805924380093
 20
2941.316510622906
 30
0.0
 10
5489.805927488619
 20
2941.316511360487
 30
0.0
 10
5489.805929040052
 20
2941.316511728606
 30
0.0
  0
LWPOLYLINE
  5
1A11
330
1F
100
AcDbEntity
  8
SANINDUSA
100
AcDbPolyline
 90
        4
 70
   128
 43
0.0
 10
5489.805929481867
 20
2941.316511731007
 10
5489.802381396178
 20
2941.313617150643
 10
5489.798833317939
 20
2941.310722570279
 10
5489.791847012821
 20
2941.305023054935
  0
SPLINE
  5
1A12
330
1F
100
AcDbEntity
  8
SANINDUSA
100
AcDbSpline
210
0.0
220
0.0
230
1.0
 70
     8
 71
     3
 72
    52
 73
    48
 74
     0
 42
0.0000000001
 43
0.0000000001
 40
0.0
 40
0.0
 40
0.0
 40
0.0
 40
0.0059744763349351
 40
0.0122554299789808
 40
0.0188428626427683
 40
0.0257367755436351
 40
0.0329371694775183
 40
0.0404440448761754
 40
0.0482574018531845
 40
0.056377240241259
 40
0.0648035596227834
 40
0.0735363593549843
 40
0.0825756385908385
 40
0.0919213962965525
 40
0.1015736312662607
 40
0.1115323421344752
 40
0.1217975273866636
 40
0.1515184395393226
 40
0.1817282975289054
 40
0.212427682704076
 40
0.243617147907572
 40
0.2760461297312991
 40
0.3084752498459821
 40
0.340904514954773
 40
0.3928832747487005
 40
0.441587598490118
 40
0.4870162824977184
 40
0.517676671028092
 40
0.5477369310372588
 40
0.5865666386905879
 40
0.6087278976702799
 40
0.6419081809298814
 40
0.6695080960715645
 40
0.6899682008828141
 40
0.7059902672398217
 40
0.7308961404477029
 40
0.7615965802167097
 40
0.7818786648386137
 40
0.7917370388699867
 40
0.8130638962348664
 40
0.8334297264113271
 40
0.8528356616978447
 40
0.9144616688794277
 40
0.9745578198170528
 40
0.9830131915676366
 40
0.9914938609823215
 40
1.0
 40
1.0
 40
1.0
 40
1.0
 10
5489.791847070637
 20
2941.305023048949
 30
0.0
 10
5489.79184604972
 20
2941.305022685787
 30
0.0
 10
5489.791843955515
 20
2941.305021940833
 30
0.0
 10
5489.791826364301
 20
2941.305020221847
 30
0.0
 10
5489.79179623178
 20
2941.305018039202
 30
0.0
 10
5489.7917507158
 20
2941.305015344913
 30
0.0
 10
5489.791688271353
 20
2941.305012152634
 30
0.0
 10
5489.791606890985
 20
2941.305008458344
 30
0.0
 10
5489.791504614985
 20
2941.305004263088
 30
0.0
 10
5489.791379391475
 20
2941.304999566516
 30
0.0
 10
5489.791229123359
 20
2941.304994368543
 30
0.0
 10
5489.79105166292
 20
2941.304988669586
 30
0.0
 10
5489.790844822729
 20
2941.304982467697
 30
0.0
 10
5489.790606381738
 20
2941.304975770359
 30
0.0
 10
5489.790334099279
 20
2941.304968548073
 30
0.0
 10
5489.790025707264
 20
2941.304960916147
 30
0.0
 10
5489.789463397093
 20
2941.304947143166
 30
0.0
 10
5489.788543991406
 20
2941.304932679049
 30
0.0
 10
5489.787118534748
 20
2941.304928059444
 30
0.0
 10
5489.785436640381
 20
2941.304935364641
 30
0.0
 10
5489.783487685594
 20
2941.304956963817
 30
0.0
 10
5489.781285212119
 20
2941.304985814149
 30
0.0
 10
5489.778852401666
 20
2941.305014764436
 30
0.0
 10
5489.775719700888
 20
2941.305052351949
 30
0.0
 10
5489.771879526542
 20
2941.305093782268
 30
0.0
 10
5489.767426388843
 20
2941.305132450354
 30
0.0
 10
5489.763516469383
 20
2941.305160267474
 30
0.0
 10
5489.760177052717
 20
2941.305178120587
 30
0.0
 10
5489.757062054757
 20
2941.305187033726
 30
0.0
 10
5489.754257683173
 20
2941.30519309138
 30
0.0
 10
5489.751436421414
 20
2941.305206115305
 30
0.0
 10
5489.749026277802
 20
2941.305241883494
 30
0.0
 10
5489.746772412452
 20
2941.305306077068
 30
0.0
 10
5489.74507280846
 20
2941.305390533038
 30
0.0
 10
5489.743509508542
 20
2941.305526360885
 30
0.0
 10
5489.741773092416
 20
2941.305702421625
 30
0.0
 10
5489.740070751921
 20
2941.305892886482
 30
0.0
 10
5489.738817876499
 20
2941.306043757293
 30
0.0
 10
5489.737817036281
 20
2941.306170084628
 30
0.0
 10
5489.736876294553
 20
2941.306282849887
 30
0.0
 10
5489.735865270063
 20
2941.306405327586
 30
0.0
 10
5489.734358616264
 20
2941.306582120409
 30
0.0
 10
5489.732761363582
 20
2941.306746570173
 30
0.0
 10
5489.732046726676
 20
2941.306774760813
 30
0.0
 10
5489.731886435965
 20
2941.306746990763
 30
0.0
 10
5489.731853246979
 20
2941.306734442457
 30
0.0
 10
5489.731849131476
 20
2941.306723035815
 30
0.0
 10
5489.731847070638
 20
2941.306717323943
 30
0.0
  0
LWPOLYLINE
  5
1A13
330
1F
100
AcDbEntity
  8
SANINDUSA
100
AcDbPolyline
 90
        4
 70
   128
 43
0.0
 10
5489.731846876328
 20
2941.306717585185
 10
5489.728390134755
 20
2941.309720646002
 10
5489.724933303777
 20
2941.312723617413
 10
5489.718691341463
 20
2941.318145762541
  0
LWPOLYLINE
  5
1A16
330
1F
100
AcDbEntity
  8
SANINDUSA
100
AcDbPolyline
 90
        5
 70
   128
 43
0.0
 10
5489.805929042283
 20
2941.316511731007
 10
5489.847155773897
 20
2941.317586432555
 10
5489.893657224137
 20
2941.318795900204
 10
5489.977721795324
 20
2941.320980887272
 10
5490.048130832497
 20
2941.322810511448
  0
LWPOLYLINE
  5
1A17
330
1F
100
AcDbEntity
  8
SANINDUSA
100
AcDbPolyline
 90
        3
 70
   128
 43
0.0
 10
5489.703185982887
 20
2941.319809149362
 10
5489.70350196201
 20
2941.319775264123
 10
5489.718693204109
 20
2941.318145553925
  0
SPLINE
  5
1A19
330
1F
100
AcDbEntity
  8
SANINDUSA
100
AcDbSpline
210
0.0
220
0.0
230
1.0
 70
     8
 71
     3
 72
    14
 73
    10
 74
     0
 42
0.0000000001
 43
0.0000000001
 40
0.0
 40
0.0
 40
0.0
 40
0.0
 40
0.25
 40
0.25
 40
0.5
 40
0.5
 40
0.75
 40
0.75
 40
1.0
 40
1.0
 40
1.0
 40
1.0
 10
5489.656632422222
 20
2941.571197768161
 30
0.0
 10
5489.656644100631
 20
2941.571065380711
 30
0.0
 10
5489.656681670493
 20
2941.570937636265
 30
0.0
 10
5489.656804330176
 20
2941.570704305241
 30
0.0
 10
5489.65688934517
 20
2941.570600120817
 30
0.0
 10
5489.657092291366
 20
2941.570433820663
 30
0.0
 10
5489.65721173792
 20
2941.570370787999
 30
0.0
 10
5489.657463189138
 20
2941.570296670795
 30
0.0
 10
5489.657597397457
 20
2941.570284600001
 30
0.0
 10
5489.657729512328
 20
2941.57029905924
 30
0.0
  0
SPLINE
  5
1A1A
330
1F
100
AcDbEntity
  8
SANINDUSA
100
AcDbSpline
210
0.0
220
0.0
230
1.0
 70
     8
 71
     3
 72
    14
 73
    10
 74
     0
 42
0.0000000001
 43
0.0000000001
 40
0.0
 40
0.0
 40
0.0
 40
0.0
 40
0.25
 40
0.25
 40
0.5
 40
0.5
 40
0.75
 40
0.75
 40
1.0
 40
1.0
 40
1.0
 40
1.0
 10
5489.660521010051
 20
2941.538654313297
 30
0.0
 10
5489.660388406043
 20
2941.538645424297
 30
0.0
 10
5489.660259893489
 20
2941.538610669467
 30
0.0
 10
5489.660023858148
 20
2941.538493224249
 30
0.0
 10
5489.659917795111
 20
2941.538410607047
 30
0.0
 10
5489.659746921923
 20
2941.538211459171
 30
0.0
 10
5489.659681200737
 20
2941.53809346724
 30
0.0
 10
5489.659601501376
 20
2941.537843734027
 30
0.0
 10
5489.659586491558
 20
2941.537709799005
 30
0.0
 10
5489.659598170778
 20
2941.537577399315
 30
0.0
  0
SPLINE
  5
1A1B
330
1F
100
AcDbEntity
  8
SANINDUSA
100
AcDbSpline
210
0.0
220
0.0
230
1.0
 70
     8
 71
     3
 72
    22
 73
    18
 74
     0
 42
0.0000000001
 43
0.0000000001
 40
0.0
 40
0.0
 40
0.0
 40
0.0
 40
0.0382543003672524
 40
0.1095252405772342
 40
0.1807959315221058
 40
0.2520200649092358
 40
0.3232438821288557
 40
0.3943765551085938
 40
0.4655090177085622
 40
0.5365560548136382
 40
0.6076030574747805
 40
0.6786220661073556
 40
0.749641396356823
 40
0.8380356685361595
 40
0.9092701663018589
 40
0.9805047879019253
 40
1.0
 40
1.0
 40
1.0
 40
1.0
 10
5489.66054502863
 20
2941.538838561037
 30
0.0
 10
5489.660588069539
 20
2941.53902619189
 30
0.0
 10
5489.660711299237
 20
2941.539563394615
 30
0.0
 10
5489.660840460022
 20
2941.540931954776
 30
0.0
 10
5489.660934708425
 20
2941.54284457935
 30
0.0
 10
5489.660950733789
 20
2941.545114602293
 30
0.0
 10
5489.660896021438
 20
2941.547636543211
 30
0.0
 10
5489.660769095914
 20
2941.550355783949
 30
0.0
 10
5489.660577312478
 20
2941.553185386926
 30
0.0
 10
5489.660323878633
 20
2941.556049723877
 30
0.0
 10
5489.660018294889
 20
2941.558866800641
 30
0.0
 10
5489.659666923701
 20
2941.561555852615
 30
0.0
 10
5489.659249388546
 20
2941.564244690554
 30
0.0
 10
5489.658799109523
 20
2941.566617741398
 30
0.0
 10
5489.65833567441
 20
2941.568521749495
 30
0.0
 10
5489.658006497535
 20
2941.569657257117
 30
0.0
 10
5489.657829393311
 20
2941.570039473427
 30
0.0
 10
5489.657791338745
 20
2941.570121600636
 30
0.0
  0
LWPOLYLINE
  5
1A20
330
1F
100
AcDbEntity
  8
SANINDUSA
100
AcDbPolyline
 90
        3
 70
   128
 43
0.0
 10
5489.671660192195
 20
2941.538516338327
 10
5489.68689218897
 20
2941.365815054038
 10
5489.689749784652
 20
2941.333413253882
  0
SPLINE
  5
1A21
330
1F
100
AcDbEntity
  8
SANINDUSA
100
AcDbSpline
210
0.0
220
0.0
230
1.0
 70
     8
 71
     3
 72
    22
 73
    18
 74
     0
 42
0.0000000001
 43
0.0000000001
 40
0.0
 40
0.0
 40
0.0
 40
0.0
 40
0.0683033132883251
 40
0.1538148144711564
 40
0.2219758805023156
 40
0.2901363042933447
 40
0.3582913481563724
 40
0.4264458087349104
 40
0.4945276627532288
 40
0.5626093537709578
 40
0.6306399829726498
 40
0.6986709122236917
 40
0.7667311511028331
 40
0.8347919511858153
 40
0.9029454349412057
 40
0.9710993614994889
 40
1.0
 40
1.0
 40
1.0
 40
1.0
 10
5489.669343806688
 20
2941.571742891678
 30
0.0
 10
5489.669483529132
 20
2941.571438123933
 30
0.0
 10
5489.669798175389
 20
2941.570751805922
 30
0.0
 10
5489.670269936871
 20
2941.569085641757
 30
0.0
 10
5489.670732213905
 20
2941.56699198223
 30
0.0
 10
5489.671142719068
 20
2941.564730136365
 30
0.0
 10
5489.67152534626
 20
2941.562201780542
 30
0.0
 10
5489.671871297733
 20
2941.559485446756
 30
0.0
 10
5489.672169682183
 20
2941.556653240658
 30
0.0
 10
5489.67241422744
 20
2941.55378932041
 30
0.0
 10
5489.672595864149
 20
2941.550974716788
 30
0.0
 10
5489.672711770039
 20
2941.548284577608
 30
0.0
 10
5489.672755050968
 20
2941.545803684109
 30
0.0
 10
5489.672727808082
 20
2941.54358236055
 30
0.0
 10
5489.672621989445
 20
2941.541730158189
 30
0.0
 10
5489.672491719179
 20
2941.540460607378
 30
0.0
 10
5489.672373800318
 20
2941.539989404282
 30
0.0
 10
5489.672338686768
 20
2941.539849090733
 30
0.0
  0
LINE
  5
1A22
330
1F
100
AcDbEntity
  8
SANINDUSA
100
AcDbLine
 10
5489.665773577872
 20
2941.60525374987
 30
0.0
 11
5489.668672837201
 21
2941.572384718218
 31
0.0
  0
SPLINE
  5
1A24
330
1F
100
AcDbEntity
  8
SANINDUSA
100
AcDbSpline
210
0.0
220
0.0
230
1.0
 70
     8
 71
     3
 72
    12
 73
     8
 74
     0
 42
0.0000000001
 43
0.0000000001
 40
0.0
 40
0.0
 40
0.0
 40
0.0
 40
0.2499999999999898
 40
0.2499999999999898
 40
0.4999999999999796
 40
0.4999999999999796
 40
1.0
 40
1.0
 40
1.0
 40
1.0
 10
5489.671660188143
 20
2941.53851634157
 30
0.0
 10
5489.671648539121
 20
2941.538648411252
 30
0.0
 10
5489.671610769404
 20
2941.538775705864
 30
0.0
 10
5489.671488202571
 20
2941.539008377636
 30
0.0
 10
5489.671403549601
 20
2941.539112316922
 30
0.0
 10
5489.671101290258
 20
2941.539362937864
 30
0.0
 10
5489.670832679454
 20
2941.53944762147
 30
0.0
 10
5489.670568559152
 20
2941.539424831369
 30
0.0
  0
SPLINE
  5
1A26
330
1F
100
AcDbEntity
  8
SANINDUSA
100
AcDbSpline
210
0.0
220
0.0
230
1.0
 70
     8
 71
     3
 72
    12
 73
     8
 74
     0
 42
0.0000000001
 43
0.0000000001
 40
0.0
 40
0.0
 40
0.0
 40
0.0
 40
0.2499999999999974
 40
0.2499999999999974
 40
0.4999999999999949
 40
0.4999999999999949
 40
1.0
 40
1.0
 40
1.0
 40
1.0
 10
5489.667757060683
 20
2941.571299164276
 30
0.0
 10
5489.667889099427
 20
2941.571311062716
 30
0.0
 10
5489.668016304317
 20
2941.571348317593
 30
0.0
 10
5489.668250058378
 20
2941.571469310563
 30
0.0
 10
5489.668354728383
 20
2941.571552679441
 30
0.0
 10
5489.668608857686
 20
2941.571852375117
 30
0.0
 10
5489.668696143557
 20
2941.572120532094
 30
0.0
 10
5489.668672840918
 20
2941.572384717476
 30
0.0
  0
ELLIPSE
  5
1A27
330
1F
100
AcDbEntity
  8
SANINDUSA
100
AcDbEllipse
 10
5489.670166198158
 20
2941.555450496378
 30
0.0
 11
0.0917840182124523
 21
0.0080953069751905
 31
-0.0000000000000001
210
0.0
220
0.0000000000000178
230
1.0
 40
0.1736481776669322
 41
4.591806800949946
 42
4.701457771166213
  0
ELLIPSE
  5
1A28
330
1F
100
AcDbEntity
  8
SANINDUSA
100
AcDbEllipse
 10
5489.670166198158
 20
2941.555450496378
 30
0.0
 11
0.0917840182124523
 21
0.0080953069751905
 31
-0.0000000000000001
210
0.0
220
0.0000000000000178
230
1.0
 40
0.1736481776669322
 41
1.581729670106753
 42
1.691383364368418
  0
LINE
  5
1A29
330
1F
100
AcDbEntity
  8
SANINDUSA
100
AcDbLine
 10
5489.731847070042
 20
2941.306717316964
 30
0.0
 11
5489.731847070042
 21
2941.299946408131
 31
0.0
  0
ARC
  5
1A2A
330
1F
100
AcDbEntity
  8
SANINDUSA
100
AcDbCircle
 10
5489.730847070639
 20
2941.299946413853
 30
0.0
 40
0.0010000000000002
100
AcDbArc
 50
270.0
 51
0.0
  0
SPLINE
  5
1A2B
330
1F
100
AcDbEntity
  8
SANINDUSA
100
AcDbSpline
210
0.0
220
0.0
230
1.0
 70
     8
 71
     3
 72
    24
 73
    20
 74
     0
 42
0.0000000001
 43
0.0000000001
 40
0.0
 40
0.0
 40
0.0
 40
0.0
 40
0.1249999999999848
 40
0.1249999999999848
 40
0.1874999999999834
 40
0.1874999999999834
 40
0.249999999999982
 40
0.249999999999982
 40
0.3749999999999849
 40
0.3749999999999849
 40
0.499999999999988
 40
0.499999999999988
 40
0.6249999999999911
 40
0.6249999999999911
 40
0.749999999999994
 40
0.749999999999994
 40
0.8749999999999971
 40
0.8749999999999971
 40
1.0
 40
1.0
 40
1.0
 40
1.0
 10
5489.696726312962
 20
2941.308431543544
 30
0.0
 10
5489.696392275885
 20
2941.308467342755
 30
0.0
 10
5489.696060305639
 20
2941.308469730506
 30
0.0
 10
5489.695565323556
 20
2941.30842524728
 30
0.0
 10
5489.695400828823
 20
2941.308402348145
 30
0.0
 10
5489.695072861517
 20
2941.308340026107
 30
0.0
 10
5489.69490895332
 20
2941.308300382002
 30
0.0
 10
5489.694429443403
 20
2941.308158999932
 30
0.0
 10
5489.694122502021
 20
2941.308034578588
 30
0.0
 10
5489.693533948774
 20
2941.307725720788
 30
0.0
 10
5489.693251179236
 20
2941.307539457338
 30
0.0
 10
5489.692736089458
 20
2941.307121459131
 30
0.0
 10
5489.692500429364
 20
2941.306888414414
 30
0.0
 10
5489.692074217039
 20
2941.306372763345
 30
0.0
 10
5489.69188767944
 20
2941.30609415121
 30
0.0
 10
5489.691575515991
 20
2941.305510001172
 30
0.0
 10
5489.691447556607
 20
2941.305200180249
 30
0.0
 10
5489.691256026904
 20
2941.304558297779
 30
0.0
 10
5489.691193191868
 20
2941.304230505404
 30
0.0
 10
5489.691163672374
 20
2941.303895781638
 30
0.0
  0
LINE
  5
1A2C
330
1F
100
AcDbEntity
  8
SANINDUSA
100
AcDbLine
 10
5489.690727181617
 20
2941.298946421006
 30
0.0
 11
5489.691163666431
 21
2941.303895782091
 31
0.0
  0
LINE
  5
1A2D
330
1F
100
AcDbEntity
  8
SANINDUSA
100
AcDbLine
 10
5489.680646531168
 20
2941.298946421006
 30
0.0
 11
5489.690727181617
 21
2941.298946421006
 31
0.0
  0
SPLINE
  5
1A2E
330
1F
100
AcDbEntity
  8
SANINDUSA
100
AcDbSpline
210
0.0
220
0.0
230
1.0
 70
     8
 71
     3
 72
    15
 73
    11
 74
     0
 42
0.0000000001
 43
0.0000000001
 40
0.0
 40
0.0
 40
0.0
 40
0.0
 40
0.1215464685689555
 40
0.2430955377271323
 40
0.3646168747377162
 40
0.486143257455329
 40
0.60817878900207
 40
0.7302180511049372
 40
0.8651072404299616
 40
0.9999999999999998
 40
0.9999999999999998
 40
0.9999999999999998
 40
0.9999999999999998
 10
5489.689749784652
 20
2941.333413253882
 30
0.0
 10
5489.689865291741
 20
2941.33258103766
 30
0.0
 10
5489.690096308393
 20
2941.330916587411
 30
0.0
 10
5489.690962982814
 20
2941.328536607203
 30
0.0
 10
5489.692193781755
 20
2941.326333235695
 30
0.0
 10
5489.693778930366
 20
2941.324360965732
 30
0.0
 10
5489.695677189609
 20
2941.322682224908
 30
0.0
 10
5489.697903214999
 20
2941.32129547642
 30
0.0
 10
5489.700423826105
 20
2941.320257986337
 30
0.0
 10
5489.702265255836
 20
2941.319958763008
 30
0.0
 10
5489.703185982887
 20
2941.319809149362
 30
0.0
  0
LWPOLYLINE
  5
1A2F
330
1F
100
AcDbEntity
  8
SANINDUSA
100
AcDbPolyline
 90
        3
 70
   128
 43
0.0
 10
5489.659598164145
 20
2941.537577401259
 10
5489.677104808275
 20
2941.33910257683
 10
5489.680646531168
 20
2941.298946421006
  0
LINE
  5
1A30
330
1F
100
AcDbEntity
  8
SANINDUSA
100
AcDbLine
 10
5489.715180493775
 20
2941.298946421006
 30
0.0
 11
5489.730847068016
 21
2941.298946421006
 31
0.0
  0
SPLINE
  5
1A31
330
1F
100
AcDbEntity
  8
SANINDUSA
100
AcDbSpline
210
0.0
220
0.0
230
1.0
 70
     8
 71
     3
 72
    18
 73
    14
 74
     0
 42
0.0000000001
 43
0.0000000001
 40
0.0
 40
0.0
 40
0.0
 40
0.0
 40
0.2499999999999969
 40
0.2499999999999969
 40
0.3749999999999953
 40
0.3749999999999953
 40
0.4999999999999938
 40
0.4999999999999938
 40
0.6249999999999922
 40
0.6249999999999922
 40
0.7499999999999907
 40
0.7499999999999907
 40
1.0
 40
1.0
 40
1.0
 40
1.0
 10
5490.028670684286
 20
2941.310300785474
 30
0.0
 10
5490.028425666483
 20
2941.310294418711
 30
0.0
 10
5490.028187350766
 20
2941.310243891356
 30
0.0
 10
5490.027848786523
 20
2941.310104590515
 30
0.0
 10
5490.027741607404
 20
2941.31004851514
 30
0.0
 10
5490.027538288989
 20
2941.309917609935
 30
0.0
 10
5490.027441262853
 20
2941.309841872893
 30
0.0
 10
5490.027264061449
 20
2941.309675268208
 30
0.0
 10
5490.027183920311
 20
2941.309584820281
 30
0.0
 10
5490.027040336315
 20
2941.309389819802
 30
0.0
 10
5490.026976497677
 20
2941.309284164749
 30
0.0
 10
5490.026817570914
 20
2941.308956869044
 30
0.0
 10
5490.026751609071
 20
2941.308719939657
 30
0.0
 10
5490.026730247154
 20
2941.30847577183
 30
0.0
  0
LINE
  5
1A32
330
1F
100
AcDbEntity
  8
SANINDUSA
100
AcDbLine
 10
5490.026295848075
 20
2941.30351064668
 30
0.0
 11
5490.026730246726
 21
2941.308475773194
 31
0.0
  0
ARC
  5
1A33
330
1F
100
AcDbEntity
  8
SANINDUSA
100
AcDbCircle
 10
5490.021314880491
 20
2941.303946413853
 30
0.0
 40
0.005
100
AcDbArc
 50
270.0
 51
355.0000000037089
  0
LINE
  5
1A34
330
1F
100
AcDbEntity
  8
SANINDUSA
100
AcDbLine
 10
5489.970478191857
 20
2941.298946421006
 30
0.0
 11
5490.021314881627
 21
2941.298946421006
 31
0.0
  0
ARC
  5
1A35
330
1F
100
AcDbEntity
  8
SANINDUSA
100
AcDbCircle
 10
5489.97047819223
 20
2941.303946413853
 30
0.0
 40
0.0050000000000001
100
AcDbArc
 50
184.9999999962911
 51
270.0
  0
LINE
  5
1A36
330
1F
100
AcDbEntity
  8
SANINDUSA
100
AcDbLine
 10
5489.965211748962
 20
2941.306773583748
 30
0.0
 11
5489.965497217957
 21
2941.30351064668
 31
0.0
  0
SPLINE
  5
1A37
330
1F
100
AcDbEntity
  8
SANINDUSA
100
AcDbSpline
210
0.0
220
0.0
230
1.0
 70
     8
 71
     3
 72
    20
 73
    16
 74
     0
 42
0.0000000001
 43
0.0000000001
 40
0.0
 40
0.0
 40
0.0
 40
0.0
 40
0.125000000000004
 40
0.125000000000004
 40
0.250000000000008
 40
0.250000000000008
 40
0.3750000000000121
 40
0.3750000000000121
 40
0.5000000000000161
 40
0.5000000000000161
 40
0.6250000000000201
 40
0.6250000000000201
 40
0.7500000000000242
 40
0.7500000000000242
 40
1.0
 40
1.0
 40
1.0
 40
1.0
 10
5489.965211748064
 20
2941.306773579903
 30
0.0
 10
5489.965200687987
 20
2941.306899997151
 30
0.0
 10
5489.96517788321
 20
2941.30702334092
 30
0.0
 10
5489.96510975725
 20
2941.307264136128
 30
0.0
 10
5489.965063876708
 20
2941.307382636229
 30
0.0
 10
5489.964950835513
 20
2941.307608178658
 30
0.0
 10
5489.964884426539
 20
2941.307714281403
 30
0.0
 10
5489.964732216451
 20
2941.307913409319
 30
0.0
 10
5489.964645364384
 20
2941.308007203773
 30
0.0
 10
5489.964458025696
 20
2941.308174539274
 30
0.0
 10
5489.964357324518
 20
2941.308248764654
 30
0.0
 10
5489.964141818586
 20
2941.30837827708
 30
0.0
 10
5489.964026605235
 20
2941.30843340062
 30
0.0
 10
5489.963673899268
 20
2941.308562975244
 30
0.0
 10
5489.963421114206
 20
2941.308605187
 30
0.0
 10
5489.963167399588
 20
2941.308598593386
 30
0.0
  0
LINE
  5
1A38
330
1F
100
AcDbEntity
  8
SANINDUSA
100
AcDbLine
 10
5489.917923159782
 20
2941.298946421006
 30
0.0
 11
5489.921006828431
 21
2941.298946421006
 31
0.0
  0
ARC
  5
1A39
330
1F
100
AcDbEntity
  8
SANINDUSA
100
AcDbCircle
 10
5489.917923158187
 20
2941.299946413853
 30
0.0
 40
0.0010000000000002
100
AcDbArc
 50
184.9999999962911
 51
270.0
  0
LINE
  5
1A3A
330
1F
100
AcDbEntity
  8
SANINDUSA
100
AcDbLine
 10
5489.916432957981
 20
2941.305505763152
 30
0.0
 11
5489.916926965002
 21
2941.29985926614
 31
0.0
  0
SPLINE
  5
1A3B
330
1F
100
AcDbEntity
  8
SANINDUSA
100
AcDbSpline
210
0.0
220
0.0
230
1.0
 70
     8
 71
     3
 72
    12
 73
     8
 74
     0
 42
0.0000000001
 43
0.0000000001
 40
0.0
 40
0.0
 40
0.0
 40
0.0
 40
0.2234142169825129
 40
0.4468202676061036
 40
0.6702225510792599
 40
0.893628925250934
 40
1.0
 40
1.0
 40
1.0
 40
1.0
 10
5489.916432957981
 20
2941.305505763152
 30
0.0
 10
5489.916391336567
 20
2941.305727845481
 30
0.0
 10
5489.91630809526
 20
2941.306172002024
 30
0.0
 10
5489.915912366853
 20
2941.306738895658
 30
0.0
 10
5489.915367306724
 20
2941.307145716361
 30
0.0
 10
5489.914826135299
 20
2941.307320973506
 30
0.0
 10
5489.914495306944
 20
2941.307328401757
 30
0.0
 10
5489.914388596896
 20
2941.30733079777
 30
0.0
  0
SPLINE
  5
1A3C
330
1F
100
AcDbEntity
  8
SANINDUSA
100
AcDbSpline
210
0.0
220
0.0
230
1.0
 70
     8
 71
     3
 72
    18
 73
    14
 74
     0
 42
0.0000000001
 43
0.0000000001
 40
0.0
 40
0.0
 40
0.0
 40
0.0
 40
0.2499999999999737
 40
0.2499999999999737
 40
0.3749999999999698
 40
0.3749999999999698
 40
0.4999999999999659
 40
0.4999999999999659
 40
0.624999999999962
 40
0.624999999999962
 40
0.7499999999999581
 40
0.7499999999999581
 40
1.0
 40
1.0
 40
1.0
 40
1.0
 10
5489.894475816667
 20
2941.306813128699
 30
0.0
 10
5489.894230802177
 20
2941.306806758598
 30
0.0
 10
5489.893992490482
 20
2941.30675622925
 30
0.0
 10
5489.893653931737
 20
2941.306616927045
 30
0.0
 10
5489.893546754449
 20
2941.306560851526
 30
0.0
 10
5489.89334343966
 20
2941.306429946695
 30
0.0
 10
5489.893246415366
 20
2941.306354210235
 30
0.0
 10
5489.893069216827
 20
2941.306187606783
 30
0.0
 10
5489.892989077027
 20
2941.306097159753
 30
0.0
 10
5489.892845495427
 20
2941.305902161706
 30
0.0
 10
5489.892781657742
 20
2941.305796508079
 30
0.0
 10
5489.892622732735
 20
2941.305469216331
 30
0.0
 10
5489.892556771315
 20
2941.305232290844
 30
0.0
 10
5489.89253540837
 20
2941.304988126416
 30
0.0
  0
LINE
  5
1A3D
330
1F
100
AcDbEntity
  8
SANINDUSA
100
AcDbLine
 10
5489.892406144996
 20
2941.30351064668
 30
0.0
 11
5489.892535406981
 21
2941.304988126614
 31
0.0
  0
ARC
  5
1A3E
330
1F
100
AcDbEntity
  8
SANINDUSA
100
AcDbCircle
 10
5489.887425171144
 20
2941.303946413853
 30
0.0
 40
0.0050000000000001
100
AcDbArc
 50
270.0
 51
355.0000000037089
  0
LINE
  5
1A3F
330
1F
100
AcDbEntity
  8
SANINDUSA
100
AcDbLine
 10
5489.851588483784
 20
2941.298946421006
 30
0.0
 11
5489.887425171096
 21
2941.298946421006
 31
0.0
  0
ARC
  5
1A40
330
1F
100
AcDbEntity
  8
SANINDUSA
100
AcDbCircle
 10
5489.851588482883
 20
2941.303946413853
 30
0.0
 40
0.005
100
AcDbArc
 50
184.9999999962911
 51
270.0
  0
LINE
  5
1A41
330
1F
100
AcDbEntity
  8
SANINDUSA
100
AcDbLine
 10
5489.846591863666
 20
2941.303689460614
 30
0.0
 11
5489.846607509885
 21
2941.30351064668
 31
0.0
  0
SPLINE
  5
1A42
330
1F
100
AcDbEntity
  8
SANINDUSA
100
AcDbSpline
210
0.0
220
0.0
230
1.0
 70
     8
 71
     3
 72
    20
 73
    16
 74
     0
 42
0.0000000001
 43
0.0000000001
 40
0.0
 40
0.0
 40
0.0
 40
0.0
 40
0.1249999999999996
 40
0.1249999999999996
 40
0.2499999999999992
 40
0.2499999999999992
 40
0.3749999999999988
 40
0.3749999999999988
 40
0.4999999999999984
 40
0.4999999999999984
 40
0.6249999999999981
 40
0.6249999999999981
 40
0.7499999999999977
 40
0.7499999999999977
 40
1.0
 40
1.0
 40
1.0
 40
1.0
 10
5489.84659186431
 20
2941.303689459257
 30
0.0
 10
5489.846580803934
 20
2941.303815879921
 30
0.0
 10
5489.846557998233
 20
2941.303939226944
 30
0.0
 10
5489.84648986922
 20
2941.304180028342
 30
0.0
 10
5489.846443986429
 20
2941.304298531555
 30
0.0
 10
5489.846330940048
 20
2941.304524078644
 30
0.0
 10
5489.846264527995
 20
2941.304630183389
 30
0.0
 10
5489.846112310657
 20
2941.304829314571
 30
0.0
 10
5489.846025454451
 20
2941.304923110135
 30
0.0
 10
5489.845838107664
 20
2941.305090446081
 30
0.0
 10
5489.845737402099
 20
2941.30516467123
 30
0.0
 10
5489.845521886532
 20
2941.305294182035
 30
0.0
 10
5489.84540666883
 20
2941.305349303673
 30
0.0
 10
5489.845053949935
 20
2941.305478870935
 30
0.0
 10
5489.844801155545
 20
2941.305521075113
 30
0.0
 10
5489.844547434337
 20
2941.305514470986
 30
0.0
  0
ARC
  5
1A43
330
1F
100
AcDbEntity
  8
SANINDUSA
100
AcDbCircle
 10
5489.792847070638
 20
2941.299946413853
 30
0.0
 40
0.0010000000000002
100
AcDbArc
 50
180.0
 51
270.0
  0
LINE
  5
1A44
330
1F
100
AcDbEntity
  8
SANINDUSA
100
AcDbLine
 10
5489.791847072426
 20
2941.299946408131
 30
0.0
 11
5489.791847072426
 21
2941.305023054935
 31
0.0
  0
SPLINE
  5
1A45
330
1F
100
AcDbEntity
  8
SANINDUSA
100
AcDbSpline
210
0.0
220
0.0
230
1.0
 70
     8
 71
     3
 72
    16
 73
    12
 74
     0
 42
0.0000000001
 43
0.0000000001
 40
0.0
 40
0.0
 40
0.0
 40
0.0
 40
0.1157247209599021
 40
0.2314499975800895
 40
0.3471752284241032
 40
0.4629000239986279
 40
0.578625067126418
 40
0.6943499881829933
 40
0.8100747824934966
 40
0.9257993016793124
 40
1.0
 40
1.0
 40
1.0
 40
1.0
 10
5490.048130832497
 20
2941.322810511448
 30
0.0
 10
5490.049253330965
 20
2941.322895713763
 30
0.0
 10
5490.05149833329
 20
2941.3230661188
 30
0.0
 10
5490.054753740762
 20
2941.324025766296
 30
0.0
 10
5490.057803255874
 20
2941.325487846246
 30
0.0
 10
5490.06056929611
 20
2941.327442464613
 30
0.0
 10
5490.062959374039
 20
2941.329839197718
 30
0.0
 10
5490.064924981073
 20
2941.332597026423
 30
0.0
 10
5490.066380673148
 20
2941.335650790094
 30
0.0
 10
5490.067230029148
 20
2941.338513049982
 30
0.0
 10
5490.067449478653
 20
2941.340344953902
 30
0.0
 10
5490.06753521401
 20
2941.341060649016
 30
0.0
  0
LINE
  5
1A46
330
1F
100
AcDbEntity
  8
SANINDUSA
100
AcDbLine
 10
5490.06753521401
 20
2941.341060649016
 30
0.0
 11
5490.090249799076
 21
2941.600689527922
 31
0.0
  0
ARC
  5
1A47
330
1F
100
AcDbEntity
  8
SANINDUSA
100
AcDbCircle
 10
5490.110173694119
 20
2941.598946413853
 30
0.0
 40
0.02
100
AcDbArc
 50
90.0
 51
175.0000000037089
  0
LINE
  5
1A48
330
1F
100
AcDbEntity
  8
SANINDUSA
100
AcDbLine
 10
5490.167018629495
 20
2941.618946413853
 30
0.0
 11
5490.110173694674
 21
2941.618946413853
 31
0.0
  0
ARC
  5
1A49
330
1F
100
AcDbEntity
  8
SANINDUSA
100
AcDbCircle
 10
5490.167018626763
 20
2941.613946413853
 30
0.0
 40
0.0050000000000001
100
AcDbArc
 50
2.000000003753602
 51
90.0
  0
LINE
  5
1A4A
330
1F
100
AcDbEntity
  8
SANINDUSA
100
AcDbLine
 10
5490.17331374425
 20
2941.576946414419
 30
0.0
 11
5490.17201558489
 21
2941.614120911219
 31
0.0
  0
LINE
  5
1A4B
330
1F
100
AcDbEntity
  8
SANINDUSA
100
AcDbLine
 10
5490.17331374425
 20
2941.576946414419
 30
0.0
 11
5490.15984705824
 21
2941.576946414419
 31
0.0
  0
LINE
  5
1A4C
330
1F
100
AcDbEntity
  8
SANINDUSA
100
AcDbLine
 10
5490.157621718828
 20
2941.602382191801
 30
0.0
 11
5490.15984705824
 21
2941.576946414419
 31
0.0
  0
ARC
  5
1A4D
330
1F
100
AcDbEntity
  8
SANINDUSA
100
AcDbCircle
 10
5490.152640754863
 20
2941.601946413853
 30
0.0
 40
0.0050000000000001
100
AcDbArc
 50
4.999999996291116
 51
90.0
  0
LINE
  5
1A4E
330
1F
100
AcDbEntity
  8
SANINDUSA
100
AcDbLine
 10
5490.152640767281
 20
2941.606946413749
 30
0.0
 11
5490.107424698654
 21
2941.606946413749
 31
0.0
  0
ARC
  5
1A4F
330
1F
100
AcDbEntity
  8
SANINDUSA
100
AcDbCircle
 10
5490.107424700596
 20
2941.601946413853
 30
0.0
 40
0.0050000000000001
100
AcDbArc
 50
90.0
 51
175.0000000037089
  0
LINE
  5
1A50
330
1F
100
AcDbEntity
  8
SANINDUSA
100
AcDbLine
 10
5490.075896538678
 20
2941.298946421006
 30
0.0
 11
5490.102443732205
 21
2941.602382191801
 31
0.0
  0
LINE
  5
1A51
330
1F
100
AcDbEntity
  8
SANINDUSA
100
AcDbLine
 10
5490.065896533314
 20
2941.298946421006
 30
0.0
 11
5490.075896538678
 21
2941.298946421006
 31
0.0
  0
LINE
  5
1A52
330
1F
100
AcDbEntity
  8
SANINDUSA
100
AcDbLine
 10
5490.065230838839
 20
2941.306555430749
 30
0.0
 11
5490.065896533314
 21
2941.298946421006
 31
0.0
  0
SPLINE
  5
1A53
330
1F
100
AcDbEntity
  8
SANINDUSA
100
AcDbSpline
210
0.0
220
0.0
230
1.0
 70
     8
 71
     3
 72
    12
 73
     8
 74
     0
 42
0.0000000001
 43
0.0000000001
 40
0.0
 40
0.0
 40
0.0
 40
0.0
 40
0.2234091221053705
 40
0.4468164803118354
 40
0.6702258390306143
 40
0.893635298676094
 40
0.9999999999999998
 40
0.9999999999999998
 40
0.9999999999999998
 40
0.9999999999999998
 10
5490.065230838839
 20
2941.306555430749
 30
0.0
 10
5490.065126776897
 20
2941.307110615968
 30
0.0
 10
5490.064918653839
 20
2941.308220982022
 30
0.0
 10
5490.063929343545
 20
2941.309638203282
 30
0.0
 10
5490.062566725428
 20
2941.310655317794
 30
0.0
 10
5490.061213791467
 20
2941.311093467485
 30
0.0
 10
5490.060386735843
 20
2941.3111120076
 30
0.0
 10
5490.060119978968
 20
2941.311117987492
 30
0.0
  0
LINE
  5
1A54
330
1F
100
AcDbEntity
  8
SANINDUSA
100
AcDbLine
 10
5489.792847067002
 20
2941.298946421006
 30
0.0
 11
5489.808722749237
 21
2941.298946421006
 31
0.0
  0
LINE
  5
1A58
330
1F
100
AcDbEntity
  8
SANINDUSA
100
AcDbLine
 10
5489.707003123942
 20
2941.298946421006
 30
0.0
 11
5489.690727181617
 21
2941.298946421006
 31
0.0
  0
LINE
  5
1A5A
330
1F
100
AcDbEntity
  8
SANINDUSA
100
AcDbLine
 10
5489.792847067002
 20
2941.298946421006
 30
0.0
 11
5489.730847068016
 21
2941.298946421006
 31
0.0
  0
ARC
  5
1A5C
330
1F
100
AcDbEntity
  8
SANINDUSA
100
AcDbCircle
 10
5489.568010435698
 20
2941.641946413853
 30
0.0
 40
0.005
100
AcDbArc
 50
14.99999999022217
 51
90.0
  0
LINE
  5
1A5D
330
1F
100
AcDbEntity
  8
SANINDUSA
100
AcDbLine
 10
5489.572840072099
 20
2941.643240508967
 30
0.0
 11
5489.577363647406
 21
2941.626358223491
 31
0.0
  0
ARC
  5
1A5E
330
1F
100
AcDbEntity
  8
SANINDUSA
100
AcDbCircle
 10
5489.587022917906
 20
2941.628946413853
 30
0.0
 40
0.01
100
AcDbArc
 50
194.9999999902221
 51
270.0
  0
LINE
  5
1A5F
330
1F
100
AcDbEntity
  8
SANINDUSA
100
AcDbLine
 10
5489.650706983987
 20
2941.618946413853
 30
0.0
 11
5489.587022907916
 21
2941.618946413853
 31
0.0
  0
SPLINE
  5
1A60
330
1F
100
AcDbEntity
  8
SANINDUSA
100
AcDbSpline
210
0.0
220
0.0
230
1.0
 70
     8
 71
     3
 72
    28
 73
    24
 74
     0
 42
0.0000000001
 43
0.0000000001
 40
0.0
 40
0.0
 40
0.0
 40
0.0
 40
0.1250000000000037
 40
0.1250000000000037
 40
0.1875000000000057
 40
0.1875000000000057
 40
0.2500000000000076
 40
0.2500000000000076
 40
0.3750000000000099
 40
0.3750000000000099
 40
0.4375000000000101
 40
0.4375000000000101
 40
0.5000000000000102
 40
0.5000000000000102
 40
0.6250000000000076
 40
0.6250000000000076
 40
0.6875000000000063
 40
0.6875000000000063
 40
0.750000000000005
 40
0.750000000000005
 40
0.8750000000000024
 40
0.8750000000000024
 40
1.0
 40
1.0
 40
1.0
 40
1.0
 10
5489.665773574756
 20
2941.605253749994
 30
0.0
 10
5489.665691520833
 20
2941.606183986396
 30
0.0
 10
5489.665523579497
 20
2941.607096091848
 30
0.0
 10
5489.665144947882
 20
2941.608437499342
 30
0.0
 10
5489.664997482589
 20
2941.608880148266
 30
0.0
 10
5489.664658707904
 20
2941.609756190564
 30
0.0
 10
5489.664469201913
 20
2941.610184635142
 30
0.0
 10
5489.66384605656
 20
2941.611433229646
 30
0.0
 10
5489.66335673685
 20
2941.612220882833
 30
0.0
 10
5489.662511663571
 20
2941.613335090747
 30
0.0
 10
5489.662209604613
 20
2941.613696996378
 30
0.0
 10
5489.661576819786
 20
2941.614386698332
 30
0.0
 10
5489.661246405711
 20
2941.614714602687
 30
0.0
 10
5489.660214245301
 20
2941.615648861906
 30
0.0
 10
5489.659471927344
 20
2941.616206181786
 30
0.0
 10
5489.658275307636
 20
2941.616941674999
 30
0.0
 10
5489.657862916899
 20
2941.617169392973
 30
0.0
 10
5489.657027187421
 20
2941.617581846518
 30
0.0
 10
5489.65660180857
 20
2941.61776789775
 30
0.0
 10
5489.655303513046
 20
2941.618266554181
 30
0.0
 10
5489.654406815778
 20
2941.618520517995
 30
0.0
 10
5489.652559616287
 20
2941.618862596011
 30
0.0
 10
5489.651634179585
 20
2941.618946413853
 30
0.0
 10
5489.650706977604
 20
2941.618946413853
 30
0.0
  0
SPLINE
  5
1A61
330
1F
100
AcDbEntity
  8
SANINDUSA
100
AcDbSpline
210
0.0
220
0.0
230
1.0
 70
     8
 71
     3
 72
    20
 73
    16
 74
     0
 42
0.0000000001
 43
0.0000000001
 40
0.0
 40
0.0
 40
0.0
 40
0.0
 40
0.1250000000000007
 40
0.1250000000000007
 40
0.2500000000000014
 40
0.2500000000000014
 40
0.3750000000000021
 40
0.3750000000000021
 40
0.5000000000000028
 40
0.5000000000000028
 40
0.7499999999999964
 40
0.7499999999999964
 40
0.8749999999999982
 40
0.8749999999999982
 40
1.0
 40
1.0
 40
1.0
 40
1.0
 10
5489.653881493747
 20
2941.602382192567
 30
0.0
 10
5489.653854272404
 20
2941.602690769395
 30
0.0
 10
5489.653797073433
 20
2941.603001266818
 30
0.0
 10
5489.653628233171
 20
2941.603597095144
 30
0.0
 10
5489.653516755009
 20
2941.60388522165
 30
0.0
 10
5489.653239168305
 20
2941.604441713309
 30
0.0
 10
5489.653072921441
 20
2941.604708718898
 30
0.0
 10
5489.652699051758
 20
2941.605200936968
 30
0.0
 10
5489.652490084566
 20
2941.605429125096
 30
0.0
 10
5489.651795166921
 20
2941.606058365851
 30
0.0
 10
5489.651262968526
 20
2941.606384963362
 30
0.0
 10
5489.650388461155
 20
2941.606720876422
 30
0.0
 10
5489.650090692481
 20
2941.606804600242
 30
0.0
 10
5489.649483038927
 20
2941.606917429798
 30
0.0
 10
5489.649169965848
 20
2941.606946413853
 30
0.0
 10
5489.648859024477
 20
2941.606946413853
 30
0.0
  0
LINE
  5
1A62
330
1F
100
AcDbEntity
  8
SANINDUSA
100
AcDbLine
 10
5489.648859031383
 20
2941.606946413749
 30
0.0
 11
5489.581053383533
 21
2941.606946413749
 31
0.0
  0
ARC
  5
1A63
330
1F
100
AcDbEntity
  8
SANINDUSA
100
AcDbCircle
 10
5489.581053386414
 20
2941.601946413853
 30
0.0
 40
0.0050000000000002
100
AcDbArc
 50
90.0
 51
175.0000000037089
  0
LINE
  5
1A64
330
1F
100
AcDbEntity
  8
SANINDUSA
100
AcDbLine
 10
5489.573847062771
 20
2941.576946414419
 30
0.0
 11
5489.576072402183
 21
2941.602382191801
 31
0.0
  0
LINE
  5
1A65
330
1F
100
AcDbEntity
  8
SANINDUSA
100
AcDbLine
 10
5489.573847062771
 20
2941.576946414419
 30
0.0
 11
5489.560380406562
 21
2941.576946414419
 31
0.0
  0
LINE
  5
1A66
330
1F
100
AcDbEntity
  8
SANINDUSA
100
AcDbLine
 10
5489.562656350319
 20
2941.642120912083
 30
0.0
 11
5489.560380406562
 21
2941.576946414419
 31
0.0
  0
ARC
  5
1A67
330
1F
100
AcDbEntity
  8
SANINDUSA
100
AcDbCircle
 10
5489.567653296058
 20
2941.641946413853
 30
0.0
 40
0.0050000000000001
100
AcDbArc
 50
90.0
 51
177.9999999962464
  0
LINE
  5
1A68
330
1F
100
AcDbEntity
  8
SANINDUSA
100
AcDbLine
 10
5489.568010426943
 20
2941.646946414718
 30
0.0
 11
5489.567653305713
 21
2941.646946414718
 31
0.0
  0
LINE
  5
1A69
330
1F
100
AcDbEntity
  8
SANINDUSA
100
AcDbLine
 10
5489.653881497566
 20
2941.602382191801
 30
0.0
 11
5489.656632415835
 21
2941.571197769948
 31
0.0
  0
LINE
  5
1A6A
330
1F
100
AcDbEntity
  8
SANINDUSA
100
AcDbLine
 10
5489.650706983987
 20
2941.618946413853
 30
0.0
 11
5489.668102107827
 21
2941.618946413853
 31
0.0
  0
LINE
  5
1A6F
330
1F
100
AcDbEntity
  8
SANINDUSA
100
AcDbLine
 10
5489.643135346357
 20
2941.621946413879
 30
0.0
 11
5489.643678001944
 21
2941.621946413879
 31
0.0
  0
LINE
  5
1A71
330
1F
100
AcDbEntity
  8
SANINDUSA
100
AcDbLine
 10
5489.604977793876
 20
2941.621946413879
 30
0.0
 11
5489.643135346357
 21
2941.621946413879
 31
0.0
  0
LINE
  5
1A7B
330
1F
100
AcDbEntity
  8
SANINDUSA
100
AcDbLine
 10
5489.66624424595
 20
2941.462230007508
 30
0.0
 11
5489.575348116342
 21
2941.575082789519
 31
0.0
  0
ARC
  5
1A7D
330
1F
100
AcDbEntity
  8
SANINDUSA
100
AcDbCircle
 10
5489.571454119635
 20
2941.571946413853
 30
0.0
 40
0.005
100
AcDbArc
 50
38.84936023864671
 51
90.0
  0
SPLINE
  5
1A83
330
1F
100
AcDbEntity
  8
SANINDUSA
100
AcDbSpline
210
0.0
220
0.0
230
1.0
 70
    24
 71
     3
 72
    29
 73
    25
 74
     0
 42
0.0000000001
 43
0.0000000001
 40
0.0
 40
0.0
 40
0.0
 40
0.0
 40
0.0159047797438096
 40
0.031785167728637
 40
0.0476505191062327
 40
0.0635102156372612
 40
0.0793736491153672
 40
0.0952502047024073
 40
0.1111492443224089
 40
0.1270800902605456
 40
0.1902933005280232
 40
0.2531910281453365
 40
0.3157537050756362
 40
0.3783981550196369
 40
0.5027543974507389
 40
0.6266843925978258
 40
0.6887573017384541
 40
0.7507029130420201
 40
0.8127332361653516
 40
0.8750273355658618
 40
0.906321311920688
 40
0.937531037417639
 40
0.9687320623303145
 40
1.0
 40
1.0
 40
1.0
 40
1.0
 10
5490.065896536361
 20
2941.298946413854
 30
0.0
 10
5490.065895607248
 20
2941.298946413854
 30
0.0
 10
5490.065893750446
 20
2941.298946413854
 30
0.0
 10
5490.065878813336
 20
2941.298946413854
 30
0.0
 10
5490.065854974461
 20
2941.298946413854
 30
0.0
 10
5490.065821365487
 20
2941.298946413854
 30
0.0
 10
5490.065778218513
 20
2941.298946413854
 30
0.0
 10
5490.065725472703
 20
2941.298946413854
 30
0.0
 10
5490.065663139791
 20
2941.298946413854
 30
0.0
 10
5490.065520172223
 20
2941.298946413854
 30
0.0
 10
5490.065236973688
 20
2941.298946413854
 30
0.0
 10
5490.064713177308
 20
2941.298946413854
 30
0.0
 10
5490.064049083986
 20
2941.298946413854
 30
0.0
 10
5490.062987701946
 20
2941.298946413854
 30
0.0
 10
5490.061347589084
 20
2941.298946413854
 30
0.0
 10
5490.059343450731
 20
2941.298946413854
 30
0.0
 10
5490.057576897284
 20
2941.298946413854
 30
0.0
 10
5490.056178241451
 20
2941.298946413854
 30
0.0
 10
5490.054719460432
 20
2941.298946413854
 30
0.0
 10
5490.053463200472
 20
2941.298946413854
 30
0.0
 10
5490.05244159105
 20
2941.298946413854
 30
0.0
 10
5490.051668803116
 20
2941.298946413854
 30
0.0
 10
5490.05089248253
 20
2941.298946413854
 30
0.0
 10
5490.050373545039
 20
2941.298946413854
 30
0.0
 10
5490.050113798368
 20
2941.298946413854
 30
0.0
  0
SPLINE
  5
1A85
330
1F
100
AcDbEntity
  8
SANINDUSA
100
AcDbSpline
210
0.0
220
0.0
230
1.0
 70
    24
 71
     3
 72
    13
 73
     9
 74
     0
 42
0.0000000001
 43
0.0000000001
 40
0.0
 40
0.0
 40
0.0
 40
0.0
 40
0.0500740255221339
 40
0.2382757038012327
 40
0.4280322214151488
 40
0.6173611689772676
 40
0.8084763013753752
 40
1.0
 40
1.0
 40
1.0
 40
1.0
 10
5489.714830480401
 20
2941.298946421006
 30
0.0
 10
5489.714590169323
 20
2941.298946421006
 30
0.0
 10
5489.713446656486
 20
2941.298946421006
 30
0.0
 10
5489.71169857166
 20
2941.298946421006
 30
0.0
 10
5489.709711162628
 20
2941.298946421006
 30
0.0
 10
5489.708237837798
 20
2941.298946421006
 30
0.0
 10
5489.707255299231
 20
2941.298946421006
 30
0.0
 10
5489.707087242187
 20
2941.298946421006
 30
0.0
 10
5489.707003123942
 20
2941.298946421006
 30
0.0
  0
LINE
  5
1A8C
330
1F
100
AcDbEntity
  8
SANINDUSA
100
AcDbLine
 10
5490.050113804523
 20
2941.298946421006
 30
0.0
 11
5490.021314881627
 21
2941.298946421006
 31
0.0
  0
LINE
  5
1A8D
330
1F
100
AcDbEntity
  8
SANINDUSA
100
AcDbLine
 10
5489.970478191857
 20
2941.298946421006
 30
0.0
 11
5489.921006828431
 21
2941.298946421006
 31
0.0
  0
LINE
  5
1A8E
330
1F
100
AcDbEntity
  8
SANINDUSA
100
AcDbLine
 10
5489.917923159782
 20
2941.298946421006
 30
0.0
 11
5489.887425171096
 21
2941.298946421006
 31
0.0
  0
LINE
  5
1A8F
330
1F
100
AcDbEntity
  8
SANINDUSA
100
AcDbLine
 10
5489.851588483784
 20
2941.298946421006
 30
0.0
 11
5489.808897755924
 21
2941.298946421006
 31
0.0
  0
LINE
  5
1AD4
330
1F
100
AcDbEntity
  8
SANINDUSA
100
AcDbLine
 10
5489.668102107827
 20
2941.618946413853
 30
0.0
 11
5490.110173694674
 21
2941.618946413853
 31
0.0
  0
SPLINE
  5
1AD8
330
1F
100
AcDbEntity
  8
SANINDUSA
100
AcDbSpline
210
0.0
220
0.0
230
1.0
 70
     8
 71
     3
 72
     9
 73
     5
 74
     0
 42
0.0000000001
 43
0.0000000001
 40
0.0
 40
0.0
 40
0.0
 40
0.0
 40
0.006995969121508
 40
1.0
 40
1.0
 40
1.0
 40
1.0
 10
5489.603383339826
 20
2941.630847733812
 30
0.0
 10
5489.603368040896
 20
2941.630853679554
 30
0.0
 10
5489.601181220228
 20
2941.631703560627
 30
0.0
 10
5489.599019186073
 20
2941.632618618465
 30
0.0
 10
5489.596872277442
 20
2941.633527274587
 30
0.0
  0
SPLINE
  5
1AD9
330
1F
100
AcDbEntity
  8
SANINDUSA
100
AcDbSpline
210
0.0
220
0.0
230
1.0
 70
     8
 71
     3
 72
    10
 73
     6
 74
     0
 42
0.0000000001
 43
0.0000000001
 40
0.0
 40
0.0
 40
0.0
 40
0.0
 40
0.3380506549756036
 40
0.6763036364470162
 40
1.0
 40
1.0
 40
1.0
 40
1.0
 10
5489.603383339826
 20
2941.630847733812
 30
0.0
 10
5489.606891028817
 20
2941.62956299945
 30
0.0
 10
5489.613908506182
 20
2941.6269927618
 30
0.0
 10
5489.624424673753
 20
2941.624009862623
 30
0.0
 10
5489.631430468772
 20
2941.622624072037
 30
0.0
 10
5489.634856335704
 20
2941.621946413879
 30
0.0
  0
SPLINE
  5
1ADA
330
1F
100
AcDbEntity
  8
SANINDUSA
100
AcDbSpline
210
0.0
220
0.0
230
1.0
 70
     8
 71
     3
 72
    11
 73
     7
 74
     0
 42
0.0000000001
 43
0.0000000001
 40
0.0
 40
0.0
 40
0.0
 40
0.0
 40
0.0152763623976084
 40
0.6671612134154226
 40
0.9956650832727957
 40
1.0
 40
1.0
 40
1.0
 40
1.0
 10
5489.64834440488
 20
2941.619936494617
 30
0.0
 10
5489.648438429043
 20
2941.619923274189
 30
0.0
 10
5489.652544725625
 20
2941.619345901339
 30
0.0
 10
5489.658691403752
 20
2941.61908909972
 30
0.0
 10
5489.664766620195
 20
2941.618946679872
 30
0.0
 10
5489.666820324827
 20
2941.618946417273
 30
0.0
 10
5489.666847072427
 20
2941.618946413853
 30
0.0
  0
LINE
  5
1ADE
330
1F
100
AcDbEntity
  8
SANINDUSA
100
AcDbLine
 10
5490.15984705824
 20
2941.576946414419
 30
0.0
 11
5490.154941178743
 21
2941.576946414419
 31
0.0
  0
LINE
  5
1AE6
330
1F
100
AcDbEntity
  8
SANINDUSA
100
AcDbLine
 10
5490.100218377892
 20
2941.576946414419
 30
0.0
 11
5490.154941178743
 21
2941.576946414419
 31
0.0
  0
SPLINE
  5
1AE8
330
1F
100
AcDbEntity
  8
SANINDUSA
100
AcDbSpline
210
0.0
220
0.0
230
1.0
 70
     8
 71
     3
 72
    11
 73
     7
 74
     0
 42
0.0000000001
 43
0.0000000001
 40
0.0
 40
0.0
 40
0.0
 40
0.0
 40
0.2051461357038524
 40
0.5283372721396808
 40
0.8651014295652167
 40
1.0
 40
1.0
 40
1.0
 40
1.0
 10
5489.573061771576
 20
2941.646169330337
 30
0.0
 10
5489.573621955472
 20
2941.64581654712
 30
0.0
 10
5489.575064663768
 20
2941.644907982493
 30
0.0
 10
5489.577971385529
 20
2941.643151713286
 30
0.0
 10
5489.580902044397
 20
2941.641467096963
 30
0.0
 10
5489.582736548907
 20
2941.640463420592
 30
0.0
 10
5489.583261228982
 20
2941.640176362702
 30
0.0
  0
SPLINE
  5
1AE9
330
1F
100
AcDbEntity
  8
SANINDUSA
100
AcDbSpline
210
0.0
220
0.0
230
1.0
 70
     8
 71
     3
 72
     9
 73
     5
 74
     0
 42
0.0000000001
 43
0.0000000001
 40
0.0
 40
0.0
 40
0.0
 40
0.0
 40
0.9941770878697258
 40
1.0
 40
1.0
 40
1.0
 40
1.0
 10
5489.588138230029
 20
2941.637619491079
 30
0.0
 10
5489.586511827287
 20
2941.63845696107
 30
0.0
 10
5489.584875898676
 20
2941.639299336137
 30
0.0
 10
5489.583270576631
 20
2941.640171285417
 30
0.0
 10
5489.583261228982
 20
2941.640176362702
 30
0.0
  0
ARC
  5
1AEB
330
1F
100
AcDbEntity
  8
SANINDUSA
100
AcDbCircle
 10
5489.570384642719
 20
2941.641946413853
 30
0.0
 40
0.005
100
AcDbArc
 50
57.62730766253281
 51
90.0
  0
LINE
  5
1AED
330
1F
100
AcDbEntity
  8
SANINDUSA
100
AcDbLine
 10
5489.596872277442
 20
2941.633527274587
 30
0.0
 11
5489.588138230029
 21
2941.637619491079
 31
0.0
  0
CIRCLE
  5
1B06
330
1F
100
AcDbEntity
  8
SANINDUSA
100
AcDbCircle
 10
5487.206597785292
 20
2941.628594775356
 30
0.0
 40
0.03
  0
ARC
  5
1B0A
330
1F
100
AcDbEntity
  8
SANINDUSA
100
AcDbCircle
 10
5489.921006830027
 20
2941.299946413853
 30
0.0
 40
0.0010000000000002
100
AcDbArc
 50
270.0
 51
355.0000000037089
  0
LINE
  5
1B0B
330
1F
100
AcDbEntity
  8
SANINDUSA
100
AcDbLine
 10
5489.922505844046
 20
2941.305606504987
 30
0.0
 11
5489.92200302321
 21
2941.29985926614
 31
0.0
  0
LINE
  5
1B0C
330
1F
100
AcDbEntity
  8
SANINDUSA
100
AcDbLine
 10
5489.570384628955
 20
2941.646946414718
 30
0.0
 11
5489.568010426943
 21
2941.646946414718
 31
0.0
  0
ENDSEC
  0
SECTION
  2
OBJECTS
  0
DICTIONARY
  5
C
330
0
100
AcDbDictionary
281
     1
  3
ACAD_2007HEADERVARS_RT
350
8F3D
  3
ACAD_BACKGROUND
350
8ECF
  3
ACAD_COLOR
350
EE6
  3
ACAD_GROUP
350
D
  3
ACAD_LAYOUT
350
1A
  3
ACAD_MATERIAL
350
EE5
  3
ACAD_MLEADERSTYLE
350
10A8
  3
ACAD_MLINESTYLE
350
17
  3
ACAD_PLOTSETTINGS
350
19
  3
ACAD_PLOTSTYLENAME
350
E
  3
ACAD_SCALELIST
350
1096
  3
ACAD_TABLESTYLE
350
EE7
  3
ACAD_VISUALSTYLE
350
1082
  3
ACDB_RECOMPOSE_DATA
350
8F3B
  3
AcDbVariableDictionary
350
3D
  3
AEC_PROPERTY_SET_DEFS
350
170C
  3
ASE_INDEX_DICTIONARY
350
1066
  3
Autodesk_PNP
350
10B2
  3
DWGPROPS
350
8F3C
  0
DICTIONARY
  5
8ED7
330
8
100
AcDbDictionary
280
     1
281
     1
  0
DICTIONARY
  5
1051
330
2
100
AcDbDictionary
280
     1
281
     1
  3
ACAD_LAYERFILTERS
360
1065
  3
ACAD_LAYERSTATES
360
12EE
  3
ACLYDICTIONARY
360
1064
  0
DICTIONARY
  5
8E4F
330
10
100
AcDbDictionary
280
     1
281
     1
  3
ADSK_XREC_LAYER_RECONCILED
360
8E50
  0
DICTIONARY
  5
8E51
330
2F
100
AcDbDictionary
280
     1
281
     1
  3
ADSK_XREC_LAYER_RECONCILED
360
8E52
  0
DICTIONARY
  5
8E53
330
30
100
AcDbDictionary
280
     1
281
     1
  3
ADSK_XREC_LAYER_RECONCILED
360
8E54
  0
DICTIONARY
  5
8E55
330
31
100
AcDbDictionary
280
     1
281
     1
  3
ADSK_XREC_LAYER_RECONCILED
360
8E56
  0
DICTIONARY
  5
8E57
330
32
100
AcDbDictionary
280
     1
281
     1
  3
ADSK_XREC_LAYER_RECONCILED
360
8E58
  0
DICTIONARY
  5
8E59
330
33
100
AcDbDictionary
280
     1
281
     1
  3
ADSK_XREC_LAYER_RECONCILED
360
8E5A
  0
DICTIONARY
  5
8E5B
330
34
100
AcDbDictionary
280
     1
281
     1
  3
ADSK_XREC_LAYER_RECONCILED
360
8E5C
  0
DICTIONARY
  5
8E5D
330
35
100
AcDbDictionary
280
     1
281
     1
  3
ADSK_XREC_LAYER_RECONCILED
360
8E5E
  0
DICTIONARY
  5
8E5F
330
36
100
AcDbDictionary
280
     1
281
     1
  3
ADSK_XREC_LAYER_RECONCILED
360
8E60
  0
DICTIONARY
  5
8E61
330
37
100
AcDbDictionary
280
     1
281
     1
  3
ADSK_XREC_LAYER_RECONCILED
360
8E62
  0
DICTIONARY
  5
8E63
330
5D6
100
AcDbDictionary
280
     1
281
     1
  3
ADSK_XREC_LAYER_RECONCILED
360
8E64
  0
DICTIONARY
  5
8E65
330
8AF
100
AcDbDictionary
280
     1
281
     1
  3
ADSK_XREC_LAYER_RECONCILED
360
8E66
  0
DICTIONARY
  5
8E67
330
8F8
100
AcDbDictionary
280
     1
281
     1
  3
ADSK_XREC_LAYER_RECONCILED
360
8E68
  0
DICTIONARY
  5
8E69
330
91D
100
AcDbDictionary
280
     1
281
     1
  3
ADSK_XREC_LAYER_RECONCILED
360
8E6A
  0
DICTIONARY
  5
8E6B
330
C7B
100
AcDbDictionary
280
     1
281
     1
  3
ADSK_XREC_LAYER_RECONCILED
360
8E6C
  0
DICTIONARY
  5
8E6D
330
1060
100
AcDbDictionary
280
     1
281
     1
  3
ADSK_XREC_LAYER_RECONCILED
360
8E6E
  0
DICTIONARY
  5
8F3D
102
{ACAD_REACTORS
330
C
102
}
330
C
100
AcDbDictionary
281
     1
  3
DIMJOGANG
350
8F3E
  0
DICTIONARY
  5
8ECF
102
{ACAD_REACTORS
330
C
102
}
330
C
100
AcDbDictionary
281
     1
  0
DICTIONARY
  5
EE6
102
{ACAD_REACTORS
330
C
102
}
330
C
100
AcDbDictionary
281
     1
  0
DICTIONARY
  5
D
102
{ACAD_REACTORS
330
C
102
}
330
C
100
AcDbDictionary
281
     1
  0
DICTIONARY
  5
1A
102
{ACAD_REACTORS
330
C
102
}
330
C
100
AcDbDictionary
281
     1
  3
Layout1
350
1E
  3
Layout2
350
26
  3
Model
350
22
  0
DICTIONARY
  5
EE5
102
{ACAD_REACTORS
330
C
102
}
330
C
100
AcDbDictionary
281
     1
  3
ByBlock
350
1072
  3
ByLayer
350
106A
  3
Global
350
107A
  0
DICTIONARY
  5
10A8
102
{ACAD_REACTORS
330
C
102
}
330
C
100
AcDbDictionary
281
     1
  3
Standard
350
10A9
  0
DICTIONARY
  5
17
102
{ACAD_REACTORS
330
C
102
}
330
C
100
AcDbDictionary
281
     1
  3
Standard
350
18
  0
DICTIONARY
  5
19
102
{ACAD_REACTORS
330
C
102
}
330
C
100
AcDbDictionary
281
     1
  0
ACDBDICTIONARYWDFLT
  5
E
102
{ACAD_REACTORS
330
C
102
}
330
C
100
AcDbDictionary
281
     1
  3
Normal
350
F
100
AcDbDictionaryWithDefault
340
F
  0
DICTIONARY
  5
1096
102
{ACAD_REACTORS
330
C
102
}
330
C
100
AcDbDictionary
281
     1
  3
A0
350
1097
  3
A1
350
1098
  3
A2
350
1099
  3
A3
350
109A
  3
A4
350
109B
  3
A5
350
109C
  3
A6
350
109D
  3
A7
350
109E
  3
A8
350
109F
  3
A9
350
10A0
  3
B0
350
10A1
  3
B1
350
10A2
  3
B2
350
10A3
  3
B3
350
10A4
  3
B4
350
10A5
  3
B5
350
10A6
  3
B6
350
10A7
  0
DICTIONARY
  5
EE7
102
{ACAD_REACTORS
330
C
102
}
330
C
100
AcDbDictionary
281
     1
  3
Standard
350
EE8
  0
DICTIONARY
  5
1082
102
{ACAD_REACTORS
330
C
102
}
330
C
100
AcDbDictionary
281
     1
  3
2dWireframe
350
1088
  3
3D Hidden
350
108A
  3
3dWireframe
350
1089
  3
Basic
350
1087
  3
Brighten
350
108E
  3
ColorChange
350
1092
  3
Conceptual
350
108B
  3
Dim
350
108D
  3
EdgeColorOff
350
1095
  3
Facepattern
350
1091
  3
Flat
350
1083
  3
FlatWithEdges
350
1084
  3
Gouraud
350
1085
  3
GouraudWithEdges
350
1086
  3
JitterOff
350
1093
  3
Linepattern
350
1090
  3
OverhangOff
350
1094
  3
Realistic
350
108C
  3
Thicken
350
108F
  0
XRECORD
  5
8F3B
102
{ACAD_REACTORS
330
C
102
}
330
C
100
AcDbXrecord
280
     1
 90
        1
330
EE8
  0
DICTIONARY
  5
3D
102
{ACAD_REACTORS
330
C
102
}
330
C
100
AcDbDictionary
281
     1
  3
CANNOSCALE
350
8F2D
  3
CMLEADERSTYLE
350
8F2C
  3
CTABLESTYLE
350
1049
  3
DIMASSOC
350
3F
  3
HIDETEXT
350
3E
  3
INDEXCTL
350
8F2F
  3
SORTENTS
350
8F2E
  3
XCLIPFRAME
350
8F39
  0
DICTIONARY
  5
170C
102
{ACAD_REACTORS
330
C
102
}
330
C
100
AcDbDictionary
281
     1
  0
DICTIONARY
  5
1066
102
{ACAD_REACTORS
330
C
102
}
330
C
100
AcDbDictionary
281
     1
  3
ASEBlockHierarchyIndexRecord
350
1067
1001
DCO15
1040
1602247867.484
  0
DICTIONARY
  5
10B2
102
{ACAD_REACTORS
330
C
102
}
330
C
100
AcDbDictionary
281
     1
  0
XRECORD
  5
8F3C
102
{ACAD_REACTORS
330
C
102
}
330
C
100
AcDbXrecord
280
     1
  1
DWGPROPS COOKIE
  2

  3

  4

  6

  7

  8
Julio
  9

300
=
301
=
302
=
303
=
304
=
305
=
306
=
307
=
308
=
309
=
 40
0.0102045370370371
 41
2456023.464252558
 42
2456142.470437454
  1

 90
        0
  0
DICTIONARY
  5
1065
102
{ACAD_REACTORS
330
1051
102
}
330
1051
100
AcDbDictionary
281
     1
  0
DICTIONARY
  5
12EE
102
{ACAD_REACTORS
330
1051
102
}
330
1051
100
AcDbDictionary
281
     1
  0
DICTIONARY
  5
1064
102
{ACAD_REACTORS
330
1051
102
}
330
1051
100
AcDbDictionary
281
     1
1001
ACAD
1000
<All
  0
XRECORD
  5
8E50
102
{ACAD_REACTORS
330
8E4F
102
}
330
8E4F
100
AcDbXrecord
280
     1
290
     1
  0
XRECORD
  5
8E52
102
{ACAD_REACTORS
330
8E51
102
}
330
8E51
100
AcDbXrecord
280
     1
290
     1
  0
XRECORD
  5
8E54
102
{ACAD_REACTORS
330
8E53
102
}
330
8E53
100
AcDbXrecord
280
     1
290
     1
  0
XRECORD
  5
8E56
102
{ACAD_REACTORS
330
8E55
102
}
330
8E55
100
AcDbXrecord
280
     1
290
     1
  0
XRECORD
  5
8E58
102
{ACAD_REACTORS
330
8E57
102
}
330
8E57
100
AcDbXrecord
280
     1
290
     1
  0
XRECORD
  5
8E5A
102
{ACAD_REACTORS
330
8E59
102
}
330
8E59
100
AcDbXrecord
280
     1
290
     1
  0
XRECORD
  5
8E5C
102
{ACAD_REACTORS
330
8E5B
102
}
330
8E5B
100
AcDbXrecord
280
     1
290
     1
  0
XRECORD
  5
8E5E
102
{ACAD_REACTORS
330
8E5D
102
}
330
8E5D
100
AcDbXrecord
280
     1
290
     1
  0
XRECORD
  5
8E60
102
{ACAD_REACTORS
330
8E5F
102
}
330
8E5F
100
AcDbXrecord
280
     1
290
     1
  0
XRECORD
  5
8E62
102
{ACAD_REACTORS
330
8E61
102
}
330
8E61
100
AcDbXrecord
280
     1
290
     1
  0
XRECORD
  5
8E64
102
{ACAD_REACTORS
330
8E63
102
}
330
8E63
100
AcDbXrecord
280
     1
290
     1
  0
XRECORD
  5
8E66
102
{ACAD_REACTORS
330
8E65
102
}
330
8E65
100
AcDbXrecord
280
     1
290
     1
  0
XRECORD
  5
8E68
102
{ACAD_REACTORS
330
8E67
102
}
330
8E67
100
AcDbXrecord
280
     1
290
     1
  0
XRECORD
  5
8E6A
102
{ACAD_REACTORS
330
8E69
102
}
330
8E69
100
AcDbXrecord
280
     1
290
     1
  0
XRECORD
  5
8E6C
102
{ACAD_REACTORS
330
8E6B
102
}
330
8E6B
100
AcDbXrecord
280
     1
290
     1
  0
XRECORD
  5
8E6E
102
{ACAD_REACTORS
330
8E6D
102
}
330
8E6D
100
AcDbXrecord
280
     1
290
     1
  0
XRECORD
  5
8F3E
102
{ACAD_REACTORS
330
8F3D
102
}
330
8F3D
100
AcDbXrecord
280
     1
 40
1.570796326794896
  0
LAYOUT
  5
1E
102
{ACAD_XDICTIONARY
360
8F3F
102
}
102
{ACAD_REACTORS
330
1A
102
}
330
1A
100
AcDbPlotSettings
  1

  2
Ploter HP500
  4

  6

 40
0.0
 41
0.0
 42
0.0
 43
0.0
 44
0.0
 45
0.0
 46
0.0
 47
0.0
 48
0.0
 49
0.0
140
0.0
141
0.0
142
1.0
143
1.0
 70
   688
 72
     0
 73
     0
 74
     5
  7
sanindusa.ctb
 75
    16
147
1.0
148
0.0
149
0.0
100
AcDbLayout
  1
Layout1
 70
     1
 71
     1
 10
0.0
 20
0.0
 11
420.0
 21
297.0
 12
0.0
 22
0.0
 32
0.0
 14
1.000000000000000E+20
 24
1.000000000000000E+20
 34
1.000000000000000E+20
 15
-1.000000000000000E+20
 25
-1.000000000000000E+20
 35
-1.000000000000000E+20
146
0.0
 13
0.0
 23
0.0
 33
0.0
 16
1.0
 26
0.0
 36
0.0
 17
0.0
 27
1.0
 37
0.0
 76
     0
330
1B
  0
LAYOUT
  5
26
102
{ACAD_XDICTIONARY
360
8F43
102
}
102
{ACAD_REACTORS
330
1A
102
}
330
1A
100
AcDbPlotSettings
  1

  2
Ploter HP500
  4

  6

 40
0.0
 41
0.0
 42
0.0
 43
0.0
 44
0.0
 45
0.0
 46
0.0
 47
0.0
 48
0.0
 49
0.0
140
0.0
141
0.0
142
1.0
143
1.0
 70
   688
 72
     0
 73
     0
 74
     5
  7
sanindusa.ctb
 75
    16
147
1.0
148
0.0
149
0.0
100
AcDbLayout
  1
Layout2
 70
     1
 71
     2
 10
0.0
 20
0.0
 11
12.0
 21
9.0
 12
0.0
 22
0.0
 32
0.0
 14
0.0
 24
0.0
 34
0.0
 15
0.0
 25
0.0
 35
0.0
146
0.0
 13
0.0
 23
0.0
 33
0.0
 16
1.0
 26
0.0
 36
0.0
 17
0.0
 27
1.0
 37
0.0
 76
     0
330
23
  0
LAYOUT
  5
22
102
{ACAD_XDICTIONARY
360
8F41
102
}
102
{ACAD_REACTORS
330
1A
102
}
330
1A
100
AcDbPlotSettings
  1

  2
Ploter HP500
  4
User268
  6

 40
4.995333194732666
 41
16.97565841674804
 42
4.995330810546875
 43
16.97567749023437
 44
209.9733276367187
 45
296.9259948730469
 46
0.0
 47
0.0
 48
0.0
 49
0.0
140
0.0
141
0.0
142
1.0
143
1.0
 70
 11952
 72
     1
 73
     1
 74
     0
  7
sanindusa.ctb
 75
     0
147
1.0
148
-427.5957866592534
149
7.362384574453926
100
AcDbLayout
  1
Model
 70
     1
 71
     0
 10
0.0
 20
0.0
 11
12.0
 21
9.0
 12
0.0
 22
0.0
 32
0.0
 14
0.0
 24
0.0
 34
0.0
 15
0.0
 25
0.0
 35
0.0
146
0.0
 13
0.0
 23
0.0
 33
0.0
 16
1.0
 26
0.0
 36
0.0
 17
0.0
 27
1.0
 37
0.0
 76
     0
330
1F
331
1068
  0
MATERIAL
  5
1072
102
{ACAD_XDICTIONARY
360
1073
102
}
102
{ACAD_REACTORS
330
EE5
102
}
330
EE5
100
AcDbMaterial
  1
ByBlock
 72
     0
 43
0.0008202099737533
 43
0.0
 43
0.0
 43
0.0
 43
0.0
 43
0.0008202099737533
 43
0.0
 43
0.0
 43
0.0
 43
0.0
 43
1.0
 43
0.0
 43
0.0
 43
0.0
 43
0.0
 43
1.0
 77
     0
 47
0.0008202099737533
 47
0.0
 47
0.0
 47
0.0
 47
0.0
 47
0.0008202099737533
 47
0.0
 47
0.0
 47
0.0
 47
0.0
 47
1.0
 47
0.0
 47
0.0
 47
0.0
 47
0.0
 47
1.0
171
     0
 49
0.0008202099737533
 49
0.0
 49
0.0
 49
0.0
 49
0.0
 49
0.0008202099737533
 49
0.0
 49
0.0
 49
0.0
 49
0.0
 49
1.0
 49
0.0
 49
0.0
 49
0.0
 49
0.0
 49
1.0
175
     0
142
0.0008202099737533
142
0.0
142
0.0
142
0.0
142
0.0
142
0.0008202099737533
142
0.0
142
0.0
142
0.0
142
0.0
142
1.0
142
0.0
142
0.0
142
0.0
142
0.0
142
1.0
179
     0
144
0.0008202099737533
144
0.0
144
0.0
144
0.0
144
0.0
144
0.0008202099737533
144
0.0
144
0.0
144
0.0
144
0.0
144
1.0
144
0.0
144
0.0
144
0.0
144
0.0
144
1.0
147
0.0008202099737533
147
0.0
147
0.0
147
0.0
147
0.0
147
0.0008202099737533
147
0.0
147
0.0
147
0.0
147
0.0
147
1.0
147
0.0
147
0.0
147
0.0
147
0.0
147
1.0
  0
MATERIAL
  5
106A
102
{ACAD_XDICTIONARY
360
106B
102
}
102
{ACAD_REACTORS
330
EE5
102
}
330
EE5
100
AcDbMaterial
  1
ByLayer
 72
     0
 43
0.0008202099737533
 43
0.0
 43
0.0
 43
0.0
 43
0.0
 43
0.0008202099737533
 43
0.0
 43
0.0
 43
0.0
 43
0.0
 43
1.0
 43
0.0
 43
0.0
 43
0.0
 43
0.0
 43
1.0
 77
     0
 47
0.0008202099737533
 47
0.0
 47
0.0
 47
0.0
 47
0.0
 47
0.0008202099737533
 47
0.0
 47
0.0
 47
0.0
 47
0.0
 47
1.0
 47
0.0
 47
0.0
 47
0.0
 47
0.0
 47
1.0
171
     0
 49
0.0008202099737533
 49
0.0
 49
0.0
 49
0.0
 49
0.0
 49
0.0008202099737533
 49
0.0
 49
0.0
 49
0.0
 49
0.0
 49
1.0
 49
0.0
 49
0.0
 49
0.0
 49
0.0
 49
1.0
175
     0
142
0.0008202099737533
142
0.0
142
0.0
142
0.0
142
0.0
142
0.0008202099737533
142
0.0
142
0.0
142
0.0
142
0.0
142
1.0
142
0.0
142
0.0
142
0.0
142
0.0
142
1.0
179
     0
144
0.0008202099737533
144
0.0
144
0.0
144
0.0
144
0.0
144
0.0008202099737533
144
0.0
144
0.0
144
0.0
144
0.0
144
1.0
144
0.0
144
0.0
144
0.0
144
0.0
144
1.0
147
0.0008202099737533
147
0.0
147
0.0
147
0.0
147
0.0
147
0.0008202099737533
147
0.0
147
0.0
147
0.0
147
0.0
147
1.0
147
0.0
147
0.0
147
0.0
147
0.0
147
1.0
  0
MATERIAL
  5
107A
102
{ACAD_XDICTIONARY
360
107B
102
}
102
{ACAD_REACTORS
330
EE5
102
}
330
EE5
100
AcDbMaterial
  1
Global
 72
     0
 43
0.0008202099737533
 43
0.0
 43
0.0
 43
0.0
 43
0.0
 43
0.0008202099737533
 43
0.0
 43
0.0
 43
0.0
 43
0.0
 43
1.0
 43
0.0
 43
0.0
 43
0.0
 43
0.0
 43
1.0
 77
     0
 47
0.0008202099737533
 47
0.0
 47
0.0
 47
0.0
 47
0.0
 47
0.0008202099737533
 47
0.0
 47
0.0
 47
0.0
 47
0.0
 47
1.0
 47
0.0
 47
0.0
 47
0.0
 47
0.0
 47
1.0
171
     0
 49
0.0008202099737533
 49
0.0
 49
0.0
 49
0.0
 49
0.0
 49
0.0008202099737533
 49
0.0
 49
0.0
 49
0.0
 49
0.0
 49
1.0
 49
0.0
 49
0.0
 49
0.0
 49
0.0
 49
1.0
175
     0
142
0.0008202099737533
142
0.0
142
0.0
142
0.0
142
0.0
142
0.0008202099737533
142
0.0
142
0.0
142
0.0
142
0.0
142
1.0
142
0.0
142
0.0
142
0.0
142
0.0
142
1.0
179
     0
144
0.0008202099737533
144
0.0
144
0.0
144
0.0
144
0.0
144
0.0008202099737533
144
0.0
144
0.0
144
0.0
144
0.0
144
1.0
144
0.0
144
0.0
144
0.0
144
0.0
144
1.0
147
0.0008202099737533
147
0.0
147
0.0
147
0.0
147
0.0
147
0.0008202099737533
147
0.0
147
0.0
147
0.0
147
0.0
147
1.0
147
0.0
147
0.0
147
0.0
147
0.0
147
1.0
  0
MLEADERSTYLE
  5
10A9
102
{ACAD_REACTORS
330
10A8
102
}
330
10A8
100
AcDbMLeaderStyle
170
     2
171
     1
172
     0
 90
        2
 40
0.0
 41
0.0
173
     1
 91
-1056964608
340
14
 92
       -2
290
     1
 42
2.0
291
     1
 43
0.36
  3
Standard
 44
4.0
300

342
11
174
     1
178
     6
175
     1
176
     0
 93
-1056964608
 45
4.0
292
     0
297
     0
 46
4.0
 94
-1056964608
 47
1.0
 49
1.0
140
1.0
293
     1
141
0.0
294
     1
177
     0
142
1.0
295
     0
296
     0
143
0.125
1001
ACAD_MLEADERVER
1070
     2
  0
MLINESTYLE
  5
18
102
{ACAD_REACTORS
330
17
102
}
330
17
100
AcDbMlineStyle
  2
STANDARD
 70
     0
  3

 62
   256
 51
90.0
 52
90.0
 71
     2
 49
0.5
 62
   256
  6
BYLAYER
 49
-0.5
 62
   256
  6
BYLAYER
  0
ACDBPLACEHOLDER
  5
F
102
{ACAD_REACTORS
330
E
102
}
330
E
  0
SCALE
  5
1097
102
{ACAD_REACTORS
330
1096
102
}
330
1096
100
AcDbScale
 70
     0
300
1:1
140
1.0
141
1.0
290
     1
  0
SCALE
  5
1098
102
{ACAD_REACTORS
330
1096
102
}
330
1096
100
AcDbScale
 70
     0
300
1:2
140
1.0
141
2.0
290
     0
  0
SCALE
  5
1099
102
{ACAD_REACTORS
330
1096
102
}
330
1096
100
AcDbScale
 70
     0
300
1:4
140
1.0
141
4.0
290
     0
  0
SCALE
  5
109A
102
{ACAD_REACTORS
330
1096
102
}
330
1096
100
AcDbScale
 70
     0
300
1:5
140
1.0
141
5.0
290
     0
  0
SCALE
  5
109B
102
{ACAD_REACTORS
330
1096
102
}
330
1096
100
AcDbScale
 70
     0
300
1:8
140
1.0
141
8.0
290
     0
  0
SCALE
  5
109C
102
{ACAD_REACTORS
330
1096
102
}
330
1096
100
AcDbScale
 70
     0
300
1:10
140
1.0
141
10.0
290
     0
  0
SCALE
  5
109D
102
{ACAD_REACTORS
330
1096
102
}
330
1096
100
AcDbScale
 70
     0
300
1:16
140
1.0
141
16.0
290
     0
  0
SCALE
  5
109E
102
{ACAD_REACTORS
330
1096
102
}
330
1096
100
AcDbScale
 70
     0
300
1:20
140
1.0
141
20.0
290
     0
  0
SCALE
  5
109F
102
{ACAD_REACTORS
330
1096
102
}
330
1096
100
AcDbScale
 70
     0
300
1:30
140
1.0
141
30.0
290
     0
  0
SCALE
  5
10A0
102
{ACAD_REACTORS
330
1096
102
}
330
1096
100
AcDbScale
 70
     0
300
1:40
140
1.0
141
40.0
290
     0
  0
SCALE
  5
10A1
102
{ACAD_REACTORS
330
1096
102
}
330
1096
100
AcDbScale
 70
     0
300
1:50
140
1.0
141
50.0
290
     0
  0
SCALE
  5
10A2
102
{ACAD_REACTORS
330
1096
102
}
330
1096
100
AcDbScale
 70
     0
300
1:100
140
1.0
141
100.0
290
     0
  0
SCALE
  5
10A3
102
{ACAD_REACTORS
330
1096
102
}
330
1096
100
AcDbScale
 70
     0
300
2:1
140
2.0
141
1.0
290
     0
  0
SCALE
  5
10A4
102
{ACAD_REACTORS
330
1096
102
}
330
1096
100
AcDbScale
 70
     0
300
4:1
140
4.0
141
1.0
290
     0
  0
SCALE
  5
10A5
102
{ACAD_REACTORS
330
1096
102
}
330
1096
100
AcDbScale
 70
     0
300
8:1
140
8.0
141
1.0
290
     0
  0
SCALE
  5
10A6
102
{ACAD_REACTORS
330
1096
102
}
330
1096
100
AcDbScale
 70
     0
300
10:1
140
10.0
141
1.0
290
     0
  0
SCALE
  5
10A7
102
{ACAD_REACTORS
330
1096
102
}
330
1096
100
AcDbScale
 70
     0
300
100:1
140
100.0
141
1.0
290
     0
  0
TABLESTYLE
  5
EE8
102
{ACAD_XDICTIONARY
360
8ED1
102
}
102
{ACAD_REACTORS
330
EE7
102
}
330
EE7
100
AcDbTableStyle
  3
Standard
 70
     0
 71
     0
 40
1.5
 41
1.5
280
     0
281
     0
  7
Standard
140
4.5
170
     2
 62
     0
 63
     7
283
     0
274
    -2
284
     1
 64
     0
275
    -2
285
     1
 65
     0
276
    -2
286
     1
 66
     0
277
    -2
287
     1
 67
     0
278
    -2
288
     1
 68
     0
279
    -2
289
     1
 69
     0
  7
Standard
140
6.0
170
     5
 62
     0
 63
     7
283
     0
274
    -2
284
     1
 64
     0
275
    -2
285
     1
 65
     0
276
    -2
286
     1
 66
     0
277
    -2
287
     1
 67
     0
278
    -2
288
     1
 68
     0
279
    -2
289
     1
 69
     0
  7
Standard
140
4.5
170
     5
 62
     0
 63
     7
283
     0
274
    -2
284
     1
 64
     0
275
    -2
285
     1
 65
     0
276
    -2
286
     1
 66
     0
277
    -2
287
     1
 67
     0
278
    -2
288
     1
 68
     0
279
    -2
289
     1
 69
     0
  0
VISUALSTYLE
  5
1088
102
{ACAD_XDICTIONARY
360
8F53
102
}
102
{ACAD_REACTORS
330
1082
102
}
330
1082
100
AcDbVisualStyle
  2
2dWireframe
 70
     4
 71
     0
 72
     2
 73
     0
 90
        0
 40
-0.6
 41
-30.0
 62
     5
 63
     7
 74
     1
 91
        4
 64
     7
 65
   257
 75
     1
175
     1
 42
1.0
 92
        0
 66
   257
 43
1.0
 76
     1
 77
     6
 78
     2
 67
     7
 79
     5
170
     0
171
     0
290
     0
174
     0
 93
        1
 44
0.0
173
     0
291
     0
 45
0.0
1001
ACAD
1000
AcDbSavedByObjectVersion
1070
     0
  0
VISUALSTYLE
  5
108A
102
{ACAD_XDICTIONARY
360
8F57
102
}
102
{ACAD_REACTORS
330
1082
102
}
330
1082
100
AcDbVisualStyle
  2
3D Hidden
 70
     6
 71
     1
 72
     2
 73
     2
 90
        0
 40
-0.6
 41
-30.0
 62
     5
 63
     7
 74
     2
 91
        2
 64
     7
 65
   257
 75
     2
175
     1
 42
179.0
 92
        0
 66
   257
 43
1.0
 76
     1
 77
     6
 78
     2
 67
     7
 79
     3
170
     0
171
     0
290
     0
174
     0
 93
        1
 44
0.0
173
     0
291
     0
 45
0.0
1001
ACAD
1000
AcDbSavedByObjectVersion
1070
     0
  0
VISUALSTYLE
  5
1089
102
{ACAD_XDICTIONARY
360
8F55
102
}
102
{ACAD_REACTORS
330
1082
102
}
330
1082
100
AcDbVisualStyle
  2
3dWireframe
 70
     5
 71
     0
 72
     2
 73
     0
 90
        0
 40
-0.6
 41
-30.0
 62
     5
 63
     7
 74
     1
 91
        4
 64
     7
 65
   257
 75
     1
175
     1
 42
1.0
 92
        0
 66
   257
 43
1.0
 76
     1
 77
     6
 78
     2
 67
     7
 79
     5
170
     0
171
     0
290
     0
174
     0
 93
        1
 44
0.0
173
     0
291
     0
 45
0.0
1001
ACAD
1000
AcDbSavedByObjectVersion
1070
     0
  0
VISUALSTYLE
  5
1087
102
{ACAD_XDICTIONARY
360
8F51
102
}
102
{ACAD_REACTORS
330
1082
102
}
330
1082
100
AcDbVisualStyle
  2
Basic
 70
     7
 71
     1
 72
     0
 73
     1
 90
        0
 40
-0.6
 41
-30.0
 62
     5
 63
     7
 74
     0
 91
        4
 64
     7
 65
   257
 75
     1
175
     1
 42
1.0
 92
        8
 66
     7
 43
1.0
 76
     1
 77
     6
 78
     2
 67
     7
 79
     5
170
     0
171
     0
290
     0
174
     0
 93
        1
 44
0.0
173
     0
291
     1
 45
0.0
1001
ACAD
1000
AcDbSavedByObjectVersion
1070
     0
  0
VISUALSTYLE
  5
108E
102
{ACAD_XDICTIONARY
360
8F5F
102
}
102
{ACAD_REACTORS
330
1082
102
}
330
1082
100
AcDbVisualStyle
  2
Brighten
 70
    12
 71
     2
 72
     2
 73
     0
 90
        0
 40
-0.6
 41
-30.0
 62
     5
 63
     7
 74
     1
 91
        4
 64
     7
 65
   257
 75
     1
175
     1
 42
1.0
 92
        8
 66
     7
 43
1.0
 76
     1
 77
     6
 78
     2
 67
     7
 79
     5
170
     0
171
     0
290
     0
174
     0
 93
        1
 44
50.0
173
     0
291
     1
 45
0.0
1001
ACAD
1000
AcDbSavedByObjectVersion
1070
     0
  0
VISUALSTYLE
  5
1092
102
{ACAD_XDICTIONARY
360
8F67
102
}
102
{ACAD_REACTORS
330
1082
102
}
330
1082
100
AcDbVisualStyle
  2
ColorChange
 70
    16
 71
     2
 72
     2
 73
     3
 90
        0
 40
-0.6
 41
-30.0
 62
     5
 63
     8
 74
     1
 91
        4
 64
     7
 65
   257
 75
     1
175
     1
 42
1.0
 92
        8
 66
     8
 43
1.0
 76
     1
 77
     6
 78
     2
 67
     7
 79
     5
170
     0
171
     0
290
     0
174
     0
 93
        1
 44
0.0
173
     0
291
     1
 45
0.0
1001
ACAD
1000
AcDbSavedByObjectVersion
1070
     0
  0
VISUALSTYLE
  5
108B
102
{ACAD_XDICTIONARY
360
8F59
102
}
102
{ACAD_REACTORS
330
1082
102
}
330
1082
100
AcDbVisualStyle
  2
Conceptual
 70
     9
 71
     3
 72
     2
 73
     0
 90
        0
 40
-0.6
 41
-30.0
 62
     5
 63
     7
 74
     2
 91
        2
 64
     7
 65
   257
 75
     1
175
     1
 42
179.0
 92
        8
 66
     7
 43
1.0
 76
     1
 77
     6
 78
     2
 67
     7
 79
     3
170
     0
171
     0
290
     0
174
     0
 93
        1
 44
0.0
173
     0
291
     0
 45
0.0
1001
ACAD
1000
AcDbSavedByObjectVersion
1070
     0
  0
VISUALSTYLE
  5
108D
102
{ACAD_XDICTIONARY
360
8F5D
102
}
102
{ACAD_REACTORS
330
1082
102
}
330
1082
100
AcDbVisualStyle
  2
Dim
 70
    11
 71
     2
 72
     2
 73
     0
 90
        0
 40
-0.6
 41
-30.0
 62
     5
 63
     7
 74
     1
 91
        4
 64
     7
 65
   257
 75
     1
175
     1
 42
1.0
 92
        8
 66
     7
 43
1.0
 76
     1
 77
     6
 78
     2
 67
     7
 79
     5
170
     0
171
     0
290
     0
174
     0
 93
        1
 44
-50.0
173
     0
291
     1
 45
0.0
1001
ACAD
1000
AcDbSavedByObjectVersion
1070
     0
  0
VISUALSTYLE
  5
1095
102
{ACAD_XDICTIONARY
360
8F6D
102
}
102
{ACAD_REACTORS
330
1082
102
}
330
1082
100
AcDbVisualStyle
  2
EdgeColorOff
 70
    22
 71
     2
 72
     2
 73
     0
 90
        0
 40
-0.6
 41
-30.0
 62
     5
 63
     7
 74
     1
 91
        4
 64
     7
 65
   257
 75
     1
175
     1
 42
1.0
 92
        8
 66
     7
 43
1.0
 76
     1
 77
     6
 78
     2
 67
     7
 79
     5
170
     0
171
     0
290
     0
174
     0
 93
        1
 44
0.0
173
     0
291
     1
 45
0.0
1001
ACAD
1000
AcDbSavedByObjectVersion
1070
     0
  0
VISUALSTYLE
  5
1091
102
{ACAD_XDICTIONARY
360
8F65
102
}
102
{ACAD_REACTORS
330
1082
102
}
330
1082
100
AcDbVisualStyle
  2
Facepattern
 70
    15
 71
     2
 72
     2
 73
     0
 90
        0
 40
-0.6
 41
-30.0
 62
     5
 63
     7
 74
     1
 91
        4
 64
     7
 65
   257
 75
     1
175
     1
 42
1.0
 92
        8
 66
     7
 43
1.0
 76
     1
 77
     6
 78
     2
 67
     7
 79
     5
170
     0
171
     0
290
     0
174
     0
 93
        1
 44
0.0
173
     0
291
     1
 45
0.0
1001
ACAD
1000
AcDbSavedByObjectVersion
1070
     0
  0
VISUALSTYLE
  5
1083
102
{ACAD_XDICTIONARY
360
8F49
102
}
102
{ACAD_REACTORS
330
1082
102
}
330
1082
100
AcDbVisualStyle
  2
Flat
 70
     0
 71
     2
 72
     1
 73
     1
 90
        2
 40
-0.6
 41
30.0
 62
     5
 63
     7
 74
     0
 91
        4
 64
     7
 65
   257
 75
     1
175
     1
 42
1.0
 92
        8
 66
     7
 43
1.0
 76
     1
 77
     6
 78
     2
 67
     7
 79
     5
170
     0
171
     0
290
     0
174
     0
 93
       13
 44
0.0
173
     0
291
     1
 45
0.0
1001
ACAD
1000
AcDbSavedByObjectVersion
1070
     0
  0
VISUALSTYLE
  5
1084
102
{ACAD_XDICTIONARY
360
8F4B
102
}
102
{ACAD_REACTORS
330
1082
102
}
330
1082
100
AcDbVisualStyle
  2
FlatWithEdges
 70
     1
 71
     2
 72
     1
 73
     1
 90
        2
 40
-0.6
 41
30.0
 62
     5
 63
     7
 74
     1
 91
        4
 64
     7
 65
   257
 75
     1
175
     1
 42
1.0
 92
        0
 66
   257
 43
1.0
 76
     1
 77
     6
 78
     2
 67
     7
 79
     5
170
     0
171
     0
290
     0
174
     0
 93
       13
 44
0.0
173
     0
291
     1
 45
0.0
1001
ACAD
1000
AcDbSavedByObjectVersion
1070
     0
  0
VISUALSTYLE
  5
1085
102
{ACAD_XDICTIONARY
360
8F4D
102
}
102
{ACAD_REACTORS
330
1082
102
}
330
1082
100
AcDbVisualStyle
  2
Gouraud
 70
     2
 71
     2
 72
     2
 73
     1
 90
        2
 40
-0.6
 41
30.0
 62
     5
 63
     7
 74
     0
 91
        4
 64
     7
 65
   257
 75
     1
175
     1
 42
1.0
 92
        0
 66
     7
 43
1.0
 76
     1
 77
     6
 78
     2
 67
     7
 79
     5
170
     0
171
     0
290
     0
174
     0
 93
       13
 44
0.0
173
     0
291
     1
 45
0.0
1001
ACAD
1000
AcDbSavedByObjectVersion
1070
     0
  0
VISUALSTYLE
  5
1086
102
{ACAD_XDICTIONARY
360
8F4F
102
}
102
{ACAD_REACTORS
330
1082
102
}
330
1082
100
AcDbVisualStyle
  2
GouraudWithEdges
 70
     3
 71
     2
 72
     2
 73
     1
 90
        2
 40
-0.6
 41
30.0
 62
     5
 63
     7
 74
     1
 91
        4
 64
     7
 65
   257
 75
     1
175
     1
 42
1.0
 92
        0
 66
   257
 43
1.0
 76
     1
 77
     6
 78
     2
 67
     7
 79
     5
170
     0
171
     0
290
     0
174
     0
 93
       13
 44
0.0
173
     0
291
     1
 45
0.0
1001
ACAD
1000
AcDbSavedByObjectVersion
1070
     0
  0
VISUALSTYLE
  5
1093
102
{ACAD_XDICTIONARY
360
8F69
102
}
102
{ACAD_REACTORS
330
1082
102
}
330
1082
100
AcDbVisualStyle
  2
JitterOff
 70
    20
 71
     2
 72
     2
 73
     0
 90
        0
 40
-0.6
 41
-30.0
 62
     5
 63
     7
 74
     1
 91
        4
 64
     7
 65
   257
 75
     1
175
     1
 42
1.0
 92
       10
 66
     7
 43
1.0
 76
     1
 77
     6
 78
     2
 67
     7
 79
     5
170
     0
171
     0
290
     0
174
     0
 93
        1
 44
0.0
173
     0
291
     1
 45
0.0
1001
ACAD
1000
AcDbSavedByObjectVersion
1070
     0
  0
VISUALSTYLE
  5
1090
102
{ACAD_XDICTIONARY
360
8F63
102
}
102
{ACAD_REACTORS
330
1082
102
}
330
1082
100
AcDbVisualStyle
  2
Linepattern
 70
    14
 71
     2
 72
     2
 73
     0
 90
        0
 40
-0.6
 41
-30.0
 62
     5
 63
     7
 74
     1
 91
        4
 64
     7
 65
   257
 75
     7
175
     7
 42
1.0
 92
        8
 66
     7
 43
1.0
 76
     1
 77
     6
 78
     2
 67
     7
 79
     5
170
     0
171
     0
290
     0
174
     0
 93
        1
 44
0.0
173
     0
291
     1
 45
0.0
1001
ACAD
1000
AcDbSavedByObjectVersion
1070
     0
  0
VISUALSTYLE
  5
1094
102
{ACAD_XDICTIONARY
360
8F6B
102
}
102
{ACAD_REACTORS
330
1082
102
}
330
1082
100
AcDbVisualStyle
  2
OverhangOff
 70
    21
 71
     2
 72
     2
 73
     0
 90
        0
 40
-0.6
 41
-30.0
 62
     5
 63
     7
 74
     1
 91
        4
 64
     7
 65
   257
 75
     1
175
     1
 42
1.0
 92
        9
 66
     7
 43
1.0
 76
     1
 77
     6
 78
     2
 67
     7
 79
     5
170
     0
171
     0
290
     0
174
     0
 93
        1
 44
0.0
173
     0
291
     1
 45
0.0
1001
ACAD
1000
AcDbSavedByObjectVersion
1070
     0
  0
VISUALSTYLE
  5
108C
102
{ACAD_XDICTIONARY
360
8F5B
102
}
102
{ACAD_REACTORS
330
1082
102
}
330
1082
100
AcDbVisualStyle
  2
Realistic
 70
     8
 71
     2
 72
     2
 73
     0
 90
        0
 40
-0.6
 41
-30.0
 62
     5
 63
     7
 74
     1
 91
        0
 64
     7
 65
   257
 75
     1
175
     1
 42
1.0
 92
        8
 66
     8
 43
1.0
 76
     1
 77
     6
 78
     2
 67
     7
 79
     5
170
     0
171
     0
290
     0
174
     0
 93
       13
 44
0.0
173
     0
291
     0
 45
0.0
1001
ACAD
1000
AcDbSavedByObjectVersion
1070
     0
  0
VISUALSTYLE
  5
108F
102
{ACAD_XDICTIONARY
360
8F61
102
}
102
{ACAD_REACTORS
330
1082
102
}
330
1082
100
AcDbVisualStyle
  2
Thicken
 70
    13
 71
     2
 72
     2
 73
     0
 90
        0
 40
-0.6
 41
-30.0
 62
     5
 63
     7
 74
     1
 91
        4
 64
     7
 65
   257
 75
     1
175
     1
 42
1.0
 92
       12
 66
     7
 43
1.0
 76
     1
 77
     6
 78
     2
 67
     7
 79
     5
170
     0
171
     0
290
     0
174
     0
 93
        1
 44
0.0
173
     0
291
     1
 45
0.0
1001
ACAD
1000
AcDbSavedByObjectVersion
1070
     0
  0
DICTIONARYVAR
  5
8F2D
102
{ACAD_REACTORS
330
3D
102
}
330
3D
100
DictionaryVariables
280
     0
  1
1:1
  0
DICTIONARYVAR
  5
8F2C
102
{ACAD_REACTORS
330
3D
102
}
330
3D
100
DictionaryVariables
280
     0
  1
STANDARD
  0
DICTIONARYVAR
  5
1049
102
{ACAD_REACTORS
330
3D
102
}
330
3D
100
DictionaryVariables
280
     0
  1
STANDARD
  0
DICTIONARYVAR
  5
3F
102
{ACAD_REACTORS
330
3D
102
}
330
3D
100
DictionaryVariables
280
     0
  1
2
  0
DICTIONARYVAR
  5
3E
102
{ACAD_REACTORS
330
3D
102
}
330
3D
100
DictionaryVariables
280
     0
  1
1
  0
DICTIONARYVAR
  5
8F2F
102
{ACAD_REACTORS
330
3D
102
}
330
3D
100
DictionaryVariables
280
     0
  1
0
  0
DICTIONARYVAR
  5
8F2E
102
{ACAD_REACTORS
330
3D
102
}
330
3D
100
DictionaryVariables
280
     0
  1
127
  0
DICTIONARYVAR
  5
8F39
102
{ACAD_REACTORS
330
3D
102
}
330
3D
100
DictionaryVariables
280
     0
  1
2
  0
XRECORD
  5
1067
102
{ACAD_REACTORS
330
1066
102
}
330
1066
100
AcDbXrecord
280
     1
  0
DICTIONARY
  5
8F3F
330
1E
100
AcDbDictionary
280
     1
281
     1
  3
ACAD_XREC_ROUNDTRIP
360
8F40
  0
DICTIONARY
  5
8F43
330
26
100
AcDbDictionary
280
     1
281
     1
  3
ACAD_XREC_ROUNDTRIP
360
8F44
  0
DICTIONARY
  5
8F41
330
22
100
AcDbDictionary
280
     1
281
     1
  3
ACAD_XREC_ROUNDTRIP
360
8F42
  0
DICTIONARY
  5
1073
330
1072
100
AcDbDictionary
280
     1
281
     1
  3
ACAD_XREC_ROUNDTRIP
360
8F47
  3
BUMPTILE
360
1075
  3
DIFFUSETILE
360
1074
  3
OPACITYTILE
360
1078
  3
REFLECTIONTILE
360
1077
  3
REFRACTIONTILE
360
1079
  3
SPECULARTILE
360
1076
  0
DICTIONARY
  5
106B
330
106A
100
AcDbDictionary
280
     1
281
     1
  3
ACAD_XREC_ROUNDTRIP
360
8F46
  3
BUMPTILE
360
106D
  3
DIFFUSETILE
360
106C
  3
OPACITYTILE
360
1070
  3
REFLECTIONTILE
360
106F
  3
REFRACTIONTILE
360
1071
  3
SPECULARTILE
360
106E
  0
DICTIONARY
  5
107B
330
107A
100
AcDbDictionary
280
     1
281
     1
  3
ACAD_XREC_ROUNDTRIP
360
8F48
  3
BUMPTILE
360
107D
  3
DIFFUSETILE
360
107C
  3
OPACITYTILE
360
1080
  3
REFLECTIONTILE
360
107F
  3
REFRACTIONTILE
360
1081
  3
SPECULARTILE
360
107E
  0
DICTIONARY
  5
8ED1
330
EE8
100
AcDbDictionary
280
     1
281
     1
  3
ACAD_ROUNDTRIP_2008_TABLESTYLE_CELLSTYLEMAP
360
8F3A
  3
ACAD_XREC_ROUNDTRIP
360
8F45
  0
DICTIONARY
  5
8F53
330
1088
100
AcDbDictionary
280
     1
281
     1
  3
ACAD_XREC_ROUNDTRIP
360
8F54
  0
DICTIONARY
  5
8F57
330
108A
100
AcDbDictionary
280
     1
281
     1
  3
ACAD_XREC_ROUNDTRIP
360
8F58
  0
DICTIONARY
  5
8F55
330
1089
100
AcDbDictionary
280
     1
281
     1
  3
ACAD_XREC_ROUNDTRIP
360
8F56
  0
DICTIONARY
  5
8F51
330
1087
100
AcDbDictionary
280
     1
281
     1
  3
ACAD_XREC_ROUNDTRIP
360
8F52
  0
DICTIONARY
  5
8F5F
330
108E
100
AcDbDictionary
280
     1
281
     1
  3
ACAD_XREC_ROUNDTRIP
360
8F60
  0
DICTIONARY
  5
8F67
330
1092
100
AcDbDictionary
280
     1
281
     1
  3
ACAD_XREC_ROUNDTRIP
360
8F68
  0
DICTIONARY
  5
8F59
330
108B
100
AcDbDictionary
280
     1
281
     1
  3
ACAD_XREC_ROUNDTRIP
360
8F5A
  0
DICTIONARY
  5
8F5D
330
108D
100
AcDbDictionary
280
     1
281
     1
  3
ACAD_XREC_ROUNDTRIP
360
8F5E
  0
DICTIONARY
  5
8F6D
330
1095
100
AcDbDictionary
280
     1
281
     1
  3
ACAD_XREC_ROUNDTRIP
360
8F6E
  0
DICTIONARY
  5
8F65
330
1091
100
AcDbDictionary
280
     1
281
     1
  3
ACAD_XREC_ROUNDTRIP
360
8F66
  0
DICTIONARY
  5
8F49
330
1083
100
AcDbDictionary
280
     1
281
     1
  3
ACAD_XREC_ROUNDTRIP
360
8F4A
  0
DICTIONARY
  5
8F4B
330
1084
100
AcDbDictionary
280
     1
281
     1
  3
ACAD_XREC_ROUNDTRIP
360
8F4C
  0
DICTIONARY
  5
8F4D
330
1085
100
AcDbDictionary
280
     1
281
     1
  3
ACAD_XREC_ROUNDTRIP
360
8F4E
  0
DICTIONARY
  5
8F4F
330
1086
100
AcDbDictionary
280
     1
281
     1
  3
ACAD_XREC_ROUNDTRIP
360
8F50
  0
DICTIONARY
  5
8F69
330
1093
100
AcDbDictionary
280
     1
281
     1
  3
ACAD_XREC_ROUNDTRIP
360
8F6A
  0
DICTIONARY
  5
8F63
330
1090
100
AcDbDictionary
280
     1
281
     1
  3
ACAD_XREC_ROUNDTRIP
360
8F64
  0
DICTIONARY
  5
8F6B
330
1094
100
AcDbDictionary
280
     1
281
     1
  3
ACAD_XREC_ROUNDTRIP
360
8F6C
  0
DICTIONARY
  5
8F5B
330
108C
100
AcDbDictionary
280
     1
281
     1
  3
ACAD_XREC_ROUNDTRIP
360
8F5C
  0
DICTIONARY
  5
8F61
330
108F
100
AcDbDictionary
280
     1
281
     1
  3
ACAD_XREC_ROUNDTRIP
360
8F62
  0
XRECORD
  5
8F40
102
{ACAD_REACTORS
330
8F3F
102
}
330
8F3F
100
AcDbXrecord
280
     1
102
SHADEPLOT
 70
     0
102
SHADEPLOTRESLEVEL
 70
     2
102
SHADEPLOTCUSTOMDPI
 70
   300
  0
XRECORD
  5
8F44
102
{ACAD_REACTORS
330
8F43
102
}
330
8F43
100
AcDbXrecord
280
     1
102
SHADEPLOT
 70
     0
102
SHADEPLOTRESLEVEL
 70
     2
102
SHADEPLOTCUSTOMDPI
 70
   300
  0
XRECORD
  5
8F42
102
{ACAD_REACTORS
330
8F41
102
}
330
8F41
100
AcDbXrecord
280
     1
102
SHADEPLOT
 70
     0
102
SHADEPLOTRESLEVEL
 70
     2
102
SHADEPLOTCUSTOMDPI
 70
   300
  0
XRECORD
  5
8F47
102
{ACAD_REACTORS
330
1073
102
}
330
1073
100
AcDbXrecord
280
     1
102
MATERIAL
148
0.0
149
0.0
149
0.0
 93
        0
 94
      127
282
     0
 72
     0
 77
     0
171
     0
175
     0
179
     0
273
     0
  0
XRECORD
  5
1075
102
{ACAD_REACTORS
330
1073
102
}
330
1073
100
AcDbXrecord
280
     1
270
     1
271
     1
  0
XRECORD
  5
1074
102
{ACAD_REACTORS
330
1073
102
}
330
1073
100
AcDbXrecord
280
     1
270
     1
271
     1
  0
XRECORD
  5
1078
102
{ACAD_REACTORS
330
1073
102
}
330
1073
100
AcDbXrecord
280
     1
270
     1
271
     1
  0
XRECORD
  5
1077
102
{ACAD_REACTORS
330
1073
102
}
330
1073
100
AcDbXrecord
280
     1
270
     1
271
     1
  0
XRECORD
  5
1079
102
{ACAD_REACTORS
330
1073
102
}
330
1073
100
AcDbXrecord
280
     1
270
     1
271
     1
  0
XRECORD
  5
1076
102
{ACAD_REACTORS
330
1073
102
}
330
1073
100
AcDbXrecord
280
     1
270
     1
271
     1
  0
XRECORD
  5
8F46
102
{ACAD_REACTORS
330
106B
102
}
330
106B
100
AcDbXrecord
280
     1
102
MATERIAL
148
0.0
149
0.0
149
0.0
 93
        0
 94
      127
282
     0
 72
     0
 77
     0
171
     0
175
     0
179
     0
273
     0
  0
XRECORD
  5
106D
102
{ACAD_REACTORS
330
106B
102
}
330
106B
100
AcDbXrecord
280
     1
270
     1
271
     1
  0
XRECORD
  5
106C
102
{ACAD_REACTORS
330
106B
102
}
330
106B
100
AcDbXrecord
280
     1
270
     1
271
     1
  0
XRECORD
  5
1070
102
{ACAD_REACTORS
330
106B
102
}
330
106B
100
AcDbXrecord
280
     1
270
     1
271
     1
  0
XRECORD
  5
106F
102
{ACAD_REACTORS
330
106B
102
}
330
106B
100
AcDbXrecord
280
     1
270
     1
271
     1
  0
XRECORD
  5
1071
102
{ACAD_REACTORS
330
106B
102
}
330
106B
100
AcDbXrecord
280
     1
270
     1
271
     1
  0
XRECORD
  5
106E
102
{ACAD_REACTORS
330
106B
102
}
330
106B
100
AcDbXrecord
280
     1
270
     1
271
     1
  0
XRECORD
  5
8F48
102
{ACAD_REACTORS
330
107B
102
}
330
107B
100
AcDbXrecord
280
     1
102
MATERIAL
148
0.0
149
0.0
149
0.0
 93
        0
 94
      127
282
     0
 72
     0
 77
     0
171
     0
175
     0
179
     0
273
     0
  0
XRECORD
  5
107D
102
{ACAD_REACTORS
330
107B
102
}
330
107B
100
AcDbXrecord
280
     1
270
     1
271
     1
  0
XRECORD
  5
107C
102
{ACAD_REACTORS
330
107B
102
}
330
107B
100
AcDbXrecord
280
     1
270
     1
271
     1
  0
XRECORD
  5
1080
102
{ACAD_REACTORS
330
107B
102
}
330
107B
100
AcDbXrecord
280
     1
270
     1
271
     1
  0
XRECORD
  5
107F
102
{ACAD_REACTORS
330
107B
102
}
330
107B
100
AcDbXrecord
280
     1
270
     1
271
     1
  0
XRECORD
  5
1081
102
{ACAD_REACTORS
330
107B
102
}
330
107B
100
AcDbXrecord
280
     1
270
     1
271
     1
  0
XRECORD
  5
107E
102
{ACAD_REACTORS
330
107B
102
}
330
107B
100
AcDbXrecord
280
     1
270
     1
271
     1
  0
CELLSTYLEMAP
  5
8F3A
102
{ACAD_REACTORS
330
8ED1
102
}
330
8ED1
100
AcDbCellStyleMap
 90
        3
300
CELLSTYLE
  1
TABLEFORMAT_BEGIN
 90
        5
170
     1
 91
        0
 92
    32768
 62
   257
 93
        1
300
CONTENTFORMAT
  1
CONTENTFORMAT_BEGIN
 90
        0
 91
        0
 92
        4
 93
        0
300

 40
0.0
140
1.0
 94
        5
 62
     0
340
11
144
6.0
309
CONTENTFORMAT_END
171
     1
301
MARGIN
  1
CELLMARGIN_BEGIN
 40
1.5
 40
1.5
 40
1.5
 40
1.5
 40
0.18
 40
0.18
309
CELLMARGIN_END
 94
        6
 95
        1
302
GRIDFORMAT
  1
GRIDFORMAT_BEGIN
 90
        0
 91
        1
 62
     0
 92
       -2
340
0
 93
        0
 40
0.045
309
GRIDFORMAT_END
 95
        2
302
GRIDFORMAT
  1
GRIDFORMAT_BEGIN
 90
        0
 91
        1
 62
     0
 92
       -2
340
0
 93
        0
 40
0.045
309
GRIDFORMAT_END
 95
        4
302
GRIDFORMAT
  1
GRIDFORMAT_BEGIN
 90
        0
 91
        1
 62
     0
 92
       -2
340
0
 93
        0
 40
0.045
309
GRIDFORMAT_END
 95
        8
302
GRIDFORMAT
  1
GRIDFORMAT_BEGIN
 90
        0
 91
        1
 62
     0
 92
       -2
340
0
 93
        0
 40
0.045
309
GRIDFORMAT_END
 95
       16
302
GRIDFORMAT
  1
GRIDFORMAT_BEGIN
 90
        0
 91
        1
 62
     0
 92
       -2
340
0
 93
        0
 40
0.045
309
GRIDFORMAT_END
 95
       32
302
GRIDFORMAT
  1
GRIDFORMAT_BEGIN
 90
        0
 91
        1
 62
     0
 92
       -2
340
0
 93
        0
 40
0.045
309
GRIDFORMAT_END
309
TABLEFORMAT_END
  1
CELLSTYLE_BEGIN
 90
        1
 91
        1
300
_TITLE
309
CELLSTYLE_END
300
CELLSTYLE
  1
TABLEFORMAT_BEGIN
 90
        5
170
     1
 91
        0
 92
        0
 62
   257
 93
        1
300
CONTENTFORMAT
  1
CONTENTFORMAT_BEGIN
 90
        0
 91
        0
 92
        4
 93
        0
300

 40
0.0
140
1.0
 94
        5
 62
     0
340
11
144
4.5
309
CONTENTFORMAT_END
171
     1
301
MARGIN
  1
CELLMARGIN_BEGIN
 40
1.5
 40
1.5
 40
1.5
 40
1.5
 40
0.18
 40
0.18
309
CELLMARGIN_END
 94
        6
 95
        1
302
GRIDFORMAT
  1
GRIDFORMAT_BEGIN
 90
        0
 91
        1
 62
     0
 92
       -2
340
0
 93
        0
 40
0.045
309
GRIDFORMAT_END
 95
        2
302
GRIDFORMAT
  1
GRIDFORMAT_BEGIN
 90
        0
 91
        1
 62
     0
 92
       -2
340
0
 93
        0
 40
0.045
309
GRIDFORMAT_END
 95
        4
302
GRIDFORMAT
  1
GRIDFORMAT_BEGIN
 90
        0
 91
        1
 62
     0
 92
       -2
340
0
 93
        0
 40
0.045
309
GRIDFORMAT_END
 95
        8
302
GRIDFORMAT
  1
GRIDFORMAT_BEGIN
 90
        0
 91
        1
 62
     0
 92
       -2
340
0
 93
        0
 40
0.045
309
GRIDFORMAT_END
 95
       16
302
GRIDFORMAT
  1
GRIDFORMAT_BEGIN
 90
        0
 91
        1
 62
     0
 92
       -2
340
0
 93
        0
 40
0.045
309
GRIDFORMAT_END
 95
       32
302
GRIDFORMAT
  1
GRIDFORMAT_BEGIN
 90
        0
 91
        1
 62
     0
 92
       -2
340
0
 93
        0
 40
0.045
309
GRIDFORMAT_END
309
TABLEFORMAT_END
  1
CELLSTYLE_BEGIN
 90
        2
 91
        1
300
_HEADER
309
CELLSTYLE_END
300
CELLSTYLE
  1
TABLEFORMAT_BEGIN
 90
        5
170
     1
 91
        0
 92
        0
 62
   257
 93
        1
300
CONTENTFORMAT
  1
CONTENTFORMAT_BEGIN
 90
        0
 91
        0
 92
        4
 93
        0
300

 40
0.0
140
1.0
 94
        2
 62
     0
340
11
144
4.5
309
CONTENTFORMAT_END
171
     1
301
MARGIN
  1
CELLMARGIN_BEGIN
 40
1.5
 40
1.5
 40
1.5
 40
1.5
 40
0.18
 40
0.18
309
CELLMARGIN_END
 94
        6
 95
        1
302
GRIDFORMAT
  1
GRIDFORMAT_BEGIN
 90
        0
 91
        1
 62
     0
 92
       -2
340
0
 93
        0
 40
0.045
309
GRIDFORMAT_END
 95
        2
302
GRIDFORMAT
  1
GRIDFORMAT_BEGIN
 90
        0
 91
        1
 62
     0
 92
       -2
340
0
 93
        0
 40
0.045
309
GRIDFORMAT_END
 95
        4
302
GRIDFORMAT
  1
GRIDFORMAT_BEGIN
 90
        0
 91
        1
 62
     0
 92
       -2
340
0
 93
        0
 40
0.045
309
GRIDFORMAT_END
 95
        8
302
GRIDFORMAT
  1
GRIDFORMAT_BEGIN
 90
        0
 91
        1
 62
     0
 92
       -2
340
0
 93
        0
 40
0.045
309
GRIDFORMAT_END
 95
       16
302
GRIDFORMAT
  1
GRIDFORMAT_BEGIN
 90
        0
 91
        1
 62
     0
 92
       -2
340
0
 93
        0
 40
0.045
309
GRIDFORMAT_END
 95
       32
302
GRIDFORMAT
  1
GRIDFORMAT_BEGIN
 90
        0
 91
        1
 62
     0
 92
       -2
340
0
 93
        0
 40
0.045
309
GRIDFORMAT_END
309
TABLEFORMAT_END
  1
CELLSTYLE_BEGIN
 90
        3
 91
        2
300
_DATA
309
CELLSTYLE_END
  0
XRECORD
  5
8F45
102
{ACAD_REACTORS
330
8ED1
102
}
330
8ED1
100
AcDbXrecord
280
     1
102
ACAD_ROUNDTRIP_PRE2007_TABLESTYLE
 90
        4
 91
        0
  1

 92
        4
 93
        0
  2

 94
        4
 95
        0
  3

  0
XRECORD
  5
8F54
102
{ACAD_REACTORS
330
8F53
102
}
330
8F53
100
AcDbXrecord
280
     1
102
RTVSPropertyOp0
 70
     1
102
RTVSPropertyOp1
 70
     1
102
RTVSPropertyOp2
 70
     1
102
RTVSPropertyOp3
 70
     1
102
RTVSPropertyOp4
 70
     1
102
RTVSPropertyOp5
 70
     1
102
RTVSPropertyOp6
 70
     1
102
RTVSPropertyOp7
 70
     1
102
RTVSPropertyOp8
 70
     1
102
RTVSPropertyOp9
 70
     1
102
RTVSPropertyOp10
 70
     1
102
RTVSPropertyOp11
 70
     1
102
RTVSPropertyOp12
 70
     1
102
RTVSPropertyOp13
 70
     1
102
RTVSPropertyOp14
 70
     1
102
RTVSPropertyOp15
 70
     1
102
RTVSPropertyOp16
 70
     1
102
RTVSPropertyOp17
 70
     1
102
RTVSPropertyOp18
 70
     1
102
RTVSPropertyOp19
 70
     1
102
RTVSPropertyOp20
 70
     1
102
RTVSPropertyOp21
 70
     1
102
RTVSPropertyOp22
 70
     1
102
RTVSPropertyOp23
 70
     1
102
RTVSPropertyOp24
 70
     1
102
RTVSPropertyOp25
 70
     1
102
RTVSPropertyOp26
 70
     1
102
RTVSPropertyOp27
 70
     1
  0
XRECORD
  5
8F58
102
{ACAD_REACTORS
330
8F57
102
}
330
8F57
100
AcDbXrecord
280
     1
102
RTVSPropertyOp0
 70
     1
102
RTVSPropertyOp1
 70
     1
102
RTVSPropertyOp2
 70
     1
102
RTVSPropertyOp3
 70
     1
102
RTVSPropertyOp4
 70
     1
102
RTVSPropertyOp5
 70
     1
102
RTVSPropertyOp6
 70
     1
102
RTVSPropertyOp7
 70
     1
102
RTVSPropertyOp8
 70
     1
102
RTVSPropertyOp9
 70
     1
102
RTVSPropertyOp10
 70
     1
102
RTVSPropertyOp11
 70
     1
102
RTVSPropertyOp12
 70
     1
102
RTVSPropertyOp13
 70
     1
102
RTVSPropertyOp14
 70
     1
102
RTVSPropertyOp15
 70
     1
102
RTVSPropertyOp16
 70
     1
102
RTVSPropertyOp17
 70
     1
102
RTVSPropertyOp18
 70
     1
102
RTVSPropertyOp19
 70
     1
102
RTVSPropertyOp20
 70
     1
102
RTVSPropertyOp21
 70
     1
102
RTVSPropertyOp22
 70
     1
102
RTVSPropertyOp23
 70
     1
102
RTVSPropertyOp24
 70
     1
102
RTVSPropertyOp25
 70
     1
102
RTVSPropertyOp26
 70
     1
102
RTVSPropertyOp27
 70
     1
  0
XRECORD
  5
8F56
102
{ACAD_REACTORS
330
8F55
102
}
330
8F55
100
AcDbXrecord
280
     1
102
RTVSPropertyOp0
 70
     1
102
RTVSPropertyOp1
 70
     1
102
RTVSPropertyOp2
 70
     1
102
RTVSPropertyOp3
 70
     1
102
RTVSPropertyOp4
 70
     1
102
RTVSPropertyOp5
 70
     1
102
RTVSPropertyOp6
 70
     1
102
RTVSPropertyOp7
 70
     1
102
RTVSPropertyOp8
 70
     1
102
RTVSPropertyOp9
 70
     1
102
RTVSPropertyOp10
 70
     1
102
RTVSPropertyOp11
 70
     1
102
RTVSPropertyOp12
 70
     1
102
RTVSPropertyOp13
 70
     1
102
RTVSPropertyOp14
 70
     1
102
RTVSPropertyOp15
 70
     1
102
RTVSPropertyOp16
 70
     1
102
RTVSPropertyOp17
 70
     1
102
RTVSPropertyOp18
 70
     1
102
RTVSPropertyOp19
 70
     1
102
RTVSPropertyOp20
 70
     1
102
RTVSPropertyOp21
 70
     1
102
RTVSPropertyOp22
 70
     1
102
RTVSPropertyOp23
 70
     1
102
RTVSPropertyOp24
 70
     1
102
RTVSPropertyOp25
 70
     1
102
RTVSPropertyOp26
 70
     1
102
RTVSPropertyOp27
 70
     1
  0
XRECORD
  5
8F52
102
{ACAD_REACTORS
330
8F51
102
}
330
8F51
100
AcDbXrecord
280
     1
102
RTVSPropertyOp0
 70
     1
102
RTVSPropertyOp1
 70
     1
102
RTVSPropertyOp2
 70
     1
102
RTVSPropertyOp3
 70
     1
102
RTVSPropertyOp4
 70
     1
102
RTVSPropertyOp5
 70
     1
102
RTVSPropertyOp6
 70
     1
102
RTVSPropertyOp7
 70
     1
102
RTVSPropertyOp8
 70
     1
102
RTVSPropertyOp9
 70
     1
102
RTVSPropertyOp10
 70
     1
102
RTVSPropertyOp11
 70
     1
102
RTVSPropertyOp12
 70
     1
102
RTVSPropertyOp13
 70
     1
102
RTVSPropertyOp14
 70
     1
102
RTVSPropertyOp15
 70
     1
102
RTVSPropertyOp16
 70
     1
102
RTVSPropertyOp17
 70
     1
102
RTVSPropertyOp18
 70
     1
102
RTVSPropertyOp19
 70
     1
102
RTVSPropertyOp20
 70
     1
102
RTVSPropertyOp21
 70
     1
102
RTVSPropertyOp22
 70
     1
102
RTVSPropertyOp23
 70
     1
102
RTVSPropertyOp24
 70
     1
102
RTVSPropertyOp25
 70
     1
102
RTVSPropertyOp26
 70
     1
102
RTVSPropertyOp27
 70
     1
  0
XRECORD
  5
8F60
102
{ACAD_REACTORS
330
8F5F
102
}
330
8F5F
100
AcDbXrecord
280
     1
102
RTVSPropertyOp0
 70
     1
102
RTVSPropertyOp1
 70
     1
102
RTVSPropertyOp2
 70
     1
102
RTVSPropertyOp3
 70
     1
102
RTVSPropertyOp4
 70
     1
102
RTVSPropertyOp5
 70
     1
102
RTVSPropertyOp6
 70
     1
102
RTVSPropertyOp7
 70
     1
102
RTVSPropertyOp8
 70
     1
102
RTVSPropertyOp9
 70
     1
102
RTVSPropertyOp10
 70
     1
102
RTVSPropertyOp11
 70
     1
102
RTVSPropertyOp12
 70
     1
102
RTVSPropertyOp13
 70
     1
102
RTVSPropertyOp14
 70
     1
102
RTVSPropertyOp15
 70
     1
102
RTVSPropertyOp16
 70
     1
102
RTVSPropertyOp17
 70
     1
102
RTVSPropertyOp18
 70
     1
102
RTVSPropertyOp19
 70
     1
102
RTVSPropertyOp20
 70
     1
102
RTVSPropertyOp21
 70
     1
102
RTVSPropertyOp22
 70
     1
102
RTVSPropertyOp23
 70
     1
102
RTVSPropertyOp24
 70
     1
102
RTVSPropertyOp25
 70
     1
102
RTVSPropertyOp26
 70
     1
102
RTVSPropertyOp27
 70
     1
  0
XRECORD
  5
8F68
102
{ACAD_REACTORS
330
8F67
102
}
330
8F67
100
AcDbXrecord
280
     1
102
RTVSPropertyOp0
 70
     1
102
RTVSPropertyOp1
 70
     1
102
RTVSPropertyOp2
 70
     1
102
RTVSPropertyOp3
 70
     1
102
RTVSPropertyOp4
 70
     1
102
RTVSPropertyOp5
 70
     1
102
RTVSPropertyOp6
 70
     1
102
RTVSPropertyOp7
 70
     1
102
RTVSPropertyOp8
 70
     1
102
RTVSPropertyOp9
 70
     1
102
RTVSPropertyOp10
 70
     1
102
RTVSPropertyOp11
 70
     1
102
RTVSPropertyOp12
 70
     1
102
RTVSPropertyOp13
 70
     1
102
RTVSPropertyOp14
 70
     1
102
RTVSPropertyOp15
 70
     1
102
RTVSPropertyOp16
 70
     1
102
RTVSPropertyOp17
 70
     1
102
RTVSPropertyOp18
 70
     1
102
RTVSPropertyOp19
 70
     1
102
RTVSPropertyOp20
 70
     1
102
RTVSPropertyOp21
 70
     1
102
RTVSPropertyOp22
 70
     1
102
RTVSPropertyOp23
 70
     1
102
RTVSPropertyOp24
 70
     1
102
RTVSPropertyOp25
 70
     1
102
RTVSPropertyOp26
 70
     1
102
RTVSPropertyOp27
 70
     1
  0
XRECORD
  5
8F5A
102
{ACAD_REACTORS
330
8F59
102
}
330
8F59
100
AcDbXrecord
280
     1
102
RTVSPropertyOp0
 70
     1
102
RTVSPropertyOp1
 70
     1
102
RTVSPropertyOp2
 70
     1
102
RTVSPropertyOp3
 70
     1
102
RTVSPropertyOp4
 70
     1
102
RTVSPropertyOp5
 70
     1
102
RTVSPropertyOp6
 70
     1
102
RTVSPropertyOp7
 70
     1
102
RTVSPropertyOp8
 70
     1
102
RTVSPropertyOp9
 70
     1
102
RTVSPropertyOp10
 70
     1
102
RTVSPropertyOp11
 70
     1
102
RTVSPropertyOp12
 70
     1
102
RTVSPropertyOp13
 70
     1
102
RTVSPropertyOp14
 70
     1
102
RTVSPropertyOp15
 70
     1
102
RTVSPropertyOp16
 70
     1
102
RTVSPropertyOp17
 70
     1
102
RTVSPropertyOp18
 70
     1
102
RTVSPropertyOp19
 70
     1
102
RTVSPropertyOp20
 70
     1
102
RTVSPropertyOp21
 70
     1
102
RTVSPropertyOp22
 70
     1
102
RTVSPropertyOp23
 70
     1
102
RTVSPropertyOp24
 70
     1
102
RTVSPropertyOp25
 70
     1
102
RTVSPropertyOp26
 70
     1
102
RTVSPropertyOp27
 70
     1
  0
XRECORD
  5
8F5E
102
{ACAD_REACTORS
330
8F5D
102
}
330
8F5D
100
AcDbXrecord
280
     1
102
RTVSPropertyOp0
 70
     1
102
RTVSPropertyOp1
 70
     1
102
RTVSPropertyOp2
 70
     1
102
RTVSPropertyOp3
 70
     1
102
RTVSPropertyOp4
 70
     1
102
RTVSPropertyOp5
 70
     1
102
RTVSPropertyOp6
 70
     1
102
RTVSPropertyOp7
 70
     1
102
RTVSPropertyOp8
 70
     1
102
RTVSPropertyOp9
 70
     1
102
RTVSPropertyOp10
 70
     1
102
RTVSPropertyOp11
 70
     1
102
RTVSPropertyOp12
 70
     1
102
RTVSPropertyOp13
 70
     1
102
RTVSPropertyOp14
 70
     1
102
RTVSPropertyOp15
 70
     1
102
RTVSPropertyOp16
 70
     1
102
RTVSPropertyOp17
 70
     1
102
RTVSPropertyOp18
 70
     1
102
RTVSPropertyOp19
 70
     1
102
RTVSPropertyOp20
 70
     1
102
RTVSPropertyOp21
 70
     1
102
RTVSPropertyOp22
 70
     1
102
RTVSPropertyOp23
 70
     1
102
RTVSPropertyOp24
 70
     1
102
RTVSPropertyOp25
 70
     1
102
RTVSPropertyOp26
 70
     1
102
RTVSPropertyOp27
 70
     1
  0
XRECORD
  5
8F6E
102
{ACAD_REACTORS
330
8F6D
102
}
330
8F6D
100
AcDbXrecord
280
     1
102
RTVSPropertyOp0
 70
     0
102
RTVSPropertyOp1
 70
     0
102
RTVSPropertyOp2
 70
     0
102
RTVSPropertyOp3
 70
     0
102
RTVSPropertyOp4
 70
     0
102
RTVSPropertyOp5
 70
     0
102
RTVSPropertyOp6
 70
     0
102
RTVSPropertyOp7
 70
     0
102
RTVSPropertyOp8
 70
     0
102
RTVSPropertyOp9
 70
     0
102
RTVSPropertyOp10
 70
     0
102
RTVSPropertyOp11
 70
     0
102
RTVSPropertyOp12
 70
     0
102
RTVSPropertyOp13
 70
     0
102
RTVSPropertyOp14
 70
     2
102
RTVSPropertyOp15
 70
     0
102
RTVSPropertyOp16
 70
     0
102
RTVSPropertyOp17
 70
     0
102
RTVSPropertyOp18
 70
     0
102
RTVSPropertyOp19
 70
     0
102
RTVSPropertyOp20
 70
     0
102
RTVSPropertyOp21
 70
     0
102
RTVSPropertyOp22
 70
     0
102
RTVSPropertyOp23
 70
     0
102
RTVSPropertyOp24
 70
     0
102
RTVSPropertyOp25
 70
     0
102
RTVSPropertyOp26
 70
     0
102
RTVSPropertyOp27
 70
     0
  0
XRECORD
  5
8F66
102
{ACAD_REACTORS
330
8F65
102
}
330
8F65
100
AcDbXrecord
280
     1
102
RTVSPropertyOp0
 70
     1
102
RTVSPropertyOp1
 70
     1
102
RTVSPropertyOp2
 70
     1
102
RTVSPropertyOp3
 70
     1
102
RTVSPropertyOp4
 70
     1
102
RTVSPropertyOp5
 70
     1
102
RTVSPropertyOp6
 70
     1
102
RTVSPropertyOp7
 70
     1
102
RTVSPropertyOp8
 70
     1
102
RTVSPropertyOp9
 70
     1
102
RTVSPropertyOp10
 70
     1
102
RTVSPropertyOp11
 70
     1
102
RTVSPropertyOp12
 70
     1
102
RTVSPropertyOp13
 70
     1
102
RTVSPropertyOp14
 70
     1
102
RTVSPropertyOp15
 70
     1
102
RTVSPropertyOp16
 70
     1
102
RTVSPropertyOp17
 70
     1
102
RTVSPropertyOp18
 70
     1
102
RTVSPropertyOp19
 70
     1
102
RTVSPropertyOp20
 70
     1
102
RTVSPropertyOp21
 70
     1
102
RTVSPropertyOp22
 70
     1
102
RTVSPropertyOp23
 70
     1
102
RTVSPropertyOp24
 70
     1
102
RTVSPropertyOp25
 70
     1
102
RTVSPropertyOp26
 70
     1
102
RTVSPropertyOp27
 70
     1
  0
XRECORD
  5
8F4A
102
{ACAD_REACTORS
330
8F49
102
}
330
8F49
100
AcDbXrecord
280
     1
102
RTVSPropertyOp0
 70
     1
102
RTVSPropertyOp1
 70
     1
102
RTVSPropertyOp2
 70
     1
102
RTVSPropertyOp3
 70
     1
102
RTVSPropertyOp4
 70
     1
102
RTVSPropertyOp5
 70
     1
102
RTVSPropertyOp6
 70
     1
102
RTVSPropertyOp7
 70
     1
102
RTVSPropertyOp8
 70
     1
102
RTVSPropertyOp9
 70
     1
102
RTVSPropertyOp10
 70
     1
102
RTVSPropertyOp11
 70
     1
102
RTVSPropertyOp12
 70
     1
102
RTVSPropertyOp13
 70
     1
102
RTVSPropertyOp14
 70
     1
102
RTVSPropertyOp15
 70
     1
102
RTVSPropertyOp16
 70
     1
102
RTVSPropertyOp17
 70
     1
102
RTVSPropertyOp18
 70
     1
102
RTVSPropertyOp19
 70
     1
102
RTVSPropertyOp20
 70
     1
102
RTVSPropertyOp21
 70
     1
102
RTVSPropertyOp22
 70
     1
102
RTVSPropertyOp23
 70
     1
102
RTVSPropertyOp24
 70
     1
102
RTVSPropertyOp25
 70
     1
102
RTVSPropertyOp26
 70
     1
102
RTVSPropertyOp27
 70
     1
  0
XRECORD
  5
8F4C
102
{ACAD_REACTORS
330
8F4B
102
}
330
8F4B
100
AcDbXrecord
280
     1
102
RTVSPropertyOp0
 70
     1
102
RTVSPropertyOp1
 70
     1
102
RTVSPropertyOp2
 70
     1
102
RTVSPropertyOp3
 70
     1
102
RTVSPropertyOp4
 70
     1
102
RTVSPropertyOp5
 70
     1
102
RTVSPropertyOp6
 70
     1
102
RTVSPropertyOp7
 70
     1
102
RTVSPropertyOp8
 70
     1
102
RTVSPropertyOp9
 70
     1
102
RTVSPropertyOp10
 70
     1
102
RTVSPropertyOp11
 70
     1
102
RTVSPropertyOp12
 70
     1
102
RTVSPropertyOp13
 70
     1
102
RTVSPropertyOp14
 70
     1
102
RTVSPropertyOp15
 70
     1
102
RTVSPropertyOp16
 70
     1
102
RTVSPropertyOp17
 70
     1
102
RTVSPropertyOp18
 70
     1
102
RTVSPropertyOp19
 70
     1
102
RTVSPropertyOp20
 70
     1
102
RTVSPropertyOp21
 70
     1
102
RTVSPropertyOp22
 70
     1
102
RTVSPropertyOp23
 70
     1
102
RTVSPropertyOp24
 70
     1
102
RTVSPropertyOp25
 70
     1
102
RTVSPropertyOp26
 70
     1
102
RTVSPropertyOp27
 70
     1
  0
XRECORD
  5
8F4E
102
{ACAD_REACTORS
330
8F4D
102
}
330
8F4D
100
AcDbXrecord
280
     1
102
RTVSPropertyOp0
 70
     1
102
RTVSPropertyOp1
 70
     1
102
RTVSPropertyOp2
 70
     1
102
RTVSPropertyOp3
 70
     1
102
RTVSPropertyOp4
 70
     1
102
RTVSPropertyOp5
 70
     1
102
RTVSPropertyOp6
 70
     1
102
RTVSPropertyOp7
 70
     1
102
RTVSPropertyOp8
 70
     1
102
RTVSPropertyOp9
 70
     1
102
RTVSPropertyOp10
 70
     1
102
RTVSPropertyOp11
 70
     1
102
RTVSPropertyOp12
 70
     1
102
RTVSPropertyOp13
 70
     1
102
RTVSPropertyOp14
 70
     1
102
RTVSPropertyOp15
 70
     1
102
RTVSPropertyOp16
 70
     1
102
RTVSPropertyOp17
 70
     1
102
RTVSPropertyOp18
 70
     1
102
RTVSPropertyOp19
 70
     1
102
RTVSPropertyOp20
 70
     1
102
RTVSPropertyOp21
 70
     1
102
RTVSPropertyOp22
 70
     1
102
RTVSPropertyOp23
 70
     1
102
RTVSPropertyOp24
 70
     1
102
RTVSPropertyOp25
 70
     1
102
RTVSPropertyOp26
 70
     1
102
RTVSPropertyOp27
 70
     1
  0
XRECORD
  5
8F50
102
{ACAD_REACTORS
330
8F4F
102
}
330
8F4F
100
AcDbXrecord
280
     1
102
RTVSPropertyOp0
 70
     1
102
RTVSPropertyOp1
 70
     1
102
RTVSPropertyOp2
 70
     1
102
RTVSPropertyOp3
 70
     1
102
RTVSPropertyOp4
 70
     1
102
RTVSPropertyOp5
 70
     1
102
RTVSPropertyOp6
 70
     1
102
RTVSPropertyOp7
 70
     1
102
RTVSPropertyOp8
 70
     1
102
RTVSPropertyOp9
 70
     1
102
RTVSPropertyOp10
 70
     1
102
RTVSPropertyOp11
 70
     1
102
RTVSPropertyOp12
 70
     1
102
RTVSPropertyOp13
 70
     1
102
RTVSPropertyOp14
 70
     1
102
RTVSPropertyOp15
 70
     1
102
RTVSPropertyOp16
 70
     1
102
RTVSPropertyOp17
 70
     1
102
RTVSPropertyOp18
 70
     1
102
RTVSPropertyOp19
 70
     1
102
RTVSPropertyOp20
 70
     1
102
RTVSPropertyOp21
 70
     1
102
RTVSPropertyOp22
 70
     1
102
RTVSPropertyOp23
 70
     1
102
RTVSPropertyOp24
 70
     1
102
RTVSPropertyOp25
 70
     1
102
RTVSPropertyOp26
 70
     1
102
RTVSPropertyOp27
 70
     1
  0
XRECORD
  5
8F6A
102
{ACAD_REACTORS
330
8F69
102
}
330
8F69
100
AcDbXrecord
280
     1
102
RTVSPropertyOp0
 70
     0
102
RTVSPropertyOp1
 70
     0
102
RTVSPropertyOp2
 70
     0
102
RTVSPropertyOp3
 70
     0
102
RTVSPropertyOp4
 70
     0
102
RTVSPropertyOp5
 70
     0
102
RTVSPropertyOp6
 70
     0
102
RTVSPropertyOp7
 70
     0
102
RTVSPropertyOp8
 70
     0
102
RTVSPropertyOp9
 70
     0
102
RTVSPropertyOp10
 70
     0
102
RTVSPropertyOp11
 70
     0
102
RTVSPropertyOp12
 70
     0
102
RTVSPropertyOp13
 70
     0
102
RTVSPropertyOp14
 70
     2
102
RTVSPropertyOp15
 70
     0
102
RTVSPropertyOp16
 70
     0
102
RTVSPropertyOp17
 70
     0
102
RTVSPropertyOp18
 70
     0
102
RTVSPropertyOp19
 70
     0
102
RTVSPropertyOp20
 70
     0
102
RTVSPropertyOp21
 70
     0
102
RTVSPropertyOp22
 70
     0
102
RTVSPropertyOp23
 70
     0
102
RTVSPropertyOp24
 70
     0
102
RTVSPropertyOp25
 70
     0
102
RTVSPropertyOp26
 70
     0
102
RTVSPropertyOp27
 70
     0
  0
XRECORD
  5
8F64
102
{ACAD_REACTORS
330
8F63
102
}
330
8F63
100
AcDbXrecord
280
     1
102
RTVSPropertyOp0
 70
     1
102
RTVSPropertyOp1
 70
     1
102
RTVSPropertyOp2
 70
     1
102
RTVSPropertyOp3
 70
     1
102
RTVSPropertyOp4
 70
     1
102
RTVSPropertyOp5
 70
     1
102
RTVSPropertyOp6
 70
     1
102
RTVSPropertyOp7
 70
     1
102
RTVSPropertyOp8
 70
     1
102
RTVSPropertyOp9
 70
     1
102
RTVSPropertyOp10
 70
     1
102
RTVSPropertyOp11
 70
     1
102
RTVSPropertyOp12
 70
     1
102
RTVSPropertyOp13
 70
     1
102
RTVSPropertyOp14
 70
     1
102
RTVSPropertyOp15
 70
     1
102
RTVSPropertyOp16
 70
     1
102
RTVSPropertyOp17
 70
     1
102
RTVSPropertyOp18
 70
     1
102
RTVSPropertyOp19
 70
     1
102
RTVSPropertyOp20
 70
     1
102
RTVSPropertyOp21
 70
     1
102
RTVSPropertyOp22
 70
     1
102
RTVSPropertyOp23
 70
     1
102
RTVSPropertyOp24
 70
     1
102
RTVSPropertyOp25
 70
     1
102
RTVSPropertyOp26
 70
     1
102
RTVSPropertyOp27
 70
     1
  0
XRECORD
  5
8F6C
102
{ACAD_REACTORS
330
8F6B
102
}
330
8F6B
100
AcDbXrecord
280
     1
102
RTVSPropertyOp0
 70
     0
102
RTVSPropertyOp1
 70
     0
102
RTVSPropertyOp2
 70
     0
102
RTVSPropertyOp3
 70
     0
102
RTVSPropertyOp4
 70
     0
102
RTVSPropertyOp5
 70
     0
102
RTVSPropertyOp6
 70
     0
102
RTVSPropertyOp7
 70
     0
102
RTVSPropertyOp8
 70
     0
102
RTVSPropertyOp9
 70
     0
102
RTVSPropertyOp10
 70
     0
102
RTVSPropertyOp11
 70
     0
102
RTVSPropertyOp12
 70
     0
102
RTVSPropertyOp13
 70
     0
102
RTVSPropertyOp14
 70
     2
102
RTVSPropertyOp15
 70
     0
102
RTVSPropertyOp16
 70
     0
102
RTVSPropertyOp17
 70
     0
102
RTVSPropertyOp18
 70
     0
102
RTVSPropertyOp19
 70
     0
102
RTVSPropertyOp20
 70
     0
102
RTVSPropertyOp21
 70
     0
102
RTVSPropertyOp22
 70
     0
102
RTVSPropertyOp23
 70
     0
102
RTVSPropertyOp24
 70
     0
102
RTVSPropertyOp25
 70
     0
102
RTVSPropertyOp26
 70
     0
102
RTVSPropertyOp27
 70
     0
  0
XRECORD
  5
8F5C
102
{ACAD_REACTORS
330
8F5B
102
}
330
8F5B
100
AcDbXrecord
280
     1
102
RTVSPropertyOp0
 70
     1
102
RTVSPropertyOp1
 70
     1
102
RTVSPropertyOp2
 70
     1
102
RTVSPropertyOp3
 70
     1
102
RTVSPropertyOp4
 70
     1
102
RTVSPropertyOp5
 70
     1
102
RTVSPropertyOp6
 70
     1
102
RTVSPropertyOp7
 70
     1
102
RTVSPropertyOp8
 70
     1
102
RTVSPropertyOp9
 70
     1
102
RTVSPropertyOp10
 70
     1
102
RTVSPropertyOp11
 70
     1
102
RTVSPropertyOp12
 70
     1
102
RTVSPropertyOp13
 70
     1
102
RTVSPropertyOp14
 70
     1
102
RTVSPropertyOp15
 70
     1
102
RTVSPropertyOp16
 70
     1
102
RTVSPropertyOp17
 70
     1
102
RTVSPropertyOp18
 70
     1
102
RTVSPropertyOp19
 70
     1
102
RTVSPropertyOp20
 70
     1
102
RTVSPropertyOp21
 70
     1
102
RTVSPropertyOp22
 70
     1
102
RTVSPropertyOp23
 70
     1
102
RTVSPropertyOp24
 70
     1
102
RTVSPropertyOp25
 70
     1
102
RTVSPropertyOp26
 70
     1
102
RTVSPropertyOp27
 70
     1
  0
XRECORD
  5
8F62
102
{ACAD_REACTORS
330
8F61
102
}
330
8F61
100
AcDbXrecord
280
     1
102
RTVSPropertyOp0
 70
     1
102
RTVSPropertyOp1
 70
     1
102
RTVSPropertyOp2
 70
     1
102
RTVSPropertyOp3
 70
     1
102
RTVSPropertyOp4
 70
     1
102
RTVSPropertyOp5
 70
     1
102
RTVSPropertyOp6
 70
     1
102
RTVSPropertyOp7
 70
     1
102
RTVSPropertyOp8
 70
     1
102
RTVSPropertyOp9
 70
     1
102
RTVSPropertyOp10
 70
     1
102
RTVSPropertyOp11
 70
     1
102
RTVSPropertyOp12
 70
     1
102
RTVSPropertyOp13
 70
     1
102
RTVSPropertyOp14
 70
     1
102
RTVSPropertyOp15
 70
     1
102
RTVSPropertyOp16
 70
     1
102
RTVSPropertyOp17
 70
     1
102
RTVSPropertyOp18
 70
     1
102
RTVSPropertyOp19
 70
     1
102
RTVSPropertyOp20
 70
     1
102
RTVSPropertyOp21
 70
     1
102
RTVSPropertyOp22
 70
     1
102
RTVSPropertyOp23
 70
     1
102
RTVSPropertyOp24
 70
     1
102
RTVSPropertyOp25
 70
     1
102
RTVSPropertyOp26
 70
     1
102
RTVSPropertyOp27
 70
     1
  0
ENDSEC
  0
EOF
