  0
SECTION
  2
HEADER
  9
$ACADVER
  1
AC1015
  9
$ACADMAINTVER
 70
    20
  9
$DWGCODEPAGE
  3
ANSI_1252
  9
$INSBASE
 10
0.0
 20
0.0
 30
0.0
  9
$EXTMIN
 10
4729.62341508357
 20
2518.299929733036
 30
0.0
  9
$EXTMAX
 10
4733.861130230884
 20
2519.196186880765
 30
0.0
  9
$LIMMIN
 10
0.0
 20
0.0
  9
$LIMMAX
 10
420.0
 20
297.0
  9
$ORTHOMODE
 70
     1
  9
$REGENMODE
 70
     1
  9
$FILLMODE
 70
     1
  9
$QTEXTMODE
 70
     0
  9
$MIRRTEXT
 70
     1
  9
$LTSCALE
 40
1.0
  9
$ATTMODE
 70
     1
  9
$TEXTSIZE
 40
2.5
  9
$TRACEWID
 40
1.0
  9
$TEXTSTYLE
  7
SANINDUSA
  9
$CLAYER
  8
cotas
  9
$CELTYPE
  6
ByLayer
  9
$CECOLOR
 62
   256
  9
$CELTSCALE
 40
1.0
  9
$DISPSILH
 70
     0
  9
$DIMSCALE
 40
1.0
  9
$DIMASZ
 40
2.0
  9
$DIMEXO
 40
1.0
  9
$DIMDLI
 40
1.0
  9
$DIMRND
 40
0.0
  9
$DIMDLE
 40
0.0
  9
$DIMEXE
 40
1.0
  9
$DIMTP
 40
0.0
  9
$DIMTM
 40
0.0
  9
$DIMTXT
 40
2.0
  9
$DIMCEN
 40
0.0
  9
$DIMTSZ
 40
0.0
  9
$DIMTOL
 70
     0
  9
$DIMLIM
 70
     0
  9
$DIMTIH
 70
     0
  9
$DIMTOH
 70
     0
  9
$DIMSE1
 70
     0
  9
$DIMSE2
 70
     0
  9
$DIMTAD
 70
     1
  9
$DIMZIN
 70
     8
  9
$DIMBLK
  1

  9
$DIMASO
 70
     1
  9
$DIMSHO
 70
     1
  9
$DIMPOST
  1

  9
$DIMAPOST
  1

  9
$DIMALT
 70
     0
  9
$DIMALTD
 70
     3
  9
$DIMALTF
 40
0.03937007874016
  9
$DIMLFAC
 40
1.0
  9
$DIMTOFL
 70
     1
  9
$DIMTVP
 40
0.0
  9
$DIMTIX
 70
     0
  9
$DIMSOXD
 70
     0
  9
$DIMSAH
 70
     0
  9
$DIMBLK1
  1

  9
$DIMBLK2
  1

  9
$DIMSTYLE
  2
SANINDUSA
  9
$DIMCLRD
 70
   256
  9
$DIMCLRE
 70
   256
  9
$DIMCLRT
 70
   256
  9
$DIMTFAC
 40
1.0
  9
$DIMGAP
 40
1.0
  9
$DIMJUST
 70
     0
  9
$DIMSD1
 70
     0
  9
$DIMSD2
 70
     0
  9
$DIMTOLJ
 70
     0
  9
$DIMTZIN
 70
     8
  9
$DIMALTZ
 70
     0
  9
$DIMALTTZ
 70
     0
  9
$DIMUPT
 70
     0
  9
$DIMDEC
 70
     1
  9
$DIMTDEC
 70
     1
  9
$DIMALTU
 70
     2
  9
$DIMALTTD
 70
     3
  9
$DIMTXSTY
  7
SANINDUSA
  9
$DIMAUNIT
 70
     0
  9
$DIMADEC
 70
     1
  9
$DIMALTRND
 40
0.0
  9
$DIMAZIN
 70
     0
  9
$DIMDSEP
 70
    44
  9
$DIMATFIT
 70
     3
  9
$DIMFRAC
 70
     0
  9
$DIMLDRBLK
  1

  9
$DIMLUNIT
 70
     2
  9
$DIMLWD
 70
    -1
  9
$DIMLWE
 70
    -1
  9
$DIMTMOVE
 70
     0
  9
$LUNITS
 70
     2
  9
$LUPREC
 70
     4
  9
$SKETCHINC
 40
1.0
  9
$FILLETRAD
 40
0.0
  9
$AUNITS
 70
     0
  9
$AUPREC
 70
     0
  9
$MENU
  1
.
  9
$ELEVATION
 40
0.0
  9
$PELEVATION
 40
0.0
  9
$THICKNESS
 40
0.0
  9
$LIMCHECK
 70
     0
  9
$CHAMFERA
 40
10.0
  9
$CHAMFERB
 40
10.0
  9
$CHAMFERC
 40
20.0
  9
$CHAMFERD
 40
0.0
  9
$SKPOLY
 70
     0
  9
$TDCREATE
 40
2456304.396592882
  9
$TDUCREATE
 40
2456304.396592882
  9
$TDUPDATE
 40
2456304.420404364
  9
$TDUUPDATE
 40
2456304.420404364
  9
$TDINDWG
 40
0.0042407986
  9
$TDUSRTIMER
 40
0.0042407986
  9
$USRTIMER
 70
     1
  9
$ANGBASE
 50
0.0
  9
$ANGDIR
 70
     0
  9
$PDMODE
 70
     0
  9
$PDSIZE
 40
0.0
  9
$PLINEWID
 40
0.0
  9
$SPLFRAME
 70
     0
  9
$SPLINETYPE
 70
     6
  9
$SPLINESEGS
 70
     8
  9
$HANDSEED
  5
1736
  9
$SURFTAB1
 70
     6
  9
$SURFTAB2
 70
     6
  9
$SURFTYPE
 70
     6
  9
$SURFU
 70
     6
  9
$SURFV
 70
     6
  9
$UCSBASE
  2

  9
$UCSNAME
  2

  9
$UCSORG
 10
0.0
 20
0.0
 30
0.0
  9
$UCSXDIR
 10
1.0
 20
0.0
 30
0.0
  9
$UCSYDIR
 10
0.0
 20
1.0
 30
0.0
  9
$UCSORTHOREF
  2

  9
$UCSORTHOVIEW
 70
     0
  9
$UCSORGTOP
 10
0.0
 20
0.0
 30
0.0
  9
$UCSORGBOTTOM
 10
0.0
 20
0.0
 30
0.0
  9
$UCSORGLEFT
 10
0.0
 20
0.0
 30
0.0
  9
$UCSORGRIGHT
 10
0.0
 20
0.0
 30
0.0
  9
$UCSORGFRONT
 10
0.0
 20
0.0
 30
0.0
  9
$UCSORGBACK
 10
0.0
 20
0.0
 30
0.0
  9
$PUCSBASE
  2

  9
$PUCSNAME
  2

  9
$PUCSORG
 10
0.0
 20
0.0
 30
0.0
  9
$PUCSXDIR
 10
1.0
 20
0.0
 30
0.0
  9
$PUCSYDIR
 10
0.0
 20
1.0
 30
0.0
  9
$PUCSORTHOREF
  2

  9
$PUCSORTHOVIEW
 70
     0
  9
$PUCSORGTOP
 10
0.0
 20
0.0
 30
0.0
  9
$PUCSORGBOTTOM
 10
0.0
 20
0.0
 30
0.0
  9
$PUCSORGLEFT
 10
0.0
 20
0.0
 30
0.0
  9
$PUCSORGRIGHT
 10
0.0
 20
0.0
 30
0.0
  9
$PUCSORGFRONT
 10
0.0
 20
0.0
 30
0.0
  9
$PUCSORGBACK
 10
0.0
 20
0.0
 30
0.0
  9
$USERI1
 70
     0
  9
$USERI2
 70
     0
  9
$USERI3
 70
     0
  9
$USERI4
 70
     0
  9
$USERI5
 70
     0
  9
$USERR1
 40
0.0
  9
$USERR2
 40
0.0
  9
$USERR3
 40
0.0
  9
$USERR4
 40
0.0
  9
$USERR5
 40
0.0
  9
$WORLDVIEW
 70
     1
  9
$SHADEDGE
 70
     3
  9
$SHADEDIF
 70
    70
  9
$TILEMODE
 70
     1
  9
$MAXACTVP
 70
    64
  9
$PINSBASE
 10
0.0
 20
0.0
 30
0.0
  9
$PLIMCHECK
 70
     0
  9
$PEXTMIN
 10
1.000000000000000E+20
 20
1.000000000000000E+20
 30
1.000000000000000E+20
  9
$PEXTMAX
 10
-1.000000000000000E+20
 20
-1.000000000000000E+20
 30
-1.000000000000000E+20
  9
$PLIMMIN
 10
0.0
 20
0.0
  9
$PLIMMAX
 10
420.0
 20
297.0
  9
$UNITMODE
 70
     0
  9
$VISRETAIN
 70
     1
  9
$PLINEGEN
 70
     0
  9
$PSLTSCALE
 70
     1
  9
$TREEDEPTH
 70
  3020
  9
$CMLSTYLE
  2
Standard
  9
$CMLJUST
 70
     0
  9
$CMLSCALE
 40
20.0
  9
$PROXYGRAPHICS
 70
     1
  9
$MEASUREMENT
 70
     1
  9
$CELWEIGHT
370
    -1
  9
$ENDCAPS
280
     0
  9
$JOINSTYLE
280
     0
  9
$LWDISPLAY
290
     0
  9
$INSUNITS
 70
     4
  9
$HYPERLINKBASE
  1

  9
$STYLESHEET
  1
sanindusa.ctb
  9
$XEDIT
290
     1
  9
$CEPSNTYPE
380
     0
  9
$PSTYLEMODE
290
     1
  9
$FINGERPRINTGUID
  2
{FFBC9451-7ED8-45B4-B3BA-0428F59CAF57}
  9
$VERSIONGUID
  2
{F30DFB78-439A-4AA7-9631-A341BCCCA87B}
  9
$EXTNAMES
290
     1
  9
$PSVPSCALE
 40
0.0
  9
$OLESTARTUP
290
     0
  0
ENDSEC
  0
SECTION
  2
CLASSES
  0
CLASS
  1
ACDBDICTIONARYWDFLT
  2
AcDbDictionaryWithDefault
  3
ObjectDBX Classes
 90
        0
280
     0
281
     0
  0
CLASS
  1
ACDBPLACEHOLDER
  2
AcDbPlaceHolder
  3
ObjectDBX Classes
 90
        0
280
     0
281
     0
  0
CLASS
  1
LAYOUT
  2
AcDbLayout
  3
ObjectDBX Classes
 90
        0
280
     0
281
     0
  0
CLASS
  1
DICTIONARYVAR
  2
AcDbDictionaryVar
  3
ObjectDBX Classes
 90
        0
280
     0
281
     0
  0
CLASS
  1
DIMASSOC
  2
AcDbDimAssoc
  3
"AcDbDimAssoc|Product Desc:     AcDim ARX App For Dimension|Company:          Autodesk, Inc.|WEB Address:      www.autodesk.com"
 90
    32768
280
     0
281
     0
  0
CLASS
  1
TABLESTYLE
  2
AcDbTableStyle
  3
ObjectDBX Classes
 90
     4095
280
     0
281
     0
  0
CLASS
  1
MATERIAL
  2
AcDbMaterial
  3
ObjectDBX Classes
 90
     1153
280
     0
281
     0
  0
CLASS
  1
VISUALSTYLE
  2
AcDbVisualStyle
  3
ObjectDBX Classes
 90
     4095
280
     0
281
     0
  0
CLASS
  1
SCALE
  2
AcDbScale
  3
ObjectDBX Classes
 90
     1153
280
     0
281
     0
  0
CLASS
  1
MLEADERSTYLE
  2
AcDbMLeaderStyle
  3
ACDB_MLEADERSTYLE_CLASS
 90
     4095
280
     0
281
     0
  0
CLASS
  1
AEC_REFEDIT_STATUS_TRACKER
  2
AecDbRefEditStatusTracker
  3
AecArchBase60|Product Desc: Autodesk Architectural Desktop 2007 |Company: Autodesk,Inc. |WEB Address: www.autodesk.com
 90
    32897
280
     0
281
     0
  0
CLASS
  1
NPOCOLLECTION
  2
AcDbImpNonPersistentObjectsCollection
  3
ObjectDBX Classes
 90
    33921
280
     0
281
     0
  0
CLASS
  1
CELLSTYLEMAP
  2
AcDbCellStyleMap
  3
ObjectDBX Classes
 90
     1152
280
     0
281
     0
  0
ENDSEC
  0
SECTION
  2
TABLES
  0
TABLE
  2
VPORT
  5
8
102
{ACAD_XDICTIONARY
360
16C0
102
}
330
0
100
AcDbSymbolTable
 70
     1
  0
VPORT
  5
1068
330
8
100
AcDbSymbolTableRecord
100
AcDbViewportTableRecord
  2
*Active
 70
     0
 10
0.0
 20
0.0
 11
1.0
 21
1.0
 12
4731.742272657228
 22
2518.7480583069
 13
0.0
 23
0.0
 14
10.0
 24
10.0
 15
10.0
 25
10.0
 16
0.0
 26
0.0
 36
1.0
 17
0.0
 27
0.0
 37
0.0
 40
2.585174323843234
 41
1.645464025026068
 42
50.0
 43
0.0
 44
0.0
 50
0.0
 51
0.0
 71
     0
 72
   100
 73
     1
 74
     2
 75
     0
 76
     0
 77
     0
 78
     0
281
     0
 65
     1
110
0.0
120
0.0
130
0.0
111
1.0
121
0.0
131
0.0
112
0.0
122
1.0
132
0.0
 79
     0
146
0.0
  0
ENDTAB
  0
TABLE
  2
LTYPE
  5
5
330
0
100
AcDbSymbolTable
 70
     5
  0
LTYPE
  5
14
330
5
100
AcDbSymbolTableRecord
100
AcDbLinetypeTableRecord
  2
ByBlock
 70
     0
  3

 72
    65
 73
     0
 40
0.0
  0
LTYPE
  5
15
330
5
100
AcDbSymbolTableRecord
100
AcDbLinetypeTableRecord
  2
ByLayer
 70
     0
  3

 72
    65
 73
     0
 40
0.0
  0
LTYPE
  5
16
330
5
100
AcDbSymbolTableRecord
100
AcDbLinetypeTableRecord
  2
Continuous
 70
     0
  3
Solid line
 72
    65
 73
     0
 40
0.0
  0
LTYPE
  5
2D
330
5
100
AcDbSymbolTableRecord
100
AcDbLinetypeTableRecord
  2
DASHDOT
 70
     0
  3
Dash dot __ . __ . __ . __ . __ . __ . __ . __
 72
    65
 73
     4
 40
25.4
 49
12.7
 74
     0
 49
-6.349999999999999
 74
     0
 49
0.0
 74
     0
 49
-6.349999999999999
 74
     0
  0
LTYPE
  5
2E
330
5
100
AcDbSymbolTableRecord
100
AcDbLinetypeTableRecord
  2
HIDDEN
 70
     0
  3
Hidden __ __ __ __ __ __ __ __ __ __ __ __ __ _
 72
    65
 73
     2
 40
9.524999999999998
 49
6.349999999999999
 74
     0
 49
-3.174999999999999
 74
     0
  0
LTYPE
  5
C75
330
5
100
AcDbSymbolTableRecord
100
AcDbLinetypeTableRecord
  2
AM_ISO02W050
 70
     0
  3
__ __ __ __ __ __ __ __ __ __ __ __ __ __ __
 72
    65
 73
     2
 40
7.5
 49
6.0
 74
     0
 49
-1.5
 74
     0
  0
LTYPE
  5
C76
330
5
100
AcDbSymbolTableRecord
100
AcDbLinetypeTableRecord
  2
AM_ISO08W050
 70
     0
  3
____ . ____ . ____ . ____ . ____ . ____ . ____
 72
    65
 73
     4
 40
18.0
 49
12.0
 74
     0
 49
-1.5
 74
     0
 49
3.0
 74
     0
 49
-1.5
 74
     0
  0
ENDTAB
  0
TABLE
  2
LAYER
  5
2
102
{ACAD_XDICTIONARY
360
1051
102
}
330
0
100
AcDbSymbolTable
 70
    17
  0
LAYER
  5
10
102
{ACAD_XDICTIONARY
360
169A
102
}
330
2
100
AcDbSymbolTableRecord
100
AcDbLayerTableRecord
  2
0
 70
     0
 62
     7
  6
Continuous
370
    -3
390
F
  0
LAYER
  5
2F
102
{ACAD_XDICTIONARY
360
169C
102
}
330
2
100
AcDbSymbolTableRecord
100
AcDbLayerTableRecord
  2
1
 70
     0
 62
     1
  6
Continuous
370
    -3
390
F
  0
LAYER
  5
30
102
{ACAD_XDICTIONARY
360
169E
102
}
330
2
100
AcDbSymbolTableRecord
100
AcDbLayerTableRecord
  2
2
 70
     0
 62
     2
  6
Continuous
370
    -3
390
F
  0
LAYER
  5
31
102
{ACAD_XDICTIONARY
360
16A0
102
}
330
2
100
AcDbSymbolTableRecord
100
AcDbLayerTableRecord
  2
3
 70
     0
 62
     3
  6
Continuous
370
    -3
390
F
  0
LAYER
  5
32
102
{ACAD_XDICTIONARY
360
16A2
102
}
330
2
100
AcDbSymbolTableRecord
100
AcDbLayerTableRecord
  2
4
 70
     0
 62
     4
  6
Continuous
370
    -3
390
F
  0
LAYER
  5
33
102
{ACAD_XDICTIONARY
360
16A4
102
}
330
2
100
AcDbSymbolTableRecord
100
AcDbLayerTableRecord
  2
5
 70
     0
 62
     5
  6
Continuous
370
    -3
390
F
  0
LAYER
  5
34
102
{ACAD_XDICTIONARY
360
16A6
102
}
330
2
100
AcDbSymbolTableRecord
100
AcDbLayerTableRecord
  2
6
 70
     0
 62
     6
  6
Continuous
370
    -3
390
F
  0
LAYER
  5
35
102
{ACAD_XDICTIONARY
360
16A8
102
}
330
2
100
AcDbSymbolTableRecord
100
AcDbLayerTableRecord
  2
7
 70
     0
 62
     7
  6
Continuous
370
    -3
390
F
  0
LAYER
  5
36
102
{ACAD_XDICTIONARY
360
16AA
102
}
330
2
100
AcDbSymbolTableRecord
100
AcDbLayerTableRecord
  2
cen
 70
     0
 62
     7
  6
DASHDOT
370
    -3
390
F
  0
LAYER
  5
37
102
{ACAD_XDICTIONARY
360
16AC
102
}
330
2
100
AcDbSymbolTableRecord
100
AcDbLayerTableRecord
  2
hid
 70
     0
 62
     7
  6
HIDDEN
370
    -3
390
F
  0
LAYER
  5
5D6
102
{ACAD_XDICTIONARY
360
16AE
102
}
330
2
100
AcDbSymbolTableRecord
100
AcDbLayerTableRecord
  2
hatch
 70
     0
 62
     9
  6
Continuous
370
    -3
390
F
  0
LAYER
  5
8AF
102
{ACAD_XDICTIONARY
360
16B0
102
}
330
2
100
AcDbSymbolTableRecord
100
AcDbLayerTableRecord
  2
9
 70
     0
 62
     9
  6
Continuous
370
    -3
390
F
  0
LAYER
  5
8F8
102
{ACAD_XDICTIONARY
360
16B2
102
}
330
2
100
AcDbSymbolTableRecord
100
AcDbLayerTableRecord
  2
leg fin
 70
     0
 62
     9
  6
Continuous
370
    -3
390
F
  0
LAYER
  5
91D
102
{ACAD_XDICTIONARY
360
16B4
102
}
330
2
100
AcDbSymbolTableRecord
100
AcDbLayerTableRecord
  2
cotas
 70
     0
 62
     1
  6
Continuous
370
    -3
390
F
  0
LAYER
  5
92F
330
2
100
AcDbSymbolTableRecord
100
AcDbLayerTableRecord
  2
Defpoints
 70
     0
 62
     7
  6
Continuous
290
     0
370
    -3
390
F
  0
LAYER
  5
C7B
102
{ACAD_XDICTIONARY
360
16B6
102
}
330
2
100
AcDbSymbolTableRecord
100
AcDbLayerTableRecord
  2
SANINDUSA
 70
     0
 62
     3
  6
Continuous
370
    -3
390
F
  0
LAYER
  5
1060
102
{ACAD_XDICTIONARY
360
16B8
102
}
330
2
100
AcDbSymbolTableRecord
100
AcDbLayerTableRecord
  2
hid1
 70
     0
 62
     9
  6
HIDDEN
370
    -3
390
F
1001
AcAecLayerStandard
1000

1000

  0
ENDTAB
  0
TABLE
  2
STYLE
  5
3
330
0
100
AcDbSymbolTable
 70
     4
  0
STYLE
  5
11
330
3
100
AcDbSymbolTableRecord
100
AcDbTextStyleTableRecord
  2
Standard
 70
     0
 40
0.0
 41
1.0
 50
0.0
 71
     0
 42
2.5
  3
Avgardn.ttf
  4

1001
ACAD
1000
AvantGarde Bk BT
1071
       34
  0
STYLE
  5
2C
330
3
100
AcDbSymbolTableRecord
100
AcDbTextStyleTableRecord
  2

 70
     1
 40
0.0
 41
1.0
 50
0.0
 71
     0
 42
2.5
  3
ltypeshp.shx
  4

  0
STYLE
  5
91F
330
3
100
AcDbSymbolTableRecord
100
AcDbTextStyleTableRecord
  2
SANINDUSA
 70
     0
 40
0.0
 41
1.0
 50
0.0
 71
     0
 42
2.5
  3
verdana.TTF
  4

1001
ACAD
1000
Verdana
1071
       34
  0
STYLE
  5
C7C
330
3
100
AcDbSymbolTableRecord
100
AcDbTextStyleTableRecord
  2
futura
 70
     0
 40
0.0
 41
1.0
 50
0.0
 71
     0
 42
2.5
  3
zuricrm_.ttf
  4

1001
ACAD
1000
Zurich BT
1071
       34
  0
ENDTAB
  0
TABLE
  2
VIEW
  5
6
330
0
100
AcDbSymbolTable
 70
     0
  0
ENDTAB
  0
TABLE
  2
UCS
  5
7
330
0
100
AcDbSymbolTable
 70
     0
  0
ENDTAB
  0
TABLE
  2
APPID
  5
9
330
0
100
AcDbSymbolTable
 70
    14
  0
APPID
  5
12
330
9
100
AcDbSymbolTableRecord
100
AcDbRegAppTableRecord
  2
ACAD
 70
     0
  0
APPID
  5
3A
330
9
100
AcDbSymbolTableRecord
100
AcDbRegAppTableRecord
  2
DCO15
 70
     0
  0
APPID
  5
EEE
330
9
100
AcDbSymbolTableRecord
100
AcDbRegAppTableRecord
  2
ACAD_DSTYLE_DIMTEXT_FILL
 70
     0
  0
APPID
  5
EEF
330
9
100
AcDbSymbolTableRecord
100
AcDbRegAppTableRecord
  2
ACAD_DSTYLE_DIMEXT_LENGTH
 70
     0
  0
APPID
  5
EF0
330
9
100
AcDbSymbolTableRecord
100
AcDbRegAppTableRecord
  2
ACAD_DSTYLE_DIMEXT_ENABLED
 70
     0
  0
APPID
  5
EF1
330
9
100
AcDbSymbolTableRecord
100
AcDbRegAppTableRecord
  2
ACAD_DSTYLE_DIM_LINETYPE
 70
     0
  0
APPID
  5
EF2
330
9
100
AcDbSymbolTableRecord
100
AcDbRegAppTableRecord
  2
ACAD_DSTYLE_DIM_EXT1_LINETYPE
 70
     0
  0
APPID
  5
EF3
330
9
100
AcDbSymbolTableRecord
100
AcDbRegAppTableRecord
  2
ACAD_DSTYLE_DIM_EXT2_LINETYPE
 70
     0
  0
APPID
  5
FAF
330
9
100
AcDbSymbolTableRecord
100
AcDbRegAppTableRecord
  2
ACAD_DSTYLE_DIMJOGGED_JOGANGLE_SYMBOL
 70
     0
  0
APPID
  5
1013
330
9
100
AcDbSymbolTableRecord
100
AcDbRegAppTableRecord
  2
ACAD_DSTYLE_DIMARC_LENGTH_SYMBOL
 70
     0
  0
APPID
  5
1061
330
9
100
AcDbSymbolTableRecord
100
AcDbRegAppTableRecord
  2
AcAecLayerStandard
 70
     0
  0
APPID
  5
115B
330
9
100
AcDbSymbolTableRecord
100
AcDbRegAppTableRecord
  2
ACAD_DSTYLE_DIMJAG
 70
     0
  0
APPID
  5
115C
330
9
100
AcDbSymbolTableRecord
100
AcDbRegAppTableRecord
  2
ACAD_DSTYLE_DIMTALN
 70
     0
  0
APPID
  5
16F2
330
9
100
AcDbSymbolTableRecord
100
AcDbRegAppTableRecord
  2
ACAD_MLEADERVER
 70
     0
  0
ENDTAB
  0
TABLE
  2
DIMSTYLE
  5
A
330
0
100
AcDbSymbolTable
 70
     3
100
AcDbDimStyleTable
 71
     1
340
921
  0
DIMSTYLE
105
45
330
A
100
AcDbSymbolTableRecord
100
AcDbDimStyleTableRecord
  2
STANDARD
 70
     0
289
     0
340
11
  0
DIMSTYLE
105
921
330
A
100
AcDbSymbolTableRecord
100
AcDbDimStyleTableRecord
  2
SANINDUSA
 70
     0
 41
2.0
 42
1.0
 43
1.0
 44
1.0
 73
     0
 74
     0
 77
     1
 78
     8
140
2.0
141
0.0
143
0.03937007874016
147
1.0
171
     3
172
     1
176
   256
177
   256
178
   256
179
     1
271
     1
272
     1
274
     3
278
    44
283
     0
284
     8
340
91F
371
    -1
372
    -1
1001
ACAD_DSTYLE_DIMJOGGED_JOGANGLE_SYMBOL
1070
   384
1040
1.570796326794896
  0
DIMSTYLE
105
C7D
330
A
100
AcDbSymbolTableRecord
100
AcDbDimStyleTableRecord
  2
AM_ISO
 70
     0
  4
"
 41
2.5
 42
1.0
 43
10.0
 44
1.0
 47
0.1
 48
0.1
 73
     0
 74
     0
 77
     1
 78
     8
 79
     2
140
3.5
141
0.0
143
0.0393701
146
0.71
147
1.5
172
     1
176
   256
177
   256
178
     2
271
     2
272
     3
274
     4
283
     0
284
     8
340
11
371
    -1
372
    -1
  0
ENDTAB
  0
TABLE
  2
BLOCK_RECORD
  5
1
330
0
100
AcDbSymbolTable
 70
    33
  0
BLOCK_RECORD
  5
1F
330
1
100
AcDbSymbolTableRecord
100
AcDbBlockTableRecord
  2
*Model_Space
340
22
  0
BLOCK_RECORD
  5
1B
330
1
100
AcDbSymbolTableRecord
100
AcDbBlockTableRecord
  2
*Paper_Space
340
1E
  0
BLOCK_RECORD
  5
23
330
1
100
AcDbSymbolTableRecord
100
AcDbBlockTableRecord
  2
*Paper_Space0
340
26
  0
BLOCK_RECORD
  5
919
330
1
100
AcDbSymbolTableRecord
100
AcDbBlockTableRecord
  2
_DotSmall
340
0
102
{BLKREFS
331
10C6
331
10D2
331
161B
331
1624
102
}
  0
BLOCK_RECORD
  5
922
330
1
100
AcDbSymbolTableRecord
100
AcDbBlockTableRecord
  2
base para cotas
340
0
310
2800000020000000200000000100080000000000000400000000000000000000000000000000000000000000000080000080000000808000800000008000800080800000C0C0C000C0DCC000F0CAA6000020400000206000002080000020A0000020C0000020E00000400000004020000040400000406000004080000040A0
310
000040C0000040E00000600000006020000060400000606000006080000060A0000060C0000060E00000800000008020000080400000806000008080000080A0000080C0000080E00000A0000000A0200000A0400000A0600000A0800000A0A00000A0C00000A0E00000C0000000C0200000C0400000C0600000C0800000C0
310
A00000C0C00000C0E00000E0000000E0200000E0400000E0600000E0800000E0A00000E0C00000E0E00040000000400020004000400040006000400080004000A0004000C0004000E00040200000402020004020400040206000402080004020A0004020C0004020E000404000004040200040404000404060004040800040
310
40A0004040C0004040E00040600000406020004060400040606000406080004060A0004060C0004060E00040800000408020004080400040806000408080004080A0004080C0004080E00040A0000040A0200040A0400040A0600040A0800040A0A00040A0C00040A0E00040C0000040C0200040C0400040C0600040C08000
310
40C0A00040C0C00040C0E00040E0000040E0200040E0400040E0600040E0800040E0A00040E0C00040E0E00080000000800020008000400080006000800080008000A0008000C0008000E00080200000802020008020400080206000802080008020A0008020C0008020E00080400000804020008040400080406000804080
310
008040A0008040C0008040E00080600000806020008060400080606000806080008060A0008060C0008060E00080800000808020008080400080806000808080008080A0008080C0008080E00080A0000080A0200080A0400080A0600080A0800080A0A00080A0C00080A0E00080C0000080C0200080C0400080C0600080C0
310
800080C0A00080C0C00080C0E00080E0000080E0200080E0400080E0600080E0800080E0A00080E0C00080E0E000C0000000C0002000C0004000C0006000C0008000C000A000C000C000C000E000C0200000C0202000C0204000C0206000C0208000C020A000C020C000C020E000C0400000C0402000C0404000C0406000C0
310
408000C040A000C040C000C040E000C0600000C0602000C0604000C0606000C0608000C060A000C060C000C060E000C0800000C0802000C0804000C0806000C0808000C080A000C080C000C080E000C0A00000C0A02000C0A04000C0A06000C0A08000C0A0A000C0A0C000C0A0E000C0C00000C0C02000C0C04000C0C06000
310
C0C08000C0C0A000F0FBFF00A4A0A000808080000000FF0000FF000000FFFF00FF000000FF00FF00FFFF0000FFFFFF00A4A4A4A4A4A4A4A4A4A4A4A4A4A4A4A4A4A4A4A4A4A4A4A4A4A4A4A4A4A4A4A4A4A4A4A4A4A4A4A4A4A4A4A4A4A4A4A4A4A4A4A4A4A4A4A4A4A4A4A4A4A4A4A4A4A4A4A4A4A4A4A4A4A4A4A4A4A4A4
310
A4A4A4A4A4A4A4A4A4A4A4A4A4A4A4A4A4A4A4A4A4A4A4A4A4A4A4A4A4A4A4A4A4A4A4A4A4A4A4A4A4A4A4A4A4A4A4A4A4A4A4A4A4A4A4A4A4A4A4A4A4A4A4A4A4A4A4A4A4A4A4A4A4A4A4A4A4A4A4A4A4A4A4A4A4A4A4A4A4A4A4A4A4A4A4A4A4A4A4A4A4A4A4A4A4A4A4A4A4A4A4A4A4A4A4A4A4A4A4A4A4A4A4A4A4A4A4
310
A4A4A4A4A4A4A4A4A4A4A4A4A4A4A4A4A4A4A4A4A4A4A4A4A4A4A4A4A4A4A4A4A4A4A4A4A4A4A4A4A4A4A4A4A4A4A4A4A4A4A4A4A4A4A4A4A4A4A4A4A4A4A4A4A4A4A4A4A4A4A4A4A4A4A4A4A4A4A4A4A4A4A4A4A4A4A4A4A4A4A4A4A4A4A4A4A4A4A4A4A4A4A4A4A4A4A4A4A4A4A4A4A4A4A4A4A4A4A4A4A4A4A4A4A4A4A4
310
A4A4A4A4A4A4A4A4A4A4A4A4A4A4A4A4A4A4A4A4A4A4A4A4A4A4A4A4A4A4A4A4A4A4A4A4A4A4A4A4A4A4A4A4A4A4A4A4A4A4A4A4A4A4A4A4A4A4A4A4A4A4A4A4A4A4A4A4A4A4A4A4A4A4A4A4A4A4A4A4A4A4A4A4A4A4A4A4A4A4A4A4A4A4A4A4A4A4A4A4A4A4A4A4A4A4A4A4A4A4A4A4A4A4A4A4F9F9F9F9F9F9F9F9F9F9F9
310
F9F9F9F9F9F9F9F9F9F9F9F9F9F9F9F9F9F9F9A4A4F9F9F9F9F9F9F9F9F9F9F9F9F9F9F9F9F9F9F9F9F9F9F9F9F9F9F9F9F9F9A4A4F9F9F9F9F9F9F9F9F9F9F9F9F9F9F9F9F9F9F9F9F9F9F9F9F9F9F9F9F9F9A4A4F9A4A4A4A4A4A4A4A4A4A4A4A4A4A4A4A4A4A4A4A4A4A4A4A4A4A4A4A4F9A4A4A4A4A4A4A4A4A4A4A4A4
310
A4A4A4A4A4A4A4A4A4A4A4A4A4A4A4A4A4A4A4A4A4A4A4A4A4A4A4A4A4A4A4A4A4A4A4A4A4A4A4A4A4A4A4A4A4A4A4A4A4A4A4A4A4A4A4A4A4A4A4A4A4A4A4A4A4A4A4A4A4A4A4A4A4A4A4A4A4A4A4A4A4A4A4A4A4A4A4A4A4A4A4A4A4A4A4A4A4A4A4A4A4A4A4A4A4A4A4A4A4A4A4A4A4A4A4A4A4A4A4A4A4A4A4A4A4A4A4
310
A4A4A4A4A4A4A4A4A4A4A4A4A4A4A4A4A4A4A4A4A4A4A4A4A4A4A4A4A4A4A4A4A4A4A4A4A4A4A4A4A4A4A4A4A4A4A4A4A4A4A4A4A4A4A4A4A4A4A4A4A4A4A4A4A4A4A4A4A4A4A4A4A4A4A4A4A4A4A4A4A4A4A4A4A4A4A4A4A4A4A4A4A4A4A4A4A4A4A4A4A4A4A4A4A4A4A4A4A4A4A4A4A4A4A4A4A4A4A4A4A4A4A4A4A4A4A4
310
A4A4A4A4A4A4A4A4A4A4A4A4A4A4A4A4A4A4A4A4A4A4A4A4A4A4A4A4A4A4A4A4A4A4A4A4A4A4A4A4A4A4A4A4A4A4A4A4A4A4A4A4A4A4A4A4A4A4A4A4A4A4A4A4A4A4A4A4A4A4A4A4A4A4A4A4A4A4A4A4A4A4A4A4A4A4A4A4A4A4A4A4A4A4A4A4A4A4A4A4A4A4A4A4A4A4A4A4A4A4A4A4A4A4A4A4A4A4A4A4A4A4A4A4A4A4A4
310
A4A4A4A4A4A4A4A4A4A4A4A4A4A4A4A4A4A4A4A4A4A4A4A4A4A4A4A4A4A4A4A4A4A4A4A4A4A4A4A4A4A4A4A4A4A4A4A4A4A4A4A4A4A4A4A4
1001
ACAD
1000
DesignCenter Data
1002
{
1070
     1
1070
     4
1002
}
  0
BLOCK_RECORD
  5
AA8
330
1
100
AcDbSymbolTableRecord
100
AcDbBlockTableRecord
  2
_CLOSED
340
0
  0
BLOCK_RECORD
  5
B79
330
1
100
AcDbSymbolTableRecord
100
AcDbBlockTableRecord
  2
nota revisoes
340
0
1001
ACAD
1000
DesignCenter Data
1002
{
1070
     1
1070
     4
1002
}
  0
BLOCK_RECORD
  5
B8E
330
1
100
AcDbSymbolTableRecord
100
AcDbBlockTableRecord
  2
a3l
340
0
1001
ACAD
1000
DesignCenter Data
1002
{
1070
     1
1070
     4
1002
}
  0
BLOCK_RECORD
  5
B9E
330
1
100
AcDbSymbolTableRecord
100
AcDbBlockTableRecord
  2
legenda desenvolvimento
340
0
1001
ACAD
1000
DesignCenter Data
1002
{
1070
     1
1070
     4
1002
}
  0
ENDTAB
  0
ENDSEC
  0
SECTION
  2
BLOCKS
  0
BLOCK
  5
20
330
1F
100
AcDbEntity
  8
0
100
AcDbBlockBegin
  2
*Model_Space
 70
     0
 10
0.0
 20
0.0
 30
0.0
  3
*Model_Space
  1

  0
ENDBLK
  5
21
330
1F
100
AcDbEntity
  8
0
100
AcDbBlockEnd
  0
BLOCK
  5
1C
330
1B
100
AcDbEntity
 67
     1
  8
0
100
AcDbBlockBegin
  2
*Paper_Space
 70
     0
 10
0.0
 20
0.0
 30
0.0
  3
*Paper_Space
  1

  0
ENDBLK
  5
1D
330
1B
100
AcDbEntity
 67
     1
  8
0
100
AcDbBlockEnd
  0
BLOCK
  5
24
330
23
100
AcDbEntity
 67
     1
  8
0
100
AcDbBlockBegin
  2
*Paper_Space0
 70
     0
 10
0.0
 20
0.0
 30
0.0
  3
*Paper_Space0
  1

  0
ENDBLK
  5
25
330
23
100
AcDbEntity
 67
     1
  8
0
100
AcDbBlockEnd
  0
BLOCK
  5
91B
330
919
100
AcDbEntity
  8
0
100
AcDbBlockBegin
  2
_DotSmall
 70
     0
 10
0.0
 20
0.0
 30
0.0
  3
_DotSmall
  1

  0
LWPOLYLINE
  5
91A
330
919
100
AcDbEntity
  8
0
  6
ByBlock
 62
     0
100
AcDbPolyline
 90
        2
 70
     1
 43
0.5
 10
-0.0625
 20
0.0
 42
1.0
 10
0.0625
 20
0.0
 42
1.0
  0
ENDBLK
  5
91C
330
919
100
AcDbEntity
  8
0
100
AcDbBlockEnd
  0
BLOCK
  5
92A
330
922
100
AcDbEntity
  8
0
100
AcDbBlockBegin
  2
base para cotas
 70
     0
 10
0.0
 20
0.0
 30
0.0
  3
base para cotas
  1

  0
LINE
  5
B36
330
922
100
AcDbEntity
  8
cotas
100
AcDbLine
 10
0.0
 20
-30.0
 30
0.0
 11
327.1260136525398
 21
-30.0
 31
0.0
  0
LINE
  5
B37
330
922
100
AcDbEntity
  8
cotas
100
AcDbLine
 10
0.0
 20
-25.0
 30
0.0
 11
327.1260136525398
 21
-25.0
 31
0.0
  0
LINE
  5
B38
330
922
100
AcDbEntity
  8
cotas
100
AcDbLine
 10
0.0
 20
-20.0
 30
0.0
 11
327.1260136525398
 21
-20.0
 31
0.0
  0
LINE
  5
B39
330
922
100
AcDbEntity
  8
cotas
100
AcDbLine
 10
0.0
 20
-15.0
 30
0.0
 11
327.1260136525398
 21
-15.0
 31
0.0
  0
LINE
  5
B3A
330
922
100
AcDbEntity
  8
cotas
100
AcDbLine
 10
0.0
 20
-10.0
 30
0.0
 11
327.1260136525398
 21
-10.0
 31
0.0
  0
LINE
  5
B3B
330
922
100
AcDbEntity
  8
cotas
100
AcDbLine
 10
0.0
 20
0.0
 30
0.0
 11
0.0
 21
-30.0
 31
0.0
  0
LINE
  5
B3C
330
922
100
AcDbEntity
  8
cotas
100
AcDbLine
 10
327.1260136525398
 20
-30.0
 30
0.0
 11
327.1260136525398
 21
0.0
 31
0.0
  0
ENDBLK
  5
92B
330
922
100
AcDbEntity
  8
0
100
AcDbBlockEnd
  0
BLOCK
  5
AAD
330
AA8
100
AcDbEntity
  8
0
100
AcDbBlockBegin
  2
_CLOSED
 70
     0
 10
0.0
 20
0.0
 30
0.0
  3
_CLOSED
  1

  0
LINE
  5
AA9
330
AA8
100
AcDbEntity
  8
0
100
AcDbLine
 10
-1.0
 20
0.166667
 30
0.0
 11
0.0
 21
0.0
 31
0.0
  0
LINE
  5
AAA
330
AA8
100
AcDbEntity
  8
0
100
AcDbLine
 10
0.0
 20
0.0
 30
0.0
 11
-1.0
 21
-0.166667
 31
0.0
  0
LINE
  5
AAB
330
AA8
100
AcDbEntity
  8
0
100
AcDbLine
 10
-1.0
 20
0.166667
 30
0.0
 11
-1.0
 21
-0.166667
 31
0.0
  0
LINE
  5
AAC
330
AA8
100
AcDbEntity
  8
0
100
AcDbLine
 10
0.0
 20
0.0
 30
0.0
 11
-1.0
 21
0.0
 31
0.0
  0
ENDBLK
  5
AAE
330
AA8
100
AcDbEntity
  8
0
100
AcDbBlockEnd
  0
BLOCK
  5
B7C
330
B79
100
AcDbEntity
  8
0
100
AcDbBlockBegin
  2
nota revisoes
 70
     0
 10
0.0
 20
0.0
 30
0.0
  3
nota revisoes
  1

  0
CIRCLE
  5
B7A
330
B79
100
AcDbEntity
  8
4
100
AcDbCircle
 10
0.0
 20
0.0
 30
0.0
 40
13.69426055101189
  0
TEXT
  5
B7B
330
B79
100
AcDbEntity
  8
4
100
AcDbText
 10
-5.496248358154345
 20
-5.354545554066362
 30
0.0
 40
12.0
  1
1
  7
SANINDUSA
 72
     1
 11
-0.249774214433728
 21
-5.354545554066362
 31
0.0
100
AcDbText
  0
ENDBLK
  5
B7D
330
B79
100
AcDbEntity
  8
0
100
AcDbBlockEnd
  0
BLOCK
  5
B9C
330
B8E
100
AcDbEntity
  8
0
100
AcDbBlockBegin
  2
a3l
 70
     0
 10
0.0
 20
0.0
 30
0.0
  3
a3l
  1

  0
LINE
  5
B8F
330
B8E
100
AcDbEntity
  8
1
100
AcDbLine
 10
-364.2925296599447
 20
-362.1188951399395
 30
0.0
 11
-364.2925296599447
 21
-65.11889513993946
 31
0.0
  0
LINE
  5
B90
330
B8E
100
AcDbEntity
  8
4
100
AcDbLine
 10
-369.2925296599447
 20
-357.1188951399395
 30
0.0
 11
-369.2925296599447
 21
-70.11889513993946
 31
0.0
  0
LINE
  5
B91
330
B8E
100
AcDbEntity
  8
1
100
AcDbLine
 10
-784.2925296599446
 20
-65.11889513993946
 30
0.0
 11
-784.2925296599446
 21
-362.1188951399395
 31
0.0
  0
LINE
  5
B92
330
B8E
100
AcDbEntity
  8
4
100
AcDbLine
 10
-759.2925296599446
 20
-357.1188951399395
 30
0.0
 11
-759.2925296599446
 21
-70.11889513993946
 31
0.0
  0
LINE
  5
B93
330
B8E
100
AcDbEntity
  8
1
100
AcDbLine
 10
-784.2925296599446
 20
-362.1188951399395
 30
0.0
 11
-364.2925296599447
 21
-362.1188951399395
 31
0.0
  0
LINE
  5
B94
330
B8E
100
AcDbEntity
  8
4
100
AcDbLine
 10
-759.2925296599446
 20
-357.1188951399395
 30
0.0
 11
-369.2925296599447
 21
-357.1188951399395
 31
0.0
  0
LINE
  5
B95
330
B8E
100
AcDbEntity
  8
1
100
AcDbLine
 10
-654.2925296599446
 20
-357.1188951399395
 30
0.0
 11
-654.2925296599446
 21
-362.1188951399395
 31
0.0
  0
LINE
  5
B96
330
B8E
100
AcDbEntity
  8
1
100
AcDbLine
 10
-364.2925296599447
 20
-65.11889513993946
 30
0.0
 11
-784.2925296599446
 21
-65.11889513993946
 31
0.0
  0
LINE
  5
B97
330
B8E
100
AcDbEntity
  8
4
100
AcDbLine
 10
-369.2925296599447
 20
-70.11889513993946
 30
0.0
 11
-759.2925296599446
 21
-70.11889513993946
 31
0.0
  0
LINE
  5
B98
330
B8E
100
AcDbEntity
  8
1
100
AcDbLine
 10
-654.2925296599446
 20
-65.11889513993946
 30
0.0
 11
-654.2925296599446
 21
-70.11889513993946
 31
0.0
  0
LINE
  5
B99
330
B8E
100
AcDbEntity
  8
1
100
AcDbLine
 10
-549.2925296599446
 20
-70.11889513993946
 30
0.0
 11
-549.2925296599446
 21
-65.11889513993946
 31
0.0
  0
LINE
  5
B9A
330
B8E
100
AcDbEntity
  8
1
100
AcDbLine
 10
-369.2925296599447
 20
-65.11889513993946
 30
0.0
 11
-364.2925296599447
 21
-65.11889513993946
 31
0.0
  0
LINE
  5
B9B
330
B8E
100
AcDbEntity
  8
1
100
AcDbLine
 10
-549.2925296599446
 20
-357.1188951399395
 30
0.0
 11
-549.2925296599446
 21
-362.1188951399395
 31
0.0
  0
ENDBLK
  5
B9D
330
B8E
100
AcDbEntity
  8
0
100
AcDbBlockEnd
  0
BLOCK
  5
C13
330
B9E
100
AcDbEntity
  8
0
100
AcDbBlockBegin
  2
legenda desenvolvimento
 70
     2
 10
0.0
 20
0.0
 30
0.0
  3
legenda desenvolvimento
  1

  0
ATTDEF
  5
B9F
330
B9E
100
AcDbEntity
  8
1
100
AcDbText
 10
-108.606245802552
 20
55.5
 30
0.0
 40
4.0
  1
XXXXXXXXXXXXXX
 41
0.8
  7
SANINDUSA
 72
     4
 11
-87.5
 21
57.5
 31
0.0
100
AcDbAttributeDefinition
  3
Nome do Produto:
  2
PRODUTO
 70
     0
  0
ATTDEF
  5
BA0
330
B9E
100
AcDbEntity
  8
1
100
AcDbText
 10
-97.9997966101695
 20
41.25
 30
0.0
 40
3.0
  1
XXXXXXXXX
 41
0.8
  7
futura
 72
     4
 11
-87.5
 21
42.75
 31
0.0
100
AcDbAttributeDefinition
  3
Nome da Peça:
  2
PECA
 70
     0
  0
ATTDEF
  5
BA1
330
B9E
100
AcDbEntity
  8
1
100
AcDbText
 10
-133.4422431161853
 20
21.11745296763252
 30
0.0
 40
2.5
  1
X
 41
0.8
  7
SANINDUSA
 72
     4
 11
-132.5
 21
22.36745296763252
 31
0.0
100
AcDbAttributeDefinition
  3
Cod. TESTE:
  2
TESTE
 70
     0
  0
ATTDEF
  5
BA2
330
B9E
100
AcDbEntity
  8
1
100
AcDbText
 10
-124.3844862323707
 20
21.11745296763252
 30
0.0
 40
2.5
  1
XX
 41
0.8
  7
SANINDUSA
 72
     4
 11
-122.5
 21
22.36745296763252
 31
0.0
100
AcDbAttributeDefinition
  3
Cod. Ano:
  2
ANO
 70
     0
  0
ATTDEF
  5
BA3
330
B9E
100
AcDbEntity
  8
1
100
AcDbText
 10
-112.526889953052
 20
21.11745296763252
 30
0.0
 40
2.5
  1
XXX
 41
0.8
  7
SANINDUSA
 72
     4
 11
-109.700160604496
 21
22.36745296763252
 31
0.0
100
AcDbAttributeDefinition
  3
Cod. Sequência:
  2
SEQUENCIA
 70
     0
  0
ATTDEF
  5
BA4
330
B9E
100
AcDbEntity
  8
1
100
AcDbText
 10
-99.35382430979316
 20
21.11745296763252
 30
0.0
 40
2.5
  1
XX
 41
0.8
  7
SANINDUSA
 72
     4
 11
-97.46933807742244
 21
22.36745296763252
 31
0.0
100
AcDbAttributeDefinition
  3
Cod. Tipo:
  2
TIPO
 70
     0
  0
ATTDEF
  5
BA5
330
B9E
100
AcDbEntity
  8
1
100
AcDbText
 10
-87.42035911468438
 20
21.11745296763252
 30
0.0
 40
2.5
  1
XXX
 41
0.8
  7
SANINDUSA
 72
     4
 11
-84.59362976612828
 21
22.36745296763252
 31
0.0
100
AcDbAttributeDefinition
  3
Cod. Produto:
  2
PRODUTO
 70
     0
  0
ATTDEF
  5
BA6
330
B9E
100
AcDbEntity
  8
1
100
AcDbText
 10
-74.62051971917853
 20
21.11745296763252
 30
0.0
 40
2.5
  1
XXX
 41
0.8
  7
SANINDUSA
 72
     4
 11
-71.79379037062244
 21
22.36745296763252
 31
0.0
100
AcDbAttributeDefinition
  3
Cod. Peça:
  2
PECA
 70
     0
  0
ATTDEF
  5
BA7
330
B9E
100
AcDbEntity
  8
1
100
AcDbText
 10
-61.10603446650329
 20
21.11745296763252
 30
0.0
 40
2.5
  1
XX
 41
0.8
  7
SANINDUSA
 72
     4
 11
-59.22154823413257
 21
22.36745296763252
 31
0.0
100
AcDbAttributeDefinition
  3
Cod. Revisão:
  2
REV
 70
     0
  0
ATTDEF
  5
BA8
330
B9E
100
AcDbEntity
  8
1
100
AcDbText
 10
-48.43615325006194
 20
21.11745296763252
 30
0.0
 40
2.5
  1
XX
 41
0.8
  7
SANINDUSA
 72
     4
 11
-46.55166701769121
 21
22.36745296763252
 31
0.0
100
AcDbAttributeDefinition
  3
Cod. Alteração:
  2
ALT
 70
     0
  0
ATTDEF
  5
BA9
330
B9E
100
AcDbEntity
  8
1
100
AcDbText
 10
-35.19086635325722
 20
23.98875083948959
 30
0.0
 40
3.0
  1
1/XXX
 41
0.8
  7
SANINDUSA
 72
     4
 11
-30.0
 21
25.25
 31
0.0
100
AcDbAttributeDefinition
  3
Escala geral:
  2
ESCALA
 70
     0
  0
ATTDEF
  5
BAA
330
B9E
100
AcDbEntity
  8
1
100
AcDbText
 10
-15.65345869711215
 20
23.75
 30
0.0
 40
3.0
  1
XXXXX
 41
0.8
  7
SANINDUSA
 72
     4
 11
-10.0
 21
25.25
 31
0.0
100
AcDbAttributeDefinition
  3
Folha:
  2
FOLHA
 70
     0
  0
ATTDEF
  5
BAB
330
B9E
100
AcDbEntity
  8
1
100
AcDbText
 10
-178.5146998822042
 20
56.9531347542807
 30
0.0
 40
2.0
  1
xx
 41
0.8
  7
SANINDUSA
 72
     4
 11
-177.2123493113513
 21
57.70330265219877
 31
0.0
100
AcDbAttributeDefinition
  3
revisão
  2
REV.
 70
     0
  0
ATTDEF
  5
BAC
330
B9E
100
AcDbEntity
  8
1
100
AcDbText
 10
-172.7849640077129
 20
56.9531347542807
 30
0.0
 40
2.0
  1
xx
 41
0.8
  7
SANINDUSA
 72
     4
 11
-171.48261343686
 21
57.70330265219877
 31
0.0
100
AcDbAttributeDefinition
  3
alteração
  2
ALT.
 70
     0
  0
ATTDEF
  5
BAD
330
B9E
100
AcDbEntity
  8
1
100
AcDbText
 10
-168.007199951307
 20
56.70330265219877
 30
0.0
 40
2.0
  1
xx/xx/xxxx
 41
0.8
  7
SANINDUSA
 11
-168.007199951307
 21
57.70330265219877
 31
0.0
100
AcDbAttributeDefinition
  3
data
  2
DATA
 70
     0
 74
     2
  0
ATTDEF
  5
BAE
330
B9E
100
AcDbEntity
  8
1
100
AcDbText
 10
-168.5396372253371
 20
13.15916722632639
 30
0.0
 40
2.0
  1
XX/XX/XXXX
 41
0.8
  7
SANINDUSA
 72
     4
 11
-161.5099528734231
 21
14.0
 31
0.0
100
AcDbAttributeDefinition
  3
Data projecto
  2
DATA_PROJ
 70
     0
  0
ATTDEF
  5
BAF
330
B9E
100
AcDbEntity
  8
1
100
AcDbText
 10
-150.8658110728766
 20
13.24983210208193
 30
0.0
 40
2.0
  1
xxxxxxxx
 41
0.8
  7
SANINDUSA
 72
     4
 11
-145.6564087894649
 21
14.0
 31
0.0
100
AcDbAttributeDefinition
  3
nome de quem projectou
  2
NOME
 70
     0
  0
ATTDEF
  5
BB0
330
B9E
100
AcDbEntity
  8
1
100
AcDbText
 10
-168.5396372253371
 20
9.159167226326394
 30
0.0
 40
2.0
  1
XX/XX/XXXX
 41
0.8
  7
SANINDUSA
 72
     4
 11
-161.5099528734231
 21
10.0
 31
0.0
100
AcDbAttributeDefinition
  3
Data desenhou
  2
DATA_DES
 70
     0
  0
ATTDEF
  5
BB1
330
B9E
100
AcDbEntity
  8
1
100
AcDbText
 10
-151.516986358303
 20
9.249832102081933
 30
0.0
 40
2.0
  1
xxxxxxxxx
 41
0.8
  7
SANINDUSA
 72
     4
 11
-145.6564087894649
 21
10.0
 31
0.0
100
AcDbAttributeDefinition
  3
nome
  2
NOME
 70
     0
  0
ATTDEF
  5
BB2
330
B9E
100
AcDbEntity
  8
1
100
AcDbText
 10
-127.2924214135946
 20
14.1979876583216
 30
0.0
 40
2.0
  1
Vitreous China
 41
0.8
  7
SANINDUSA
 72
     4
 11
-119.231709526422
 21
15.22216495852308
 31
0.0
100
AcDbAttributeDefinition
  3
Nome do Material:
  2
MATERIAL
 70
     0
  0
ATTDEF
  5
BB3
330
B9E
100
AcDbEntity
  8
1
100
AcDbText
 10
-103.1563452122093
 20
14.38019043949261
 30
0.0
 40
2.0
  1
Branco
 41
0.8
  7
SANINDUSA
 72
     4
 11
-99.33418268702462
 21
15.35937109765245
 31
0.0
100
AcDbAttributeDefinition
  3
cor da peça
  2
COR
 70
     0
  0
ATTDEF
  5
BB4
330
B9E
100
AcDbEntity
  8
1
100
AcDbText
 10
-116.7235057085292
 20
5.975822699798522
 30
0.0
 40
2.0
  1
Vidrado
 41
0.8
  7
SANINDUSA
 72
     4
 11
-112.5
 21
7.0
 31
0.0
100
AcDbAttributeDefinition
  3
Tipo de acabamento:
  2
ACABAMENTO
 70
     0
  0
ATTDEF
  5
BB5
330
B9E
100
AcDbEntity
  8
1
100
AcDbText
 10
-79.18527869967246
 20
16.65066409850533
 30
0.0
 40
2.0
  1
XXXXXXX
 41
0.8
  7
SANINDUSA
 72
     4
 11
-73.90871724903445
 21
17.65066409850533
 31
0.0
100
AcDbAttributeDefinition
  3
Normas
  2
NORMAS
 70
     0
  0
ATTDEF
  5
BB6
330
B9E
100
AcDbEntity
  8
1
100
AcDbText
 10
-30.55312290127603
 20
14.0
 30
0.0
 40
2.0
  1
XXXXXXXXXXXXXX
 41
0.8
  7
SANINDUSA
 72
     4
 11
-20.0
 21
15.0
 31
0.0
100
AcDbAttributeDefinition
  3
Substitui o desenho:
  2
SUBSTITUI
 70
     0
  0
ATTDEF
  5
BB7
330
B9E
100
AcDbEntity
  8
1
100
AcDbText
 10
-31.30691739422431
 20
6.0
 30
0.0
 40
2.0
  1
XXXXXXXXXXXXXXX
 41
0.8
  7
SANINDUSA
 72
     4
 11
-20.0
 21
7.0
 31
0.0
100
AcDbAttributeDefinition
  3
Substituido por:
  2
SUBSTITUIDO
 70
     0
  0
ATTDEF
  5
BB8
330
B9E
100
AcDbEntity
  8
1
100
AcDbText
 10
-110.0220608548302
 20
1.478208457928303
 30
0.0
 40
2.0
  1
XXXXXXXXXXXXXXXXXXXXXXXXXXXXXXXXXX
 41
0.8
  7
SANINDUSA
 11
-110.0220608548302
 21
2.478208457928303
 31
0.0
100
AcDbAttributeDefinition
  3
Localização do desenho:
  2
LOC-DWG
 70
     0
 74
     2
  0
LINE
  5
BB9
330
B9E
100
AcDbEntity
  8
3
100
AcDbLine
 10
-135.0
 20
4.0
 30
0.0
 11
0.0000000000004547
 21
4.0
 31
0.0
  0
LINE
  5
BBA
330
B9E
100
AcDbEntity
  8
3
100
AcDbLine
 10
-90.00000000000046
 20
12.0
 30
0.0
 11
-135.0
 21
12.0
 31
0.0
  0
LINE
  5
BBB
330
B9E
100
AcDbEntity
  8
3
100
AcDbLine
 10
-135.0
 20
32.5
 30
0.0
 11
-40.0
 21
32.5
 31
0.0
  0
TEXT
  5
BBC
330
B9E
100
AcDbEntity
  8
1
100
AcDbText
 10
-134.0
 20
1.25
 30
0.0
 40
2.0
  1
Localização do des.:
 41
0.8
  7
SANINDUSA
 11
-134.0
 21
2.25
 31
0.0
100
AcDbText
 73
     2
  0
LINE
  5
BBD
330
B9E
100
AcDbEntity
  8
3
100
AcDbLine
 10
-180.0
 20
65.0
 30
0.0
 11
0.0
 21
65.0
 31
0.0
  0
LINE
  5
BBE
330
B9E
100
AcDbEntity
  8
leg fin
100
AcDbLine
 10
-40.0
 20
25.05956924886846
 30
0.0
 11
-135.0
 21
25.05956924886846
 31
0.0
  0
LINE
  5
BBF
330
B9E
100
AcDbEntity
  8
leg fin
100
AcDbLine
 10
-40.0
 20
28.5
 30
0.0
 11
-135.0
 21
28.5
 31
0.0
  0
LINE
  5
BC0
330
B9E
100
AcDbEntity
  8
3
100
AcDbLine
 10
-135.0
 20
50.0
 30
0.0
 11
-40.0
 21
50.0
 31
0.0
  0
TEXT
  5
BC1
330
B9E
100
AcDbEntity
  8
1
100
AcDbText
 10
-134.0
 20
29.75
 30
0.0
 40
2.0
  1
Desenho nº:
 41
0.8
  7
SANINDUSA
 11
-134.0
 21
30.75
 31
0.0
100
AcDbText
 73
     2
  0
TEXT
  5
BC2
330
B9E
100
AcDbEntity
  8
1
100
AcDbText
 10
-134.0
 20
9.25
 30
0.0
 40
2.0
  1
Acabamento:
 41
0.8
  7
SANINDUSA
 11
-134.0
 21
10.25
 31
0.0
100
AcDbText
 73
     2
  0
LINE
  5
BC3
330
B9E
100
AcDbEntity
  8
3
100
AcDbLine
 10
-180.0
 20
20.0
 30
0.0
 11
0.0
 21
20.0
 31
0.0
  0
LINE
  5
BC4
330
B9E
100
AcDbEntity
  8
1
100
AcDbLine
 10
-174.5810776056337
 20
55.5
 30
0.0
 11
-174.5810776056337
 21
65.0
 31
0.0
  0
LINE
  5
BC5
330
B9E
100
AcDbEntity
  8
1
100
AcDbLine
 10
-168.9210461879161
 20
55.5
 30
0.0
 11
-168.9210461879161
 21
65.0
 31
0.0
  0
LINE
  5
BC6
330
B9E
100
AcDbEntity
  8
1
100
AcDbLine
 10
-154.0988595589306
 20
55.5
 30
0.0
 11
-154.0988595589306
 21
65.0
 31
0.0
  0
LINE
  5
BC7
330
B9E
100
AcDbEntity
  8
3
100
AcDbLine
 10
-180.0
 20
65.0
 30
0.0
 11
-180.0
 21
0.0
 31
0.0
  0
LINE
  5
BC8
330
B9E
100
AcDbEntity
  8
3
100
AcDbLine
 10
-135.0
 20
0.0
 30
0.0
 11
-135.0
 21
65.0
 31
0.0
  0
TEXT
  5
BC9
330
B9E
100
AcDbEntity
  8
1
100
AcDbText
 10
-179.0
 20
9.75
 30
0.0
 40
1.5
  1
Des.
 41
0.8
  7
SANINDUSA
 11
-179.0
 21
10.5
 31
0.0
100
AcDbText
 73
     2
  0
LINE
  5
BCA
330
B9E
100
AcDbEntity
  8
1
100
AcDbLine
 10
-168.9210461879161
 20
20.0
 30
0.0
 11
-168.9210461879161
 21
0.0
 31
0.0
  0
LINE
  5
BCB
330
B9E
100
AcDbEntity
  8
1
100
AcDbLine
 10
-154.0988595589306
 20
20.0
 30
0.0
 11
-154.0988595589306
 21
0.0
 31
0.0
  0
LINE
  5
BCC
330
B9E
100
AcDbEntity
  8
1
100
AcDbLine
 10
-180.0
 20
4.0
 30
0.0
 11
-135.0
 21
4.0
 31
0.0
  0
LINE
  5
BCD
330
B9E
100
AcDbEntity
  8
1
100
AcDbLine
 10
-180.0
 20
8.0
 30
0.0
 11
-135.0
 21
8.0
 31
0.0
  0
TEXT
  5
BCE
330
B9E
100
AcDbEntity
  8
1
100
AcDbText
 10
-179.0
 20
1.73257823687436
 30
0.0
 40
1.5
  1
Aprov.
 41
0.8
  7
SANINDUSA
 11
-179.0
 21
2.48257823687436
 31
0.0
100
AcDbText
 73
     2
  0
TEXT
  5
BCF
330
B9E
100
AcDbEntity
  8
1
100
AcDbText
 10
-179.0
 20
5.75
 30
0.0
 40
1.5
  1
Ver.
 41
0.8
  7
SANINDUSA
 11
-179.0
 21
6.5
 31
0.0
100
AcDbText
 73
     2
  0
LINE
  5
BD0
330
B9E
100
AcDbEntity
  8
1
100
AcDbLine
 10
-180.0
 20
16.0
 30
0.0
 11
-135.0
 21
16.0
 31
0.0
  0
LINE
  5
BD1
330
B9E
100
AcDbEntity
  8
1
100
AcDbLine
 10
-180.0
 20
12.0
 30
0.0
 11
-135.0
 21
12.0
 31
0.0
  0
TEXT
  5
BD2
330
B9E
100
AcDbEntity
  8
1
100
AcDbText
 10
-179.0
 20
13.75
 30
0.0
 40
1.5
  1
Proj.
 41
0.8
  7
SANINDUSA
 11
-179.0
 21
14.5
 31
0.0
100
AcDbText
 73
     2
  0
TEXT
  5
BD3
330
B9E
100
AcDbEntity
  8
1
100
AcDbText
 10
-167.9210461879161
 20
17.75
 30
0.0
 40
1.5
  1
Data
 41
0.8
  7
SANINDUSA
 11
-167.9210461879161
 21
18.5
 31
0.0
100
AcDbText
 73
     2
  0
TEXT
  5
BD4
330
B9E
100
AcDbEntity
  8
1
100
AcDbText
 10
-153.0988595589306
 20
17.75
 30
0.0
 40
1.5
  1
Nome
 41
0.8
  7
SANINDUSA
 11
-153.0988595589306
 21
18.5
 31
0.0
100
AcDbText
 73
     2
  0
LINE
  5
BD5
330
B9E
100
AcDbEntity
  8
leg fin
100
AcDbLine
 10
-130.0
 20
20.0
 30
0.0
 11
-130.0
 21
28.5
 31
0.0
  0
TEXT
  5
BD6
330
B9E
100
AcDbEntity
  8
1
100
AcDbText
 10
-134.0
 20
17.25
 30
0.0
 40
2.0
  1
Material:
 41
0.8
  7
SANINDUSA
 11
-134.0
 21
18.25
 31
0.0
100
AcDbText
 73
     2
  0
TEXT
  5
BD7
330
B9E
100
AcDbEntity
  8
1
100
AcDbText
 10
-129.0
 20
26.43288406845113
 30
0.0
 40
1.5
  1
Ano:
 41
0.8
  7
SANINDUSA
 11
-129.0
 21
27.18288406845113
 31
0.0
100
AcDbText
 73
     2
  0
LINE
  5
BD8
330
B9E
100
AcDbEntity
  8
1
100
AcDbLine
 10
-180.0
 20
55.5
 30
0.0
 11
-135.0
 21
55.5
 31
0.0
  0
TEXT
  5
BD9
330
B9E
100
AcDbEntity
  8
1
100
AcDbText
 10
-179.0
 20
52.67772246885193
 30
0.0
 40
1.5
  1
descrição
 41
0.8
  7
SANINDUSA
 11
-179.0
 21
53.42772246885193
 31
0.0
100
AcDbText
 73
     2
  0
TEXT
  5
BDA
330
B9E
100
AcDbEntity
  8
1
100
AcDbText
 10
-134.0
 20
47.25
 30
0.0
 40
2.0
  1
Peça:
 41
0.8
  7
SANINDUSA
 11
-134.0
 21
48.25
 31
0.0
100
AcDbText
 73
     2
  0
LINE
  5
BDB
330
B9E
100
AcDbEntity
  8
1
100
AcDbLine
 10
-180.0
 20
59.5
 30
0.0
 11
-135.0
 21
59.5
 31
0.0
  0
TEXT
  5
BDC
330
B9E
100
AcDbEntity
  8
1
100
AcDbText
 10
-173.5810776056337
 20
62.75
 30
0.0
 40
1.5
  1
Alt.
 41
0.8
  7
SANINDUSA
 11
-173.5810776056337
 21
63.5
 31
0.0
100
AcDbText
 73
     2
  0
TEXT
  5
BDD
330
B9E
100
AcDbEntity
  8
1
100
AcDbText
 10
-179.0
 20
62.75
 30
0.0
 40
1.5
  1
Rev.
 41
0.8
  7
SANINDUSA
 11
-179.0
 21
63.5
 31
0.0
100
AcDbText
 73
     2
  0
TEXT
  5
BDE
330
B9E
100
AcDbEntity
  8
1
100
AcDbText
 10
-167.9210461879161
 20
62.75
 30
0.0
 40
1.5
  1
Data
 41
0.8
  7
SANINDUSA
 11
-167.9210461879161
 21
63.5
 31
0.0
100
AcDbText
 73
     2
  0
TEXT
  5
BDF
330
B9E
100
AcDbEntity
  8
1
100
AcDbText
 10
-153.0988595589306
 20
62.75
 30
0.0
 40
1.5
  1
Nome
 41
0.8
  7
SANINDUSA
 11
-153.0988595589306
 21
63.5
 31
0.0
100
AcDbText
 73
     2
  0
TEXT
  5
BE0
330
B9E
100
AcDbEntity
  8
1
100
AcDbText
 10
-134.0
 20
62.25
 30
0.0
 40
2.0
  1
Produto:
 41
0.8
  7
SANINDUSA
 11
-134.0
 21
63.25
 31
0.0
100
AcDbText
 73
     2
  0
LINE
  5
BE1
330
B9E
100
AcDbEntity
  8
3
100
AcDbLine
 10
-40.0
 20
4.0
 30
0.0
 11
-40.0
 21
65.0
 31
0.0
  0
LWPOLYLINE
  5
BE2
102
{ACAD_REACTORS
330
BEC
102
}
330
B9E
100
AcDbEntity
  8
9
100
AcDbPolyline
 90
       12
 70
     1
 43
0.0
 10
-3.038714600644652
 20
58.90010174665076
 10
-5.726962862472191
 20
58.90010174665076
 10
-5.726962862472191
 20
58.5001017466509
 10
-3.038748516195028
 20
58.5001017466509
 42
-0.4142135623731731
 10
-2.638748516194482
 20
58.1001017466508
 10
-2.638748516194482
 20
57.42799728675596
 10
-5.21497371544865
 20
57.42799728675596
 42
0.4142135623731289
 10
-6.014973715448377
 20
56.627997286756
 10
-6.014973715448377
 20
55.92380871629643
 42
0.4142135623731132
 10
-5.21497371544865
 20
55.12380871629648
 10
-2.23871460064447
 20
55.12380871629648
 10
-2.23871460064447
 20
58.10010174665103
 42
0.4142135623730717
  0
LWPOLYLINE
  5
BE3
102
{ACAD_REACTORS
330
BEC
102
}
330
B9E
100
AcDbEntity
  8
9
100
AcDbPolyline
 90
       20
 70
     1
 43
0.0
 10
-10.01531287095122
 20
57.82799728675581
 10
-10.01531287095122
 20
58.10010174665103
 42
-0.4142135623730744
 10
-9.615312870951584
 20
58.5001017466509
 10
-6.92703069357276
 20
58.5001017466509
 10
-6.92703069357276
 20
58.90010174665076
 10
-9.615346786501959
 20
58.90010174665076
 42
0.4142135623730883
 10
-10.41534678650168
 20
58.1001017466508
 10
-10.41534678650168
 20
57.82796337120567
 42
0.4142135623730717
 10
-9.615346786501959
 20
57.02796337120571
 10
-7.423079531965413
 20
57.02796337120571
 42
-0.4142135623730847
 10
-7.023079531965322
 20
56.62796337120562
 10
-7.023079531965322
 20
55.90786840766487
 42
-0.4142135623730744
 10
-7.423079531965413
 20
55.507868407665
 10
-10.41534678650168
 20
55.507868407665
 10
-10.41534678650168
 20
55.12380871629648
 10
-7.445787917283723
 20
55.12380871629648
 42
0.4114777732064574
 10
-6.645822882998345
 20
55.9163291493976
 10
-6.639238813324936
 20
56.62051771985716
 42
0.4169546541682913
 10
-7.439203847610315
 20
57.42799728675596
 10
-9.615312870951584
 20
57.42799728675596
 42
-0.4142135623731576
  0
LWPOLYLINE
  5
BE4
102
{ACAD_REACTORS
330
BEC
102
}
330
B9E
100
AcDbEntity
  8
9
100
AcDbPolyline
 90
       12
 70
     1
 43
0.0
 10
-14.41561811090378
 20
58.90010174665076
 10
-14.79964388672215
 20
58.90010174665076
 10
-14.79964388672215
 20
55.92380871629643
 42
0.4142135623731133
 10
-13.99964388672242
 20
55.12380871629648
 10
-11.8233508563676
 20
55.12380871629648
 42
0.4142135623730872
 10
-11.02335085636741
 20
55.92380871629643
 10
-11.02335085636741
 20
58.90010174665076
 10
-11.42338477191788
 20
58.90010174665076
 10
-11.42338477191788
 20
55.91567577726095
 42
-0.4131711701795318
 10
-11.82196067063523
 20
55.51567831234956
 10
-14.0141940096214
 20
55.50787335710947
 42
-0.4152567234624407
 10
-14.41561811090378
 20
55.90787082202087
  0
LWPOLYLINE
  5
BE5
102
{ACAD_REACTORS
330
BEC
102
}
330
B9E
100
AcDbEntity
  8
9
100
AcDbPolyline
 90
        6
 70
     1
 43
0.0
 10
-15.80771578768872
 20
55.507868407665
 10
-18.39994912667453
 20
55.507868407665
 42
-0.4142135623731731
 10
-18.79994912667462
 20
55.90786840766487
 10
-18.79994912667462
 20
58.10010174665103
 42
-0.4142135623730744
 10
-18.39994912667453
 20
58.5001017466509
 10
-15.80771578768872
 20
58.5001017466509
  0
LWPOLYLINE
  5
BE6
102
{ACAD_REACTORS
330
BEC
102
}
330
B9E
100
AcDbEntity
  8
9
100
AcDbPolyline
 90
        8
 70
     1
 43
0.0
 10
-15.4236900118708
 20
59.87619128370352
 10
-15.80771578768872
 20
59.87619128370352
 10
-15.80771578768872
 20
58.90010174665076
 10
-18.39176256411201
 20
58.90010174665076
 42
0.4131164467977967
 10
-19.19175694739761
 20
58.1030995310698
 10
-19.1999120763262
 20
55.92680650071542
 42
0.4153115297271718
 10
-18.39991769304061
 20
55.12380871629648
 10
-15.4236900118708
 20
55.12380871629648
  0
LWPOLYLINE
  5
BE7
102
{ACAD_REACTORS
330
BEC
102
}
330
B9E
100
AcDbEntity
  8
9
100
AcDbPolyline
 90
       10
 70
     1
 43
0.0
 10
-20.59201288790928
 20
58.90010174665076
 10
-23.56830591826338
 20
58.90010174665076
 10
-23.56830591826338
 20
55.12380871629648
 10
-23.18424622689509
 20
55.12380871629648
 10
-23.18424622689509
 20
58.5001017466509
 10
-20.59204680345965
 20
58.5001017466509
 42
-0.4142135623730898
 10
-20.19204680345956
 20
58.1001017466508
 10
-20.19204680345956
 20
55.12380871629648
 10
-19.79201288790909
 20
55.12380871629648
 10
-19.79201288790909
 20
58.10010174665103
 42
0.4142135623731132
  0
LWPOLYLINE
  5
BE8
102
{ACAD_REACTORS
330
BEC
102
}
330
B9E
100
AcDbEntity
  8
9
100
AcDbPolyline
 90
        4
 70
     1
 43
0.0
 10
-24.19231812786165
 20
58.90010174665076
 10
-24.57637781922995
 20
58.90010174665076
 10
-24.57637781922995
 20
55.12380871629648
 10
-24.19231812786165
 20
55.12380871629648
  0
LWPOLYLINE
  5
BE9
102
{ACAD_REACTORS
330
BEC
102
}
330
B9E
100
AcDbEntity
  8
9
100
AcDbPolyline
 90
       10
 70
     1
 43
0.0
 10
-28.57661522808212
 20
58.5001017466509
 10
-25.98444972019706
 20
58.5001017466509
 42
-0.4142135623731731
 10
-25.58444972019652
 20
58.1001017466508
 10
-25.58444972019652
 20
55.12380871629648
 10
-25.2004239443786
 20
55.12380871629648
 10
-25.2004239443786
 20
58.10010174665103
 42
0.4142135623730717
 10
-26.00042394437833
 20
58.90010174665076
 10
-28.97664914363259
 20
58.90010174665076
 10
-28.97664914363259
 20
55.12380871629648
 10
-28.57661522808212
 20
55.12380871629648
  0
LWPOLYLINE
  5
BEA
102
{ACAD_REACTORS
330
BEC
102
}
330
B9E
100
AcDbEntity
  8
9
100
AcDbPolyline
 90
       12
 70
     1
 43
0.0
 10
-29.58465321349832
 20
58.10010174665103
 42
0.4142135623730716
 10
-30.3846532134985
 20
58.90010174665076
 10
-33.07296930642724
 20
58.90010174665076
 10
-33.07296930642724
 20
58.5001017466509
 10
-30.38468712904842
 20
58.5001017466509
 42
-0.4142135623730067
 10
-29.98468712904878
 20
58.1001017466508
 10
-29.98468712904878
 20
57.42799728675618
 10
-32.56098015940324
 20
57.42799728675596
 42
0.4142135623731289
 10
-33.36098015940343
 20
56.627997286756
 10
-33.36098015940343
 20
55.92380871629643
 42
0.4142135623731132
 10
-32.56098015940324
 20
55.12380871629648
 10
-29.58465321349832
 20
55.12380871629648
  0
LWPOLYLINE
  5
BEB
102
{ACAD_REACTORS
330
BEC
102
}
330
B9E
100
AcDbEntity
  8
9
100
AcDbPolyline
 90
       20
 70
     1
 43
0.0
 10
-34.7850262845518
 20
57.42799728675596
 10
-36.96125148380543
 20
57.42799728675596
 42
-0.4142135623730898
 10
-37.36125148380552
 20
57.82799728675604
 10
-37.36125148380552
 20
58.10010174665103
 42
-0.4142135623730744
 10
-36.96125148380543
 20
58.5001017466509
 10
-34.27303713752781
 20
58.50010174665067
 10
-34.27303713752781
 20
58.90010174665076
 10
-36.96128539935535
 20
58.90010174665076
 42
0.4142135623731289
 10
-37.76128539935553
 20
58.1001017466508
 10
-37.76128539935553
 20
57.82796337120567
 42
0.4142135623730716
 10
-36.9612853993558
 20
57.02796337120571
 10
-34.76901814481926
 20
57.02796337120571
 42
-0.414213562373168
 10
-34.36901814481962
 20
56.62796337120562
 10
-34.36901814481962
 20
55.90786840766487
 42
-0.4142135623730744
 10
-34.76901814481926
 20
55.507868407665
 10
-37.76128539935553
 20
55.507868407665
 10
-37.76128539935553
 20
55.12380871629648
 10
-34.7850262845518
 20
55.12380871629648
 42
0.4142135623731289
 10
-33.98502628455162
 20
55.92380871629643
 10
-33.98502628455162
 20
56.627997286756
 42
0.4142135623731132
  0
HATCH
  5
BEC
330
B9E
100
AcDbEntity
  8
9
100
AcDbHatch
 10
0.0
 20
0.0
 30
0.0
210
0.0
220
0.0
230
1.0
  2
SOLID
 70
     1
 71
     1
 91
       13
 92
        7
 72
     1
 73
     1
 93
       20
 10
-34.36901814481962
 20
55.90786840766487
 42
-0.414213562372991
 10
-34.76901814481926
 20
55.507868407665
 42
0.0
 10
-37.76128539935553
 20
55.507868407665
 42
0.0
 10
-37.76128539935553
 20
55.12380871629648
 42
0.0
 10
-34.7850262845518
 20
55.12380871629648
 42
0.4142135623731705
 10
-33.98502628455162
 20
55.92380871629666
 42
0.0
 10
-33.98502628455162
 20
56.627997286756
 42
0.4142135623731547
 10
-34.7850262845518
 20
57.42799728675596
 42
0.0
 10
-36.96125148380543
 20
57.42799728675596
 42
-0.4142135623730898
 10
-37.36125148380552
 20
57.82799728675604
 42
0.0
 10
-37.36125148380552
 20
58.1001017466508
 42
-0.4142135623731575
 10
-36.96125148380543
 20
58.5001017466509
 42
0.0
 10
-34.27303713752781
 20
58.50010174665067
 42
0.0
 10
-34.27303713752781
 20
58.90010174665076
 42
0.0
 10
-36.96128539935535
 20
58.90010174665076
 42
0.4142135623731705
 10
-37.76128539935553
 20
58.10010174665058
 42
0.0
 10
-37.76128539935553
 20
57.82796337120544
 42
0.4142135623730299
 10
-36.9612853993558
 20
57.02796337120571
 42
0.0
 10
-34.76901814481926
 20
57.02796337120571
 42
-0.4142135623730015
 10
-34.36901814481962
 20
56.62796337120608
 42
0.0
 97
        1
330
BEB
 92
        7
 72
     1
 73
     1
 93
       12
 10
-33.36098015940343
 20
55.92380871629666
 42
0.4142135623731547
 10
-32.56098015940324
 20
55.12380871629648
 42
0.0
 10
-29.58465321349877
 20
55.12380871629648
 42
0.0
 10
-29.58465321349832
 20
58.10010174665058
 42
0.4142135623731964
 10
-30.3846532134985
 20
58.90010174665076
 42
0.0
 10
-33.07296930642724
 20
58.90010174665076
 42
0.0
 10
-33.07296930642724
 20
58.50010174665067
 42
0.0
 10
-30.38468712904887
 20
58.5001017466509
 42
-0.4142135623732564
 10
-29.98468712904878
 20
58.10010174665103
 42
0.0
 10
-29.98468712904923
 20
57.42799728675596
 42
0.0
 10
-32.56098015940324
 20
57.42799728675596
 42
0.4142135623731705
 10
-33.36098015940343
 20
56.627997286756
 42
0.0
 97
        1
330
BEA
 92
       22
 72
     1
 73
     1
 93
        6
 10
-32.97692046803468
 20
56.62796337120562
 42
-0.4142135623731576
 10
-32.57692046803459
 20
57.02796337120571
 42
0.0
 10
-29.98468712904878
 20
57.02796337120571
 42
0.0
 10
-29.98468712904878
 20
55.507868407665
 42
0.0
 10
-32.57692046803459
 20
55.507868407665
 42
-0.4142135623731731
 10
-32.97692046803468
 20
55.90786840766487
 42
0.0
 97
        1
330
C11
 92
        7
 72
     1
 73
     1
 93
       10
 10
-28.57661522808212
 20
58.5001017466509
 42
0.0
 10
-25.98444972019661
 20
58.5001017466509
 42
-0.4142135623730067
 10
-25.58444972019652
 20
58.10010174665058
 42
0.0
 10
-25.58444972019606
 20
55.12380871629648
 42
0.0
 10
-25.20042394437906
 20
55.12380871629648
 42
0.0
 10
-25.2004239443786
 20
58.1001017466508
 42
0.4142135623731134
 10
-26.00042394437833
 20
58.90010174665076
 42
0.0
 10
-28.97664914363259
 20
58.90010174665076
 42
0.0
 10
-28.97664914363259
 20
55.12380871629648
 42
0.0
 10
-28.57661522808212
 20
55.12380871629648
 42
0.0
 97
        1
330
BE9
 92
        7
 72
     0
 73
     1
 93
        4
 10
-24.57637781922995
 20
55.12380871629648
 10
-24.19231812786165
 20
55.12380871629648
 10
-24.19231812786165
 20
58.90010174665076
 10
-24.57637781922995
 20
58.90010174665076
 97
        1
330
BE8
 92
        7
 72
     0
 73
     1
 93
        4
 10
-24.19231812786165
 20
59.87619128370352
 10
-24.5763778192304
 20
59.87619128370352
 10
-24.5763778192304
 20
59.28412752246913
 10
-24.1923181278612
 20
59.28412752246913
 97
        1
330
C12
 92
        7
 72
     1
 73
     1
 93
       10
 10
-23.18424622689509
 20
58.5001017466509
 42
0.0
 10
-20.59204680345965
 20
58.5001017466509
 42
-0.4142135623730898
 10
-20.19204680345956
 20
58.1001017466508
 42
0.0
 10
-20.19204680345956
 20
55.12380871629648
 42
0.0
 10
-19.79201288790909
 20
55.12380871629648
 42
0.0
 10
-19.79201288790909
 20
58.1001017466508
 42
0.4142135623731547
 10
-20.59201288790928
 20
58.90010174665076
 42
0.0
 10
-23.56830591826338
 20
58.90010174665076
 42
0.0
 10
-23.56830591826338
 20
55.12380871629648
 42
0.0
 10
-23.18424622689463
 20
55.12380871629648
 42
0.0
 97
        1
330
BE7
 92
        7
 72
     1
 73
     1
 93
        8
 10
-19.1999120763262
 20
55.92680650071542
 42
0.4153115297271299
 10
-18.39991769304061
 20
55.12380871629648
 42
0.0
 10
-15.4236900118708
 20
55.12380871629648
 42
0.0
 10
-15.4236900118708
 20
59.87619128370352
 42
0.0
 10
-15.80771578768872
 20
59.87619128370352
 42
0.0
 10
-15.80771578768872
 20
58.90010174665076
 42
0.0
 10
-18.39176256411201
 20
58.90010174665076
 42
0.4131164467977965
 10
-19.19175694739761
 20
58.1030995310698
 42
0.0
 97
        1
330
BE6
 92
       22
 72
     1
 73
     1
 93
        6
 10
-18.79994912667462
 20
58.1001017466508
 42
-0.4142135623731575
 10
-18.39994912667453
 20
58.5001017466509
 42
0.0
 10
-15.80771578768872
 20
58.50010174665067
 42
0.0
 10
-15.80771578768827
 20
55.507868407665
 42
0.0
 10
-18.39994912667453
 20
55.507868407665
 42
-0.4142135623731731
 10
-18.79994912667462
 20
55.90786840766487
 42
0.0
 97
        1
330
BE5
 92
        7
 72
     1
 73
     1
 93
       12
 10
-14.79964388672215
 20
55.92380871629621
 42
0.4142135623729885
 10
-13.99964388672242
 20
55.12380871629648
 42
0.0
 10
-11.8233508563676
 20
55.12380871629648
 42
0.4142135623731289
 10
-11.02335085636741
 20
55.92380871629666
 42
0.0
 10
-11.02335085636741
 20
58.90010174665076
 42
0.0
 10
-11.42338477191788
 20
58.90010174665076
 42
0.0
 10
-11.42338477191788
 20
55.91567577726095
 42
-0.4131711701795319
 10
-11.82196067063523
 20
55.51567831234956
 42
0.0
 10
-14.01419400962095
 20
55.50787335710947
 42
-0.4152567234626918
 10
-14.41561811090378
 20
55.90787082202087
 42
0.0
 10
-14.41561811090378
 20
58.90010174665076
 42
0.0
 10
-14.7996438867226
 20
58.90010174665076
 42
0.0
 97
        1
330
BE4
 92
        7
 72
     1
 73
     1
 93
       20
 10
-7.423079531965413
 20
57.02796337120571
 42
-0.414213562373168
 10
-7.023079531965322
 20
56.62796337120562
 42
0.0
 10
-7.023079531965322
 20
55.90786840766487
 42
-0.4142135623731575
 10
-7.423079531965413
 20
55.507868407665
 42
0.0
 10
-10.41534678650168
 20
55.507868407665
 42
0.0
 10
-10.41534678650168
 20
55.12380871629648
 42
0.0
 10
-7.445787917283723
 20
55.12380871629648
 42
0.4114777732065809
 10
-6.645822882998345
 20
55.91632914939783
 42
0.0
 10
-6.639238813324936
 20
56.62051771985716
 42
0.4169546541682913
 10
-7.439203847610315
 20
57.42799728675596
 42
0.0
 10
-9.615312870951584
 20
57.42799728675596
 42
-0.4142135623729911
 10
-10.01531287095122
 20
57.82799728675581
 42
0.0
 10
-10.01531287095122
 20
58.10010174665103
 42
-0.414213562372991
 10
-9.615312870951584
 20
58.5001017466509
 42
0.0
 10
-6.92703069357276
 20
58.50010174665067
 42
0.0
 10
-6.927030693572305
 20
58.90010174665076
 42
0.0
 10
-9.615346786501959
 20
58.90010174665076
 42
0.4142135623730467
 10
-10.41534678650168
 20
58.10010174665103
 42
0.0
 10
-10.41534678650168
 20
57.82796337120544
 42
0.4142135623730301
 10
-9.615346786501959
 20
57.02796337120571
 42
0.0
 97
        1
330
BE3
 92
        7
 72
     1
 73
     1
 93
       12
 10
-5.21497371544865
 20
57.42799728675596
 42
0.4142135623730871
 10
-6.014973715448377
 20
56.627997286756
 42
0.0
 10
-6.014973715448377
 20
55.92380871629621
 42
0.4142135623730715
 10
-5.21497371544865
 20
55.12380871629648
 42
0.0
 10
-2.23871460064447
 20
55.12380871629648
 42
0.0
 10
-2.23871460064447
 20
58.10010174665058
 42
0.414213562373155
 10
-3.038714600644652
 20
58.90010174665076
 42
0.0
 10
-5.726962862471737
 20
58.90010174665076
 42
0.0
 10
-5.726962862472191
 20
58.5001017466509
 42
0.0
 10
-3.038748516194573
 20
58.5001017466509
 42
-0.4142135623730067
 10
-2.638748516194482
 20
58.10010174665058
 42
0.0
 10
-2.638748516194482
 20
57.42799728675596
 42
0.0
 97
        1
330
BE2
 92
       22
 72
     1
 73
     1
 93
        6
 10
-2.638748516194937
 20
57.02796337120571
 42
0.0
 10
-2.638748516194482
 20
55.50786840766477
 42
0.0
 10
-5.21497371544865
 20
55.507868407665
 42
-0.4142135623731731
 10
-5.614973715448741
 20
55.90786840766509
 42
0.0
 10
-5.614973715448741
 20
56.62796337120562
 42
-0.4142135623731576
 10
-5.21497371544865
 20
57.02796337120571
 42
0.0
 97
        1
330
C0D
 75
     0
 76
     1
 47
0.0407044778999864
 98
       13
 10
-34.18710075113677
 20
56.16907953933765
 10
-33.12851374392494
 20
56.49471602641233
 10
-33.12851374392494
 20
56.49471602641233
 10
-28.77202873835904
 20
57.51232930166111
 10
-24.41554807250941
 20
57.91937341678636
 10
-24.41554807250941
 20
59.384734621186
 10
-23.31624584658039
 20
58.3264175319116
 10
-19.04119127844888
 20
57.75655517324913
 10
-19.04119127844888
 20
57.75655517324913
 10
-14.64399105416578
 20
57.43091868617466
 10
-8.048195057457178
 20
57.22739662861204
 10
-4.017427461911665
 20
57.18669281458665
 10
-4.017427461911665
 20
57.18669281458665
  0
TEXT
  5
BED
330
B9E
100
AcDbEntity
  8
leg fin
100
AcDbText
 10
3.391127401597259
 20
2.107634911895729
 30
0.0
 40
1.5
  1
Este desenho é propriedade da Sanindusa, S.A., e não pode ser copiado nem divulgado sem nossa autorização.
 50
90.0
 41
0.8
  7
SANINDUSA
100
AcDbText
  0
LINE
  5
BEE
330
B9E
100
AcDbEntity
  8
3
100
AcDbLine
 10
-90.0
 20
4.0
 30
0.0
 11
-90.0
 21
12.0
 31
0.0
  0
TEXT
  5
BEF
330
B9E
100
AcDbEntity
  8
1
100
AcDbText
 10
-39.0
 20
9.25
 30
0.0
 40
2.0
  1
Substituido por:
 41
0.8
  7
SANINDUSA
 11
-39.0
 21
10.25
 31
0.0
100
AcDbText
 73
     2
  0
POINT
  5
BF0
330
B9E
100
AcDbEntity
  8
SANINDUSA
100
AcDbPoint
 10
0.0
 20
0.0
 30
0.0
  0
TEXT
  5
BF1
330
B9E
100
AcDbEntity
  8
1
100
AcDbText
 10
-89.0
 20
16.74927010445663
 30
0.0
 40
2.0
  1
Normas:
 41
0.8
  7
SANINDUSA
 11
-89.0
 21
17.74927010445663
 31
0.0
100
AcDbText
 73
     2
  0
LINE
  5
BF2
330
B9E
100
AcDbEntity
  8
3
100
AcDbLine
 10
-90.0
 20
12.0
 30
0.0
 11
-90.0
 21
20.0
 31
0.0
  0
LINE
  5
BF3
330
B9E
100
AcDbEntity
  8
3
100
AcDbLine
 10
-110.546019464768
 20
12.0
 30
0.0
 11
-110.546019464768
 21
20.0
 31
0.0
  0
TEXT
  5
BF4
330
B9E
100
AcDbEntity
  8
1
100
AcDbText
 10
-109.6177520618648
 20
17.25
 30
0.0
 40
2.0
  1
Cor:
 41
0.8
  7
SANINDUSA
 11
-109.6177520618648
 21
18.25
 31
0.0
100
AcDbText
 73
     2
  0
LINE
  5
BF5
330
B9E
100
AcDbEntity
  8
leg fin
100
AcDbLine
 10
-91.42857142857156
 20
20.0
 30
0.0
 11
-91.42857142857156
 21
28.5
 31
0.0
  0
LINE
  5
BF6
330
B9E
100
AcDbEntity
  8
leg fin
100
AcDbLine
 10
-104.2857142857142
 20
20.0
 30
0.0
 11
-104.2857142857142
 21
28.5
 31
0.0
  0
LINE
  5
BF7
330
B9E
100
AcDbEntity
  8
leg fin
100
AcDbLine
 10
-117.1428571428573
 20
20.0
 30
0.0
 11
-117.1428571428573
 21
28.5
 31
0.0
  0
POINT
  5
BF8
330
B9E
100
AcDbEntity
  8
SANINDUSA
100
AcDbPoint
 10
-117.1428571428573
 20
28.5
 30
0.0
  0
POINT
  5
BF9
330
B9E
100
AcDbEntity
  8
SANINDUSA
100
AcDbPoint
 10
-104.2857142857142
 20
28.5
 30
0.0
  0
POINT
  5
BFA
330
B9E
100
AcDbEntity
  8
SANINDUSA
100
AcDbPoint
 10
-91.42857142857156
 20
28.5
 30
0.0
  0
TEXT
  5
BFB
330
B9E
100
AcDbEntity
  8
1
100
AcDbText
 10
-116.200160604496
 20
26.43288406845113
 30
0.0
 40
1.5
  1
Nº Seq.:
 41
0.8
  7
SANINDUSA
 11
-116.200160604496
 21
27.18288406845113
 31
0.0
100
AcDbText
 73
     2
  0
TEXT
  5
BFC
330
B9E
100
AcDbEntity
  8
1
100
AcDbText
 10
-103.2106584078738
 20
26.43288406845113
 30
0.0
 40
1.5
  1
Tipo:
 41
0.8
  7
SANINDUSA
 11
-103.2106584078738
 21
27.18288406845113
 31
0.0
100
AcDbText
 73
     2
  0
TEXT
  5
BFD
330
B9E
100
AcDbEntity
  8
1
100
AcDbText
 10
-90.22114672289353
 20
26.43288406845113
 30
0.0
 40
1.5
  1
Prod.:
 41
0.8
  7
SANINDUSA
 11
-90.22114672289353
 21
27.18288406845113
 31
0.0
100
AcDbText
 73
     2
  0
TEXT
  5
BFE
330
B9E
100
AcDbEntity
  8
1
100
AcDbText
 10
-64.77320576346574
 20
26.43288406845113
 30
0.0
 40
1.5
  1
Rev.:
 41
0.8
  7
SANINDUSA
 11
-64.77320576346574
 21
27.18288406845113
 31
0.0
100
AcDbText
 73
     2
  0
LINE
  5
BFF
330
B9E
100
AcDbEntity
  8
leg fin
100
AcDbLine
 10
-52.85714285714266
 20
20.0
 30
0.0
 11
-52.85714285714266
 21
28.5
 31
0.0
  0
LINE
  5
C00
330
B9E
100
AcDbEntity
  8
leg fin
100
AcDbLine
 10
-65.71428571428578
 20
20.0
 30
0.0
 11
-65.71428571428578
 21
28.5
 31
0.0
  0
LINE
  5
C01
330
B9E
100
AcDbEntity
  8
leg fin
100
AcDbLine
 10
-78.57142857142844
 20
20.0
 30
0.0
 11
-78.57142857142844
 21
28.5
 31
0.0
  0
POINT
  5
C02
330
B9E
100
AcDbEntity
  8
SANINDUSA
100
AcDbPoint
 10
-78.57142857142844
 20
28.5
 30
0.0
  0
POINT
  5
C03
330
B9E
100
AcDbEntity
  8
SANINDUSA
100
AcDbPoint
 10
-65.71428571428578
 20
28.5
 30
0.0
  0
POINT
  5
C04
330
B9E
100
AcDbEntity
  8
SANINDUSA
100
AcDbPoint
 10
-52.85714285714266
 20
28.5
 30
0.0
  0
TEXT
  5
C05
330
B9E
100
AcDbEntity
  8
1
100
AcDbText
 10
-77.61097961686573
 20
26.43288406845113
 30
0.0
 40
1.5
  1
Peça:
 41
0.8
  7
SANINDUSA
 11
-77.61097961686573
 21
27.18288406845113
 31
0.0
100
AcDbText
 73
     2
  0
TEXT
  5
C06
330
B9E
100
AcDbEntity
  8
1
100
AcDbText
 10
-52.06538060077036
 20
26.43288406845113
 30
0.0
 40
1.5
  1
Alt.:
 41
0.8
  7
SANINDUSA
 11
-52.06538060077036
 21
27.18288406845113
 31
0.0
100
AcDbText
 73
     2
  0
LINE
  5
C07
330
B9E
100
AcDbEntity
  8
3
100
AcDbLine
 10
0.0
 20
12.0
 30
0.0
 11
-40.0
 21
12.0
 31
0.0
  0
LINE
  5
C08
330
B9E
100
AcDbEntity
  8
3
100
AcDbLine
 10
-40.0
 20
32.5
 30
0.0
 11
0.0
 21
32.5
 31
0.0
  0
TEXT
  5
C09
330
B9E
100
AcDbEntity
  8
1
100
AcDbText
 10
-19.0
 20
29.75
 30
0.0
 40
2.0
  1
Folha:
 41
0.8
  7
SANINDUSA
 11
-19.0
 21
30.75
 31
0.0
100
AcDbText
 73
     2
  0
LINE
  5
C0A
330
B9E
100
AcDbEntity
  8
3
100
AcDbLine
 10
-20.0
 20
32.5
 30
0.0
 11
-20.0
 21
20.0
 31
0.0
  0
TEXT
  5
C0B
330
B9E
100
AcDbEntity
  8
1
100
AcDbText
 10
-39.0
 20
29.75
 30
0.0
 40
2.0
  1
Escala:
 41
0.8
  7
SANINDUSA
 11
-39.0
 21
30.75
 31
0.0
100
AcDbText
 73
     2
  0
TEXT
  5
C0C
330
B9E
100
AcDbEntity
  8
1
100
AcDbText
 10
-39.0
 20
17.25
 30
0.0
 40
2.0
  1
Substitui:
 41
0.8
  7
SANINDUSA
 11
-39.0
 21
18.25
 31
0.0
100
AcDbText
 73
     2
  0
LWPOLYLINE
  5
C0D
102
{ACAD_REACTORS
330
BEC
102
}
330
B9E
100
AcDbEntity
  8
9
100
AcDbPolyline
 90
        6
 70
     1
 43
0.0
 10
-2.638748516194482
 20
57.02796337120571
 10
-2.638748516194482
 20
55.50786840766477
 10
-5.21497371544865
 20
55.507868407665
 42
-0.4142135623730898
 10
-5.614973715448741
 20
55.90786840766487
 10
-5.614973715448741
 20
56.62796337120562
 42
-0.4142135623731576
 10
-5.21497371544865
 20
57.02796337120571
  0
LINE
  5
C0E
330
B9E
100
AcDbEntity
  8
3
100
AcDbLine
 10
-40.0
 20
50.0
 30
0.0
 11
0.0
 21
50.0
 31
0.0
  0
ATTDEF
  5
C0F
330
B9E
100
AcDbEntity
  8
1
100
AcDbText
 10
-31.30691739422431
 20
40.25
 30
0.0
 40
2.0
  1
XXXXXXXXXXXXXXX
 41
0.8
  7
SANINDUSA
 72
     4
 11
-20.0
 21
41.25
 31
0.0
100
AcDbAttributeDefinition
  3
Observações:
  2
OBS
 70
     0
  0
TEXT
  5
C10
330
B9E
100
AcDbEntity
  8
1
100
AcDbText
 10
-39.0
 20
47.25
 30
0.0
 40
2.0
  1
Observações:
 41
0.8
  7
SANINDUSA
 11
-39.0
 21
48.25
 31
0.0
100
AcDbText
 73
     2
  0
LWPOLYLINE
  5
C11
102
{ACAD_REACTORS
330
BEC
102
}
330
B9E
100
AcDbEntity
  8
9
100
AcDbPolyline
 90
        6
 70
     1
 43
0.0
 10
-29.98468712904878
 20
57.02796337120571
 10
-29.98468712904878
 20
55.507868407665
 10
-32.57692046803459
 20
55.507868407665
 42
-0.4142135623731731
 10
-32.97692046803468
 20
55.90786840766487
 10
-32.97692046803468
 20
56.62796337120562
 42
-0.4142135623731576
 10
-32.57692046803459
 20
57.02796337120571
  0
LWPOLYLINE
  5
C12
102
{ACAD_REACTORS
330
BEC
102
}
330
B9E
100
AcDbEntity
  8
9
100
AcDbPolyline
 90
        4
 70
     1
 43
0.0
 10
-24.19231812786165
 20
59.87619128370352
 10
-24.57637781922995
 20
59.87619128370352
 10
-24.57637781922995
 20
59.28412752246913
 10
-24.19231812786165
 20
59.28412752246913
  0
ENDBLK
  5
C14
330
B9E
100
AcDbEntity
  8
0
100
AcDbBlockEnd
  0
ENDSEC
  0
SECTION
  2
ENTITIES
  0
SPLINE
  5
1388
330
1F
100
AcDbEntity
  8
SANINDUSA
100
AcDbSpline
210
0.0
220
0.0
230
1.0
 70
     8
 71
     3
 72
    15
 73
    11
 74
     0
 42
0.0000000001
 43
0.0000000001
 40
0.0
 40
0.0
 40
0.0
 40
0.0
 40
0.0583668888410101
 40
0.2918344364030753
 40
0.6459064238180945
 40
0.7167269684110197
 40
0.7875526627301815
 40
0.8583749480334825
 40
0.929189117669042
 40
0.9999999999999998
 40
0.9999999999999998
 40
0.9999999999999998
 40
0.9999999999999998
 10
4730.471746445579
 20
2519.090594329577
 30
0.0
 10
4730.471741769923
 20
2519.077261047707
 30
0.0
 10
4730.471718391646
 20
2519.010594640136
 30
0.0
 10
4730.471600139718
 20
2518.863044496597
 30
0.0
 10
4730.471411998156
 20
2518.712648996446
 30
0.0
 10
4730.471324074687
 20
2518.599407969406
 30
0.0
 10
4730.471253375975
 20
2518.550872888754
 30
0.0
 10
4730.471237875566
 20
2518.50233846247
 30
0.0
 10
4730.471307979182
 20
2518.453805220526
 30
0.0
 10
4730.471500314744
 20
2518.421460159266
 30
0.0
 10
4730.471596480293
 20
2518.405288004022
 30
0.0
  0
SPLINE
  5
138A
330
1F
100
AcDbEntity
  8
SANINDUSA
100
AcDbSpline
210
0.0
220
0.0
230
1.0
 70
     8
 71
     3
 72
    72
 73
    68
 74
     0
 42
0.0000000001
 43
0.0000000001
 40
0.0
 40
0.0
 40
0.0
 40
0.0
 40
0.03125
 40
0.03125
 40
0.0468749999999999
 40
0.0468749999999999
 40
0.0624999999999999
 40
0.0624999999999999
 40
0.0781249999999999
 40
0.0781249999999999
 40
0.0937499999999999
 40
0.0937499999999999
 40
0.1093749999999998
 40
0.1093749999999998
 40
0.1171874999999998
 40
0.1171874999999998
 40
0.1249999999999998
 40
0.1249999999999998
 40
0.1328124999999998
 40
0.1328124999999998
 40
0.1406249999999998
 40
0.1406249999999998
 40
0.1484374999999998
 40
0.1484374999999998
 40
0.1562499999999997
 40
0.1562499999999997
 40
0.1718749999999996
 40
0.1718749999999996
 40
0.1796874999999995
 40
0.1796874999999995
 40
0.1874999999999994
 40
0.1874999999999994
 40
0.2187499999999994
 40
0.2187499999999994
 40
0.2499999999999993
 40
0.2499999999999993
 40
0.2812499999999992
 40
0.2812499999999992
 40
0.3124999999999992
 40
0.3124999999999992
 40
0.3437499999999991
 40
0.3437499999999991
 40
0.3749999999999991
 40
0.3749999999999991
 40
0.4062499999999991
 40
0.4062499999999991
 40
0.4374999999999991
 40
0.4374999999999991
 40
0.4999999999999991
 40
0.4999999999999991
 40
0.5624999999999992
 40
0.5624999999999992
 40
0.6249999999999992
 40
0.6249999999999992
 40
0.6874999999999993
 40
0.6874999999999993
 40
0.7499999999999995
 40
0.7499999999999995
 40
0.8124999999999996
 40
0.8124999999999996
 40
0.8437499999999996
 40
0.8437499999999996
 40
0.8749999999999998
 40
0.8749999999999998
 40
0.9374999999999998
 40
0.9374999999999998
 40
1.0
 40
1.0
 40
1.0
 40
1.0
 10
4730.439972334862
 20
2518.399769959668
 30
0.0
 10
4730.439274246315
 20
2518.406934285826
 30
0.0
 10
4730.438648017531
 20
2518.414103535966
 30
0.0
 10
4730.437793740536
 20
2518.424863410035
 30
0.0
 10
4730.437523537807
 20
2518.428451038162
 30
0.0
 10
4730.437015146793
 20
2518.435628209953
 30
0.0
 10
4730.436776767223
 20
2518.439217747706
 30
0.0
 10
4730.436343538221
 20
2518.446398884695
 30
0.0
 10
4730.436148431528
 20
2518.449990476141
 30
0.0
 10
4730.435829065259
 20
2518.457176321708
 30
0.0
 10
4730.43570480438
 20
2518.460770573425
 30
0.0
 10
4730.435575940665
 20
2518.467962990396
 30
0.0
 10
4730.435572606608
 20
2518.471561183311
 30
0.0
 10
4730.435699295423
 20
2518.476962635955
 30
0.0
 10
4730.435763400145
 20
2518.478763814369
 30
0.0
 10
4730.435937587778
 20
2518.482367674464
 30
0.0
 10
4730.43604446159
 20
2518.484170271291
 30
0.0
 10
4730.43623157957
 20
2518.487774907698
 30
0.0
 10
4730.436312686505
 20
2518.48957696878
 30
0.0
 10
4730.436427189076
 20
2518.493179892419
 30
0.0
 10
4730.43646111198
 20
2518.494980769051
 30
0.0
 10
4730.436481039554
 20
2518.498581315956
 30
0.0
 10
4730.436467198078
 20
2518.500380991549
 30
0.0
 10
4730.436402421791
 20
2518.503979478738
 30
0.0
 10
4730.436351530952
 20
2518.50577829319
 30
0.0
 10
4730.436173162612
 20
2518.511174334378
 30
0.0
 10
4730.436023231017
 20
2518.51477128499
 30
0.0
 10
4730.435893781486
 20
2518.52016980491
 30
0.0
 10
4730.435866198574
 20
2518.521969809477
 30
0.0
 10
4730.435839634931
 20
2518.525570624284
 30
0.0
 10
4730.43583886116
 20
2518.527371372892
 30
0.0
 10
4730.435842182845
 20
2518.536375110663
 30
0.0
 10
4730.435899172689
 20
2518.543579140008
 30
0.0
 10
4730.436049948724
 20
2518.557987508547
 30
0.0
 10
4730.436145114078
 20
2518.565191819398
 30
0.0
 10
4730.436353839563
 20
2518.579600431767
 30
0.0
 10
4730.436469194506
 20
2518.586804794697
 30
0.0
 10
4730.436708583482
 20
2518.601213625839
 30
0.0
 10
4730.436830221319
 20
2518.608418094967
 30
0.0
 10
4730.437055211465
 20
2518.622827305837
 30
0.0
 10
4730.437159032055
 20
2518.630032043084
 30
0.0
 10
4730.437349667516
 20
2518.644441698302
 30
0.0
 10
4730.437436969049
 20
2518.651646609832
 30
0.0
 10
4730.437604105294
 20
2518.66605644526
 30
0.0
 10
4730.437684459037
 20
2518.673261362131
 30
0.0
 10
4730.437840450613
 20
2518.687671168304
 30
0.0
 10
4730.437914784441
 20
2518.69487607661
 30
0.0
 10
4730.438114581944
 20
2518.71649101991
 30
0.0
 10
4730.438231381146
 20
2518.730901069977
 30
0.0
 10
4730.43847585763
 20
2518.759720876144
 30
0.0
 10
4730.438599682689
 20
2518.774130687409
 30
0.0
 10
4730.438834971784
 20
2518.802950446339
 30
0.0
 10
4730.438943013662
 20
2518.817360436836
 30
0.0
 10
4730.439180830236
 20
2518.84618013651
 30
0.0
 10
4730.439306960536
 20
2518.860589899409
 30
0.0
 10
4730.439549294103
 20
2518.889409566013
 30
0.0
 10
4730.439666885318
 20
2518.903819452189
 30
0.0
 10
4730.439905520805
 20
2518.932639200714
 30
0.0
 10
4730.440028050128
 20
2518.947049044621
 30
0.0
 10
4730.440218514191
 20
2518.968663739475
 30
0.0
 10
4730.440282912737
 20
2518.975868628384
 30
0.0
 10
4730.440409419307
 20
2518.990278437289
 30
0.0
 10
4730.440470645901
 20
2518.997483367908
 30
0.0
 10
4730.44065437327
 20
2519.019098165617
 30
0.0
 10
4730.440778813448
 20
2519.033508016449
 30
0.0
 10
4730.441034445678
 20
2519.062327648096
 30
0.0
 10
4730.441163915867
 20
2519.076737449241
 30
0.0
 10
4730.441290377085
 20
2519.09114728188
 30
0.0
  0
LWPOLYLINE
  5
138B
330
1F
100
AcDbEntity
  8
SANINDUSA
100
AcDbPolyline
 90
        9
 70
   128
 43
0.0
 10
4730.441290379447
 20
2519.091147281867
 10
4730.445286036414
 20
2519.091085769873
 10
4730.44926256029
 20
2519.091021516067
 10
4730.453202278298
 20
2519.090954699259
 10
4730.457087726278
 20
2519.090885736686
 10
4730.460901589078
 20
2519.090814926367
 10
4730.464626938981
 20
2519.090742566329
 10
4730.4682472655
 20
2519.090668894988
 10
4730.471746445579
 20
2519.090594329577
  0
ARC
  5
138C
330
1F
100
AcDbEntity
  8
SANINDUSA
100
AcDbCircle
 10
4730.379966982969
 20
2518.837041992111
 30
0.0
 40
0.4413699933280327
100
AcDbArc
 50
277.8137025992833
 51
281.9818872852012
  0
SPLINE
  5
138F
330
1F
100
AcDbEntity
  8
SANINDUSA
100
AcDbSpline
210
0.0
220
0.0
230
1.0
 70
     8
 71
     3
 72
    13
 73
     9
 74
     0
 42
0.0000000001
 43
0.0000000001
 40
0.0
 40
0.0
 40
0.0
 40
0.0
 40
0.0583687585440606
 40
0.13619866830684
 40
0.2140332571576366
 40
0.2918680746509648
 40
0.722177982192577
 40
1.0
 40
1.0
 40
1.0
 40
1.0
 10
4729.671475023908
 20
2518.405287445229
 30
0.0
 10
4729.671607031053
 20
2518.418617392031
 30
0.0
 10
4729.671915058806
 20
2518.449721719901
 30
0.0
 10
4729.672096105584
 20
2518.498618294228
 30
0.0
 10
4729.671923820908
 20
2518.551957747384
 30
0.0
 10
4729.671607176665
 20
2518.685817515412
 30
0.0
 10
4729.671474628212
 20
2518.86536384503
 30
0.0
 10
4729.671377414335
 20
2519.027128945707
 30
0.0
 10
4729.671339274329
 20
2519.090594389182
 30
0.0
  0
SPLINE
  5
139B
330
1F
100
AcDbEntity
  8
SANINDUSA
100
AcDbSpline
210
0.0
220
0.0
230
1.0
 70
     8
 71
     3
 72
    12
 73
     8
 74
     0
 42
0.0000000001
 43
0.0000000001
 40
0.0
 40
0.0
 40
0.0
 40
0.0
 40
0.170172370022262
 40
0.3403471619698488
 40
0.515423790779208
 40
0.690502975118914
 40
0.9999999999999998
 40
0.9999999999999998
 40
0.9999999999999998
 40
0.9999999999999998
 10
4729.678158045691
 20
2518.379780904096
 30
0.0
 10
4729.677467414645
 20
2518.38112419654
 30
0.0
 10
4729.676086142723
 20
2518.383810800545
 30
0.0
 10
4729.674428916799
 20
2518.38808147324
 30
0.0
 10
4729.673108645216
 20
2518.392507136358
 30
0.0
 10
4729.671876957298
 20
2518.398241317673
 30
0.0
 10
4729.671631680981
 20
2518.402541155061
 30
0.0
 10
4729.671475023908
 20
2518.405287445229
 30
0.0
  0
SPLINE
  5
139E
330
1F
100
AcDbEntity
  8
SANINDUSA
100
AcDbSpline
210
0.0
220
0.0
230
1.0
 70
     8
 71
     3
 72
    12
 73
     8
 74
     0
 42
0.0000000001
 43
0.0000000001
 40
0.0
 40
0.0
 40
0.0
 40
0.0
 40
0.1738908750721588
 40
0.3477799039925273
 40
0.526757635844744
 40
0.7057325334790289
 40
1.0
 40
1.0
 40
1.0
 40
1.0
 10
4730.471596480293
 20
2518.405288004022
 30
0.0
 10
4730.471533952352
 20
2518.403746010207
 30
0.0
 10
4730.471408897132
 20
2518.400662038948
 30
0.0
 10
4730.470732935012
 20
2518.396029772552
 30
0.0
 10
4730.469674713646
 20
2518.391429494792
 30
0.0
 10
4730.467927567548
 20
2518.385899780135
 30
0.0
 10
4730.466065648095
 20
2518.382128867078
 30
0.0
 10
4730.464907885474
 20
2518.379784070593
 30
0.0
  0
SPLINE
  5
13A6
330
1F
100
AcDbEntity
  8
SANINDUSA
100
AcDbSpline
210
0.0
220
0.0
230
1.0
 70
     8
 71
     3
 72
    16
 73
    12
 74
     0
 42
0.0000000001
 43
0.0000000001
 40
0.0
 40
0.0
 40
0.0
 40
0.0
 40
0.25
 40
0.25
 40
0.5
 40
0.5
 40
0.75
 40
0.75
 40
0.875
 40
0.875
 40
1.0
 40
1.0
 40
1.0
 40
1.0
 10
4729.72904420803
 20
2518.350672968374
 30
0.0
 10
4729.726891997925
 20
2518.350659609153
 30
0.0
 10
4729.724757999423
 20
2518.350757726382
 30
0.0
 10
4729.720525838409
 20
2518.35117336158
 30
0.0
 10
4729.718427678
 20
2518.351490892748
 30
0.0
 10
4729.714267983716
 20
2518.352350249669
 30
0.0
 10
4729.712206445213
 20
2518.352892047297
 30
0.0
 10
4729.70914324884
 20
2518.353883056359
 30
0.0
 10
4729.708126602292
 20
2518.354243513333
 30
0.0
 10
4729.706120022105
 20
2518.355019569467
 30
0.0
 10
4729.70512800645
 20
2518.355435787969
 30
0.0
 10
4729.704147419329
 20
2518.355880584896
 30
0.0
  0
SPLINE
  5
13A9
330
1F
100
AcDbEntity
  8
SANINDUSA
100
AcDbSpline
210
0.0
220
0.0
230
1.0
 70
     8
 71
     3
 72
    12
 73
     8
 74
     0
 42
0.0000000001
 43
0.0000000001
 40
0.0
 40
0.0
 40
0.0
 40
0.0
 40
0.1745347474946695
 40
0.3490689514324829
 40
0.5286801209447897
 40
0.7082902482993271
 40
1.0
 40
1.0
 40
1.0
 40
1.0
 10
4729.671339274329
 20
2519.090594389182
 30
0.0
 10
4729.671381264863
 20
2519.092189608221
 30
0.0
 10
4729.671465245799
 20
2519.09538004133
 30
0.0
 10
4729.672096543136
 20
2519.100178869344
 30
0.0
 10
4729.673121647958
 20
2519.10495025988
 30
0.0
 10
4729.674832204774
 20
2519.110661238607
 30
0.0
 10
4729.676669650967
 20
2519.114564378586
 30
0.0
 10
4729.677806884927
 20
2519.116980113726
 30
0.0
  0
SPLINE
  5
13AA
330
1F
100
AcDbEntity
  8
SANINDUSA
100
AcDbSpline
210
0.0
220
0.0
230
1.0
 70
     8
 71
     3
 72
    12
 73
     8
 74
     0
 42
0.0000000001
 43
0.0000000001
 40
0.0
 40
0.0
 40
0.0
 40
0.0
 40
0.1740361096343963
 40
0.3480707254242689
 40
0.5271562337229048
 40
0.7062418820051071
 40
1.0
 40
1.0
 40
1.0
 40
1.0
 10
4730.465279401225
 20
2519.116979815703
 30
0.0
 10
4730.465978279192
 20
2519.115550446644
 30
0.0
 10
4730.467376029127
 20
2519.112691720795
 30
0.0
 10
4730.469031764765
 20
2519.108158684173
 30
0.0
 10
4730.470327585035
 20
2519.103468444879
 30
0.0
 10
4730.471457313322
 20
2519.097605571393
 30
0.0
 10
4730.471635651503
 20
2519.093281003381
 30
0.0
 10
4730.471746445579
 20
2519.090594329577
 30
0.0
  0
SPLINE
  5
13B3
330
1F
100
AcDbEntity
  8
SANINDUSA
100
AcDbSpline
210
0.0
220
0.0
230
1.0
 70
     8
 71
     3
 72
    12
 73
     8
 74
     0
 42
0.0000000001
 43
0.0000000001
 40
0.0
 40
0.0
 40
0.0
 40
0.0
 40
0.1742785172099431
 40
0.3485582731272422
 40
0.5278967826346901
 40
0.7072364517785659
 40
1.0
 40
1.0
 40
1.0
 40
1.0
 10
4729.702658981961
 20
2519.141746201258
 30
0.0
 10
4729.704091370174
 20
2519.142441392675
 30
0.0
 10
4729.70695615678
 20
2519.14383178045
 30
0.0
 10
4729.71149714519
 20
2519.145475661425
 30
0.0
 10
4729.716194580845
 20
2519.146758559408
 30
0.0
 10
4729.722052373436
 20
2519.147869228489
 30
0.0
 10
4729.726367630126
 20
2519.148035580546
 30
0.0
 10
4729.729043633622
 20
2519.148138739806
 30
0.0
  0
SPLINE
  5
13B6
330
1F
100
AcDbEntity
  8
SANINDUSA
100
AcDbSpline
210
0.0
220
0.0
230
1.0
 70
     8
 71
     3
 72
    12
 73
     8
 74
     0
 42
0.0000000001
 43
0.0000000001
 40
0.0
 40
0.0
 40
0.0
 40
0.0
 40
0.1745426336565026
 40
0.3490848834304121
 40
0.5287012005536124
 40
0.7083162816986866
 40
1.0
 40
1.0
 40
1.0
 40
1.0
 10
4730.414043725414
 20
2519.148137011271
 30
0.0
 10
4730.415637977876
 20
2519.148099186746
 30
0.0
 10
4730.418826479293
 20
2519.14802353778
 30
0.0
 10
4730.42362367175
 20
2519.147405158028
 30
0.0
 10
4730.428394430613
 20
2519.146393195223
 30
0.0
 10
4730.434105658329
 20
2519.144699244868
 30
0.0
 10
4730.438010999656
 20
2519.142874432875
 30
0.0
 10
4730.440427989644
 20
2519.14174506877
 30
0.0
  0
SPLINE
  5
13B9
330
1F
100
AcDbEntity
  8
SANINDUSA
100
AcDbSpline
210
0.0
220
0.0
230
1.0
 70
     8
 71
     3
 72
    16
 73
    12
 74
     0
 42
0.0000000001
 43
0.0000000001
 40
0.0
 40
0.0
 40
0.0
 40
0.0
 40
0.2500000000000001
 40
0.2500000000000001
 40
0.5000000000000002
 40
0.5000000000000002
 40
0.6250000000000001
 40
0.6250000000000001
 40
0.7500000000000001
 40
0.7500000000000001
 40
1.0
 40
1.0
 40
1.0
 40
1.0
 10
4730.438941843316
 20
2518.355899770404
 30
0.0
 10
4730.43698562961
 20
2518.355011944262
 30
0.0
 10
4730.434995493897
 20
2518.354242544828
 30
0.0
 10
4730.430950767873
 20
2518.352928717461
 30
0.0
 10
4730.428896161675
 20
2518.352384345001
 30
0.0
 10
4730.425766723827
 20
2518.351733632275
 30
0.0
 10
4730.424715640213
 20
2518.351544425614
 30
0.0
 10
4730.422597556006
 20
2518.351221543855
 30
0.0
 10
4730.421530612674
 20
2518.35108802463
 30
0.0
 10
4730.418330526792
 20
2518.350773091926
 30
0.0
 10
4730.4161899849
 20
2518.350675437991
 30
0.0
 10
4730.414042408473
 20
2518.350688241157
 30
0.0
  0
SPLINE
  5
13BE
330
1F
100
AcDbEntity
  8
SANINDUSA
100
AcDbSpline
210
0.0
220
0.0
230
1.0
 70
     8
 71
     3
 72
    18
 73
    14
 74
     0
 42
0.0000000001
 43
0.0000000001
 40
0.0
 40
0.0
 40
0.0
 40
0.0
 40
0.2499999999999912
 40
0.2499999999999912
 40
0.4999999999999825
 40
0.4999999999999825
 40
0.5624999999999824
 40
0.5624999999999824
 40
0.6249999999999823
 40
0.6249999999999823
 40
0.7499999999999871
 40
0.7499999999999871
 40
1.0
 40
1.0
 40
1.0
 40
1.0
 10
4730.46490787566
 20
2518.379784070746
 30
0.0
 10
4730.463456391048
 20
2518.377137177314
 30
0.0
 10
4730.461806169945
 20
2518.374647725212
 30
0.0
 10
4730.458128022038
 20
2518.369968077701
 30
0.0
 10
4730.45610003744
 20
2518.367777928245
 30
0.0
 10
4730.453323306462
 20
2518.365231785827
 30
0.0
 10
4730.452756930781
 20
2518.364733313013
 30
0.0
 10
4730.451609559876
 20
2518.363763853749
 30
0.0
 10
4730.451027535107
 20
2518.363291912785
 30
0.0
 10
4730.449256870168
 20
2518.361913797225
 30
0.0
 10
4730.448043676279
 20
2518.361045273707
 30
0.0
 10
4730.444307846375
 20
2518.358587250485
 30
0.0
 10
4730.441689530386
 20
2518.357144431246
 30
0.0
 10
4730.438941843316
 20
2518.355899770404
 30
0.0
  0
SPLINE
  5
13C0
330
1F
100
AcDbEntity
  8
SANINDUSA
100
AcDbSpline
210
0.0
220
0.0
230
1.0
 70
     8
 71
     3
 72
    18
 73
    14
 74
     0
 42
0.0000000001
 43
0.0000000001
 40
0.0
 40
0.0
 40
0.0
 40
0.0
 40
0.2500000000000016
 40
0.2500000000000016
 40
0.3750000000000044
 40
0.3750000000000044
 40
0.4375000000000041
 40
0.4375000000000041
 40
0.5000000000000038
 40
0.5000000000000038
 40
0.7500000000000019
 40
0.7500000000000019
 40
1.0
 40
1.0
 40
1.0
 40
1.0
 10
4729.704147419329
 20
2518.355880584896
 30
0.0
 10
4729.701397127854
 20
2518.357125852621
 30
0.0
 10
4729.698775787137
 20
2518.358570489863
 30
0.0
 10
4729.695034777517
 20
2518.361033003147
 30
0.0
 10
4729.693819739388
 20
2518.36190330296
 30
0.0
 10
4729.692046093651
 20
2518.36328445872
 30
0.0
 10
4729.691463039613
 20
2518.363757475957
 30
0.0
 10
4729.690313535547
 20
2518.364729212679
 30
0.0
 10
4729.689745971551
 20
2518.365229002313
 30
0.0
 10
4729.686971565749
 20
2518.367773920051
 30
0.0
 10
4729.68494367534
 20
2518.369963167435
 30
0.0
 10
4729.681263635191
 20
2518.374642258345
 30
0.0
 10
4729.679611463319
 20
2518.377132084007
 30
0.0
 10
4729.67815805647
 20
2518.379780903766
 30
0.0
  0
SPLINE
  5
13C4
330
1F
100
AcDbEntity
  8
SANINDUSA
100
AcDbSpline
210
0.0
220
0.0
230
1.0
 70
     8
 71
     3
 72
    13
 73
     9
 74
     0
 42
0.0000000001
 43
0.0000000001
 40
0.0
 40
0.0
 40
0.0
 40
0.0
 40
0.134801618553398
 40
0.2696039744857597
 40
0.4083118363788638
 40
0.5470197566424888
 40
0.7713040755786184
 40
1.0
 40
1.0
 40
1.0
 40
1.0
 10
4729.677806884927
 20
2519.116980113726
 30
0.0
 10
4729.67857984348
 20
2519.11838288749
 30
0.0
 10
4729.680125764814
 20
2519.121188442691
 30
0.0
 10
4729.682903132339
 20
2519.125172776905
 30
0.0
 10
4729.686010820079
 20
2519.128962357033
 30
0.0
 10
4729.690182809264
 20
2519.133221134406
 30
0.0
 10
4729.695610515604
 20
2519.137739695474
 30
0.0
 10
4729.700294287983
 20
2519.140402056359
 30
0.0
 10
4729.702658981961
 20
2519.141746201258
 30
0.0
  0
SPLINE
  5
13CA
330
1F
100
AcDbEntity
  8
SANINDUSA
100
AcDbSpline
210
0.0
220
0.0
230
1.0
 70
     8
 71
     3
 72
    13
 73
     9
 74
     0
 42
0.0000000001
 43
0.0000000001
 40
0.0
 40
0.0
 40
0.0
 40
0.0
 40
0.1350801747346683
 40
0.270161101795165
 40
0.4091612972203228
 40
0.5481605801869034
 40
0.771885339402604
 40
1.0
 40
1.0
 40
1.0
 40
1.0
 10
4730.440427989644
 20
2519.14174506877
 30
0.0
 10
4730.441836064717
 20
2519.140975040331
 30
0.0
 10
4730.444652222705
 20
2519.139434979165
 30
0.0
 10
4730.448653636807
 20
2519.13666483142
 30
0.0
 10
4730.452460786114
 20
2519.133562690827
 30
0.0
 10
4730.456732314054
 20
2519.129403567924
 30
0.0
 10
4730.461260845682
 20
2519.123997705948
 30
0.0
 10
4730.463931234548
 20
2519.119334215357
 30
0.0
 10
4730.465279401225
 20
2519.116979815703
 30
0.0
  0
SPLINE
  5
13EC
330
1F
100
AcDbEntity
  8
SANINDUSA
100
AcDbSpline
210
0.0
220
0.0
230
1.0
 70
     8
 71
     3
 72
    10
 73
     6
 74
     0
 42
0.0000000001
 43
0.0000000001
 40
0.0
 40
0.0
 40
0.0
 40
0.0
 40
0.4011433319722577
 40
0.6957935915371502
 40
0.9999999999999998
 40
0.9999999999999998
 40
0.9999999999999998
 40
0.9999999999999998
 10
4729.714340896291
 20
2518.373417370659
 30
0.0
 10
4729.716030020891
 20
2518.372406539377
 30
0.0
 10
4729.718959851648
 20
2518.370653226108
 30
0.0
 10
4729.72368056132
 20
2518.369156125321
 30
0.0
 10
4729.726613282664
 20
2518.368893837791
 30
0.0
 10
4729.728103042526
 20
2518.368760601323
 30
0.0
  0
ARC
  5
13ED
330
1F
100
AcDbEntity
  8
SANINDUSA
100
AcDbCircle
 10
4731.707817796677
 20
2518.462703183902
 30
0.0
 40
1.981942410017736
100
AcDbArc
 50
182.7167948969569
 51
183.2403976979268
  0
SPLINE
  5
13EE
330
1F
100
AcDbEntity
  8
SANINDUSA
100
AcDbSpline
210
0.0
220
0.0
230
1.0
 70
     8
 71
     3
 72
    10
 73
     6
 74
     0
 42
0.0000000001
 43
0.0000000001
 40
0.0
 40
0.0
 40
0.0
 40
0.0
 40
0.2700167088942564
 40
0.6298359096522729
 40
0.9999999999999998
 40
0.9999999999999998
 40
0.9999999999999998
 40
0.9999999999999998
 10
4730.427420646829
 20
2519.115417756778
 30
0.0
 10
4730.426294696676
 20
2519.115925968906
 30
0.0
 10
4730.423668326471
 20
2519.117111414982
 30
0.0
 10
4730.419207955235
 20
2519.118287553029
 30
0.0
 10
4730.415868786042
 20
2519.11846508363
 30
0.0
 10
4730.414175541085
 20
2519.11855510686
 30
0.0
  0
LWPOLYLINE
  5
13EF
330
1F
100
AcDbEntity
  8
SANINDUSA
100
AcDbPolyline
 90
        9
 70
   128
 43
0.0
 10
4730.414175541085
 20
2519.11855510686
 10
4730.414160312099
 20
2519.122433581096
 10
4730.414144576473
 20
2519.126292266589
 10
4730.414128423613
 20
2519.130114891272
 10
4730.414111913127
 20
2519.133885540706
 10
4730.41409513442
 20
2519.137588419658
 10
4730.414078117294
 20
2519.141208030921
 10
4730.414060951156
 20
2519.144729115706
 10
4730.414043725414
 20
2519.148137011271
  0
SPLINE
  5
13F1
330
1F
100
AcDbEntity
  8
SANINDUSA
100
AcDbSpline
210
0.0
220
0.0
230
1.0
 70
     8
 71
     3
 72
    10
 73
     6
 74
     0
 42
0.0000000001
 43
0.0000000001
 40
0.0
 40
0.0
 40
0.0
 40
0.0
 40
0.2689426199919609
 40
0.6293004920594738
 40
1.0
 40
1.0
 40
1.0
 40
1.0
 10
4729.728916854543
 20
2519.118551292163
 30
0.0
 10
4729.727687348121
 20
2519.118501701824
 30
0.0
 10
4729.724810418477
 20
2519.118385665086
 30
0.0
 10
4729.720296653343
 20
2519.117433233552
 30
0.0
 10
4729.717227379595
 20
2519.11609391096
 30
0.0
 10
4729.715671033544
 20
2519.115414776545
 30
0.0
  0
LWPOLYLINE
  5
13F3
330
1F
100
AcDbEntity
  8
SANINDUSA
100
AcDbPolyline
 90
        9
 70
   128
 43
0.0
 10
4729.728916854543
 20
2519.118551292163
 10
4729.728931487483
 20
2519.122430362445
 10
4729.728946627063
 20
2519.126289703589
 10
4729.728962154073
 20
2519.130113043528
 10
4729.728978038711
 20
2519.133884408217
 10
4729.72899419157
 20
2519.137588002425
 10
4729.729010553045
 20
2519.141208269339
 10
4729.729027063531
 20
2519.144730128985
 10
4729.729043633622
 20
2519.148138739806
  0
SPLINE
  5
13F4
330
1F
100
AcDbEntity
  8
SANINDUSA
100
AcDbSpline
210
0.0
220
0.0
230
1.0
 70
     8
 71
     3
 72
    10
 73
     6
 74
     0
 42
0.0000000001
 43
0.0000000001
 40
0.0
 40
0.0
 40
0.0
 40
0.0
 40
0.2622990071246569
 40
0.6259200100731519
 40
0.9999999999999998
 40
0.9999999999999998
 40
0.9999999999999998
 40
0.9999999999999998
 10
4729.704735965413
 20
2519.104312457781
 30
0.0
 10
4729.704262247434
 20
2519.103221558071
 30
0.0
 10
4729.703131821646
 20
2519.10061836119
 30
0.0
 10
4729.702013385066
 20
2519.096185409008
 30
0.0
 10
4729.701872542045
 20
2519.092839015359
 30
0.0
 10
4729.701801122112
 20
2519.091142096263
 30
0.0
  0
LWPOLYLINE
  5
13F5
330
1F
100
AcDbEntity
  8
SANINDUSA
100
AcDbPolyline
 90
        9
 70
   128
 43
0.0
 10
4729.671339274329
 20
2519.090594389182
 10
4729.674839169663
 20
2519.090668239337
 10
4729.678460241241
 20
2519.090741195422
 10
4729.682186366004
 20
2519.09081289981
 10
4729.686000973862
 20
2519.090883054476
 10
4729.6898871669
 20
2519.090951361399
 10
4729.693827600164
 20
2519.091017522555
 10
4729.697804809493
 20
2519.091081180316
 10
4729.701801122112
 20
2519.091142096263
  0
SPLINE
  5
13F7
330
1F
100
AcDbEntity
  8
SANINDUSA
100
AcDbSpline
210
0.0
220
0.0
230
1.0
 70
     8
 71
     3
 72
    10
 73
     6
 74
     0
 42
0.0000000001
 43
0.0000000001
 40
0.0
 40
0.0
 40
0.0
 40
0.0
 40
0.2614283806710797
 40
0.6254922711201094
 40
0.9999999999999998
 40
0.9999999999999998
 40
0.9999999999999998
 40
0.9999999999999998
 10
4730.441290379447
 20
2519.091147281867
 30
0.0
 10
4730.441257032354
 20
2519.092332082706
 30
0.0
 10
4730.44117724626
 20
2519.095166831427
 30
0.0
 10
4730.440303667768
 20
2519.099654140183
 30
0.0
 10
4730.439010294452
 20
2519.102747528393
 30
0.0
 10
4730.438354463262
 20
2519.104316093665
 30
0.0
  0
SPLINE
  5
13F9
330
1F
100
AcDbEntity
  8
SANINDUSA
100
AcDbSpline
210
0.0
220
0.0
230
1.0
 70
     8
 71
     3
 72
    11
 73
     7
 74
     0
 42
0.0000000001
 43
0.0000000001
 40
0.0
 40
0.0
 40
0.0
 40
0.0
 40
0.2453616527918723
 40
0.4974463778007657
 40
0.745171019718149
 40
1.0
 40
1.0
 40
1.0
 40
1.0
 10
4730.438354463262
 20
2519.104316093665
 30
0.0
 10
4730.437741721473
 20
2519.105462800325
 30
0.0
 10
4730.436499448367
 20
2519.10778763417
 30
0.0
 10
4730.433943541311
 20
2519.110817103765
 30
0.0
 10
4730.430928290885
 20
2519.113465751166
 30
0.0
 10
4730.428600828886
 20
2519.114760984892
 30
0.0
 10
4730.427420646829
 20
2519.115417756778
 30
0.0
  0
SPLINE
  5
13FA
330
1F
100
AcDbEntity
  8
SANINDUSA
100
AcDbSpline
210
0.0
220
0.0
230
1.0
 70
     8
 71
     3
 72
    11
 73
     7
 74
     0
 42
0.0000000001
 43
0.0000000001
 40
0.0
 40
0.0
 40
0.0
 40
0.0
 40
0.2453261441981756
 40
0.4973504247949673
 40
0.7451070546825674
 40
1.0
 40
1.0
 40
1.0
 40
1.0
 10
4729.715671033544
 20
2519.115414776545
 30
0.0
 10
4729.71453392827
 20
2519.114784479106
 30
0.0
 10
4729.71222867135
 20
2519.113506675224
 30
0.0
 10
4729.709237612055
 20
2519.110905994077
 30
0.0
 10
4729.706633879987
 20
2519.107850984505
 30
0.0
 10
4729.705374563277
 20
2519.105503078075
 30
0.0
 10
4729.704735965413
 20
2519.104312457781
 30
0.0
  0
SPLINE
  5
13FC
330
1F
100
AcDbEntity
  8
SANINDUSA
100
AcDbSpline
210
0.0
220
0.0
230
1.0
 70
     8
 71
     3
 72
    12
 73
     8
 74
     0
 42
0.0000000001
 43
0.0000000001
 40
0.0
 40
0.0
 40
0.0
 40
0.0
 40
0.1164437386530124
 40
0.3366666364991124
 40
0.5619932301909873
 40
0.7785478456889034
 40
1.0
 40
1.0
 40
1.0
 40
1.0
 10
4729.704490751905
 20
2518.386885435026
 30
0.0
 10
4729.704695380489
 20
2518.386259040499
 30
0.0
 10
4729.705287010557
 20
2518.384447984439
 30
0.0
 10
4729.706670682775
 20
2518.381565971312
 30
0.0
 10
4729.70878363495
 20
2518.378455380882
 30
0.0
 10
4729.711335707007
 20
2518.375663721466
 30
0.0
 10
4729.713331727082
 20
2518.374171715178
 30
0.0
 10
4729.714340896291
 20
2518.373417370659
 30
0.0
  0
SPLINE
  5
13FE
330
1F
100
AcDbEntity
  8
SANINDUSA
100
AcDbSpline
210
0.0
220
0.0
230
1.0
 70
     8
 71
     3
 72
    18
 73
    14
 74
     0
 42
0.0000000001
 43
0.0000000001
 40
0.0
 40
0.0
 40
0.0
 40
0.0
 40
0.1249999999999992
 40
0.1249999999999992
 40
0.2499999999999983
 40
0.2499999999999983
 40
0.4999999999999967
 40
0.4999999999999967
 40
0.6249999999999958
 40
0.6249999999999958
 40
0.7499999999999951
 40
0.7499999999999951
 40
1.0
 40
1.0
 40
1.0
 40
1.0
 10
4730.428696777416
 20
2518.373322411977
 30
0.0
 10
4730.429292245212
 20
2518.373730709424
 30
0.0
 10
4730.429870350703
 20
2518.374164100114
 30
0.0
 10
4730.430985435645
 20
2518.375075942841
 30
0.0
 10
4730.431520296241
 20
2518.375552519902
 30
0.0
 10
4730.433058178632
 20
2518.377043066321
 30
0.0
 10
4730.433994878294
 20
2518.378117510474
 30
0.0
 10
4730.435264131246
 20
2518.379853202789
 30
0.0
 10
4730.435664933175
 20
2518.380453800578
 30
0.0
 10
4730.436407696509
 20
2518.381676509461
 30
0.0
 10
4730.436751493362
 20
2518.382300911953
 30
0.0
 10
4730.437702591777
 20
2518.384212120743
 30
0.0
 10
4730.438229890894
 20
2518.385536792886
 30
0.0
 10
4730.438653281167
 20
2518.386910679794
 30
0.0
  0
SPLINE
  5
1400
330
1F
100
AcDbEntity
  8
SANINDUSA
100
AcDbSpline
210
0.0
220
0.0
230
1.0
 70
     8
 71
     3
 72
    10
 73
     6
 74
     0
 42
0.0000000001
 43
0.0000000001
 40
0.0
 40
0.0
 40
0.0
 40
0.0
 40
0.0583941185877702
 40
0.2919706889337541
 40
1.0
 40
1.0
 40
1.0
 40
1.0
 10
4729.729043633622
 20
2519.148138739806
 30
0.0
 10
4729.742376954089
 20
2519.148126779189
 30
0.0
 10
4729.809043578341
 20
2519.148066976089
 30
0.0
 10
4730.03737689434
 20
2519.147862137767
 30
0.0
 10
4730.252376977442
 20
2519.148019034582
 30
0.0
 10
4730.414043725414
 20
2519.148137011271
 30
0.0
  0
SPLINE
  5
1401
330
1F
100
AcDbEntity
  8
SANINDUSA
100
AcDbSpline
210
0.0
220
0.0
230
1.0
 70
     8
 71
     3
 72
    64
 73
    60
 74
     0
 42
0.0000000001
 43
0.0000000001
 40
0.0
 40
0.0
 40
0.0
 40
0.0
 40
0.0625000000000001
 40
0.0625000000000001
 40
0.1250000000000002
 40
0.1250000000000002
 40
0.1875000000000003
 40
0.1875000000000003
 40
0.2187500000000003
 40
0.2187500000000003
 40
0.2500000000000003
 40
0.2500000000000003
 40
0.3125000000000003
 40
0.3125000000000003
 40
0.3281250000000003
 40
0.3281250000000003
 40
0.3437500000000003
 40
0.3437500000000003
 40
0.3750000000000003
 40
0.3750000000000003
 40
0.4062500000000004
 40
0.4062500000000004
 40
0.4375000000000005
 40
0.4375000000000005
 40
0.4687500000000006
 40
0.4687500000000006
 40
0.5000000000000006
 40
0.5000000000000006
 40
0.5312500000000006
 40
0.5312500000000006
 40
0.5468750000000007
 40
0.5468750000000007
 40
0.5625000000000007
 40
0.5625000000000007
 40
0.5937500000000007
 40
0.5937500000000007
 40
0.6250000000000008
 40
0.6250000000000008
 40
0.6562500000000008
 40
0.6562500000000008
 40
0.6718750000000009
 40
0.6718750000000009
 40
0.6875000000000009
 40
0.6875000000000009
 40
0.7187500000000008
 40
0.7187500000000008
 40
0.7500000000000008
 40
0.7500000000000008
 40
0.7812500000000007
 40
0.7812500000000007
 40
0.8125000000000007
 40
0.8125000000000007
 40
0.8750000000000005
 40
0.8750000000000005
 40
0.9375000000000003
 40
0.9375000000000003
 40
0.9687500000000001
 40
0.9687500000000001
 40
1.0
 40
1.0
 40
1.0
 40
1.0
 10
4730.414042408473
 20
2518.350688241157
 30
0.0
 10
4730.399772294769
 20
2518.350833818104
 30
0.0
 10
4730.385501823637
 20
2518.350947733691
 30
0.0
 10
4730.356960553719
 20
2518.351138183247
 30
0.0
 10
4730.342689755297
 20
2518.351213625239
 30
0.0
 10
4730.314148053578
 20
2518.351351231984
 30
0.0
 10
4730.299877146197
 20
2518.351412567334
 30
0.0
 10
4730.2784710454
 20
2518.351534705077
 30
0.0
 10
4730.27133572436
 20
2518.351580777622
 30
0.0
 10
4730.257065258247
 20
2518.351694484987
 30
0.0
 10
4730.249930137267
 20
2518.351764585947
 30
0.0
 10
4730.228525243342
 20
2518.35200096669
 30
0.0
 10
4730.214255839534
 20
2518.352190564965
 30
0.0
 10
4730.196418040458
 20
2518.35235698907
 30
0.0
 10
4730.192850421468
 20
2518.352386169488
 30
0.0
 10
4730.185715075768
 20
2518.352436630379
 30
0.0
 10
4730.182147365193
 20
2518.352459098475
 30
0.0
 10
4730.17144428972
 20
2518.352530164071
 30
0.0
 10
4730.164309000424
 20
2518.352583797178
 30
0.0
 10
4730.150038896907
 20
2518.35272319316
 30
0.0
 10
4730.142904073399
 20
2518.35280817951
 30
0.0
 10
4730.128634677879
 20
2518.352992001275
 30
0.0
 10
4730.121500089659
 20
2518.353090095099
 30
0.0
 10
4730.107230650978
 20
2518.353268476004
 30
0.0
 10
4730.100095792241
 20
2518.353348255911
 30
0.0
 10
4730.085825374245
 20
2518.353464471712
 30
0.0
 10
4730.078689808127
 20
2518.353500525553
 30
0.0
 10
4730.064417816403
 20
2518.353522215213
 30
0.0
 10
4730.057281896391
 20
2518.353512812291
 30
0.0
 10
4730.046578172914
 20
2518.353473390408
 30
0.0
 10
4730.043010291822
 20
2518.353455262939
 30
0.0
 10
4730.035874567056
 20
2518.353412305691
 30
0.0
 10
4730.03230672421
 20
2518.353387773076
 30
0.0
 10
4730.021603137271
 20
2518.353321359593
 30
0.0
 10
4730.014467317937
 20
2518.353286477307
 30
0.0
 10
4730.000195538425
 20
2518.353230287805
 30
0.0
 10
4729.993059594631
 20
2518.353207422083
 30
0.0
 10
4729.978787928335
 20
2518.353139399836
 30
0.0
 10
4729.971652224971
 20
2518.353092378061
 30
0.0
 10
4729.960948924005
 20
2518.352995435468
 30
0.0
 10
4729.957381195618
 20
2518.35295907349
 30
0.0
 10
4729.950245752836
 20
2518.35288433094
 30
0.0
 10
4729.946678026454
 20
2518.352846854324
 30
0.0
 10
4729.935974958973
 20
2518.352728423513
 30
0.0
 10
4729.92883976023
 20
2518.352640051443
 30
0.0
 10
4729.914569705281
 20
2518.352444761611
 30
0.0
 10
4729.907434823403
 20
2518.352338778478
 30
0.0
 10
4729.893164954813
 20
2518.352129915184
 30
0.0
 10
4729.886029973671
 20
2518.352026751326
 30
0.0
 10
4729.871759515662
 20
2518.351849875123
 30
0.0
 10
4729.864624026823
 20
2518.351777282086
 30
0.0
 10
4729.843217103979
 20
2518.351585784015
 30
0.0
 10
4729.828945260812
 20
2518.351490147154
 30
0.0
 10
4729.8004017406
 20
2518.351290669622
 30
0.0
 10
4729.786130005066
 20
2518.351188436028
 30
0.0
 10
4729.76472263184
 20
2518.351014934005
 30
0.0
 10
4729.757586875244
 20
2518.350954020301
 30
0.0
 10
4729.743315457406
 20
2518.350822269082
 30
0.0
 10
4729.736179806855
 20
2518.35074963746
 30
0.0
 10
4729.72904420803
 20
2518.350672968374
 30
0.0
  0
SPLINE
  5
1402
330
1F
100
AcDbEntity
  8
SANINDUSA
100
AcDbSpline
210
0.0
220
0.0
230
1.0
 70
     8
 71
     3
 72
    12
 73
     8
 74
     0
 42
0.0000000001
 43
0.0000000001
 40
0.0
 40
0.0
 40
0.0
 40
0.0
 40
0.2500000000000003
 40
0.2500000000000003
 40
0.5000000000000007
 40
0.5000000000000007
 40
1.0
 40
1.0
 40
1.0
 40
1.0
 10
4730.438653281167
 20
2518.386910679794
 30
0.0
 10
4730.438974428182
 20
2518.387952790841
 30
0.0
 10
4730.439244348842
 20
2518.389009793108
 30
0.0
 10
4730.439678968069
 20
2518.391144629075
 30
0.0
 10
4730.439842356596
 20
2518.392215290264
 30
0.0
 10
4730.440173552482
 20
2518.395436737657
 30
0.0
 10
4730.440184077084
 20
2518.397596896726
 30
0.0
 10
4730.439972334862
 20
2518.399769959668
 30
0.0
  0
ARC
  5
1403
330
1F
100
AcDbEntity
  8
SANINDUSA
100
AcDbCircle
 10
4729.763640852677
 20
2518.830640546054
 30
0.0
 40
0.4352238508793662
100
AcDbArc
 50
257.7741066048425
 51
262.0300844828942
  0
SPLINE
  5
1404
330
1F
100
AcDbEntity
  8
SANINDUSA
100
AcDbSpline
210
0.0
220
0.0
230
1.0
 70
     8
 71
     3
 72
    10
 73
     6
 74
     0
 42
0.0000000001
 43
0.0000000001
 40
0.0
 40
0.0
 40
0.0
 40
0.0
 40
0.2288108778926871
 40
0.6098693619511982
 40
1.0
 40
1.0
 40
1.0
 40
1.0
 10
4729.70329570858
 20
2518.399620518726
 30
0.0
 10
4729.703218755799
 20
2518.398641717166
 30
0.0
 10
4729.703013646918
 20
2518.396032832975
 30
0.0
 10
4729.703270049548
 20
2518.391720563747
 30
0.0
 10
4729.704080672437
 20
2518.388509735169
 30
0.0
 10
4729.704490751905
 20
2518.386885435026
 30
0.0
  0
ARC
  5
1405
330
1F
100
AcDbEntity
  8
SANINDUSA
100
AcDbCircle
 10
4728.298798150257
 20
2518.462810541945
 30
0.0
 40
2.118213800799645
100
AcDbArc
 50
356.9657745388261
 51
357.4518577904578
  0
SPLINE
  5
1406
330
1F
100
AcDbEntity
  8
SANINDUSA
100
AcDbSpline
210
0.0
220
0.0
230
1.0
 70
     8
 71
     3
 72
    14
 73
    10
 74
     0
 42
0.0000000001
 43
0.0000000001
 40
0.0
 40
0.0
 40
0.0
 40
0.0
 40
0.25
 40
0.25
 40
0.5
 40
0.5
 40
0.75
 40
0.75
 40
1.0
 40
1.0
 40
1.0
 40
1.0
 10
4730.414917499109
 20
2518.368637275848
 30
0.0
 10
4730.416158966354
 20
2518.368672752811
 30
0.0
 10
4730.417385200933
 20
2518.368808486784
 30
0.0
 10
4730.41980927916
 20
2518.369267102791
 30
0.0
 10
4730.421013282299
 20
2518.369593268325
 30
0.0
 10
4730.423331203932
 20
2518.370402196004
 30
0.0
 10
4730.424452429948
 20
2518.37088543399
 30
0.0
 10
4730.426625943258
 20
2518.371996292335
 30
0.0
 10
4730.427678191137
 20
2518.372623993135
 30
0.0
 10
4730.428696771538
 20
2518.373322407948
 30
0.0
  0
SPLINE
  5
1407
330
1F
100
AcDbEntity
  8
SANINDUSA
100
AcDbSpline
210
0.0
220
0.0
230
1.0
 70
     8
 71
     3
 72
    72
 73
    68
 74
     0
 42
0.0000000001
 43
0.0000000001
 40
0.0
 40
0.0
 40
0.0
 40
0.0
 40
0.0624999999999997
 40
0.0624999999999997
 40
0.1249999999999994
 40
0.1249999999999994
 40
0.1562499999999993
 40
0.1562499999999993
 40
0.1874999999999992
 40
0.1874999999999992
 40
0.2499999999999994
 40
0.2499999999999994
 40
0.3124999999999996
 40
0.3124999999999996
 40
0.3749999999999998
 40
0.3749999999999998
 40
0.4375000000000001
 40
0.4375000000000001
 40
0.5000000000000005
 40
0.5000000000000005
 40
0.5625000000000008
 40
0.5625000000000008
 40
0.5937500000000011
 40
0.5937500000000011
 40
0.6250000000000015
 40
0.6250000000000015
 40
0.6875000000000022
 40
0.6875000000000022
 40
0.7187500000000025
 40
0.7187500000000025
 40
0.7500000000000028
 40
0.7500000000000028
 40
0.7656250000000028
 40
0.7656250000000028
 40
0.7812500000000029
 40
0.7812500000000029
 40
0.7968750000000029
 40
0.7968750000000029
 40
0.8125000000000028
 40
0.8125000000000028
 40
0.8203125000000028
 40
0.8203125000000028
 40
0.8281250000000028
 40
0.8281250000000028
 40
0.8359375000000028
 40
0.8359375000000028
 40
0.8437500000000028
 40
0.8437500000000028
 40
0.8593750000000028
 40
0.8593750000000028
 40
0.8671875000000024
 40
0.8671875000000024
 40
0.8750000000000024
 40
0.8750000000000024
 40
0.8828125000000023
 40
0.8828125000000023
 40
0.8906250000000021
 40
0.8906250000000021
 40
0.9062500000000019
 40
0.9062500000000019
 40
0.9218750000000015
 40
0.9218750000000015
 40
0.9375000000000012
 40
0.9375000000000012
 40
0.9687500000000007
 40
0.9687500000000007
 40
1.0
 40
1.0
 40
1.0
 40
1.0
 10
4729.701801120639
 20
2519.09114209626
 30
0.0
 10
4729.701928873495
 20
2519.076729455408
 30
0.0
 10
4729.70205950445
 20
2519.062316844177
 30
0.0
 10
4729.702317592276
 20
2519.03349159311
 30
0.0
 10
4729.702443367881
 20
2519.019078933182
 30
0.0
 10
4729.702629316988
 20
2518.997459924154
 30
0.0
 10
4729.702691313243
 20
2518.990253590112
 30
0.0
 10
4729.702819312644
 20
2518.975840974473
 30
0.0
 10
4729.70288444165
 20
2518.968634682276
 30
0.0
 10
4729.703077107814
 20
2518.947015778531
 30
0.0
 10
4729.703201132351
 20
2518.93260313001
 30
0.0
 10
4729.703442810178
 20
2518.903777778394
 30
0.0
 10
4729.703561944873
 20
2518.889365093679
 30
0.0
 10
4729.703807047672
 20
2518.860539839867
 30
0.0
 10
4729.703934399051
 20
2518.846127288206
 30
0.0
 10
4729.704173742606
 20
2518.817302027362
 30
0.0
 10
4729.704282208161
 20
2518.802889272251
 30
0.0
 10
4729.704516191232
 20
2518.774063985303
 30
0.0
 10
4729.704638251586
 20
2518.759651412908
 30
0.0
 10
4729.704874704647
 20
2518.730826098788
 30
0.0
 10
4729.704985271097
 20
2518.716413306518
 30
0.0
 10
4729.705169996766
 20
2518.694794207354
 30
0.0
 10
4729.705238271031
 20
2518.687587901565
 30
0.0
 10
4729.705380136342
 20
2518.673175286155
 30
0.0
 10
4729.705452487702
 20
2518.665968959801
 30
0.0
 10
4729.705675367688
 20
2518.644349935618
 30
0.0
 10
4729.705836436742
 20
2518.629937231894
 30
0.0
 10
4729.706126735943
 20
2518.608318789279
 30
0.0
 10
4729.706231454428
 20
2518.601112745364
 30
0.0
 10
4729.706438140452
 20
2518.586700747913
 30
0.0
 10
4729.706530401607
 20
2518.579494695101
 30
0.0
 10
4729.706649441873
 20
2518.568685595517
 30
0.0
 10
4729.706686997618
 20
2518.565082570259
 30
0.0
 10
4729.706760254443
 20
2518.557876564759
 30
0.0
 10
4729.706796232955
 20
2518.554273587624
 30
0.0
 10
4729.706860771278
 20
2518.547067609588
 30
0.0
 10
4729.706889615626
 20
2518.543464544198
 30
0.0
 10
4729.706917346319
 20
2518.536259187118
 30
0.0
 10
4729.706916417686
 20
2518.532656856589
 30
0.0
 10
4729.706857164003
 20
2518.527254908075
 30
0.0
 10
4729.706823649805
 20
2518.525454611199
 30
0.0
 10
4729.706753350611
 20
2518.521854233962
 30
0.0
 10
4729.706720737359
 20
2518.520054059148
 30
0.0
 10
4729.706687157945
 20
2518.516453121473
 30
0.0
 10
4729.706685900139
 20
2518.514652363813
 30
0.0
 10
4729.706715997721
 20
2518.511050191295
 30
0.0
 10
4729.706746975418
 20
2518.509248784762
 30
0.0
 10
4729.706868121378
 20
2518.503843968537
 30
0.0
 10
4729.70698413469
 20
2518.500240004246
 30
0.0
 10
4729.707113863262
 20
2518.494834859848
 30
0.0
 10
4729.707149983265
 20
2518.493033274331
 30
0.0
 10
4729.707200031479
 20
2518.489430577484
 30
0.0
 10
4729.707213701519
 20
2518.487629470892
 30
0.0
 10
4729.707222273041
 20
2518.484027798488
 30
0.0
 10
4729.707216636025
 20
2518.482227245049
 30
0.0
 10
4729.707213335668
 20
2518.478626345466
 30
0.0
 10
4729.707216502077
 20
2518.476825980935
 30
0.0
 10
4729.707226665351
 20
2518.471425439575
 30
0.0
 10
4729.707233238289
 20
2518.467825839561
 30
0.0
 10
4729.707194074485
 20
2518.460629283284
 30
0.0
 10
4729.707148575232
 20
2518.457032320768
 30
0.0
 10
4729.706983932888
 20
2518.449841493527
 30
0.0
 10
4729.706865203216
 20
2518.446247618766
 30
0.0
 10
4729.706395835325
 20
2518.435470742632
 30
0.0
 10
4729.70593099077
 20
2518.428292502667
 30
0.0
 10
4729.704765449937
 20
2518.413947938358
 30
0.0
 10
4729.704068287594
 20
2518.406781566501
 30
0.0
 10
4729.70329570914
 20
2518.399620515415
 30
0.0
  0
SPLINE
  5
1408
330
1F
100
AcDbEntity
  8
SANINDUSA
100
AcDbSpline
210
0.0
220
0.0
230
1.0
 70
     8
 71
     3
 72
    26
 73
    22
 74
     0
 42
0.0000000001
 43
0.0000000001
 40
0.0
 40
0.0
 40
0.0
 40
0.0
 40
0.0584722353103587
 40
0.1169460720732555
 40
0.155525662494935
 40
0.1941046516423177
 40
0.2326755401098588
 40
0.2833758028234175
 40
0.3340772945129253
 40
0.3753313540240322
 40
0.4165894836538379
 40
0.4578466073895929
 40
0.5120545254736295
 40
0.5662695169152398
 40
0.6205007950917923
 40
0.6747379641571919
 40
0.7289644867982239
 40
0.7967221546634042
 40
0.864482972933483
 40
0.9322431915408049
 40
0.9999999999999998
 40
0.9999999999999998
 40
0.9999999999999998
 40
0.9999999999999998
 10
4729.728103042526
 20
2518.368760601323
 30
0.0
 10
4729.741488446943
 20
2518.368415927243
 30
0.0
 10
4729.76825962238
 20
2518.367726569643
 30
0.0
 10
4729.803871922249
 20
2518.367208253229
 30
0.0
 10
4729.834928923787
 20
2518.366866192476
 30
0.0
 10
4729.861430908578
 20
2518.366604027171
 30
0.0
 10
4729.890690140511
 20
2518.365492620138
 30
0.0
 10
4729.922711468062
 20
2518.364051921521
 30
0.0
 10
4729.955362595567
 20
2518.362962241514
 30
0.0
 10
4729.98586122227
 20
2518.362237412142
 30
0.0
 10
4730.014205332726
 20
2518.362082928849
 30
0.0
 10
4730.045510627912
 20
2518.361577912991
 30
0.0
 10
4730.079788798509
 20
2518.361248303155
 30
0.0
 10
4730.117034057402
 20
2518.36194047292
 30
0.0
 10
4730.154271139606
 20
2518.363076372232
 30
0.0
 10
4730.191504568398
 20
2518.364417009756
 30
0.0
 10
4730.231838701229
 20
2518.365737731866
 30
0.0
 10
4730.275283882402
 20
2518.3665496475
 30
0.0
 10
4730.32183192037
 20
2518.367060352448
 30
0.0
 10
4730.368381037241
 20
2518.367537722488
 30
0.0
 10
4730.399405605783
 20
2518.368270761553
 30
0.0
 10
4730.414917499703
 20
2518.368637271862
 30
0.0
  0
SPLINE
  5
1409
330
1F
100
AcDbEntity
  8
SANINDUSA
100
AcDbSpline
210
0.0
220
0.0
230
1.0
 70
     8
 71
     3
 72
    10
 73
     6
 74
     0
 42
0.0000000001
 43
0.0000000001
 40
0.0
 40
0.0
 40
0.0
 40
0.0
 40
0.3831947096862269
 40
0.7664677497970322
 40
1.0
 40
1.0
 40
1.0
 40
1.0
 10
4730.414175541085
 20
2519.11855510686
 30
0.0
 10
4730.326646519682
 20
2519.118743358149
 30
0.0
 10
4730.151570584705
 20
2519.119119899207
 30
0.0
 10
4729.923150127459
 20
2519.118953138447
 30
0.0
 10
4729.782260063712
 20
2519.118661653122
 30
0.0
 10
4729.728916854543
 20
2519.118551292163
 30
0.0
  0
ELLIPSE
  5
140A
330
1F
100
AcDbEntity
  8
SANINDUSA
100
AcDbEllipse
 10
4730.514669190746
 20
2518.304932780785
 30
0.0
 11
-0.0035398427229958
 21
0.0035398427229961
 31
0.0
210
0.0
220
0.0
230
1.0
 40
0.998782765958717
 41
2.356803477777969
 42
3.926381829401654
  0
ELLIPSE
  5
140D
330
1F
100
AcDbEntity
  8
SANINDUSA
100
AcDbEllipse
 10
4730.514669190746
 20
2519.191183833043
 30
0.0
 11
-0.0035398427229961
 21
-0.0035398427229959
 31
0.0
210
0.0
220
0.0
230
1.0
 40
0.9987827659586764
 41
2.356803477777924
 42
3.926381829401721
  0
ELLIPSE
  5
1410
330
1F
100
AcDbEntity
  8
SANINDUSA
100
AcDbEllipse
 10
4729.628418138488
 20
2518.304932780785
 30
0.0
 11
0.0035398427229959
 21
0.0035398427229961
 31
0.0
210
0.0
220
0.0
230
1.0
 40
0.9987827659586965
 41
2.356803477777945
 42
3.92638182940165
  0
ELLIPSE
  5
1413
330
1F
100
AcDbEntity
  8
SANINDUSA
100
AcDbEllipse
 10
4729.628418138488
 20
2519.191183833043
 30
0.0
 11
0.003539842722996
 21
-0.0035398427229959
 31
0.0
210
0.0
220
0.0
230
0.9999999999999998
 40
0.9987827659587066
 41
2.356803477777914
 42
3.926381829401652
  0
LINE
  5
1416
330
1F
100
AcDbEntity
  8
SANINDUSA
100
AcDbLine
 10
4730.519672245664
 20
2518.304926687092
 30
0.0
 11
4730.519672245664
 21
2519.191189923029
 31
0.0
  0
LINE
  5
1417
330
1F
100
AcDbEntity
  8
SANINDUSA
100
AcDbLine
 10
4729.628412038965
 20
2518.299929733036
 30
0.0
 11
4730.514675290269
 21
2518.299929733036
 31
0.0
  0
LINE
  5
1418
330
1F
100
AcDbEntity
  8
SANINDUSA
100
AcDbLine
 10
4730.514675290269
 20
2519.196186878425
 30
0.0
 11
4729.628412038965
 21
2519.196186878425
 31
0.0
  0
LINE
  5
1419
330
1F
100
AcDbEntity
  8
SANINDUSA
100
AcDbLine
 10
4729.62341508357
 20
2519.191189923029
 30
0.0
 11
4729.62341508357
 21
2518.304926687092
 31
0.0
  0
SPLINE
  5
141A
330
1F
100
AcDbEntity
  8
SANINDUSA
100
AcDbSpline
210
0.0
220
0.0
230
1.0
 70
    11
 71
     3
 72
   148
 73
   144
 74
     0
 42
0.0000000001
 43
0.0000000001
 40
0.0
 40
0.0
 40
0.0
 40
0.0
 40
0.015625
 40
0.015625
 40
0.0312500000000001
 40
0.0312500000000001
 40
0.0390625000000001
 40
0.0390625000000001
 40
0.0468750000000001
 40
0.0468750000000001
 40
0.0625000000000001
 40
0.0625000000000001
 40
0.09375
 40
0.09375
 40
0.1015625
 40
0.1015625
 40
0.1093749999999999
 40
0.1093749999999999
 40
0.1249999999999999
 40
0.1249999999999999
 40
0.1406249999999999
 40
0.1406249999999999
 40
0.1484374999999998
 40
0.1484374999999998
 40
0.1562499999999997
 40
0.1562499999999997
 40
0.1874999999999993
 40
0.1874999999999993
 40
0.1953124999999993
 40
0.1953124999999993
 40
0.2031249999999993
 40
0.2031249999999993
 40
0.2187499999999996
 40
0.2187499999999996
 40
0.2343749999999998
 40
0.2343749999999998
 40
0.25
 40
0.25
 40
0.2578125000000001
 40
0.2578125000000001
 40
0.2656250000000001
 40
0.2656250000000001
 40
0.2812500000000002
 40
0.2812500000000002
 40
0.2968750000000002
 40
0.2968750000000002
 40
0.3046875000000002
 40
0.3046875000000002
 40
0.3125000000000002
 40
0.3125000000000002
 40
0.3437500000000007
 40
0.3437500000000007
 40
0.3593750000000008
 40
0.3593750000000008
 40
0.3671875000000008
 40
0.3671875000000008
 40
0.3750000000000009
 40
0.3750000000000009
 40
0.4062500000000012
 40
0.4062500000000012
 40
0.4140625000000013
 40
0.4140625000000013
 40
0.4218750000000014
 40
0.4218750000000014
 40
0.4375000000000015
 40
0.4375000000000015
 40
0.4687500000000017
 40
0.4687500000000017
 40
0.4765625000000018
 40
0.4765625000000018
 40
0.4843750000000019
 40
0.4843750000000019
 40
0.500000000000002
 40
0.500000000000002
 40
0.5156250000000022
 40
0.5156250000000022
 40
0.5234375000000022
 40
0.5234375000000022
 40
0.5312500000000022
 40
0.5312500000000022
 40
0.5625000000000025
 40
0.5625000000000025
 40
0.5781250000000026
 40
0.5781250000000026
 40
0.5937500000000027
 40
0.5937500000000027
 40
0.6250000000000031
 40
0.6250000000000031
 40
0.6328125000000031
 40
0.6328125000000031
 40
0.6406250000000032
 40
0.6406250000000032
 40
0.6562500000000037
 40
0.6562500000000037
 40
0.6718750000000041
 40
0.6718750000000041
 40
0.6796875000000044
 40
0.6796875000000044
 40
0.6875000000000045
 40
0.6875000000000045
 40
0.7187500000000048
 40
0.7187500000000048
 40
0.734375000000005
 40
0.734375000000005
 40
0.742187500000005
 40
0.742187500000005
 40
0.7500000000000052
 40
0.7500000000000052
 40
0.765625000000005
 40
0.765625000000005
 40
0.7812500000000049
 40
0.7812500000000049
 40
0.7890625000000049
 40
0.7890625000000049
 40
0.7968750000000049
 40
0.7968750000000049
 40
0.8125000000000047
 40
0.8125000000000047
 40
0.8437500000000049
 40
0.8437500000000049
 40
0.8515625000000047
 40
0.8515625000000047
 40
0.8593750000000046
 40
0.8593750000000046
 40
0.8750000000000042
 40
0.8750000000000042
 40
0.8906250000000037
 40
0.8906250000000037
 40
0.8984375000000037
 40
0.8984375000000037
 40
0.9062500000000033
 40
0.9062500000000033
 40
0.9375000000000021
 40
0.9375000000000021
 40
0.9531250000000015
 40
0.9531250000000015
 40
0.9609375000000014
 40
0.9609375000000014
 40
0.968750000000001
 40
0.968750000000001
 40
0.9843750000000005
 40
0.9843750000000005
 40
1.0
 40
1.0
 40
1.0
 40
1.0
 10
4730.071543664617
 20
2518.546553220871
 30
0.0
 10
4730.069350405235
 20
2518.546565726682
 30
0.0
 10
4730.067171536224
 20
2518.546471471625
 30
0.0
 10
4730.062842476277
 20
2518.546070102866
 30
0.0
 10
4730.060692328573
 20
2518.545762661799
 30
0.0
 10
4730.057489401481
 20
2518.54513591606
 30
0.0
 10
4730.056425479026
 20
2518.544899372922
 30
0.0
 10
4730.05430523175
 20
2518.544369850443
 30
0.0
 10
4730.053246084634
 20
2518.544075938603
 30
0.0
 10
4730.050108384376
 20
2518.543116555801
 30
0.0
 10
4730.048066375355
 20
2518.542373524068
 30
0.0
 10
4730.042083483254
 20
2518.539847042594
 30
0.0
 10
4730.038284261283
 20
2518.537769267792
 30
0.0
 10
4730.033768241947
 20
2518.534687817801
 30
0.0
 10
4730.032876611587
 20
2518.534046700978
 30
0.0
 10
4730.031136085883
 20
2518.532729654373
 30
0.0
 10
4730.030284662246
 20
2518.532052096878
 30
0.0
 10
4730.027786700274
 20
2518.529962535909
 30
0.0
 10
4730.02619643142
 20
2518.52849368426
 30
0.0
 10
4730.023166737005
 20
2518.525403596767
 30
0.0
 10
4730.021727162912
 20
2518.523782510287
 30
0.0
 10
4730.019680215575
 20
2518.521237305133
 30
0.0
 10
4730.019016719825
 20
2518.520369889151
 30
0.0
 10
4730.017728082315
 20
2518.518596307078
 30
0.0
 10
4730.017107411707
 20
2518.517696222714
 30
0.0
 10
4730.014125654015
 20
2518.513139202306
 30
0.0
 10
4730.012119562044
 20
2518.509305289196
 30
0.0
 10
4730.010068426371
 20
2518.5042863007
 30
0.0
 10
4730.009681293771
 20
2518.503271038797
 30
0.0
 10
4730.008954168414
 20
2518.501217114468
 30
0.0
 10
4730.008613760809
 20
2518.500177058809
 30
0.0
 10
4730.007668483255
 20
2518.497029550168
 30
0.0
 10
4730.007146129228
 20
2518.494918078478
 30
0.0
 10
4730.006317084849
 20
2518.490668851449
 30
0.0
 10
4730.006010728367
 20
2518.488531054649
 30
0.0
 10
4730.0056142447
 20
2518.48422910402
 30
0.0
 10
4730.005524141428
 20
2518.482064947258
 30
0.0
 10
4730.005545855001
 20
2518.47879961171
 30
0.0
 10
4730.005579450393
 20
2518.477707024366
 30
0.0
 10
4730.005700655611
 20
2518.475519171828
 30
0.0
 10
4730.005787818918
 20
2518.474431126509
 30
0.0
 10
4730.006127692172
 20
2518.471184344761
 30
0.0
 10
4730.006458664007
 20
2518.469042935428
 30
0.0
 10
4730.007325123546
 20
2518.464805397645
 30
0.0
 10
4730.00786058434
 20
2518.462709263359
 30
0.0
 10
4730.008817078499
 20
2518.459599009319
 30
0.0
 10
4730.00916149558
 20
2518.458567923695
 30
0.0
 10
4730.009901959663
 20
2518.456517186555
 30
0.0
 10
4730.010299102234
 20
2518.455494976679
 30
0.0
 10
4730.012401449831
 20
2518.450446964985
 30
0.0
 10
4730.014442404558
 20
2518.446626760793
 30
0.0
 10
4730.018015164932
 20
2518.441207296398
 30
0.0
 10
4730.019291983633
 20
2518.439453025717
 30
0.0
 10
4730.02133920439
 20
2518.436901856075
 30
0.0
 10
4730.022045616197
 20
2518.436062713528
 30
0.0
 10
4730.023492431143
 20
2518.434424458744
 30
0.0
 10
4730.024232477918
 20
2518.433625482764
 30
0.0
 10
4730.028014917623
 20
2518.429730139626
 30
0.0
 10
4730.031302285156
 20
2518.42693037246
 30
0.0
 10
4730.035746746696
 20
2518.423836182999
 30
0.0
 10
4730.03665241923
 20
2518.423237646703
 30
0.0
 10
4730.038498026178
 20
2518.422082020275
 30
0.0
 10
4730.039439723037
 20
2518.421523952676
 30
0.0
 10
4730.042306193535
 20
2518.419920663436
 30
0.0
 10
4730.044253847199
 20
2518.418956020188
 30
0.0
 10
4730.0502061487
 20
2518.41637253565
 30
0.0
 10
4730.054320014343
 20
2518.415063707593
 30
0.0
 10
4730.059649918369
 20
2518.413959988663
 30
0.0
 10
4730.060726955978
 20
2518.413765698845
 30
0.0
 10
4730.062893030072
 20
2518.413432601955
 30
0.0
 10
4730.063975746013
 20
2518.413294666949
 30
0.0
 10
4730.067222955404
 20
2518.412964506476
 30
0.0
 10
4730.069386515164
 20
2518.412855515041
 30
0.0
 10
4730.073711167707
 20
2518.41285734159
 30
0.0
 10
4730.075872255553
 20
2518.412968575342
 30
0.0
 10
4730.079111993336
 20
2518.413304080177
 30
0.0
 10
4730.080191590041
 20
2518.413444046129
 30
0.0
 10
4730.082350141986
 20
2518.413781112031
 30
0.0
 10
4730.083431449341
 20
2518.413978828927
 30
0.0
 10
4730.088777723277
 20
2518.415099649875
 30
0.0
 10
4730.092901657896
 20
2518.416419450442
 30
0.0
 10
4730.09887142964
 20
2518.418997167251
 30
0.0
 10
4730.100825051986
 20
2518.419956849735
 30
0.0
 10
4730.104658341644
 20
2518.422080925352
 30
0.0
 10
4730.106510977478
 20
2518.423230571423
 30
0.0
 10
4730.11186767149
 20
2518.426921885115
 30
0.0
 10
4730.115180130725
 20
2518.429707847709
 30
0.0
 10
4730.118993463088
 20
2518.433601604192
 30
0.0
 10
4730.119741255848
 20
2518.434402987091
 30
0.0
 10
4730.121195097626
 20
2518.436039077061
 30
0.0
 10
4730.121899373462
 20
2518.436871581239
 30
0.0
 10
4730.123945588643
 20
2518.439411626827
 30
0.0
 10
4730.125221066475
 20
2518.441161604977
 30
0.0
 10
4730.127597893852
 20
2518.444772746011
 30
0.0
 10
4730.128699243482
 20
2518.446633908887
 30
0.0
 10
4730.130219421019
 20
2518.449509841047
 30
0.0
 10
4730.130704134545
 20
2518.450482540561
 30
0.0
 10
4730.131628848985
 20
2518.452456489759
 30
0.0
 10
4730.132069832953
 20
2518.453460182947
 30
0.0
 10
4730.134148192116
 20
2518.458521487665
 30
0.0
 10
4730.135396336474
 20
2518.462668063062
 30
0.0
 10
4730.136666325453
 20
2518.469029600473
 30
0.0
 10
4730.136988559155
 20
2518.471173895717
 30
0.0
 10
4730.13731611906
 20
2518.474426985427
 30
0.0
 10
4730.137399409155
 20
2518.475520050673
 30
0.0
 10
4730.13751207811
 20
2518.477706158757
 30
0.0
 10
4730.137541452055
 20
2518.478796292506
 30
0.0
 10
4730.137550059885
 20
2518.48205808041
 30
0.0
 10
4730.137449825984
 20
2518.484221125851
 30
0.0
 10
4730.137043567038
 20
2518.488524930022
 30
0.0
 10
4730.136737558579
 20
2518.490665690617
 30
0.0
 10
4730.136122693553
 20
2518.493859953173
 30
0.0
 10
4730.135891699118
 20
2518.494921887314
 30
0.0
 10
4730.13537664731
 20
2518.497040008474
 30
0.0
 10
4730.135091808909
 20
2518.498098762716
 30
0.0
 10
4730.134161310824
 20
2518.501247088198
 30
0.0
 10
4730.133443302343
 20
2518.503299144298
 30
0.0
 10
4730.131003986011
 20
2518.50931854025
 30
0.0
 10
4730.129000036638
 20
2518.513150377905
 30
0.0
 10
4730.126011152996
 20
2518.517708164651
 30
0.0
 10
4730.125387248352
 20
2518.518610328439
 30
0.0
 10
4730.124098269191
 20
2518.52037878389
 30
0.0
 10
4730.123434449692
 20
2518.521243635567
 30
0.0
 10
4730.121386259877
 20
2518.523781323448
 30
0.0
 10
4730.11994518166
 20
2518.525397316354
 30
0.0
 10
4730.11691714124
 20
2518.528483060087
 30
0.0
 10
4730.11532995441
 20
2518.529952586532
 30
0.0
 10
4730.112834096341
 20
2518.532041531442
 30
0.0
 10
4730.111982949257
 20
2518.532718607427
 30
0.0
 10
4730.110241175043
 20
2518.534033189077
 30
0.0
 10
4730.109347816057
 20
2518.534672474303
 30
0.0
 10
4730.104821091688
 20
2518.53773916329
 30
0.0
 10
4730.101007774459
 20
2518.539784657396
 30
0.0
 10
4730.095014112022
 20
2518.542271347337
 30
0.0
 10
4730.092970420628
 20
2518.543002916793
 30
0.0
 10
4730.089835771188
 20
2518.543953422386
 30
0.0
 10
4730.088777257257
 20
2518.544246171058
 30
0.0
 10
4730.086656620152
 20
2518.54477739465
 30
0.0
 10
4730.085592643928
 20
2518.545016542222
 30
0.0
 10
4730.082389977918
 20
2518.545656293839
 30
0.0
 10
4730.080240592919
 20
2518.545979510872
 30
0.0
 10
4730.075913590517
 20
2518.546421657254
 30
0.0
 10
4730.073736923999
 20
2518.546540715062
 30
0.0
 10
4730.071543664617
 20
2518.546553220871
 30
0.0
  0
SPLINE
  5
142B
330
1F
100
AcDbEntity
  8
SANINDUSA
100
AcDbSpline
210
0.0
220
0.0
230
1.0
 70
     8
 71
     3
 72
    17
 73
    13
 74
     0
 42
0.0000000001
 43
0.0000000001
 40
0.0
 40
0.0
 40
0.0
 40
0.0
 40
0.1049837718096682
 40
0.2122597331972007
 40
0.3195878503416533
 40
0.4269417739491891
 40
0.5342466867654162
 40
0.5702661867970863
 40
0.677752899036134
 40
0.7852025467761904
 40
0.8925738274828425
 40
1.0
 40
1.0
 40
1.0
 40
1.0
 10
4729.856350467485
 20
2518.88058505271
 30
0.0
 10
4729.856405187079
 20
2518.881153623819
 30
0.0
 10
4729.856515821
 20
2518.882303180078
 30
0.0
 10
4729.857388452574
 20
2518.883846130176
 30
0.0
 10
4729.858692653189
 20
2518.885032795291
 30
0.0
 10
4729.860325636923
 20
2518.885718415327
 30
0.0
 10
4729.861703645592
 20
2518.885800438481
 30
0.0
 10
4729.863038548692
 20
2518.885578448191
 30
0.0
 10
4729.864319570753
 20
2518.885054354038
 30
0.0
 10
4729.865631704277
 20
2518.883876913805
 30
0.0
 10
4729.866523783572
 20
2518.882328564671
 30
0.0
 10
4729.866638138399
 20
2518.881165130376
 30
0.0
 10
4729.866695330423
 20
2518.880583264571
 30
0.0
  0
SPLINE
  5
1432
330
1F
100
AcDbEntity
  8
SANINDUSA
100
AcDbSpline
210
0.0
220
0.0
230
1.0
 70
     8
 71
     3
 72
    40
 73
    36
 74
     0
 42
0.0000000001
 43
0.0000000001
 40
0.0
 40
0.0
 40
0.0
 40
0.0
 40
0.0625000000000024
 40
0.0625000000000024
 40
0.1250000000000049
 40
0.1250000000000049
 40
0.1875000000000073
 40
0.1875000000000073
 40
0.2500000000000097
 40
0.2500000000000097
 40
0.3125000000000122
 40
0.3125000000000122
 40
0.3750000000000146
 40
0.3750000000000146
 40
0.437500000000017
 40
0.437500000000017
 40
0.5000000000000195
 40
0.5000000000000195
 40
0.5625000000000219
 40
0.5625000000000219
 40
0.6250000000000244
 40
0.6250000000000244
 40
0.6875000000000268
 40
0.6875000000000268
 40
0.7500000000000292
 40
0.7500000000000292
 40
0.8125000000000316
 40
0.8125000000000316
 40
0.8437500000000255
 40
0.8437500000000255
 40
0.8750000000000197
 40
0.8750000000000197
 40
0.9375000000000099
 40
0.9375000000000099
 40
1.0
 40
1.0
 40
1.0
 40
1.0
 10
4730.276392101639
 20
2518.880583921759
 30
0.0
 10
4730.276392090036
 20
2518.880925478944
 30
0.0
 10
4730.276425579092
 20
2518.88126205929
 30
0.0
 10
4730.276557627559
 20
2518.881925553709
 30
0.0
 10
4730.276657908324
 20
2518.88225565918
 30
0.0
 10
4730.276917835335
 20
2518.882881407969
 30
0.0
 10
4730.277076811229
 20
2518.883178199453
 30
0.0
 10
4730.277452286411
 20
2518.883739894681
 30
0.0
 10
4730.277670747994
 20
2518.884005797863
 30
0.0
 10
4730.278147875666
 20
2518.88448242058
 30
0.0
 10
4730.278408191286
 20
2518.884696311165
 30
0.0
 10
4730.278973381443
 20
2518.885074065304
 30
0.0
 10
4730.279274293152
 20
2518.885234590265
 30
0.0
 10
4730.279896388589
 20
2518.885492330105
 30
0.0
 10
4730.28022213528
 20
2518.885591533795
 30
0.0
 10
4730.280889509315
 20
2518.885724325926
 30
0.0
 10
4730.281224875542
 20
2518.88575716191
 30
0.0
 10
4730.281898871397
 20
2518.885757603245
 30
0.0
 10
4730.282241234466
 20
2518.885724170245
 30
0.0
 10
4730.282904895079
 20
2518.885592330202
 30
0.0
 10
4730.283227270102
 20
2518.885494768267
 30
0.0
 10
4730.283853068694
 20
2518.885236224312
 30
0.0
 10
4730.284156306716
 20
2518.885074246876
 30
0.0
 10
4730.284717046642
 20
2518.884699947316
 30
0.0
 10
4730.284978226371
 20
2518.88448636696
 30
0.0
 10
4730.285460852739
 20
2518.884004482128
 30
0.0
 10
4730.28567593348
 20
2518.883742175511
 30
0.0
 10
4730.285956980491
 20
2518.883322256913
 30
0.0
 10
4730.286043911475
 20
2518.883177614131
 30
0.0
 10
4730.286204012865
 20
2518.882878810386
 30
0.0
 10
4730.286277464847
 20
2518.882723831445
 30
0.0
 10
4730.286472535572
 20
2518.882253513597
 30
0.0
 10
4730.286570410681
 20
2518.881931142523
 30
0.0
 10
4730.286702856287
 20
2518.881269034306
 30
0.0
 10
4730.286737094557
 20
2518.8809273356
 30
0.0
 10
4730.286737108112
 20
2518.880585766757
 30
0.0
  0
SPLINE
  5
1439
330
1F
100
AcDbEntity
  8
SANINDUSA
100
AcDbSpline
210
0.0
220
0.0
230
1.0
 70
    24
 71
     3
 72
    11
 73
     7
 74
     0
 42
0.0000000001
 43
0.0000000001
 40
0.0
 40
0.0
 40
0.0
 40
0.0
 40
0.1252652582994534
 40
0.4251750356306961
 40
0.5001519956984865
 40
0.9999999999999998
 40
0.9999999999999998
 40
0.9999999999999998
 40
0.9999999999999998
 10
4729.856335417313
 20
2518.720590301495
 30
0.0
 10
4729.856336168677
 20
2518.727270496139
 30
0.0
 10
4729.856338718955
 20
2518.749944396585
 30
0.0
 10
4729.856341260636
 20
2518.776617743387
 30
0.0
 10
4729.856345551115
 20
2518.823268809178
 30
0.0
 10
4729.856348180802
 20
2518.85392632882
 30
0.0
 10
4729.856350467485
 20
2518.88058505271
 30
0.0
  0
SPLINE
  5
143B
330
1F
100
AcDbEntity
  8
SANINDUSA
100
AcDbSpline
210
0.0
220
0.0
230
1.0
 70
    24
 71
     3
 72
    10
 73
     6
 74
     0
 42
0.0000000001
 43
0.0000000001
 40
0.0
 40
0.0
 40
0.0
 40
0.0
 40
0.5
 40
0.5
 40
1.0
 40
1.0
 40
1.0
 40
1.0
 10
4729.866695335975
 20
2518.880583264599
 30
0.0
 10
4729.866693365442
 20
2518.853915815965
 30
0.0
 10
4729.866691424656
 20
2518.827248631923
 30
0.0
 10
4729.866687463289
 20
2518.773915843516
 30
0.0
 10
4729.866685441766
 20
2518.747250394005
 30
0.0
 10
4729.866683144688
 20
2518.720586105756
 30
0.0
  0
SPLINE
  5
143D
330
1F
100
AcDbEntity
  8
SANINDUSA
100
AcDbSpline
210
0.0
220
0.0
230
1.0
 70
    24
 71
     3
 72
    10
 73
     6
 74
     0
 42
0.0000000001
 43
0.0000000001
 40
0.0
 40
0.0
 40
0.0
 40
0.0
 40
0.4999999999999995
 40
0.4999999999999995
 40
1.0
 40
1.0
 40
1.0
 40
1.0
 10
4730.286737108112
 20
2518.880585766757
 30
0.0
 10
4730.286739442354
 20
2518.853918796204
 30
0.0
 10
4730.286741807548
 20
2518.82725210042
 30
0.0
 10
4730.286746919614
 20
2518.773920098704
 30
0.0
 10
4730.286749640139
 20
2518.747254939555
 30
0.0
 10
4730.286753174309
 20
2518.720590547416
 30
0.0
  0
SPLINE
  5
143F
330
1F
100
AcDbEntity
  8
SANINDUSA
100
AcDbSpline
210
0.0
220
0.0
230
1.0
 70
    24
 71
     3
 72
    10
 73
     6
 74
     0
 42
0.0000000001
 43
0.0000000001
 40
0.0
 40
0.0
 40
0.0
 40
0.0
 40
0.5
 40
0.5
 40
1.0
 40
1.0
 40
1.0
 40
1.0
 10
4730.276404812366
 20
2518.720586342119
 30
0.0
 10
4730.276402280499
 20
2518.747250884478
 30
0.0
 10
4730.276400172001
 20
2518.773916434346
 30
0.0
 10
4730.276396076414
 20
2518.827249289279
 30
0.0
 10
4730.276394099166
 20
2518.853916458233
 30
0.0
 10
4730.276392101639
 20
2518.880583921759
 30
0.0
  0
SPLINE
  5
1446
330
1F
100
AcDbEntity
  8
SANINDUSA
100
AcDbSpline
210
0.0
220
0.0
230
1.0
 70
     8
 71
     3
 72
    17
 73
    13
 74
     0
 42
0.0000000001
 43
0.0000000001
 40
0.0
 40
0.0
 40
0.0
 40
0.0
 40
0.1074138100952879
 40
0.214936813170078
 40
0.322391103853503
 40
0.4297445252680451
 40
0.535492655055357
 40
0.6428902504252728
 40
0.7501988080681774
 40
0.8575062505713136
 40
0.964921317664568
 40
1.0
 40
1.0
 40
1.0
 40
1.0
 10
4729.996361889821
 20
2518.880593158942
 30
0.0
 10
4729.99641908894
 20
2518.881174922606
 30
0.0
 10
4729.99653354532
 20
2518.882339041335
 30
0.0
 10
4729.997426391252
 20
2518.883888569855
 30
0.0
 10
4729.998741494933
 20
2518.885065782265
 30
0.0
 10
4730.000374491736
 20
2518.885734129062
 30
0.0
 10
4730.002132027304
 20
2518.885829300315
 30
0.0
 10
4730.003824253639
 20
2518.885340988851
 30
0.0
 10
4730.00526722091
 20
2518.8843150619
 30
0.0
 10
4730.006284106067
 20
2518.882871553656
 30
0.0
 10
4730.006674114624
 20
2518.881549075207
 30
0.0
 10
4730.006700078042
 20
2518.880780991724
 30
0.0
 10
4730.006706469637
 20
2518.880591907244
 30
0.0
  0
SPLINE
  5
144E
330
1F
100
AcDbEntity
  8
SANINDUSA
100
AcDbSpline
210
0.0
220
0.0
230
1.0
 70
     8
 71
     3
 72
    18
 73
    14
 74
     0
 42
0.0000000001
 43
0.0000000001
 40
0.0
 40
0.0
 40
0.0
 40
0.0
 40
0.0936950114612682
 40
0.1076324466462572
 40
0.2151233483662352
 40
0.3226425456771485
 40
0.4301246602017227
 40
0.537669855266156
 40
0.6449514330590393
 40
0.7521964006925835
 40
0.8593969543102948
 40
0.9666451112859039
 40
1.0
 40
1.0
 40
1.0
 40
1.0
 10
4730.136379779262
 20
2518.880592324477
 30
0.0
 10
4730.136419171737
 20
2518.881100035239
 30
0.0
 10
4730.136464423969
 20
2518.881683269614
 30
0.0
 10
4730.136828383332
 20
2518.882785471533
 30
0.0
 10
4730.137436800763
 20
2518.883889410261
 30
0.0
 10
4730.138761902558
 20
2518.885065733707
 30
0.0
 10
4730.14040229378
 20
2518.8857385968
 30
0.0
 10
4730.142172274905
 20
2518.885828853976
 30
0.0
 10
4730.143870357891
 20
2518.885327993142
 30
0.0
 10
4730.145306841342
 20
2518.884294237369
 30
0.0
 10
4730.146314898589
 20
2518.88284573743
 30
0.0
 10
4730.146694132543
 20
2518.881531332132
 30
0.0
 10
4730.146718581474
 20
2518.880773334374
 30
0.0
 10
4730.146724381429
 20
2518.88059351657
 30
0.0
  0
SPLINE
  5
1456
330
1F
100
AcDbEntity
  8
SANINDUSA
100
AcDbSpline
210
0.0
220
0.0
230
1.0
 70
    24
 71
     3
 72
    10
 73
     6
 74
     0
 42
0.0000000001
 43
0.0000000001
 40
0.0
 40
0.0
 40
0.0
 40
0.0
 40
0.5
 40
0.5
 40
1.0
 40
1.0
 40
1.0
 40
1.0
 10
4729.996358294937
 20
2518.720595717301
 30
0.0
 10
4729.996358122726
 20
2518.747260703477
 30
0.0
 10
4729.996358522721
 20
2518.7739267315
 30
0.0
 10
4729.996359912719
 20
2518.827259539865
 30
0.0
 10
4729.996360869286
 20
2518.853926309726
 30
0.0
 10
4729.996361886839
 20
2518.880593159005
 30
0.0
  0
SPLINE
  5
1458
330
1F
100
AcDbEntity
  8
SANINDUSA
100
AcDbSpline
210
0.0
220
0.0
230
1.0
 70
    24
 71
     3
 72
    10
 73
     6
 74
     0
 42
0.0000000001
 43
0.0000000001
 40
0.0
 40
0.0
 40
0.0
 40
0.0
 40
0.5
 40
0.5
 40
1.0
 40
1.0
 40
1.0
 40
1.0
 10
4730.006706469644
 20
2518.880591916718
 30
0.0
 10
4730.006705613986
 20
2518.853924963413
 30
0.0
 10
4730.00670482073
 20
2518.827258067543
 30
0.0
 10
4730.006703690079
 20
2518.773924843796
 30
0.0
 10
4730.006703370921
 20
2518.747258511555
 30
0.0
 10
4730.006703613019
 20
2518.720593012119
 30
0.0
  0
SPLINE
  5
145B
330
1F
100
AcDbEntity
  8
SANINDUSA
100
AcDbSpline
210
0.0
220
0.0
230
1.0
 70
    24
 71
     3
 72
    10
 73
     6
 74
     0
 42
0.0000000001
 43
0.0000000001
 40
0.0
 40
0.0
 40
0.0
 40
0.0
 40
0.5000000000000006
 40
0.5000000000000006
 40
1.0
 40
1.0
 40
1.0
 40
1.0
 10
4730.146724381755
 20
2518.880593521794
 30
0.0
 10
4730.146725251671
 20
2518.853926626306
 30
0.0
 10
4730.14672613205
 20
2518.827259883796
 30
0.0
 10
4730.146727242792
 20
2518.773927035148
 30
0.0
 10
4730.146727524117
 20
2518.747260985711
 30
0.0
 10
4730.146727463573
 20
2518.72059596509
 30
0.0
  0
SPLINE
  5
145D
330
1F
100
AcDbEntity
  8
SANINDUSA
100
AcDbSpline
210
0.0
220
0.0
230
1.0
 70
    24
 71
     3
 72
    10
 73
     6
 74
     0
 42
0.0000000001
 43
0.0000000001
 40
0.0
 40
0.0
 40
0.0
 40
0.0
 40
0.5000000000000005
 40
0.5000000000000005
 40
1.0
 40
1.0
 40
1.0
 40
1.0
 10
4730.136382115417
 20
2518.720593610794
 30
0.0
 10
4730.136382289195
 20
2518.747259025992
 30
0.0
 10
4730.136382053375
 20
2518.773925344015
 30
0.0
 10
4730.136381233321
 20
2518.827258552122
 30
0.0
 10
4730.136380492856
 20
2518.853925356979
 30
0.0
 10
4730.136379782542
 20
2518.880592324495
 30
0.0
  0
SPLINE
  5
1464
330
1F
100
AcDbEntity
  8
SANINDUSA
100
AcDbSpline
210
0.0
220
0.0
230
1.0
 70
     8
 71
     3
 72
    44
 73
    40
 74
     0
 42
0.0000000001
 43
0.0000000001
 40
0.0
 40
0.0
 40
0.0
 40
0.0
 40
0.0624999999999823
 40
0.0624999999999823
 40
0.093749999999979
 40
0.093749999999979
 40
0.1249999999999756
 40
0.1249999999999756
 40
0.1874999999999709
 40
0.1874999999999709
 40
0.2499999999999662
 40
0.2499999999999662
 40
0.3124999999999615
 40
0.3124999999999615
 40
0.3437499999999621
 40
0.3437499999999621
 40
0.3749999999999625
 40
0.3749999999999625
 40
0.4374999999999635
 40
0.4374999999999635
 40
0.4999999999999645
 40
0.4999999999999645
 40
0.5624999999999654
 40
0.5624999999999654
 40
0.6249999999999663
 40
0.6249999999999663
 40
0.6874999999999673
 40
0.6874999999999673
 40
0.7499999999999682
 40
0.7499999999999682
 40
0.812499999999969
 40
0.812499999999969
 40
0.8749999999999699
 40
0.8749999999999699
 40
0.9062499999999753
 40
0.9062499999999753
 40
0.9374999999999804
 40
0.9374999999999804
 40
1.0
 40
1.0
 40
1.0
 40
1.0
 10
4729.866683144688
 20
2518.720586105756
 30
0.0
 10
4729.866683131344
 20
2518.72024435121
 30
0.0
 10
4729.866649440723
 20
2518.719907286266
 30
0.0
 10
4729.866550745168
 20
2518.719411471019
 30
0.0
 10
4729.866509760523
 20
2518.719247669896
 30
0.0
 10
4729.866411302
 20
2518.718923066451
 30
0.0
 10
4729.866353449462
 20
2518.718761493915
 30
0.0
 10
4729.866158193999
 20
2518.718290912363
 30
0.0
 10
4729.865998988542
 20
2518.717993713544
 30
0.0
 10
4729.865623390612
 20
2518.717431857358
 30
0.0
 10
4729.865404550523
 20
2518.717165527547
 30
0.0
 10
4729.864926315378
 20
2518.71668819
 30
0.0
 10
4729.864665640058
 20
2518.716474342639
 30
0.0
 10
4729.864241744826
 20
2518.716191432065
 30
0.0
 10
4729.864094469602
 20
2518.716103344874
 30
0.0
 10
4729.863795195939
 20
2518.715943819453
 30
0.0
 10
4729.863642479595
 20
2518.715871842611
 30
0.0
 10
4729.863175266027
 20
2518.715678829783
 30
0.0
 10
4729.862850429283
 20
2518.715580221936
 30
0.0
 10
4729.862181329294
 20
2518.715447803348
 30
0.0
 10
4729.861845460011
 20
2518.715415372323
 30
0.0
 10
4729.861171172205
 20
2518.715415760665
 30
0.0
 10
4729.860830327228
 20
2518.715449220305
 30
0.0
 10
4729.860160928764
 20
2518.715583184289
 30
0.0
 10
4729.859836065537
 20
2518.715682609537
 30
0.0
 10
4729.859214157417
 20
2518.715941027033
 30
0.0
 10
4729.858913411217
 20
2518.716101837963
 30
0.0
 10
4729.858348461831
 20
2518.716480181387
 30
0.0
 10
4729.858088280582
 20
2518.716694340799
 30
0.0
 10
4729.857611456599
 20
2518.717171461693
 30
0.0
 10
4729.857393169289
 20
2518.717437588695
 30
0.0
 10
4729.857018034937
 20
2518.717999754988
 30
0.0
 10
4729.856859234334
 20
2518.718296788621
 30
0.0
 10
4729.856664593379
 20
2518.718766492214
 30
0.0
 10
4729.856606822132
 20
2518.718927963048
 30
0.0
 10
4729.856508389238
 20
2518.719252866479
 30
0.0
 10
4729.856467451256
 20
2518.719416736529
 30
0.0
 10
4729.856368929229
 20
2518.719912508472
 30
0.0
 10
4729.856335397646
 20
2518.720248531143
 30
0.0
 10
4729.856335414843
 20
2518.720590301112
 30
0.0
  0
SPLINE
  5
1468
330
1F
100
AcDbEntity
  8
SANINDUSA
100
AcDbSpline
210
0.0
220
0.0
230
1.0
 70
     8
 71
     3
 72
    42
 73
    38
 74
     0
 42
0.0000000001
 43
0.0000000001
 40
0.0
 40
0.0
 40
0.0
 40
0.0
 40
0.0624999999999995
 40
0.0624999999999995
 40
0.124999999999999
 40
0.124999999999999
 40
0.1874999999999985
 40
0.1874999999999985
 40
0.249999999999998
 40
0.249999999999998
 40
0.3124999999999975
 40
0.3124999999999975
 40
0.374999999999997
 40
0.374999999999997
 40
0.4062499999999968
 40
0.4062499999999968
 40
0.4374999999999966
 40
0.4374999999999966
 40
0.4999999999999981
 40
0.4999999999999981
 40
0.5624999999999995
 40
0.5624999999999995
 40
0.625000000000001
 40
0.625000000000001
 40
0.6875000000000025
 40
0.6875000000000025
 40
0.750000000000004
 40
0.750000000000004
 40
0.8125000000000055
 40
0.8125000000000055
 40
0.8750000000000069
 40
0.8750000000000069
 40
0.906250000000003
 40
0.906250000000003
 40
0.9374999999999989
 40
0.9374999999999989
 40
1.0
 40
1.0
 40
1.0
 40
1.0
 10
4730.286753174309
 20
2518.720590547416
 30
0.0
 10
4730.286753194831
 20
2518.720248783763
 30
0.0
 10
4730.286719665232
 20
2518.719912557864
 30
0.0
 10
4730.286588070993
 20
2518.719250759115
 30
0.0
 10
4730.286488324214
 20
2518.718921769933
 30
0.0
 10
4730.286229030669
 20
2518.718296453986
 30
0.0
 10
4730.286070282233
 20
2518.717999505133
 30
0.0
 10
4730.285694739801
 20
2518.717436940401
 30
0.0
 10
4730.285476553402
 20
2518.717171097314
 30
0.0
 10
4730.284999981473
 20
2518.716694351719
 30
0.0
 10
4730.284739724925
 20
2518.716480113825
 30
0.0
 10
4730.28417394216
 20
2518.716101364975
 30
0.0
 10
4730.283874064808
 20
2518.715941118808
 30
0.0
 10
4730.283407629472
 20
2518.715747335971
 30
0.0
 10
4730.283248947527
 20
2518.715690282243
 30
0.0
 10
4730.2829250683
 20
2518.7155915103
 30
0.0
 10
4730.2827589255
 20
2518.715549637031
 30
0.0
 10
4730.282259139795
 20
2518.715449661891
 30
0.0
 10
4730.281923791084
 20
2518.715416369175
 30
0.0
 10
4730.281248863047
 20
2518.715415150456
 30
0.0
 10
4730.280907030448
 20
2518.715447954473
 30
0.0
 10
4730.280237340109
 20
2518.715580503289
 30
0.0
 10
4730.279911811704
 20
2518.71567939072
 30
0.0
 10
4730.279288920743
 20
2518.715936862239
 30
0.0
 10
4730.278987683933
 20
2518.716097269687
 30
0.0
 10
4730.278421556551
 20
2518.716475170565
 30
0.0
 10
4730.278160833452
 20
2518.716689212774
 30
0.0
 10
4730.277683012491
 20
2518.71716629457
 30
0.0
 10
4730.277464253328
 20
2518.717432527803
 30
0.0
 10
4730.277088410144
 20
2518.717994931473
 30
0.0
 10
4730.276929353543
 20
2518.718292101883
 30
0.0
 10
4730.276734427698
 20
2518.718762010722
 30
0.0
 10
4730.276676572765
 20
2518.718923563645
 30
0.0
 10
4730.276578001961
 20
2518.71924864104
 30
0.0
 10
4730.276537015099
 20
2518.719412583136
 30
0.0
 10
4730.276438382964
 20
2518.719908523873
 30
0.0
 10
4730.276404827074
 20
2518.720244596534
 30
0.0
 10
4730.276404812366
 20
2518.720586342119
 30
0.0
  0
SPLINE
  5
1469
330
1F
100
AcDbEntity
  8
SANINDUSA
100
AcDbSpline
210
0.0
220
0.0
230
1.0
 70
     8
 71
     3
 72
    42
 73
    38
 74
     0
 42
0.0000000001
 43
0.0000000001
 40
0.0
 40
0.0
 40
0.0
 40
0.0
 40
0.0625
 40
0.0625
 40
0.0937499999999948
 40
0.0937499999999948
 40
0.1249999999999894
 40
0.1249999999999894
 40
0.1874999999999893
 40
0.1874999999999893
 40
0.2499999999999892
 40
0.2499999999999892
 40
0.312499999999989
 40
0.312499999999989
 40
0.3749999999999889
 40
0.3749999999999889
 40
0.4374999999999888
 40
0.4374999999999888
 40
0.4999999999999887
 40
0.4999999999999887
 40
0.5624999999999885
 40
0.5624999999999885
 40
0.6249999999999883
 40
0.6249999999999883
 40
0.6874999999999881
 40
0.6874999999999881
 40
0.749999999999988
 40
0.749999999999988
 40
0.8124999999999877
 40
0.8124999999999877
 40
0.8437499999999868
 40
0.8437499999999868
 40
0.8749999999999861
 40
0.8749999999999861
 40
0.937499999999993
 40
0.937499999999993
 40
1.0
 40
1.0
 40
1.0
 40
1.0
 10
4730.006703613019
 20
2518.720593012119
 30
0.0
 10
4730.006703614427
 20
2518.720251367486
 30
0.0
 10
4730.00667010928
 20
2518.719915407781
 30
0.0
 10
4730.006571622659
 20
2518.719419650987
 30
0.0
 10
4730.006530695962
 20
2518.719255772638
 30
0.0
 10
4730.006432273474
 20
2518.718930827096
 30
0.0
 10
4730.006374499196
 20
2518.718769317228
 30
0.0
 10
4730.006179825068
 20
2518.718299492459
 30
0.0
 10
4730.006020971494
 20
2518.718002368168
 30
0.0
 10
4730.005645620827
 20
2518.717440027758
 30
0.0
 10
4730.005427093518
 20
2518.717173726926
 30
0.0
 10
4730.004949693499
 20
2518.716696432237
 30
0.0
 10
4730.004689198325
 20
2518.716482277099
 30
0.0
 10
4730.004123576065
 20
2518.71610412114
 30
0.0
 10
4730.003822275154
 20
2518.71594339081
 30
0.0
 10
4730.003199529278
 20
2518.715685501833
 30
0.0
 10
4730.002873467729
 20
2518.715586312147
 30
0.0
 10
4730.002205451045
 20
2518.715453684677
 30
0.0
 10
4730.001869802595
 20
2518.715421006453
 30
0.0
 10
4730.001195320095
 20
2518.715420982589
 30
0.0
 10
4730.000852759417
 20
2518.71545468404
 30
0.0
 10
4730.000188946035
 20
2518.715587058927
 30
0.0
 10
4729.999866545511
 20
2518.715684896311
 30
0.0
 10
4729.999240785402
 20
2518.715943967128
 30
0.0
 10
4729.998937632728
 20
2518.716106184797
 30
0.0
 10
4729.998377103487
 20
2518.716480889701
 30
0.0
 10
4729.998116052573
 20
2518.716694639351
 30
0.0
 10
4729.997633712628
 20
2518.717176767825
 30
0.0
 10
4729.997418797018
 20
2518.717439126127
 30
0.0
 10
4729.997137939562
 20
2518.717859110973
 30
0.0
 10
4729.997051066983
 20
2518.718003769273
 30
0.0
 10
4729.996891072785
 20
2518.718302590917
 30
0.0
 10
4729.996817670625
 20
2518.718457569982
 30
0.0
 10
4729.996622724619
 20
2518.718927885917
 30
0.0
 10
4729.996524902272
 20
2518.719250252817
 30
0.0
 10
4729.996392525225
 20
2518.719912354333
 30
0.0
 10
4729.996358295939
 20
2518.720254074465
 30
0.0
 10
4729.996358294937
 20
2518.720595717301
 30
0.0
  0
SPLINE
  5
146A
330
1F
100
AcDbEntity
  8
SANINDUSA
100
AcDbSpline
210
0.0
220
0.0
230
1.0
 70
     8
 71
     3
 72
    42
 73
    38
 74
     0
 42
0.0000000001
 43
0.0000000001
 40
0.0
 40
0.0
 40
0.0
 40
0.0
 40
0.0625000000000001
 40
0.0625000000000001
 40
0.0937500000000001
 40
0.0937500000000001
 40
0.1250000000000001
 40
0.1250000000000001
 40
0.1875000000000001
 40
0.1875000000000001
 40
0.2500000000000001
 40
0.2500000000000001
 40
0.3125000000000001
 40
0.3125000000000001
 40
0.3750000000000001
 40
0.3750000000000001
 40
0.4375000000000002
 40
0.4375000000000002
 40
0.5000000000000002
 40
0.5000000000000002
 40
0.5625000000000002
 40
0.5625000000000002
 40
0.6250000000000004
 40
0.6250000000000004
 40
0.6875000000000004
 40
0.6875000000000004
 40
0.7500000000000004
 40
0.7500000000000004
 40
0.8125000000000003
 40
0.8125000000000003
 40
0.8750000000000003
 40
0.8750000000000003
 40
0.9062500000000003
 40
0.9062500000000003
 40
0.9375000000000005
 40
0.9375000000000005
 40
1.0
 40
1.0
 40
1.0
 40
1.0
 10
4730.146727463573
 20
2518.72059596509
 30
0.0
 10
4730.14672746322
 20
2518.720254344351
 30
0.0
 10
4730.146693960459
 20
2518.719918423451
 30
0.0
 10
4730.14659551031
 20
2518.71942274163
 30
0.0
 10
4730.14655460124
 20
2518.719258891096
 30
0.0
 10
4730.146456230159
 20
2518.718934006089
 30
0.0
 10
4730.146398498936
 20
2518.718772555302
 30
0.0
 10
4730.146203988732
 20
2518.71830289549
 30
0.0
 10
4730.146045275157
 20
2518.718005839652
 30
0.0
 10
4730.145670262211
 20
2518.717443555123
 30
0.0
 10
4730.145451990747
 20
2518.717177309359
 30
0.0
 10
4730.144975116652
 20
2518.716699957554
 30
0.0
 10
4730.144714875308
 20
2518.71648568521
 30
0.0
 10
4730.144149706493
 20
2518.71610715229
 30
0.0
 10
4730.143848808022
 20
2518.715946272422
 30
0.0
 10
4730.143226538848
 20
2518.715687814097
 30
0.0
 10
4730.142900556679
 20
2518.715588248674
 30
0.0
 10
4730.142232931725
 20
2518.715454883565
 30
0.0
 10
4730.14189727988
 20
2518.715421769258
 30
0.0
 10
4730.141222392073
 20
2518.71542094954
 30
0.0
 10
4730.140880769756
 20
2518.715453942727
 30
0.0
 10
4730.140210834242
 20
2518.715587042662
 30
0.0
 10
4730.139885625734
 20
2518.715686127279
 30
0.0
 10
4730.139262957544
 20
2518.715944092156
 30
0.0
 10
4730.138961687642
 20
2518.71610486061
 30
0.0
 10
4730.138396164423
 20
2518.716483054501
 30
0.0
 10
4730.138135714469
 20
2518.716697221501
 30
0.0
 10
4730.137658397985
 20
2518.717174527803
 30
0.0
 10
4730.137439911674
 20
2518.71744082569
 30
0.0
 10
4730.137064633747
 20
2518.718003143847
 30
0.0
 10
4730.136905809669
 20
2518.718300253068
 30
0.0
 10
4730.136711171101
 20
2518.718770050277
 30
0.0
 10
4730.136653407651
 20
2518.718931549062
 30
0.0
 10
4730.136555003747
 20
2518.719256469367
 30
0.0
 10
4730.136514084376
 20
2518.71942033516
 30
0.0
 10
4730.136415614771
 20
2518.719916054615
 30
0.0
 10
4730.136382114407
 20
2518.720251989862
 30
0.0
 10
4730.136382115417
 20
2518.720593610794
 30
0.0
  0
CIRCLE
  5
146B
330
1F
100
AcDbEntity
  8
SANINDUSA
100
AcDbCircle
 10
4730.071543664617
 20
2518.480558306914
 30
0.0
 40
0.045
  0
SPLINE
  5
146C
330
1F
100
AcDbEntity
  8
SANINDUSA
100
AcDbSpline
210
0.0
220
0.0
230
1.0
 70
    24
 71
     3
 72
     9
 73
     5
 74
     0
 42
0.0000000001
 43
0.0000000001
 40
0.0
 40
0.0
 40
0.0
 40
0.0
 40
0.4821307628319116
 40
1.0
 40
1.0
 40
1.0
 40
1.0
 10
4731.565185936551
 20
2518.821509915369
 30
0.0
 10
4731.564663157829
 20
2518.821502191218
 30
0.0
 10
4731.563578848837
 20
2518.821486170355
 30
0.0
 10
4731.562494422188
 20
2518.821488598576
 30
0.0
 10
4731.561932830988
 20
2518.821489856078
 30
0.0
  0
LINE
  5
146D
330
1F
100
AcDbEntity
  8
SANINDUSA
100
AcDbLine
 10
4730.683233471505
 20
2518.821489078423
 30
0.0
 11
4730.679980130783
 21
2518.821513281635
 31
0.0
  0
LINE
  5
146E
330
1F
100
AcDbEntity
  8
SANINDUSA
100
AcDbLine
 10
4731.561932852409
 20
2518.821486372932
 30
0.0
 11
4730.683233233086
 21
2518.821486372932
 31
0.0
  0
LINE
  5
146F
330
1F
100
AcDbEntity
  8
SANINDUSA
100
AcDbLine
 10
4730.679451437584
 20
2518.803650835029
 30
0.0
 11
4731.565714673521
 21
2518.803650835029
 31
0.0
  0
LINE
  5
1476
330
1F
100
AcDbEntity
  8
SANINDUSA
100
AcDbLine
 10
4731.570256568875
 20
2518.81668201132
 30
0.0
 11
4731.570711627578
 21
2518.803650835029
 31
0.0
  0
LINE
  5
1477
330
1F
100
AcDbEntity
  8
SANINDUSA
100
AcDbLine
 10
4731.570711627578
 20
2518.803650835029
 30
0.0
 11
4731.565714673521
 21
2518.803650835029
 31
0.0
  0
LINE
  5
1478
330
1F
100
AcDbEntity
  8
SANINDUSA
100
AcDbLine
 10
4730.67445448219
 20
2518.803650835029
 30
0.0
 11
4730.674909563652
 21
2518.81668201132
 31
0.0
  0
LINE
  5
147A
330
1F
100
AcDbEntity
  8
SANINDUSA
100
AcDbLine
 10
4730.679451437584
 20
2518.803650835029
 30
0.0
 11
4730.67445448219
 21
2518.803650835029
 31
0.0
  0
ARC
  5
147D
330
1F
100
AcDbEntity
  8
SANINDUSA
100
AcDbCircle
 10
4731.565259908484
 20
2518.816507259419
 30
0.0
 40
0.0049997153200688
100
AcDbArc
 50
2.003031280683142
 51
90.8480393444818
  0
ARC
  5
147E
330
1F
100
AcDbEntity
  8
SANINDUSA
100
AcDbCircle
 10
4730.679906186625
 20
2518.816507298252
 30
0.0
 40
0.0049996765690878
100
AcDbArc
 50
89.15189353026821
 51
177.9973985016381
  0
LINE
  5
1480
330
1F
100
AcDbEntity
  8
SANINDUSA
100
AcDbLine
 10
4731.530083054593
 20
2518.803650835029
 30
0.0
 11
4731.530083054593
 21
2518.748653642333
 31
0.0
  0
LINE
  5
1481
330
1F
100
AcDbEntity
  8
SANINDUSA
100
AcDbLine
 10
4731.530083054593
 20
2518.748653642333
 30
0.0
 11
4731.522083053283
 21
2518.748653642333
 31
0.0
  0
LINE
  5
1483
330
1F
100
AcDbEntity
  8
SANINDUSA
100
AcDbLine
 10
4731.522083053283
 20
2518.748653642333
 30
0.0
 11
4730.723083050839
 21
2518.748653642333
 31
0.0
  0
LINE
  5
1484
330
1F
100
AcDbEntity
  8
SANINDUSA
100
AcDbLine
 10
4730.715083034627
 20
2518.748653642333
 30
0.0
 11
4730.715083034627
 21
2518.803650835029
 31
0.0
  0
LINE
  5
1485
330
1F
100
AcDbEntity
  8
SANINDUSA
100
AcDbLine
 10
4730.723083050839
 20
2518.748653642333
 30
0.0
 11
4730.715083034627
 21
2518.748653642333
 31
0.0
  0
SPLINE
  5
1488
330
1F
100
AcDbEntity
  8
SANINDUSA
100
AcDbSpline
210
0.0
220
0.0
230
1.0
 70
     8
 71
     3
 72
    16
 73
    12
 74
     0
 42
0.0000000001
 43
0.0000000001
 40
0.0
 40
0.0
 40
0.0
 40
0.0
 40
0.0590995272334264
 40
0.1714523400138773
 40
0.2694478326247581
 40
0.3542734746495654
 40
0.4252662415087022
 40
0.4797230725219063
 40
0.5117457635477181
 40
0.5380951557257829
 40
0.556557913948679
 40
0.556557913948679
 40
0.556557913948679
 40
0.556557913948679
 10
4733.27532709646
 20
2518.79849270558
 30
0.0
 10
4733.275231948375
 20
2518.798299266653
 30
0.0
 10
4733.275115692335
 20
2518.798022324287
 30
0.0
 10
4733.274738229805
 20
2518.797544469378
 30
0.0
 10
4733.27424996229
 20
2518.797111373933
 30
0.0
 10
4733.27375776478
 20
2518.796836105269
 30
0.0
 10
4733.273323958769
 20
2518.796681564258
 30
0.0
 10
4733.272993577496
 20
2518.79661448146
 30
0.0
 10
4733.272808557438
 20
2518.796593049615
 30
0.0
 10
4733.272731351459
 20
2518.796587266113
 30
0.0
 10
4733.272703274581
 20
2518.796585647879
 30
0.0
 10
4733.272693895846
 20
2518.796585164821
 30
0.0
  0
SPLINE
  5
1489
330
1F
100
AcDbEntity
  8
SANINDUSA
100
AcDbSpline
210
0.0
220
0.0
230
1.0
 70
     8
 71
     3
 72
    15
 73
    11
 74
     0
 42
0.0000000001
 43
0.0000000001
 40
0.0
 40
0.0
 40
0.0
 40
0.0
 40
0.1191921253404671
 40
0.1821360747273253
 40
0.2436922286455349
 40
0.3695067441452484
 40
0.517739961579964
 40
0.7482264278998613
 40
0.9499212329783668
 40
1.0
 40
1.0
 40
1.0
 40
1.0
 10
4733.448075274703
 20
2518.790407300126
 30
0.0
 10
4733.448071208792
 20
2518.790407385014
 30
0.0
 10
4733.448064995721
 20
2518.79040751473
 30
0.0
 10
4733.447920583986
 20
2518.790430041935
 30
0.0
 10
4733.447667028648
 20
2518.790485292852
 30
0.0
 10
4733.447241219358
 20
2518.790631042293
 30
0.0
 10
4733.446649965177
 20
2518.790967339497
 30
0.0
 10
4733.446095633186
 20
2518.791529585652
 30
0.0
 10
4733.445733076947
 20
2518.792095346574
 30
0.0
 10
4733.445669169967
 20
2518.792337899264
 30
0.0
 10
4733.445611427304
 20
2518.792487004902
 30
0.0
  0
SPLINE
  5
148A
330
1F
100
AcDbEntity
  8
SANINDUSA
100
AcDbSpline
210
0.0
220
0.0
230
1.0
 70
     8
 71
     3
 72
    16
 73
    12
 74
     0
 42
0.0000000001
 43
0.0000000001
 40
0.0
 40
0.0
 40
0.0
 40
0.0
 40
0.0887833842939923
 40
0.2644022343363154
 40
0.3194952897401973
 40
0.3506817114204227
 40
0.4435280729180985
 40
0.5683235826480453
 40
0.7040112611892066
 40
0.878238688103058
 40
1.0
 40
1.0
 40
1.0
 40
1.0
 10
4733.278878102776
 20
2518.80036992779
 30
0.0
 10
4733.278762653877
 20
2518.800373000462
 30
0.0
 10
4733.278418840142
 20
2518.800382151065
 30
0.0
 10
4733.278226147838
 20
2518.800384647109
 30
0.0
 10
4733.27802937085
 20
2518.800383964011
 30
0.0
 10
4733.277770568719
 20
2518.800370833816
 30
0.0
 10
4733.277334858725
 20
2518.8003057258
 30
0.0
 10
4733.27676547618
 20
2518.800103660456
 30
0.0
 10
4733.276132777556
 20
2518.799701124806
 30
0.0
 10
4733.275604040094
 20
2518.799157015791
 30
0.0
 10
4733.275407817024
 20
2518.798686331607
 30
0.0
 10
4733.27532709646
 20
2518.79849270558
 30
0.0
  0
SPLINE
  5
148B
330
1F
100
AcDbEntity
  8
SANINDUSA
100
AcDbSpline
210
0.0
220
0.0
230
1.0
 70
     8
 71
     3
 72
    20
 73
    16
 74
     0
 42
0.0000000001
 43
0.0000000001
 40
0.0
 40
0.0
 40
0.0
 40
0.0
 40
0.0296768114216333
 40
0.1542979890355376
 40
0.2627687897798
 40
0.3570462033413314
 40
0.437061665005854
 40
0.5015795190251775
 40
0.5480965615217555
 40
0.5734741267810798
 40
0.5997781187413962
 40
0.6505557371427618
 40
0.8026599932016555
 40
0.9390930631999644
 40
0.9999999999999998
 40
0.9999999999999998
 40
0.9999999999999998
 40
0.9999999999999998
 10
4733.445611427304
 20
2518.792487004902
 30
0.0
 10
4733.445599695855
 20
2518.79254696668
 30
0.0
 10
4733.445538700789
 20
2518.792858724627
 30
0.0
 10
4733.445237159461
 20
2518.79332711845
 30
0.0
 10
4733.444793281538
 20
2518.793831608236
 30
0.0
 10
4733.444316535859
 20
2518.794172106579
 30
0.0
 10
4733.443872333499
 20
2518.794383954001
 30
0.0
 10
4733.443499045672
 20
2518.794498440229
 30
0.0
 10
4733.443229142605
 20
2518.794548130995
 30
0.0
 10
4733.443080128008
 20
2518.794566534127
 30
0.0
 10
4733.442968298986
 20
2518.794577396094
 30
0.0
 10
4733.442776268425
 20
2518.794591738444
 30
0.0
 10
4733.442405537068
 20
2518.794612031181
 30
0.0
 10
4733.441842469406
 20
2518.794638458108
 30
0.0
 10
4733.441449153538
 20
2518.794654028581
 30
0.0
 10
4733.441327760693
 20
2518.794658834245
 30
0.0
  0
SPLINE
  5
148C
330
1F
100
AcDbEntity
  8
SANINDUSA
100
AcDbSpline
210
0.0
220
0.0
230
1.0
 70
     8
 71
     3
 72
    15
 73
    11
 74
     0
 42
0.0000000001
 43
0.0000000001
 40
0.0
 40
0.0
 40
0.0
 40
0.0
 40
0.0755650254526471
 40
0.2628577970352817
 40
0.4261204424804311
 40
0.5676114983517834
 40
0.68552190147365
 40
0.7721340546316368
 40
0.8376978395083742
 40
0.854598250734207
 40
0.854598250734207
 40
0.854598250734207
 40
0.854598250734207
 10
4733.275337527272
 20
2518.800609300043
 30
0.0
 10
4733.27525345229
 20
2518.800417305235
 30
0.0
 10
4733.275156305008
 20
2518.800183517374
 30
0.0
 10
4733.274803131489
 20
2518.79971391694
 30
0.0
 10
4733.274324042937
 20
2518.799259971622
 30
0.0
 10
4733.273838510455
 20
2518.79897036019
 30
0.0
 10
4733.273420931763
 20
2518.798810029505
 30
0.0
 10
4733.273133547796
 20
2518.798741258989
 30
0.0
 10
4733.273017710097
 20
2518.798722428425
 30
0.0
 10
4733.272976716984
 20
2518.798716671753
 30
0.0
 10
4733.272968959831
 20
2518.798715619531
 30
0.0
  0
SPLINE
  5
148D
330
1F
100
AcDbEntity
  8
SANINDUSA
100
AcDbSpline
210
0.0
220
0.0
230
1.0
 70
     8
 71
     3
 72
    13
 73
     9
 74
     0
 42
0.0000000001
 43
0.0000000001
 40
0.1856893914031878
 40
0.1856893914031878
 40
0.1856893914031878
 40
0.1856893914031878
 40
0.263368106457281
 40
0.3799980972153764
 40
0.5604635882265108
 40
0.7471786688485591
 40
0.9634571639569825
 40
1.0
 40
1.0
 40
1.0
 40
1.0
 10
4733.447611531598
 20
2518.793867741476
 30
0.0
 10
4733.447569246674
 20
2518.793879401833
 30
0.0
 10
4733.447440005035
 20
2518.79391864638
 30
0.0
 10
4733.447065846787
 20
2518.794070992506
 30
0.0
 10
4733.446548611091
 20
2518.794401650934
 30
0.0
 10
4733.446045436727
 20
2518.794954887879
 30
0.0
 10
4733.445724159293
 20
2518.795450708239
 30
0.0
 10
4733.445665060384
 20
2518.795655892869
 30
0.0
 10
4733.445607195374
 20
2518.795813271906
 30
0.0
  0
SPLINE
  5
148E
330
1F
100
AcDbEntity
  8
SANINDUSA
100
AcDbSpline
210
0.0
220
0.0
230
1.0
 70
     8
 71
     3
 72
    17
 73
    13
 74
     0
 42
0.0000000001
 43
0.0000000001
 40
0.0
 40
0.0
 40
0.0
 40
0.0
 40
0.0656259594761518
 40
0.1970517387616419
 40
0.3304952836476251
 40
0.4752142899799676
 40
0.5137606895359236
 40
0.5707617420547744
 40
0.6443418860185867
 40
0.7629893226257485
 40
0.9114006292619244
 40
1.0
 40
1.0
 40
1.0
 40
1.0
 10
4733.28040779638
 20
2518.802508948501
 30
0.0
 10
4733.28025939408
 20
2518.802512852163
 30
0.0
 10
4733.279813794022
 20
2518.802524573492
 30
0.0
 10
4733.279123515447
 20
2518.802536028107
 30
0.0
 10
4733.278427130546
 20
2518.802537744609
 30
0.0
 10
4733.27813235641
 20
2518.802537768657
 30
0.0
 10
4733.277746755942
 20
2518.802506724354
 30
0.0
 10
4733.277378702103
 20
2518.802444840341
 30
0.0
 10
4733.276849145003
 20
2518.802273179025
 30
0.0
 10
4733.276185703252
 20
2518.801881262377
 30
0.0
 10
4733.275609799862
 20
2518.801292004684
 30
0.0
 10
4733.275411613377
 20
2518.800795065814
 30
0.0
 10
4733.275337527272
 20
2518.800609300043
 30
0.0
  0
SPLINE
  5
148F
330
1F
100
AcDbEntity
  8
SANINDUSA
100
AcDbSpline
210
0.0
220
0.0
230
1.0
 70
     8
 71
     3
 72
    19
 73
    15
 74
     0
 42
0.0000000001
 43
0.0000000001
 40
0.0
 40
0.0
 40
0.0
 40
0.0
 40
0.0558227673991923
 40
0.1644331833762411
 40
0.2594370742677627
 40
0.3421171830451796
 40
0.4124939831688782
 40
0.4703604604903545
 40
0.5149109920347542
 40
0.5714662590867238
 40
0.6957627957197793
 40
0.8252029804416512
 40
0.9608025151848629
 40
1.0
 40
1.0
 40
1.0
 40
1.0
 10
4733.445607195374
 20
2518.795813271906
 30
0.0
 10
4733.445574603293
 20
2518.795936560615
 30
0.0
 10
4733.445478599099
 20
2518.796299723457
 30
0.0
 10
4733.445130813214
 20
2518.796793346182
 30
0.0
 10
4733.444668197948
 20
2518.797252748992
 30
0.0
 10
4733.444190769596
 20
2518.797557308931
 30
0.0
 10
4733.443753138239
 20
2518.797741824645
 30
0.0
 10
4733.443398326534
 20
2518.797835862651
 30
0.0
 10
4733.443131569723
 20
2518.797882604036
 30
0.0
 10
4733.442833174513
 20
2518.797919806321
 30
0.0
 10
4733.442395520677
 20
2518.79795619858
 30
0.0
 10
4733.441659908982
 20
2518.797997858178
 30
0.0
 10
4733.44097628779
 20
2518.798027265639
 30
0.0
 10
4733.440579501649
 20
2518.79803750534
 30
0.0
 10
4733.440490524051
 20
2518.798039801549
 30
0.0
  0
LINE
  5
1490
330
1F
100
AcDbEntity
  8
SANINDUSA
100
AcDbLine
 10
4733.852351455715
 20
2518.81710497396
 30
0.0
 11
4732.973651836392
 21
2518.81710497396
 31
0.0
  0
SPLINE
  5
1491
330
1F
100
AcDbEntity
  8
SANINDUSA
100
AcDbSpline
210
0.0
220
0.0
230
1.0
 70
    24
 71
     3
 72
     9
 73
     5
 74
     0
 42
0.0000000001
 43
0.0000000001
 40
0.0
 40
0.0
 40
0.0
 40
0.0
 40
0.1239417379293394
 40
1.0
 40
1.0
 40
1.0
 40
1.0
 10
4733.855604515177
 20
2518.817126484253
 30
0.0
 10
4733.855470126579
 20
2518.817124278614
 30
0.0
 10
4733.854385838102
 20
2518.817106482847
 30
0.0
 10
4733.853301366276
 20
2518.817106593721
 30
0.0
 10
4733.852351305773
 20
2518.817106690854
 30
0.0
  0
SPLINE
  5
1492
330
1F
100
AcDbEntity
  8
SANINDUSA
100
AcDbSpline
210
0.0
220
0.0
230
1.0
 70
     8
 71
     3
 72
    28
 73
    24
 74
     0
 42
0.0000000001
 43
0.0000000001
 40
0.0
 40
0.0
 40
0.0
 40
0.0
 40
0.1250000000000015
 40
0.1250000000000015
 40
0.1875000000000009
 40
0.1875000000000009
 40
0.2500000000000002
 40
0.2500000000000002
 40
0.3750000000000014
 40
0.3750000000000014
 40
0.4375000000000032
 40
0.4375000000000032
 40
0.5000000000000049
 40
0.5000000000000049
 40
0.6250000000000055
 40
0.6250000000000055
 40
0.687500000000005
 40
0.687500000000005
 40
0.7500000000000046
 40
0.7500000000000046
 40
0.8750000000000021
 40
0.8750000000000021
 40
1.0
 40
1.0
 40
1.0
 40
1.0
 10
4733.745972649352
 20
2518.773654349315
 30
0.0
 10
4733.745383712405
 20
2518.77356322897
 30
0.0
 10
4733.744811748627
 20
2518.77342126317
 30
0.0
 10
4733.74397819635
 20
2518.773135240721
 30
0.0
 10
4733.743704436146
 20
2518.773027646086
 30
0.0
 10
4733.743165211561
 20
2518.772787605542
 30
0.0
 10
4733.742898676777
 20
2518.772654550307
 30
0.0
 10
4733.742119696972
 20
2518.772221059023
 30
0.0
 10
4733.741632958696
 20
2518.771890045452
 30
0.0
 10
4733.740950102543
 20
2518.771332586742
 30
0.0
 10
4733.740730406326
 20
2518.771136549791
 30
0.0
 10
4733.74030715319
 20
2518.770723661581
 30
0.0
 10
4733.740102670564
 20
2518.770505645413
 30
0.0
 10
4733.739523853627
 20
2518.769830493462
 30
0.0
 10
4733.739182307735
 20
2518.769351733992
 30
0.0
 10
4733.738734862063
 20
2518.768591657965
 30
0.0
 10
4733.738596589325
 20
2518.768331268689
 30
0.0
 10
4733.738342299655
 20
2518.767796103019
 30
0.0
 10
4733.73822613703
 20
2518.767520563595
 30
0.0
 10
4733.737918100892
 20
2518.766688342733
 30
0.0
 10
4733.73776373678
 20
2518.766121238816
 30
0.0
 10
4733.73755539757
 20
2518.764962836003
 30
0.0
 10
4733.737501657007
 20
2518.76436787778
 30
0.0
 10
4733.737501657007
 20
2518.76377193345
 30
0.0
  0
SPLINE
  5
1493
330
1F
100
AcDbEntity
  8
SANINDUSA
100
AcDbSpline
210
0.0
220
0.0
230
1.0
 70
     8
 71
     3
 72
    27
 73
    23
 74
     0
 42
0.0000000001
 43
0.0000000001
 40
0.0
 40
0.0
 40
0.0
 40
0.0
 40
0.1250000000000013
 40
0.1250000000000013
 40
0.1875000000000027
 40
0.1875000000000027
 40
0.250000000000004
 40
0.250000000000004
 40
0.3750000000000034
 40
0.3750000000000034
 40
0.5000000000000028
 40
0.5000000000000028
 40
0.6250000000000022
 40
0.6250000000000022
 40
0.6875000000000018
 40
0.6875000000000018
 40
0.7500000000000015
 40
0.812500000000001
 40
0.812500000000001
 40
0.8750000000000007
 40
0.8750000000000007
 40
1.0
 40
1.0
 40
1.0
 40
1.0
 10
4733.623501657006
 20
2518.763002853277
 30
0.0
 10
4733.623501657006
 20
2518.763661316539
 30
0.0
 10
4733.623437257584
 20
2518.764308812429
 30
0.0
 10
4733.623248014644
 20
2518.765264278806
 30
0.0
 10
4733.623169378911
 20
2518.765580118587
 30
0.0
 10
4733.622980298171
 20
2518.766206380955
 30
0.0
 10
4733.622869295235
 20
2518.766517731915
 30
0.0
 10
4733.622495219385
 20
2518.767423622859
 30
0.0
 10
4733.622189991215
 20
2518.767996601873
 30
0.0
 10
4733.621468948974
 20
2518.769081274404
 30
0.0
 10
4733.621049113053
 20
2518.769595257512
 30
0.0
 10
4733.620131751218
 20
2518.770517240403
 30
0.0
 10
4733.619631218373
 20
2518.77093121739
 30
0.0
 10
4733.61881625891
 20
2518.771480108373
 30
0.0
 10
4733.618533589186
 20
2518.771650846439
 30
0.0
 10
4733.617959063505
 20
2518.771960518016
 30
0.0
 10
4733.617372354514
 20
2518.772240550241
 30
0.0
 10
4733.616761672666
 20
2518.77246226169
 30
0.0
 10
4733.616138855941
 20
2518.772654451607
 30
0.0
 10
4733.615820108248
 20
2518.772736029861
 30
0.0
 10
4733.614854235686
 20
2518.772932828298
 30
0.0
 10
4733.614203071319
 20
2518.773000034509
 30
0.0
 10
4733.613544613913
 20
2518.773002862096
 30
0.0
  0
SPLINE
  5
1495
330
1F
100
AcDbEntity
  8
SANINDUSA
100
AcDbSpline
210
0.0
220
0.0
230
1.0
 70
     8
 71
     3
 72
    18
 73
    14
 74
     0
 42
0.0000000001
 43
0.0000000001
 40
0.0
 40
0.0
 40
0.0
 40
0.0
 40
0.1250000000000002
 40
0.1250000000000002
 40
0.2500000000000005
 40
0.2500000000000005
 40
0.500000000000001
 40
0.500000000000001
 40
0.6250000000000013
 40
0.6250000000000013
 40
0.7500000000000016
 40
0.7500000000000016
 40
1.0
 40
1.0
 40
1.0
 40
1.0
 10
4733.613544613913
 20
2518.773002862096
 30
0.0
 10
4733.610102497073
 20
2518.773017643442
 30
0.0
 10
4733.606660600371
 20
2518.77304566512
 30
0.0
 10
4733.599777074636
 20
2518.773117807744
 30
0.0
 10
4733.596335450764
 20
2518.773162239053
 30
0.0
 10
4733.586011043937
 20
2518.773323488243
 30
0.0
 10
4733.579128792586
 20
2518.77347227994
 30
0.0
 10
4733.5688066712
 20
2518.773770989296
 30
0.0
 10
4733.565366158634
 20
2518.773882261158
 30
0.0
 10
4733.55848528253
 20
2518.774113768463
 30
0.0
 10
4733.55504492295
 20
2518.774234241933
 30
0.0
 10
4733.544723930393
 20
2518.774600845688
 30
0.0
 10
4733.537843367765
 20
2518.774851207393
 30
0.0
 10
4733.530962745426
 20
2518.775097977529
 30
0.0
  0
SPLINE
  5
1496
330
1F
100
AcDbEntity
  8
SANINDUSA
100
AcDbSpline
210
0.0
220
0.0
230
1.0
 70
     8
 71
     3
 72
     8
 73
     4
 74
     0
 42
0.0000000001
 43
0.0000000001
 40
0.0
 40
0.0
 40
0.0
 40
0.0
 40
1.0
 40
1.0
 40
1.0
 40
1.0
 10
4733.754423331976
 20
2518.775175528641
 30
0.0
 10
4733.751608856844
 20
2518.774595389437
 30
0.0
 10
4733.748791889396
 20
2518.774090542229
 30
0.0
 10
4733.745972649352
 20
2518.773654349315
 30
0.0
  0
LINE
  5
1497
330
1F
100
AcDbEntity
  8
SANINDUSA
100
AcDbLine
 10
4733.725501651642
 20
2518.770298473667
 30
0.0
 11
4733.748203540918
 21
2518.786194503438
 31
0.0
  0
LINE
  5
1498
330
1F
100
AcDbEntity
  8
SANINDUSA
100
AcDbLine
 10
4733.635501662966
 20
2518.770298473667
 30
0.0
 11
4733.725501651642
 21
2518.770298473667
 31
0.0
  0
LINE
  5
1499
330
1F
100
AcDbEntity
  8
SANINDUSA
100
AcDbLine
 10
4733.614506746408
 20
2518.784999270122
 30
0.0
 11
4733.635501662966
 21
2518.770298473667
 31
0.0
  0
SPLINE
  5
149A
330
1F
100
AcDbEntity
  8
SANINDUSA
100
AcDbSpline
210
0.0
220
0.0
230
1.0
 70
     8
 71
     3
 72
    76
 73
    72
 74
     0
 42
0.0000000001
 43
0.0000000001
 40
0.0
 40
0.0
 40
0.0
 40
0.0
 40
0.0312499999999998
 40
0.0312499999999998
 40
0.0468749999999997
 40
0.0468749999999997
 40
0.0624999999999996
 40
0.0624999999999996
 40
0.1249999999999991
 40
0.1249999999999991
 40
0.1562499999999989
 40
0.1562499999999989
 40
0.1874999999999987
 40
0.1874999999999987
 40
0.2499999999999983
 40
0.2499999999999983
 40
0.2656249999999982
 40
0.2656249999999982
 40
0.281249999999998
 40
0.281249999999998
 40
0.312499999999998
 40
0.312499999999998
 40
0.343749999999998
 40
0.343749999999998
 40
0.359374999999998
 40
0.359374999999998
 40
0.3749999999999979
 40
0.3749999999999979
 40
0.4374999999999979
 40
0.4374999999999979
 40
0.4687499999999978
 40
0.4687499999999978
 40
0.4843749999999978
 40
0.4843749999999978
 40
0.4999999999999978
 40
0.4999999999999978
 40
0.5312499999999978
 40
0.5312499999999978
 40
0.5624999999999978
 40
0.5624999999999978
 40
0.5781249999999978
 40
0.5781249999999978
 40
0.5937499999999978
 40
0.5937499999999978
 40
0.6249999999999982
 40
0.6249999999999982
 40
0.6874999999999992
 40
0.6874999999999992
 40
0.7031249999999993
 40
0.7031249999999993
 40
0.7187499999999995
 40
0.7187499999999995
 40
0.7499999999999999
 40
0.7499999999999999
 40
0.7812500000000001
 40
0.7812500000000001
 40
0.7968750000000002
 40
0.7968750000000002
 40
0.8125000000000003
 40
0.8125000000000003
 40
0.8750000000000003
 40
0.8750000000000003
 40
0.9062500000000003
 40
0.9062500000000003
 40
0.9218750000000003
 40
0.9218750000000003
 40
0.9375000000000003
 40
0.9375000000000003
 40
0.9687500000000001
 40
0.9687500000000001
 40
1.0
 40
1.0
 40
1.0
 40
1.0
 10
4733.74820353758
 20
2518.786194502846
 30
0.0
 10
4733.748202800556
 20
2518.786193986777
 30
0.0
 10
4733.748091738651
 20
2518.786188568887
 30
0.0
 10
4733.747756486534
 20
2518.786172224939
 30
0.0
 10
4733.747616603984
 20
2518.786165427858
 30
0.0
 10
4733.747279703581
 20
2518.786149200945
 30
0.0
 10
4733.747082066726
 20
2518.7861397434
 30
0.0
 10
4733.745961617501
 20
2518.786086933475
 30
0.0
 10
4733.744642074776
 20
2518.786026873782
 30
0.0
 10
4733.742064715744
 20
2518.7859266714
 30
0.0
 10
4733.741105147621
 20
2518.785891568042
 30
0.0
 10
4733.738981295524
 20
2518.785819950208
 30
0.0
 10
4733.737831710043
 20
2518.785783944744
 30
0.0
 10
4733.734140623755
 20
2518.78567745704
 30
0.0
 10
4733.731354791495
 20
2518.785608476543
 30
0.0
 10
4733.727461186556
 20
2518.785526291216
 30
0.0
 10
4733.726659839766
 20
2518.785510009245
 30
0.0
 10
4733.725023776832
 20
2518.785478016806
 30
0.0
 10
4733.724191285056
 20
2518.785462346577
 30
0.0
 10
4733.721651273774
 20
2518.785416302668
 30
0.0
 10
4733.719901314638
 20
2518.785386892556
 30
0.0
 10
4733.716290205839
 20
2518.785330664897
 30
0.0
 10
4733.714429056175
 20
2518.785303850294
 30
0.0
 10
4733.711553140683
 20
2518.785265637627
 30
0.0
 10
4733.710580446198
 20
2518.785253235113
 30
0.0
 10
4733.708606506193
 20
2518.785229107983
 30
0.0
 10
4733.70760282323
 20
2518.785217356491
 30
0.0
 10
4733.702541453694
 20
2518.785160634281
 30
0.0
 10
4733.698394819447
 20
2518.785122183471
 30
0.0
 10
4733.692033187605
 20
2518.785072804583
 30
0.0
 10
4733.689888859831
 20
2518.785057726165
 30
0.0
 10
4733.686635720145
 20
2518.785036899588
 30
0.0
 10
4733.685542643977
 20
2518.785030241124
 30
0.0
 10
4733.683356471753
 20
2518.785017531544
 30
0.0
 10
4733.682266306131
 20
2518.78501149629
 30
0.0
 10
4733.679004423125
 20
2518.784994173253
 30
0.0
 10
4733.676841315037
 20
2518.784983566715
 30
0.0
 10
4733.672537386808
 20
2518.78496586715
 30
0.0
 10
4733.670396564781
 20
2518.784958792191
 30
0.0
 10
4733.667202210739
 20
2518.784950871929
 30
0.0
 10
4733.666140246216
 20
2518.784948667295
 30
0.0
 10
4733.664022064488
 20
2518.78494502376
 30
0.0
 10
4733.662963283983
 20
2518.784943581029
 30
0.0
 10
4733.659814834342
 20
2518.784940225237
 30
0.0
 10
4733.657762698395
 20
2518.784939261137
 30
0.0
 10
4733.651743070288
 20
2518.784938775587
 30
0.0
 10
4733.647911087652
 20
2518.784941605036
 30
0.0
 10
4733.643353128836
 20
2518.784947794816
 30
0.0
 10
4733.64245093284
 20
2518.784949173843
 30
0.0
 10
4733.640682396547
 20
2518.784952195382
 30
0.0
 10
4733.639817505636
 20
2518.784953832269
 30
0.0
 10
4733.637279703391
 20
2518.784959242522
 30
0.0
 10
4733.635663638795
 20
2518.784963405372
 30
0.0
 10
4733.632577759512
 20
2518.784975564419
 30
0.0
 10
4733.631108168335
 20
2518.784983336663
 30
0.0
 10
4733.629019131012
 20
2518.784993520381
 30
0.0
 10
4733.628342025006
 20
2518.784996688328
 30
0.0
 10
4733.627027384906
 20
2518.785002140672
 30
0.0
 10
4733.626388070908
 20
2518.785004428788
 30
0.0
 10
4733.62332122873
 20
2518.785012933504
 30
0.0
 10
4733.621275634845
 20
2518.785009093533
 30
0.0
 10
4733.618788824514
 20
2518.784995846228
 30
0.0
 10
4733.618057219839
 20
2518.784990454879
 30
0.0
 10
4733.617106668519
 20
2518.784983466585
 30
0.0
 10
4733.616813905451
 20
2518.784981323823
 30
0.0
 10
4733.616282655401
 20
2518.784977883888
 30
0.0
 10
4733.616043496006
 20
2518.78497658304
 30
0.0
 10
4733.615403712921
 20
2518.784974443872
 30
0.0
 10
4733.615080480216
 20
2518.784975457959
 30
0.0
 10
4733.614638312577
 20
2518.784983454263
 30
0.0
 10
4733.61451924917
 20
2518.784990515074
 30
0.0
 10
4733.614506743048
 20
2518.784999271955
 30
0.0
  0
LINE
  5
149B
330
1F
100
AcDbEntity
  8
SANINDUSA
100
AcDbLine
 10
4733.737501653609
 20
2518.763771932702
 30
0.0
 11
4733.737501653609
 21
2518.759272243958
 31
0.0
  0
LINE
  5
149C
330
1F
100
AcDbEntity
  8
SANINDUSA
100
AcDbLine
 10
4733.623501653549
 20
2518.759272243958
 30
0.0
 11
4733.623501653549
 21
2518.763002853971
 31
0.0
  0
LINE
  5
149D
330
1F
100
AcDbEntity
  8
SANINDUSA
100
AcDbLine
 10
4733.176705012795
 20
2518.754272241276
 30
0.0
 11
4733.168602476594
 21
2518.787995208185
 31
0.0
  0
LINE
  5
149E
330
1F
100
AcDbEntity
  8
SANINDUSA
100
AcDbLine
 10
4733.176705012795
 20
2518.754272241276
 30
0.0
 11
4733.189782448175
 21
2518.754272241276
 31
0.0
  0
LINE
  5
149F
330
1F
100
AcDbEntity
  8
SANINDUSA
100
AcDbLine
 10
4733.487592498538
 20
2518.754272241276
 30
0.0
 11
4733.503312299726
 21
2518.754272241276
 31
0.0
  0
LINE
  5
14A0
330
1F
100
AcDbEntity
  8
SANINDUSA
100
AcDbLine
 10
4733.503312299726
 20
2518.754272241276
 30
0.0
 11
4733.508507559774
 21
2518.775895103943
 31
0.0
  0
SPLINE
  5
14A1
330
1F
100
AcDbEntity
  8
SANINDUSA
100
AcDbSpline
210
0.0
220
0.0
230
1.0
 70
    24
 71
     3
 72
    10
 73
     6
 74
     0
 42
0.0000000001
 43
0.0000000001
 40
0.0
 40
0.0
 40
0.0
 40
0.0
 40
0.5
 40
0.5
 40
1.0
 40
1.0
 40
1.0
 40
1.0
 10
4733.508507564198
 20
2518.775895103389
 30
0.0
 10
4733.501725813165
 20
2518.776134137446
 30
0.0
 10
4733.494944057887
 20
2518.776373041217
 30
0.0
 10
4733.481380735243
 20
2518.776856616209
 30
0.0
 10
4733.47459918732
 20
2518.777101884183
 30
0.0
 10
4733.467817584734
 20
2518.777345474447
 30
0.0
  0
LINE
  5
14A2
330
1F
100
AcDbEntity
  8
SANINDUSA
100
AcDbLine
 10
4733.46781758475
 20
2518.777345474939
 30
0.0
 11
4733.473361323354
 21
2518.754272241276
 31
0.0
  0
LINE
  5
14A3
330
1F
100
AcDbEntity
  8
SANINDUSA
100
AcDbLine
 10
4733.473361323354
 20
2518.754272241276
 30
0.0
 11
4733.487592498538
 21
2518.754272241276
 31
0.0
  0
LINE
  5
14A4
330
1F
100
AcDbEntity
  8
SANINDUSA
100
AcDbLine
 10
4733.047828386303
 20
2518.754272241276
 30
0.0
 11
4733.057919691083
 21
2518.791933559012
 31
0.0
  0
LINE
  5
14A5
330
1F
100
AcDbEntity
  8
SANINDUSA
100
AcDbLine
 10
4733.057919691083
 20
2518.791933559012
 30
0.0
 11
4733.041617463109
 21
2518.792511830236
 31
0.0
  0
SPLINE
  5
14A6
330
1F
100
AcDbEntity
  8
SANINDUSA
100
AcDbSpline
210
0.0
220
0.0
230
1.0
 70
     8
 71
     3
 72
    11
 73
     7
 74
     0
 42
0.0000000001
 43
0.0000000001
 40
0.0
 40
0.0
 40
0.0
 40
0.0
 40
0.2700187123878051
 40
0.5428380885353291
 40
0.7705824179359775
 40
0.9999999999999998
 40
0.9999999999999998
 40
0.9999999999999998
 40
0.9999999999999998
 10
4733.015501628396
 20
2518.798420935999
 30
0.0
 10
4733.01775350072
 20
2518.797519838547
 30
0.0
 10
4733.022280602035
 20
2518.795708297361
 30
0.0
 10
4733.028996512644
 20
2518.793990943192
 30
0.0
 10
4733.035462611123
 20
2518.79288170003
 30
0.0
 10
4733.039560845814
 20
2518.792635420636
 30
0.0
 10
4733.041617463109
 20
2518.792511830236
 30
0.0
  0
LINE
  5
14A7
330
1F
100
AcDbEntity
  8
SANINDUSA
100
AcDbLine
 10
4733.015501628396
 20
2518.754272241276
 30
0.0
 11
4733.015501628396
 21
2518.798420935999
 31
0.0
  0
LINE
  5
14A8
330
1F
100
AcDbEntity
  8
SANINDUSA
100
AcDbLine
 10
4733.015501628396
 20
2518.754272241276
 30
0.0
 11
4733.047828386303
 21
2518.754272241276
 31
0.0
  0
LINE
  5
14A9
330
1F
100
AcDbEntity
  8
SANINDUSA
100
AcDbLine
 10
4733.325033138272
 20
2518.754272241276
 30
0.0
 11
4733.318211148259
 21
2518.782665729653
 31
0.0
  0
LINE
  5
14AA
330
1F
100
AcDbEntity
  8
SANINDUSA
100
AcDbLine
 10
4733.325033138272
 20
2518.754272241276
 30
0.0
 11
4733.338110633682
 21
2518.754272241276
 31
0.0
  0
ARC
  5
14AB
330
1F
100
AcDbEntity
  8
SANINDUSA
100
AcDbCircle
 10
4733.317688176239
 20
2518.752272244972
 30
0.0
 40
0.0080000000000006
100
AcDbArc
 50
193.5102121339484
 51
270.0
  0
LINE
  5
14AC
330
1F
100
AcDbEntity
  8
SANINDUSA
100
AcDbLine
 10
4733.309909532544
 20
2518.750403296333
 30
0.0
 11
4733.30343837547
 21
2518.777336418759
 31
0.0
  0
SPLINE
  5
14AD
330
1F
100
AcDbEntity
  8
SANINDUSA
100
AcDbSpline
210
0.0
220
0.0
230
1.0
 70
     8
 71
     3
 72
    11
 73
     7
 74
     0
 42
0.0000000001
 43
0.0000000001
 40
0.0
 40
0.0
 40
0.0
 40
0.0
 40
0.2595823160875645
 40
0.5191648049453731
 40
0.7787529297502524
 40
1.0
 40
1.0
 40
1.0
 40
1.0
 10
4733.30343837547
 20
2518.777336418759
 30
0.0
 10
4733.303142231037
 20
2518.778191283904
 30
0.0
 10
4733.302549941974
 20
2518.77990101476
 30
0.0
 10
4733.300649563284
 20
2518.781894530616
 30
0.0
 10
4733.298368145805
 20
2518.783171591725
 30
0.0
 10
4733.296708931251
 20
2518.783370735776
 30
0.0
 10
4733.295945475576
 20
2518.783462368082
 30
0.0
  0
LWPOLYLINE
  5
14AE
330
1F
100
AcDbEntity
  8
SANINDUSA
100
AcDbPolyline
 90
        3
 70
   128
 43
0.0
 10
4733.295945475576
 20
2518.783462368082
 10
4733.235546718118
 20
2518.785608682911
 10
4733.214368770596
 20
2518.78636168329
  0
SPLINE
  5
14AF
330
1F
100
AcDbEntity
  8
SANINDUSA
100
AcDbSpline
210
0.0
220
0.0
230
1.0
 70
     8
 71
     3
 72
    11
 73
     7
 74
     0
 42
0.0000000001
 43
0.0000000001
 40
0.0
 40
0.0
 40
0.0
 40
0.0
 40
0.2461821477171628
 40
0.4923645297360809
 40
0.7385472233236508
 40
1.0
 40
1.0
 40
1.0
 40
1.0
 10
4733.214368770596
 20
2518.78636168329
 30
0.0
 10
4733.213465695585
 20
2518.786305550023
 30
0.0
 10
4733.211659544701
 20
2518.786193283434
 30
0.0
 10
4733.209231145809
 20
2518.784897045869
 30
0.0
 10
4733.207247515273
 20
2518.782904679724
 30
0.0
 10
4733.206625552031
 20
2518.781143029124
 30
0.0
 10
4733.206305215833
 20
2518.78023570789
 30
0.0
  0
SPLINE
  5
14B0
330
1F
100
AcDbEntity
  8
SANINDUSA
100
AcDbSpline
210
0.0
220
0.0
230
1.0
 70
     8
 71
     3
 72
    12
 73
     8
 74
     0
 42
0.0000000001
 43
0.0000000001
 40
0.7949338800758341
 40
0.7949338800758341
 40
0.7949338800758341
 40
0.7949338800758341
 40
0.8316820878614224
 40
0.8316820878614224
 40
0.9385091581384543
 40
0.9385091581384543
 40
1.0
 40
1.0
 40
1.0
 40
1.0
 10
4733.198281003666
 20
2518.786935899935
 30
0.0
 10
4733.198140845551
 20
2518.786666807102
 30
0.0
 10
4733.198014755346
 20
2518.786407894286
 30
0.0
 10
4733.197567559406
 20
2518.785442280434
 30
0.0
 10
4733.197331109268
 20
2518.784824140223
 30
0.0
 10
4733.197039816529
 20
2518.784030631068
 30
0.0
 10
4733.196950995179
 20
2518.783778273088
 30
0.0
 10
4733.196581933184
 20
2518.782571895926
 30
0.0
  0
LINE
  5
14B1
330
1F
100
AcDbEntity
  8
SANINDUSA
100
AcDbLine
 10
4733.199137459275
 20
2518.750403296333
 30
0.0
 11
4733.206305215833
 21
2518.78023570789
 31
0.0
  0
LINE
  5
14B2
330
1F
100
AcDbEntity
  8
SANINDUSA
100
AcDbLine
 10
4733.189782448175
 20
2518.754272241276
 30
0.0
 11
4733.196581933184
 21
2518.782571895926
 31
0.0
  0
ARC
  5
14B3
330
1F
100
AcDbEntity
  8
SANINDUSA
100
AcDbCircle
 10
4733.191358851224
 20
2518.752272244972
 30
0.0
 40
0.0080000000000001
100
AcDbArc
 50
270.0
 51
346.4897878660516
  0
LINE
  5
14B4
330
1F
100
AcDbEntity
  8
SANINDUSA
100
AcDbLine
 10
4733.191358874318
 20
2518.744272243362
 30
0.0
 11
4733.169359992024
 21
2518.744272243362
 31
0.0
  0
ARC
  5
14B5
330
1F
100
AcDbEntity
  8
SANINDUSA
100
AcDbCircle
 10
4733.169360018939
 20
2518.752272244972
 30
0.0
 40
0.0080000000000001
100
AcDbArc
 50
193.5102121339484
 51
270.0
  0
LINE
  5
14B6
330
1F
100
AcDbEntity
  8
SANINDUSA
100
AcDbLine
 10
4733.161581407067
 20
2518.750403296333
 30
0.0
 11
4733.15383155155
 21
2518.78265850259
 31
0.0
  0
SPLINE
  5
14B7
330
1F
100
AcDbEntity
  8
SANINDUSA
100
AcDbSpline
210
0.0
220
0.0
230
1.0
 70
     8
 71
     3
 72
    11
 73
     7
 74
     0
 42
0.0000000001
 43
0.0000000001
 40
0.0
 40
0.0
 40
0.0
 40
0.0
 40
0.2595307345925382
 40
0.5190593755842274
 40
0.778593481465634
 40
1.0
 40
1.0
 40
1.0
 40
1.0
 10
4733.15383155155
 20
2518.78265850259
 30
0.0
 10
4733.153535383301
 20
2518.783513366522
 30
0.0
 10
4733.152943049193
 20
2518.785223087489
 30
0.0
 10
4733.151042685999
 20
2518.787216611983
 30
0.0
 10
4733.14876062271
 20
2518.788494041936
 30
0.0
 10
4733.147100638845
 20
2518.788692954667
 30
0.0
 10
4733.146336446282
 20
2518.788784526419
 30
0.0
  0
LINE
  5
14B8
330
1F
100
AcDbEntity
  8
SANINDUSA
100
AcDbLine
 10
4733.146336446282
 20
2518.788784526419
 30
0.0
 11
4733.074538777349
 21
2518.791343098636
 31
0.0
  0
SPLINE
  5
14B9
330
1F
100
AcDbEntity
  8
SANINDUSA
100
AcDbSpline
210
0.0
220
0.0
230
1.0
 70
     8
 71
     3
 72
    11
 73
     7
 74
     0
 42
0.0000000001
 43
0.0000000001
 40
0.0
 40
0.0
 40
0.0
 40
0.0
 40
0.2509043164356686
 40
0.5018073172893579
 40
0.7527129909734958
 40
0.9999999999999998
 40
0.9999999999999998
 40
0.9999999999999998
 40
0.9999999999999998
 10
4733.074538777349
 20
2518.791343098636
 30
0.0
 10
4733.073635735714
 20
2518.791286926703
 30
0.0
 10
4733.071829657181
 20
2518.791174583132
 30
0.0
 10
4733.069400759186
 20
2518.789878136852
 30
0.0
 10
4733.06746881962
 20
2518.787935709185
 30
0.0
 10
4733.066839309177
 20
2518.786253638263
 30
0.0
 10
4733.066526840207
 20
2518.785418711733
 30
0.0
  0
LINE
  5
14BA
330
1F
100
AcDbEntity
  8
SANINDUSA
100
AcDbLine
 10
4733.057090471265
 20
2518.750201691072
 30
0.0
 11
4733.066526840207
 21
2518.785418711733
 31
0.0
  0
ARC
  5
14BB
330
1F
100
AcDbEntity
  8
SANINDUSA
100
AcDbCircle
 10
4733.049363041103
 20
2518.752272244972
 30
0.0
 40
0.0080000000000001
100
AcDbArc
 50
270.0
 51
345.0000000097778
  0
LINE
  5
14BC
330
1F
100
AcDbEntity
  8
SANINDUSA
100
AcDbLine
 10
4733.049363027093
 20
2518.744272243362
 30
0.0
 11
4733.038615236757
 21
2518.744272243362
 31
0.0
  0
ARC
  5
14BD
330
1F
100
AcDbEntity
  8
SANINDUSA
100
AcDbCircle
 10
4733.02861525444
 20
2518.729105578305
 30
0.0
 40
0.0181666666666666
100
AcDbArc
 50
56.60151155687267
 51
123.3984884431273
  0
LINE
  5
14BE
330
1F
100
AcDbEntity
  8
SANINDUSA
100
AcDbLine
 10
4733.018615255829
 20
2518.744272243362
 30
0.0
 11
4733.005501637932
 21
2518.744272243362
 31
0.0
  0
LINE
  5
14BF
330
1F
100
AcDbEntity
  8
SANINDUSA
100
AcDbLine
 10
4733.005501637932
 20
2518.744272243362
 30
0.0
 11
4733.005501637932
 21
2518.799269436057
 31
0.0
  0
LINE
  5
14C0
330
1F
100
AcDbEntity
  8
SANINDUSA
100
AcDbLine
 10
4732.964873085496
 20
2518.799269436057
 30
0.0
 11
4733.005501637932
 21
2518.799269436057
 31
0.0
  0
LINE
  5
14C1
330
1F
100
AcDbEntity
  8
SANINDUSA
100
AcDbLine
 10
4732.965327392099
 20
2518.812279471327
 30
0.0
 11
4732.964873085496
 21
2518.799269436057
 31
0.0
  0
ARC
  5
14C2
330
1F
100
AcDbEntity
  8
SANINDUSA
100
AcDbCircle
 10
4732.97032435771
 20
2518.812104973974
 30
0.0
 40
0.0049999999999998
100
AcDbArc
 50
88.08018988604702
 51
177.9999999962464
  0
LINE
  5
14C3
330
1F
100
AcDbEntity
  8
SANINDUSA
100
AcDbLine
 10
4733.003447065827
 20
2518.815997524783
 30
0.0
 11
4732.970491836545
 21
2518.81710216742
 31
0.0
  0
SPLINE
  5
14C4
330
1F
100
AcDbEntity
  8
SANINDUSA
100
AcDbSpline
210
0.0
220
0.0
230
1.0
 70
     8
 71
     3
 72
    14
 73
    10
 74
     0
 42
0.0000000001
 43
0.0000000001
 40
0.0
 40
0.0
 40
0.0
 40
0.0
 40
0.2499999999999999
 40
0.2499999999999999
 40
0.5
 40
0.5
 40
0.75
 40
0.75
 40
1.0
 40
1.0
 40
1.0
 40
1.0
 10
4733.013125731827
 20
2518.813123195375
 30
0.0
 10
4733.012401596516
 20
2518.813561063278
 30
0.0
 10
4733.01164799342
 20
2518.813954255784
 30
0.0
 10
4733.010079468342
 20
2518.814647676718
 30
0.0
 10
4733.009280660595
 20
2518.81494070804
 30
0.0
 10
4733.007657960242
 20
2518.815422476889
 30
0.0
 10
4733.00683358208
 20
2518.815611413866
 30
0.0
 10
4733.005158564313
 20
2518.81588457365
 30
0.0
 10
4733.004304334346
 20
2518.815968787226
 30
0.0
 10
4733.003447065768
 20
2518.815997523716
 30
0.0
  0
SPLINE
  5
14C5
330
1F
100
AcDbEntity
  8
SANINDUSA
100
AcDbSpline
210
0.0
220
0.0
230
1.0
 70
     8
 71
     3
 72
    13
 73
     9
 74
     0
 42
0.0000000001
 43
0.0000000001
 40
0.0
 40
0.0
 40
0.0
 40
0.0
 40
0.1635343432126655
 40
0.3270670235348744
 40
0.4953508259960693
 40
0.6636366585910947
 40
0.8312040597958821
 40
1.0
 40
1.0
 40
1.0
 40
1.0
 10
4733.013125727651
 20
2518.813123189043
 30
0.0
 10
4733.014569280784
 20
2518.812297186114
 30
0.0
 10
4733.01745637237
 20
2518.810645188655
 30
0.0
 10
4733.022072527924
 20
2518.80861350167
 30
0.0
 10
4733.026876250209
 20
2518.806934837582
 30
0.0
 10
4733.031849021062
 20
2518.805676527467
 30
0.0
 10
4733.036914727864
 20
2518.804813638727
 30
0.0
 10
4733.040329524857
 20
2518.804607647333
 30
0.0
 10
4733.042043159482
 20
2518.804504275452
 30
0.0
  0
SPLINE
  5
14C6
330
1F
100
AcDbEntity
  8
SANINDUSA
100
AcDbSpline
210
0.0
220
0.0
230
1.0
 70
     8
 71
     3
 72
    14
 73
    10
 74
     0
 42
0.0000000001
 43
0.0000000001
 40
0.0
 40
0.0
 40
0.0
 40
0.0
 40
0.0080713930364708
 40
0.0764745945857545
 40
0.1448826188655942
 40
0.2816646455606041
 40
0.5552286991294773
 40
0.7816338335275301
 40
1.0
 40
1.0
 40
1.0
 40
1.0
 10
4733.614506746408
 20
2518.784999270122
 30
0.0
 10
4733.612965656766
 20
2518.785006588215
 30
0.0
 10
4733.598364186491
 20
2518.785075925455
 30
0.0
 10
4733.570704773661
 20
2518.785679104104
 30
0.0
 10
4733.518500487641
 20
2518.78755585897
 30
0.0
 10
4733.427147201445
 20
2518.7907960774
 30
0.0
 10
4733.30564681644
 20
2518.795125386172
 30
0.0
 10
4733.168578788621
 20
2518.800004085649
 30
0.0
 10
4733.083710387799
 20
2518.803022396892
 30
0.0
 10
4733.042043159482
 20
2518.804504275452
 30
0.0
  0
LINE
  5
14C7
330
1F
100
AcDbEntity
  8
SANINDUSA
100
AcDbLine
 10
4733.635501662966
 20
2518.759272243958
 30
0.0
 11
4733.635501662966
 21
2518.770298473667
 31
0.0
  0
LINE
  5
14C8
330
1F
100
AcDbEntity
  8
SANINDUSA
100
AcDbLine
 10
4733.635501662966
 20
2518.759272243958
 30
0.0
 11
4733.623501653549
 21
2518.759272243958
 31
0.0
  0
SPLINE
  5
14C9
330
1F
100
AcDbEntity
  8
SANINDUSA
100
AcDbSpline
210
0.0
220
0.0
230
1.0
 70
     8
 71
     3
 72
    11
 73
     7
 74
     0
 42
0.0000000001
 43
0.0000000001
 40
0.0
 40
0.0
 40
0.0
 40
0.0
 40
0.2461424367394424
 40
0.492286231074587
 40
0.7384272185036999
 40
1.0
 40
1.0
 40
1.0
 40
1.0
 10
4733.530962745425
 20
2518.7750979775
 30
0.0
 10
4733.53005965531
 20
2518.775042047831
 30
0.0
 10
4733.5282534701
 20
2518.774930188183
 30
0.0
 10
4733.525824764818
 20
2518.773634516586
 30
0.0
 10
4733.523840257832
 20
2518.771642139905
 30
0.0
 10
4733.523217972477
 20
2518.769879944044
 30
0.0
 10
4733.522897372719
 20
2518.76897206543
 30
0.0
  0
LINE
  5
14CA
330
1F
100
AcDbEntity
  8
SANINDUSA
100
AcDbLine
 10
4733.522897372719
 20
2518.76897206543
 30
0.0
 11
4733.518435905454
 21
2518.750403296333
 31
0.0
  0
ARC
  5
14CB
330
1F
100
AcDbEntity
  8
SANINDUSA
100
AcDbCircle
 10
4733.510657279462
 20
2518.752272244972
 30
0.0
 40
0.0080000000000001
100
AcDbArc
 50
270.0
 51
346.4897878660516
  0
LINE
  5
14CC
330
1F
100
AcDbEntity
  8
SANINDUSA
100
AcDbLine
 10
4733.510657290694
 20
2518.744272243362
 30
0.0
 11
4733.466016332385
 21
2518.744272243362
 31
0.0
  0
ARC
  5
14CD
330
1F
100
AcDbEntity
  8
SANINDUSA
100
AcDbCircle
 10
4733.466016333539
 20
2518.752272244972
 30
0.0
 40
0.0080000000000001
100
AcDbArc
 50
193.5102121339484
 51
270.0
  0
LINE
  5
14CE
330
1F
100
AcDbEntity
  8
SANINDUSA
100
AcDbLine
 10
4733.458237717626
 20
2518.750403296333
 30
0.0
 11
4733.453046272275
 21
2518.772010199856
 31
0.0
  0
SPLINE
  5
14CF
330
1F
100
AcDbEntity
  8
SANINDUSA
100
AcDbSpline
210
0.0
220
0.0
230
1.0
 70
     8
 71
     3
 72
    24
 73
    20
 74
     0
 42
0.0000000001
 43
0.0000000001
 40
0.0
 40
0.0
 40
0.0
 40
0.0
 40
0.250000000000006
 40
0.250000000000006
 40
0.3750000000000048
 40
0.3750000000000048
 40
0.5000000000000037
 40
0.5000000000000037
 40
0.5624999999999976
 40
0.5624999999999976
 40
0.6249999999999913
 40
0.6249999999999913
 40
0.749999999999994
 40
0.749999999999994
 40
0.8124999999999953
 40
0.8124999999999953
 40
0.8749999999999968
 40
0.8749999999999968
 40
1.0
 40
1.0
 40
1.0
 40
1.0
 10
4733.453046275514
 20
2518.772010198326
 30
0.0
 10
4733.452842030035
 20
2518.772860274474
 30
0.0
 10
4733.452507628466
 20
2518.773654632529
 30
0.0
 10
4733.451812010308
 20
2518.774763114021
 30
0.0
 10
4733.451551467213
 20
2518.775111098965
 30
0.0
 10
4733.450981134747
 20
2518.775757463693
 30
0.0
 10
4733.450670457333
 20
2518.776057265315
 30
0.0
 10
4733.450164995455
 20
2518.776470816108
 30
0.0
 10
4733.449989941341
 20
2518.776602441337
 30
0.0
 10
4733.449633012322
 20
2518.776848756721
 30
0.0
 10
4733.449450367229
 20
2518.776964106284
 30
0.0
 10
4733.448890108162
 20
2518.777287137691
 30
0.0
 10
4733.448500251751
 20
2518.777471954184
 30
0.0
 10
4733.447890342111
 20
2518.777702252611
 30
0.0
 10
4733.447682226498
 20
2518.77777126557
 30
0.0
 10
4733.447264273337
 20
2518.777891141712
 30
0.0
 10
4733.447053712767
 20
2518.77794233034
 30
0.0
 10
4733.446417347746
 20
2518.778070027148
 30
0.0
 10
4733.445986891605
 20
2518.778120840911
 30
0.0
 10
4733.445550029715
 20
2518.778136271407
 30
0.0
  0
SPLINE
  5
14D0
330
1F
100
AcDbEntity
  8
SANINDUSA
100
AcDbSpline
210
0.0
220
0.0
230
1.0
 70
    24
 71
     3
 72
    10
 73
     6
 74
     0
 42
0.0000000001
 43
0.0000000001
 40
0.0
 40
0.0
 40
0.0
 40
0.0
 40
0.5
 40
0.5
 40
1.0
 40
1.0
 40
1.0
 40
1.0
 10
4733.445550029715
 20
2518.778136271407
 30
0.0
 10
4733.431531374233
 20
2518.778631427444
 30
0.0
 10
4733.417512805762
 20
2518.779129028862
 30
0.0
 10
4733.389475945116
 20
2518.780131996598
 30
0.0
 10
4733.37545755407
 20
2518.780634584347
 30
0.0
 10
4733.361438970583
 20
2518.781131763742
 30
0.0
  0
SPLINE
  5
14D1
330
1F
100
AcDbEntity
  8
SANINDUSA
100
AcDbSpline
210
0.0
220
0.0
230
1.0
 70
     8
 71
     3
 72
    12
 73
     8
 74
     0
 42
0.0000000001
 43
0.0000000001
 40
0.7950622984627037
 40
0.7950622984627037
 40
0.7950622984627037
 40
0.7950622984627037
 40
0.831773714426855
 40
0.831773714426855
 40
0.9385973054014673
 40
0.9385973054014673
 40
1.0
 40
1.0
 40
1.0
 40
1.0
 10
4733.345350833206
 20
2518.781702660817
 30
0.0
 10
4733.34521091356
 20
2518.781433893649
 30
0.0
 10
4733.345085027401
 20
2518.781175293611
 30
0.0
 10
4733.344638200068
 20
2518.780210133846
 30
0.0
 10
4733.344401901233
 20
2518.779592188096
 30
0.0
 10
4733.344110957803
 20
2518.778799428324
 30
0.0
 10
4733.344022302341
 20
2518.778547504868
 30
0.0
 10
4733.343653533757
 20
2518.777341926175
 30
0.0
  0
LINE
  5
14D2
330
1F
100
AcDbEntity
  8
SANINDUSA
100
AcDbLine
 10
4733.347465644357
 20
2518.750403296333
 30
0.0
 11
4733.353376815793
 21
2518.775005735587
 31
0.0
  0
LINE
  5
14D3
330
1F
100
AcDbEntity
  8
SANINDUSA
100
AcDbLine
 10
4733.338110633682
 20
2518.754272241276
 30
0.0
 11
4733.343653533757
 21
2518.777341926175
 31
0.0
  0
ARC
  5
14D4
330
1F
100
AcDbEntity
  8
SANINDUSA
100
AcDbCircle
 10
4733.339687008525
 20
2518.752272244972
 30
0.0
 40
0.0080000000000001
100
AcDbArc
 50
270.0
 51
346.4897878660516
  0
LINE
  5
14D5
330
1F
100
AcDbEntity
  8
SANINDUSA
100
AcDbLine
 10
4733.339686999794
 20
2518.744272243362
 30
0.0
 11
4733.317688177105
 21
2518.744272243362
 31
0.0
  0
LINE
  5
14D8
330
1F
100
AcDbEntity
  8
SANINDUSA
100
AcDbLine
 10
4733.737501653609
 20
2518.759272243958
 30
0.0
 11
4733.725501651642
 21
2518.759272243958
 31
0.0
  0
LINE
  5
14D9
330
1F
100
AcDbEntity
  8
SANINDUSA
100
AcDbLine
 10
4733.725501651642
 20
2518.770298473667
 30
0.0
 11
4733.725501651642
 21
2518.759272243958
 31
0.0
  0
SPLINE
  5
14DA
330
1F
100
AcDbEntity
  8
SANINDUSA
100
AcDbSpline
210
0.0
220
0.0
230
1.0
 70
     8
 71
     3
 72
    14
 73
    10
 74
     0
 42
0.0000000001
 43
0.0000000001
 40
0.0
 40
0.0
 40
0.0
 40
0.0
 40
0.25
 40
0.25
 40
0.5
 40
0.5
 40
0.75
 40
0.75
 40
1.0
 40
1.0
 40
1.0
 40
1.0
 10
4733.799655633041
 20
2518.805658400451
 30
0.0
 10
4733.795363988852
 20
2518.803111411891
 30
0.0
 10
4733.791073358234
 20
2518.800800608034
 30
0.0
 10
4733.782494154657
 20
2518.796658480145
 30
0.0
 10
4733.77820558082
 20
2518.794826951672
 30
0.0
 10
4733.769630403572
 20
2518.791623047548
 30
0.0
 10
4733.765343799284
 20
2518.790250467456
 30
0.0
 10
4733.75677238423
 20
2518.787923237792
 30
0.0
 10
4733.752487572588
 20
2518.786968383778
 30
0.0
 10
4733.74820353758
 20
2518.786194502846
 30
0.0
  0
SPLINE
  5
14DB
330
1F
100
AcDbEntity
  8
SANINDUSA
100
AcDbSpline
210
0.0
220
0.0
230
1.0
 70
     8
 71
     3
 72
     8
 73
     4
 74
     0
 42
0.0000000001
 43
0.0000000001
 40
0.0
 40
0.0
 40
0.0
 40
0.0
 40
1.0
 40
1.0
 40
1.0
 40
1.0
 10
4733.799655633041
 20
2518.805658400451
 30
0.0
 10
4733.802437310663
 20
2518.807309259834
 30
0.0
 10
4733.805068292135
 20
2518.80917286728
 30
0.0
 10
4733.807548578131
 20
2518.811249221841
 30
0.0
  0
SPLINE
  5
14DC
330
1F
100
AcDbEntity
  8
SANINDUSA
100
AcDbSpline
210
0.0
220
0.0
230
1.0
 70
     8
 71
     3
 72
    14
 73
    10
 74
     0
 42
0.0000000001
 43
0.0000000001
 40
0.0
 40
0.0
 40
0.0
 40
0.0
 40
0.25
 40
0.25
 40
0.5
 40
0.5
 40
0.75
 40
0.75
 40
1.0
 40
1.0
 40
1.0
 40
1.0
 10
4733.819716700674
 20
2518.81590234335
 30
0.0
 10
4733.818600763388
 20
2518.815864937631
 30
0.0
 10
4733.817503738001
 20
2518.815735275433
 30
0.0
 10
4733.815345923424
 20
2518.815299182751
 30
0.0
 10
4733.81428513495
 20
2518.814992748769
 30
0.0
 10
4733.812201276383
 20
2518.814195882098
 30
0.0
 10
4733.8112039624
 20
2518.813714937637
 30
0.0
 10
4733.809305850729
 20
2518.812599674462
 30
0.0
 10
4733.808403155131
 20
2518.811964625166
 30
0.0
 10
4733.807548578131
 20
2518.811249221841
 30
0.0
  0
LINE
  5
14DD
330
1F
100
AcDbEntity
  8
SANINDUSA
100
AcDbLine
 10
4733.855511452769
 20
2518.81710216742
 30
0.0
 11
4733.819716701981
 21
2518.81590234315
 31
0.0
  0
ARC
  5
14DE
330
1F
100
AcDbEntity
  8
SANINDUSA
100
AcDbCircle
 10
4733.855678956302
 20
2518.812104973974
 30
0.0
 40
0.0050000000000004
100
AcDbArc
 50
2.000000003753602
 51
91.91981011395297
  0
LINE
  5
14DF
330
1F
100
AcDbEntity
  8
SANINDUSA
100
AcDbLine
 10
4733.861130230884
 20
2518.799269436057
 30
0.0
 11
4733.860675910443
 21
2518.812279471327
 31
0.0
  0
LINE
  5
14E0
330
1F
100
AcDbEntity
  8
SANINDUSA
100
AcDbLine
 10
4733.8205016579
 20
2518.799269436057
 30
0.0
 11
4733.861130230884
 21
2518.799269436057
 31
0.0
  0
LINE
  5
14E1
330
1F
100
AcDbEntity
  8
SANINDUSA
100
AcDbLine
 10
4733.8205016579
 20
2518.799269436057
 30
0.0
 11
4733.8205016579
 21
2518.744272243362
 31
0.0
  0
LINE
  5
14E2
330
1F
100
AcDbEntity
  8
SANINDUSA
100
AcDbLine
 10
4733.8205016579
 20
2518.744272243362
 30
0.0
 11
4733.80738805863
 21
2518.744272243362
 31
0.0
  0
ARC
  5
14E3
330
1F
100
AcDbEntity
  8
SANINDUSA
100
AcDbCircle
 10
4733.797388059572
 20
2518.729105578305
 30
0.0
 40
0.0181666666666666
100
AcDbArc
 50
56.60151155687267
 51
123.3984884431273
  0
LINE
  5
14E4
330
1F
100
AcDbEntity
  8
SANINDUSA
100
AcDbLine
 10
4733.787388059076
 20
2518.744272243362
 30
0.0
 11
4733.77664027619
 21
2518.744272243362
 31
0.0
  0
ARC
  5
14E5
330
1F
100
AcDbEntity
  8
SANINDUSA
100
AcDbCircle
 10
4733.77664027291
 20
2518.752272244972
 30
0.0
 40
0.0080000000000007
100
AcDbArc
 50
194.9999999902221
 51
270.0
  0
LINE
  5
14E6
330
1F
100
AcDbEntity
  8
SANINDUSA
100
AcDbLine
 10
4733.763765799579
 20
2518.769410804044
 30
0.0
 11
4733.768912869272
 21
2518.750201691072
 31
0.0
  0
SPLINE
  5
14E7
330
1F
100
AcDbEntity
  8
SANINDUSA
100
AcDbSpline
210
0.0
220
0.0
230
1.0
 70
     8
 71
     3
 72
    26
 73
    22
 74
     0
 42
0.0000000001
 43
0.0000000001
 40
0.0
 40
0.0
 40
0.0
 40
0.0
 40
0.124999999999998
 40
0.124999999999998
 40
0.1874999999999969
 40
0.1874999999999969
 40
0.2499999999999959
 40
0.2499999999999959
 40
0.3749999999999952
 40
0.3749999999999952
 40
0.4999999999999946
 40
0.4999999999999946
 40
0.6249999999999939
 40
0.6249999999999939
 40
0.6874999999999939
 40
0.6874999999999939
 40
0.7499999999999939
 40
0.7499999999999939
 40
0.8749999999999968
 40
0.8749999999999968
 40
1.0
 40
1.0
 40
1.0
 40
1.0
 10
4733.763765800708
 20
2518.769410802908
 30
0.0
 10
4733.76363418395
 20
2518.769902003337
 30
0.0
 10
4733.76345827692
 20
2518.770372865369
 30
0.0
 10
4733.763130731605
 20
2518.771049913937
 30
0.0
 10
4733.763010862184
 20
2518.771270688952
 30
0.0
 10
4733.762749336916
 20
2518.771702234504
 30
0.0
 10
4733.762606866871
 20
2518.771913983762
 30
0.0
 10
4733.762154194998
 20
2518.772522186222
 30
0.0
 10
4733.76181797773
 20
2518.772894406166
 30
0.0
 10
4733.761077979933
 20
2518.773573612977
 30
0.0
 10
4733.760669542606
 20
2518.773882858304
 30
0.0
 10
4733.75981315674
 20
2518.774411630951
 30
0.0
 10
4733.759363753526
 20
2518.774633800259
 30
0.0
 10
4733.758657714798
 20
2518.774903492861
 30
0.0
 10
4733.75841570511
 20
2518.774983057977
 30
0.0
 10
4733.757927653985
 20
2518.775118091546
 30
0.0
 10
4733.757682079657
 20
2518.775173594223
 30
0.0
 10
4733.756940833587
 20
2518.775305015749
 30
0.0
 10
4733.756440678804
 20
2518.775346158693
 30
0.0
 10
4733.755428064062
 20
2518.775332990752
 30
0.0
 10
4733.754921389334
 20
2518.77527819169
 30
0.0
 10
4733.754423331976
 20
2518.775175528641
 30
0.0
  0
SPLINE
  5
14E8
330
1F
100
AcDbEntity
  8
SANINDUSA
100
AcDbSpline
210
0.0
220
0.0
230
1.0
 70
     8
 71
     3
 72
    10
 73
     6
 74
     0
 42
0.0000000001
 43
0.0000000001
 40
0.0
 40
0.0
 40
0.0
 40
0.0
 40
0.5
 40
0.5
 40
1.0
 40
1.0
 40
1.0
 40
1.0
 10
4733.805780163407
 20
2518.795338986857
 30
0.0
 10
4733.800308049392
 20
2518.792091390165
 30
0.0
 10
4733.794716333639
 20
2518.789132218863
 30
0.0
 10
4733.783258274394
 20
2518.783876154353
 30
0.0
 10
4733.77739172538
 20
2518.781579756775
 30
0.0
 10
4733.771378332683
 20
2518.779637479855
 30
0.0
  0
LINE
  5
14E9
330
1F
100
AcDbEntity
  8
SANINDUSA
100
AcDbLine
 10
4733.771378333446
 20
2518.779637478422
 30
0.0
 11
4733.77817492443
 21
2518.754272241276
 31
0.0
  0
LINE
  5
14EA
330
1F
100
AcDbEntity
  8
SANINDUSA
100
AcDbLine
 10
4733.77817492443
 20
2518.754272241276
 30
0.0
 11
4733.810501656261
 21
2518.754272241276
 31
0.0
  0
LINE
  5
14EB
330
1F
100
AcDbEntity
  8
SANINDUSA
100
AcDbLine
 10
4733.810501656261
 20
2518.798396607991
 30
0.0
 11
4733.810501656261
 21
2518.754272241276
 31
0.0
  0
SPLINE
  5
14EC
330
1F
100
AcDbEntity
  8
SANINDUSA
100
AcDbSpline
210
0.0
220
0.0
230
1.0
 70
     8
 71
     3
 72
     8
 73
     4
 74
     0
 42
0.0000000001
 43
0.0000000001
 40
0.0
 40
0.0
 40
0.0
 40
0.0
 40
1.0
 40
1.0
 40
1.0
 40
1.0
 10
4733.805780163407
 20
2518.795338986857
 30
0.0
 10
4733.80739646718
 20
2518.79629823273
 30
0.0
 10
4733.808970160302
 20
2518.797317634743
 30
0.0
 10
4733.810501657006
 20
2518.798396608096
 30
0.0
  0
LINE
  5
14EF
330
1F
100
AcDbEntity
  8
SANINDUSA
100
AcDbLine
 10
4733.466016332385
 20
2518.744272243362
 30
0.0
 11
4733.461681733605
 21
2518.744272243362
 31
0.0
  0
LINE
  5
14F2
330
1F
100
AcDbEntity
  8
SANINDUSA
100
AcDbLine
 10
4733.317688177105
 20
2518.744272243362
 30
0.0
 11
4733.313353548523
 21
2518.744272243362
 31
0.0
  0
LINE
  5
14F5
330
1F
100
AcDbEntity
  8
SANINDUSA
100
AcDbLine
 10
4733.169359992024
 20
2518.744272243362
 30
0.0
 11
4733.165025423047
 21
2518.744272243362
 31
0.0
  0
LINE
  5
14F6
330
1F
100
AcDbEntity
  8
SANINDUSA
100
AcDbLine
 10
4733.635501662966
 20
2518.759272243958
 30
0.0
 11
4733.725501651642
 21
2518.759272243958
 31
0.0
  0
SPLINE
  5
14F7
330
1F
100
AcDbEntity
  8
SANINDUSA
100
AcDbSpline
210
0.0
220
0.0
230
1.0
 70
     8
 71
     3
 72
    10
 73
     6
 74
     0
 42
0.0000000001
 43
0.0000000001
 40
0.0
 40
0.0
 40
0.0
 40
0.0
 40
0.5
 40
0.5
 40
1.0
 40
1.0
 40
1.0
 40
1.0
 10
4733.440392593698
 20
2518.79058269642
 30
0.0
 10
4733.413727680768
 20
2518.79155265073
 30
0.0
 10
4733.3870619075
 20
2518.792498734015
 30
0.0
 10
4733.333729829237
 20
2518.794375491041
 30
0.0
 10
4733.307063620528
 20
2518.795309074401
 30
0.0
 10
4733.280397246344
 20
2518.796237909914
 30
0.0
  0
LINE
  5
1502
330
1F
100
AcDbEntity
  8
SANINDUSA
100
AcDbLine
 10
4733.514991889474
 20
2518.744272243362
 30
0.0
 11
4733.510657290694
 21
2518.744272243362
 31
0.0
  0
LINE
  5
1510
330
1F
100
AcDbEntity
  8
SANINDUSA
100
AcDbLine
 10
4733.461681733605
 20
2518.744272243362
 30
0.0
 11
4733.339686999794
 21
2518.744272243362
 31
0.0
  0
LINE
  5
1514
330
1F
100
AcDbEntity
  8
SANINDUSA
100
AcDbLine
 10
4733.313353548523
 20
2518.744272243362
 30
0.0
 11
4733.214388082501
 21
2518.744272243362
 31
0.0
  0
LINE
  5
1517
330
1F
100
AcDbEntity
  8
SANINDUSA
100
AcDbLine
 10
4733.165025423047
 20
2518.744272243362
 30
0.0
 11
4733.084929059026
 21
2518.744272243362
 31
0.0
  0
LINE
  5
151B
330
1F
100
AcDbEntity
  8
SANINDUSA
100
AcDbLine
 10
4733.627918089506
 20
2518.744272243362
 30
0.0
 11
4733.514991889474
 21
2518.744272243362
 31
0.0
  0
SPLINE
  5
1522
330
1F
100
AcDbEntity
  8
SANINDUSA
100
AcDbSpline
210
0.0
220
0.0
230
1.0
 70
    24
 71
     3
 72
    11
 73
     7
 74
     0
 42
0.0000000001
 43
0.0000000001
 40
0.0
 40
0.0
 40
0.0
 40
0.0
 40
0.1334884032133742
 40
0.5625796702022802
 40
0.9910882050184573
 40
1.0
 40
1.0
 40
1.0
 40
1.0
 10
4733.280534754274
 20
2518.800318878274
 30
0.0
 10
4733.280452953155
 20
2518.800321681752
 30
0.0
 10
4733.280108206755
 20
2518.800333496858
 30
0.0
 10
4733.279529193095
 20
2518.800351903295
 30
0.0
 10
4733.279036727071
 20
2518.800366560333
 30
0.0
 10
4733.2788813284
 20
2518.800370099687
 30
0.0
 10
4733.278878162381
 20
2518.800370171796
 30
0.0
  0
SPLINE
  5
1524
330
1F
100
AcDbEntity
  8
SANINDUSA
100
AcDbSpline
210
0.0
220
0.0
230
1.0
 70
    24
 71
     3
 72
     9
 73
     5
 74
     0
 42
0.0000000001
 43
0.0000000001
 40
0.0
 40
0.0
 40
0.0
 40
0.0
 40
0.0230345555794289
 40
1.0
 40
1.0
 40
1.0
 40
1.0
 10
4733.441327790496
 20
2518.794659067076
 30
0.0
 10
4733.441322384292
 20
2518.794659298635
 30
0.0
 10
4733.441087684573
 20
2518.794669351316
 30
0.0
 10
4733.440808403407
 20
2518.794679572669
 30
0.0
 10
4733.440535555359
 20
2518.794689558577
 30
0.0
  0
SPLINE
  5
1526
330
1F
100
AcDbEntity
  8
SANINDUSA
100
AcDbSpline
210
0.0
220
0.0
230
1.0
 70
     8
 71
     3
 72
    10
 73
     6
 74
     0
 42
0.0000000001
 43
0.0000000001
 40
0.0
 40
0.0
 40
0.0
 40
0.0
 40
0.4999999999999996
 40
0.4999999999999996
 40
1.0
 40
1.0
 40
1.0
 40
1.0
 10
4733.280537555679
 20
2518.800279343277
 30
0.0
 10
4733.307205211822
 20
2518.799354551552
 30
0.0
 10
4733.33387270885
 20
2518.798425197518
 30
0.0
 10
4733.387207235717
 20
2518.796553093541
 30
0.0
 10
4733.413874196151
 20
2518.795608332523
 30
0.0
 10
4733.44054021096
 20
2518.794637332445
 30
0.0
  0
SPLINE
  5
1527
330
1F
100
AcDbEntity
  8
SANINDUSA
100
AcDbSpline
210
0.0
220
0.0
230
1.0
 70
     8
 71
     3
 72
    11
 73
     7
 74
     0
 42
0.0000000001
 43
0.0000000001
 40
0.0
 40
0.0
 40
0.0
 40
0.0
 40
0.5002139040084775
 40
0.5751687860398533
 40
0.8749873564819626
 40
1.0
 40
1.0
 40
1.0
 40
1.0
 10
4733.440535555359
 20
2518.794689558577
 30
0.0
 10
4733.413858005675
 20
2518.795646882831
 30
0.0
 10
4733.383182940981
 20
2518.796747657968
 30
0.0
 10
4733.336516313635
 20
2518.798378219561
 30
0.0
 10
4733.309860545925
 20
2518.799305375287
 30
0.0
 10
4733.287202273948
 20
2518.800088447969
 30
0.0
 10
4733.280534754274
 20
2518.800318878274
 30
0.0
  0
LINE
  5
152A
330
1F
100
AcDbEntity
  8
SANINDUSA
100
AcDbLine
 10
4733.769112090346
 20
2518.744272243362
 30
0.0
 11
4733.661290849325
 21
2518.744272243362
 31
0.0
  0
LINE
  5
152D
330
1F
100
AcDbEntity
  8
SANINDUSA
100
AcDbLine
 10
4733.084929059026
 20
2518.744272243362
 30
0.0
 11
4733.049363027093
 21
2518.744272243362
 31
0.0
  0
LINE
  5
152E
330
1F
100
AcDbEntity
  8
SANINDUSA
100
AcDbLine
 10
4733.214388082501
 20
2518.744272243362
 30
0.0
 11
4733.191358874318
 21
2518.744272243362
 31
0.0
  0
LINE
  5
1530
330
1F
100
AcDbEntity
  8
SANINDUSA
100
AcDbLine
 10
4733.661290849325
 20
2518.744272243362
 30
0.0
 11
4733.627918089506
 21
2518.744272243362
 31
0.0
  0
SPLINE
  5
1532
330
1F
100
AcDbEntity
  8
SANINDUSA
100
AcDbSpline
210
0.0
220
0.0
230
1.0
 70
     8
 71
     3
 72
    17
 73
    13
 74
     0
 42
0.0000000001
 43
0.0000000001
 40
0.0
 40
0.0
 40
0.0
 40
0.0
 40
0.0318724466895034
 40
0.139082885230225
 40
0.2462644516799235
 40
0.3534720792620425
 40
0.460682787883169
 40
0.5698566293342588
 40
0.6774162974885071
 40
0.7849906831842589
 40
0.8924893266326606
 40
1.0
 40
1.0
 40
1.0
 40
1.0
 10
4733.280525873182
 20
2518.802506083753
 30
0.0
 10
4733.280447981943
 20
2518.802508087743
 30
0.0
 10
4733.280108085287
 20
2518.802516832623
 30
0.0
 10
4733.279515084982
 20
2518.802528947118
 30
0.0
 10
4733.278856658635
 20
2518.802536818493
 30
0.0
 10
4733.278385639997
 20
2518.802535732635
 30
0.0
 10
4733.278154612162
 20
2518.802525794844
 30
0.0
 10
4733.278194735411
 20
2518.802508011994
 30
0.0
 10
4733.278501920578
 20
2518.802484347413
 30
0.0
 10
4733.279036213383
 20
2518.802457754644
 30
0.0
 10
4733.279738821406
 20
2518.802430583488
 30
0.0
 10
4733.280266731394
 20
2518.802415374524
 30
0.0
 10
4733.280530701157
 20
2518.802407769616
 30
0.0
  0
SPLINE
  5
1534
330
1F
100
AcDbEntity
  8
SANINDUSA
100
AcDbSpline
210
0.0
220
0.0
230
1.0
 70
     8
 71
     3
 72
    32
 73
    28
 74
     0
 42
0.0000000001
 43
0.0000000001
 40
0.0
 40
0.0
 40
0.0
 40
0.0
 40
0.0625000000000041
 40
0.0625000000000041
 40
0.1250000000000081
 40
0.1250000000000081
 40
0.1875000000000121
 40
0.1875000000000121
 40
0.2500000000000162
 40
0.2500000000000162
 40
0.3750000000000162
 40
0.3750000000000162
 40
0.5000000000000164
 40
0.5000000000000164
 40
0.5625000000000164
 40
0.5625000000000164
 40
0.6250000000000165
 40
0.6250000000000165
 40
0.7500000000000164
 40
0.7500000000000164
 40
0.8125000000000122
 40
0.8125000000000122
 40
0.8750000000000081
 40
0.8750000000000081
 40
0.9375000000000042
 40
0.9375000000000042
 40
1.0
 40
1.0
 40
1.0
 40
1.0
 10
4733.440536975971
 20
2518.797872011623
 30
0.0
 10
4733.44069197464
 20
2518.797867284065
 30
0.0
 10
4733.440844403457
 20
2518.797863165055
 30
0.0
 10
4733.44114432135
 20
2518.797856101978
 30
0.0
 10
4733.441293377834
 20
2518.797853135773
 30
0.0
 10
4733.441577485014
 20
2518.797848603647
 30
0.0
 10
4733.441712222203
 20
2518.7978470271
 30
0.0
 10
4733.441967169605
 20
2518.797845248946
 30
0.0
 10
4733.442087791744
 20
2518.797845065494
 30
0.0
 10
4733.442411835259
 20
2518.797846653271
 30
0.0
 10
4733.442585948959
 20
2518.797850615179
 30
0.0
 10
4733.442818068802
 20
2518.7978635746
 30
0.0
 10
4733.442878908097
 20
2518.797872811201
 30
0.0
 10
4733.442876816103
 20
2518.797889197456
 30
0.0
 10
4733.442861313029
 20
2518.797895079704
 30
0.0
 10
4733.442800076982
 20
2518.797907696581
 30
0.0
 10
4733.442754501711
 20
2518.797914349534
 30
0.0
 10
4733.442577861007
 20
2518.797934765944
 30
0.0
 10
4733.442402571216
 20
2518.797949386951
 30
0.0
 10
4733.442077935501
 20
2518.797970734463
 30
0.0
 10
4733.441957303209
 20
2518.797977897047
 30
0.0
 10
4733.441702102433
 20
2518.797991650553
 30
0.0
 10
4733.441567414364
 20
2518.79799826804
 30
0.0
 10
4733.441283810117
 20
2518.798010982
 30
0.0
 10
4733.4411346089
 20
2518.79801707409
 30
0.0
 10
4733.440834465954
 20
2518.79802820642
 30
0.0
 10
4733.440681977798
 20
2518.798033320316
 30
0.0
 10
4733.440526974233
 20
2518.798037965491
 30
0.0
  0
SPLINE
  5
1536
330
1F
100
AcDbEntity
  8
SANINDUSA
100
AcDbSpline
210
0.0
220
0.0
230
1.0
 70
     8
 71
     3
 72
    10
 73
     6
 74
     0
 42
0.0000000001
 43
0.0000000001
 40
0.0
 40
0.0
 40
0.0
 40
0.0
 40
0.5
 40
0.5
 40
1.0
 40
1.0
 40
1.0
 40
1.0
 10
4733.280530701157
 20
2518.80240776961
 30
0.0
 10
4733.307199591096
 20
2518.801693887722
 30
0.0
 10
4733.33386818831
 20
2518.800969309653
 30
0.0
 10
4733.387203925742
 20
2518.799466921521
 30
0.0
 10
4733.413870929783
 20
2518.798685342964
 30
0.0
 10
4733.440536975971
 20
2518.797872011623
 30
0.0
  0
SPLINE
  5
1537
330
1F
100
AcDbEntity
  8
SANINDUSA
100
AcDbSpline
210
0.0
220
0.0
230
1.0
 70
     8
 71
     3
 72
    10
 73
     6
 74
     0
 42
0.0000000001
 43
0.0000000001
 40
0.0
 40
0.0
 40
0.0
 40
0.0
 40
0.5
 40
0.5
 40
1.0
 40
1.0
 40
1.0
 40
1.0
 10
4733.440526974233
 20
2518.798037965491
 30
0.0
 10
4733.413861677909
 20
2518.798837075918
 30
0.0
 10
4733.387195547392
 20
2518.799607293816
 30
0.0
 10
4733.333861562591
 20
2518.801088024742
 30
0.0
 10
4733.307193857557
 20
2518.801802387061
 30
0.0
 10
4733.280525873158
 20
2518.802506082835
 30
0.0
  0
SPLINE
  5
1538
330
1F
100
AcDbEntity
  8
SANINDUSA
100
AcDbSpline
210
0.0
220
0.0
230
1.0
 70
     8
 71
     3
 72
    16
 73
    12
 74
     0
 42
0.0000000001
 43
0.0000000001
 40
0.0
 40
0.0
 40
0.0
 40
0.0
 40
0.2500000000000001
 40
0.2500000000000001
 40
0.5000000000000002
 40
0.5000000000000002
 40
0.6250000000000001
 40
0.6250000000000001
 40
0.7500000000000001
 40
0.7500000000000001
 40
1.0
 40
1.0
 40
1.0
 40
1.0
 10
4733.805160193517
 20
2518.812988499632
 30
0.0
 10
4733.806048019657
 20
2518.813032212095
 30
0.0
 10
4733.806817419092
 20
2518.813070486734
 30
0.0
 10
4733.808131246459
 20
2518.813135699276
 30
0.0
 10
4733.808675618918
 20
2518.81316263506
 30
0.0
 10
4733.809326331645
 20
2518.813193714293
 30
0.0
 10
4733.809515538307
 20
2518.813202515245
 30
0.0
 10
4733.809838420065
 20
2518.813216807801
 30
0.0
 10
4733.80997193929
 20
2518.813222289801
 30
0.0
 10
4733.810286871994
 20
2518.813233400577
 30
0.0
 10
4733.81038452593
 20
2518.813233761439
 30
0.0
 10
4733.810371722763
 20
2518.813226650775
 30
0.0
  0
SPLINE
  5
153B
330
1F
100
AcDbEntity
  8
SANINDUSA
100
AcDbSpline
210
0.0
220
0.0
230
1.0
 70
    24
 71
     3
 72
    12
 73
     8
 74
     0
 42
0.0000000001
 43
0.0000000001
 40
0.0
 40
0.0
 40
0.0
 40
0.0
 40
0.1745426336565026
 40
0.3490848834304121
 40
0.5287012005536124
 40
0.7083162816986866
 40
1.0
 40
1.0
 40
1.0
 40
1.0
 10
4733.012922952648
 20
2518.813243739437
 30
0.0
 10
4733.012960777174
 20
2518.813242985731
 30
0.0
 10
4733.01303642614
 20
2518.813241478321
 30
0.0
 10
4733.013654805892
 20
2518.813223509536
 30
0.0
 10
4733.014666768697
 20
2518.813193351027
 30
0.0
 10
4733.016360719052
 20
2518.81314230582
 30
0.0
 10
4733.018185531045
 20
2518.813086878708
 30
0.0
 10
4733.01931489515
 20
2518.813052575235
 30
0.0
  0
SPLINE
  5
153E
330
1F
100
AcDbEntity
  8
SANINDUSA
100
AcDbSpline
210
0.0
220
0.0
230
1.0
 70
    24
 71
     3
 72
    13
 73
     9
 74
     0
 42
0.0000000001
 43
0.0000000001
 40
0.0
 40
0.0
 40
0.0
 40
0.0
 40
0.1922527463018175
 40
0.3648923832635477
 40
0.5375309410146258
 40
0.7142314466224319
 40
0.8909325008756669
 40
1.0
 40
1.0
 40
1.0
 40
1.0
 10
4733.003630528924
 20
2518.815991374794
 30
0.0
 10
4733.003704271693
 20
2518.815988902756
 30
0.0
 10
4733.003844234191
 20
2518.81598421087
 30
0.0
 10
4733.004758430121
 20
2518.815953566509
 30
0.0
 10
4733.005942783565
 20
2518.815913868244
 30
0.0
 10
4733.007535627579
 20
2518.815860477481
 30
0.0
 10
4733.009236543229
 20
2518.815803464007
 30
0.0
 10
4733.010476884152
 20
2518.815761887504
 30
0.0
 10
4733.010950277326
 20
2518.815746019259
 30
0.0
  0
SPLINE
  5
1540
330
1F
100
AcDbEntity
  8
SANINDUSA
100
AcDbSpline
210
0.0
220
0.0
230
1.0
 70
     8
 71
     3
 72
    15
 73
    11
 74
     0
 42
0.0000000001
 43
0.0000000001
 40
0.0
 40
0.0
 40
0.0
 40
0.0
 40
0.0583668888410101
 40
0.2918344364030753
 40
0.6459064238180945
 40
0.7167269684110197
 40
0.7875526627301815
 40
0.8583749480334825
 40
0.929189117669042
 40
0.9999999999999998
 40
0.9999999999999998
 40
0.9999999999999998
 40
0.9999999999999998
 10
4733.070465634344
 20
2518.813186827246
 30
0.0
 10
4733.083798916214
 20
2518.813150233665
 30
0.0
 10
4733.150465323784
 20
2518.812967265764
 30
0.0
 10
4733.298015467324
 20
2518.812514548941
 30
0.0
 10
4733.448410967474
 20
2518.8122422975
 30
0.0
 10
4733.561651994514
 20
2518.811793789978
 30
0.0
 10
4733.610187075166
 20
2518.811433444976
 30
0.0
 10
4733.658721501449
 20
2518.811272687895
 30
0.0
 10
4733.707254743393
 20
2518.811448783213
 30
0.0
 10
4733.739599804653
 20
2518.812162914825
 30
0.0
 10
4733.755771959898
 20
2518.812519972343
 30
0.0
  0
SPLINE
  5
1542
330
1F
100
AcDbEntity
  8
SANINDUSA
100
AcDbSpline
210
0.0
220
0.0
230
1.0
 70
     8
 71
     3
 72
    13
 73
     9
 74
     0
 42
0.0000000001
 43
0.0000000001
 40
0.0
 40
0.0
 40
0.0
 40
0.0
 40
0.1350801747346683
 40
0.270161101795165
 40
0.4091612972203228
 40
0.5481605801869034
 40
0.771885339402604
 40
1.0
 40
1.0
 40
1.0
 40
1.0
 10
4733.01931489515
 20
2518.813052575235
 30
0.0
 10
4733.020084923588
 20
2518.813031032692
 30
0.0
 10
4733.021624984755
 20
2518.812987947486
 30
0.0
 10
4733.0243951325
 20
2518.812940491674
 30
0.0
 10
4733.027497273093
 20
2518.812911591403
 30
0.0
 10
4733.031656395996
 20
2518.812903236443
 30
0.0
 10
4733.037062257972
 20
2518.812933969143
 30
0.0
 10
4733.041725748563
 20
2518.81299696921
 30
0.0
 10
4733.044080148217
 20
2518.813028775286
 30
0.0
  0
SPLINE
  5
1544
330
1F
100
AcDbEntity
  8
SANINDUSA
100
AcDbSpline
210
0.0
220
0.0
230
1.0
 70
     8
 71
     3
 72
    18
 73
    14
 74
     0
 42
0.0000000001
 43
0.0000000001
 40
0.0
 40
0.0
 40
0.0
 40
0.0
 40
0.2499999999999912
 40
0.2499999999999912
 40
0.4999999999999825
 40
0.4999999999999825
 40
0.5624999999999824
 40
0.5624999999999824
 40
0.6249999999999823
 40
0.6249999999999823
 40
0.7499999999999871
 40
0.7499999999999871
 40
1.0
 40
1.0
 40
1.0
 40
1.0
 10
4733.781275893175
 20
2518.812645636498
 30
0.0
 10
4733.783922786606
 20
2518.812635855799
 30
0.0
 10
4733.786412238708
 20
2518.812632886604
 30
0.0
 10
4733.791091886219
 20
2518.812648457408
 30
0.0
 10
4733.793282035676
 20
2518.812667041167
 30
0.0
 10
4733.795828178094
 20
2518.812705400731
 30
0.0
 10
4733.796326650907
 20
2518.81271380114
 30
0.0
 10
4733.797296110171
 20
2518.812731887452
 30
0.0
 10
4733.797768051135
 20
2518.81274158721
 30
0.0
 10
4733.799146166695
 20
2518.812772510524
 30
0.0
 10
4733.800014690213
 20
2518.812795567088
 30
0.0
 10
4733.802472713435
 20
2518.812870545001
 30
0.0
 10
4733.803915532675
 20
2518.812928382834
 30
0.0
 10
4733.805160193517
 20
2518.812988499632
 30
0.0
  0
SPLINE
  5
1546
330
1F
100
AcDbEntity
  8
SANINDUSA
100
AcDbSpline
210
0.0
220
0.0
230
1.0
 70
     8
 71
     3
 72
    12
 73
     8
 74
     0
 42
0.0000000001
 43
0.0000000001
 40
0.0
 40
0.0
 40
0.0
 40
0.0
 40
0.1740361096343963
 40
0.3480707254242689
 40
0.5271562337229048
 40
0.7062418820051071
 40
1.0
 40
1.0
 40
1.0
 40
1.0
 10
4733.044080148217
 20
2518.813028775286
 30
0.0
 10
4733.045509517276
 20
2518.813047702705
 30
0.0
 10
4733.048368243125
 20
2518.813085557379
 30
0.0
 10
4733.052901279747
 20
2518.81312898981
 30
0.0
 10
4733.057591519042
 20
2518.813161507984
 30
0.0
 10
4733.063454392527
 20
2518.813187551986
 30
0.0
 10
4733.067778960538
 20
2518.813187104963
 30
0.0
 10
4733.070465634344
 20
2518.813186827246
 30
0.0
  0
SPLINE
  5
1547
330
1F
100
AcDbEntity
  8
SANINDUSA
100
AcDbSpline
210
0.0
220
0.0
230
1.0
 70
     8
 71
     3
 72
    12
 73
     8
 74
     0
 42
0.0000000001
 43
0.0000000001
 40
0.0
 40
0.0
 40
0.0
 40
0.0
 40
0.1738908750721588
 40
0.3477799039925273
 40
0.526757635844744
 40
0.7057325334790289
 40
1.0
 40
1.0
 40
1.0
 40
1.0
 10
4733.755771959898
 20
2518.812519972343
 30
0.0
 10
4733.757313953713
 20
2518.812536130289
 30
0.0
 10
4733.760397924971
 20
2518.812568446011
 30
0.0
 10
4733.765030191368
 20
2518.812604265993
 30
0.0
 10
4733.769630469129
 20
2518.812630194447
 30
0.0
 10
4733.775160183784
 20
2518.812649677178
 30
0.0
 10
4733.778931096843
 20
2518.812647185798
 30
0.0
 10
4733.781275893328
 20
2518.812645636629
 30
0.0
  0
SPLINE
  5
1548
330
1F
100
AcDbEntity
  8
SANINDUSA
100
AcDbSpline
210
0.0
220
0.0
230
1.0
 70
     8
 71
     3
 72
    16
 73
    12
 74
     0
 42
0.0000000001
 43
0.0000000001
 40
0.0
 40
0.0
 40
0.0
 40
0.0
 40
0.0000014290259474
 40
0.1221543437638092
 40
0.2443058800959329
 40
0.4014105572354042
 40
0.558957533923569
 40
0.7160853962937603
 40
0.8580367188152816
 40
0.9999984522683615
 40
1.0
 40
1.0
 40
1.0
 40
1.0
 10
4733.786380897043
 20
2518.815748230684
 30
0.0
 10
4733.786380914427
 20
2518.815748230374
 30
0.0
 10
4733.787866972325
 20
2518.81572169363
 30
0.0
 10
4733.7907908412
 20
2518.815667470932
 30
0.0
 10
4733.795322192348
 20
2518.815601531597
 30
0.0
 10
4733.79989453871
 20
2518.81555860552
 30
0.0
 10
4733.804346886287
 20
2518.815549601935
 30
0.0
 10
4733.808144208714
 20
2518.815574894346
 30
0.0
 10
4733.811314917647
 20
2518.815631254703
 30
0.0
 10
4733.813013281777
 20
2518.815675897803
 30
0.0
 10
4733.813810573347
 20
2518.815704372532
 30
0.0
 10
4733.819716700674
 20
2518.81590234335
 30
0.0
  0
LINE
  5
154A
330
1F
100
AcDbEntity
  8
SANINDUSA
100
AcDbLine
 10
4733.038615236757
 20
2518.744272243362
 30
0.0
 11
4733.018615255829
 21
2518.744272243362
 31
0.0
  0
LINE
  5
154B
330
1F
100
AcDbEntity
  8
SANINDUSA
100
AcDbLine
 10
4733.80738805863
 20
2518.744272243362
 30
0.0
 11
4733.787388059076
 21
2518.744272243362
 31
0.0
  0
SPLINE
  5
154C
330
1F
100
AcDbEntity
  8
SANINDUSA
100
AcDbSpline
210
0.0
220
0.0
230
1.0
 70
     8
 71
     3
 72
    30
 73
    26
 74
     0
 42
0.0000000001
 43
0.0000000001
 40
0.0
 40
0.0
 40
0.0
 40
0.0
 40
0.0312499999999977
 40
0.0312499999999977
 40
0.0624999999999953
 40
0.0624999999999953
 40
0.1249999999999941
 40
0.1249999999999941
 40
0.2499999999999959
 40
0.2499999999999959
 40
0.3124999999999944
 40
0.3124999999999944
 40
0.374999999999993
 40
0.374999999999993
 40
0.4999999999999924
 40
0.4999999999999924
 40
0.7499999999999993
 40
0.7499999999999993
 40
0.8749999999999996
 40
0.8749999999999996
 40
0.9375000000000007
 40
0.9375000000000007
 40
0.9687500000000003
 40
0.9687500000000003
 40
1.0
 40
1.0
 40
1.0
 40
1.0
 10
4733.010950276875
 20
2518.815746019433
 30
0.0
 10
4733.011144768812
 20
2518.81573950015
 30
0.0
 10
4733.011344266374
 20
2518.815733063835
 30
0.0
 10
4733.011749083913
 20
2518.815720520208
 30
0.0
 10
4733.011955098618
 20
2518.815714389611
 30
0.0
 10
4733.012583942318
 20
2518.815696455478
 30
0.0
 10
4733.013017566935
 20
2518.81568510998
 30
0.0
 10
4733.014361625825
 20
2518.815653164396
 30
0.0
 10
4733.015315181475
 20
2518.815634662469
 30
0.0
 10
4733.016832927043
 20
2518.815612020449
 30
0.0
 10
4733.017353344818
 20
2518.815605328911
 30
0.0
 10
4733.018416802241
 20
2518.815593831529
 30
0.0
 10
4733.018960620808
 20
2518.815589013132
 30
0.0
 10
4733.020627955013
 20
2518.815577433533
 30
0.0
 10
4733.02178730045
 20
2518.815573559209
 30
0.0
 10
4733.025407400826
 20
2518.815573746162
 30
0.0
 10
4733.028009562603
 20
2518.815589797871
 30
0.0
 10
4733.032204256736
 20
2518.815635615505
 30
0.0
 10
4733.033638488267
 20
2518.815654321735
 30
0.0
 10
4733.035843098053
 20
2518.81568661679
 30
0.0
 10
4733.03658685486
 20
2518.81569808592
 30
0.0
 10
4733.037715815823
 20
2518.815716216429
 30
0.0
 10
4733.03809435771
 20
2518.815722414306
 30
0.0
 10
4733.038855891205
 20
2518.815735096155
 30
0.0
 10
4733.039240260374
 20
2518.815741603779
 30
0.0
 10
4733.039624104925
 20
2518.815748195477
 30
0.0
  0
SPLINE
  5
154F
330
1F
100
AcDbEntity
  8
SANINDUSA
100
AcDbSpline
210
0.0
220
0.0
230
1.0
 70
    24
 71
     3
 72
     8
 73
     4
 74
     0
 42
0.0000000001
 43
0.0000000001
 40
0.0
 40
0.0
 40
0.0
 40
0.0
 40
1.0
 40
1.0
 40
1.0
 40
1.0
 10
4733.855511452611
 20
2518.817102167437
 30
0.0
 10
4733.855537465387
 20
2518.817103039466
 30
0.0
 10
4733.855567846528
 20
2518.817108503021
 30
0.0
 10
4733.855604512788
 20
2518.817125028046
 30
0.0
  0
SPLINE
  5
1551
330
1F
100
AcDbEntity
  8
SANINDUSA
100
AcDbSpline
210
0.0
220
0.0
230
1.0
 70
    24
 71
     3
 72
    10
 73
     6
 74
     0
 42
0.0000000001
 43
0.0000000001
 40
0.0
 40
0.0
 40
0.0
 40
0.0
 40
0.4977206313578893
 40
0.9999816853752406
 40
1.0
 40
1.0
 40
1.0
 40
1.0
 10
4732.970398793694
 20
2518.817125028129
 30
0.0
 10
4732.970414308501
 20
2518.817118498085
 30
0.0
 10
4732.970445479647
 20
2518.817105378428
 30
0.0
 10
4732.970491836827
 20
2518.8171021674
 30
0.0
 10
4732.970491836545
 20
2518.81710216742
 30
0.0
 10
4732.970491836545
 20
2518.81710216742
 30
0.0
  0
SPLINE
  5
1552
330
1F
100
AcDbEntity
  8
SANINDUSA
100
AcDbSpline
210
0.0
220
0.0
230
1.0
 70
    24
 71
     3
 72
     9
 73
     5
 74
     0
 42
0.0000000001
 43
0.0000000001
 40
0.0
 40
0.0
 40
0.0
 40
0.0
 40
0.0000183147946939
 40
1.0
 40
1.0
 40
1.0
 40
1.0
 10
4732.973651836392
 20
2518.81710216742
 30
0.0
 10
4732.973651816524
 20
2518.81710216742
 30
0.0
 10
4732.972566998738
 20
2518.81710216735
 30
0.0
 10
4732.97148288629
 20
2518.817113597845
 30
0.0
 10
4732.970398793694
 20
2518.817125028129
 30
0.0
  0
SPLINE
  5
1553
330
1F
100
AcDbEntity
  8
SANINDUSA
100
AcDbSpline
210
0.0
220
0.0
230
1.0
 70
     8
 71
     3
 72
    16
 73
    12
 74
     0
 42
0.0000000001
 43
0.0000000001
 40
0.0
 40
0.0
 40
0.0
 40
0.0
 40
0.0583317457665301
 40
0.2371255410680899
 40
0.499618417259464
 40
0.557950170325185
 40
0.7912771766573613
 40
0.8434604970075959
 40
0.8956470491018915
 40
0.9478264232697974
 40
1.0
 40
1.0
 40
1.0
 40
1.0
 10
4733.070421884534
 20
2518.816005365588
 30
0.0
 10
4733.083755083213
 20
2518.816007369741
 30
0.0
 10
4733.137956134618
 20
2518.816015516864
 30
0.0
 10
4733.25215686983
 20
2518.816030515598
 30
0.0
 10
4733.366357926207
 20
2518.816042420576
 30
0.0
 10
4733.493024160781
 20
2518.816053754191
 30
0.0
 10
4733.571618815608
 20
2518.816055340497
 30
0.0
 10
4733.648808303865
 20
2518.816066390633
 30
0.0
 10
4733.684591120389
 20
2518.816072152916
 30
0.0
 10
4733.720374853987
 20
2518.816068788019
 30
0.0
 10
4733.744219821444
 20
2518.816047320129
 30
0.0
 10
4733.756141642806
 20
2518.81603658678
 30
0.0
  0
SPLINE
  5
1556
330
1F
100
AcDbEntity
  8
SANINDUSA
100
AcDbSpline
210
0.0
220
0.0
230
1.0
 70
     8
 71
     3
 72
    13
 73
     9
 74
     0
 42
0.0000000001
 43
0.0000000001
 40
0.0
 40
0.0
 40
0.0
 40
0.0
 40
0.2382281759583359
 40
0.3963141089551206
 40
0.5543987553655338
 40
0.7164259084710454
 40
0.8784510284743632
 40
1.0
 40
1.0
 40
1.0
 40
1.0
 10
4733.756141642806
 20
2518.81603658678
 30
0.0
 10
4733.758659953598
 20
2518.816030975378
 30
0.0
 10
4733.762849391282
 20
2518.816021640302
 30
0.0
 10
4733.768616835722
 20
2518.815983910707
 30
0.0
 10
4733.77350709322
 20
2518.815939836851
 30
0.0
 10
4733.77831390777
 20
2518.815882063473
 30
0.0
 10
4733.782628660997
 20
2518.81581777447
 30
0.0
 10
4733.785255114598
 20
2518.815769095889
 30
0.0
 10
4733.786380897043
 20
2518.815748230684
 30
0.0
  0
SPLINE
  5
1557
330
1F
100
AcDbEntity
  8
SANINDUSA
100
AcDbSpline
210
0.0
220
0.0
230
1.0
 70
     8
 71
     3
 72
    13
 73
     9
 74
     0
 42
0.0000000001
 43
0.0000000001
 40
0.0
 40
0.0
 40
0.0
 40
0.0
 40
0.1044821453521839
 40
0.2611071800559121
 40
0.4177309623649175
 40
0.5780448984756865
 40
0.7383588490712631
 40
1.0
 40
1.0
 40
1.0
 40
1.0
 10
4733.039624104974
 20
2518.81574819576
 30
0.0
 10
4733.040619274428
 20
2518.815765112227
 30
0.0
 10
4733.043106262889
 20
2518.815807387499
 30
0.0
 10
4733.047232443623
 20
2518.815864671477
 30
0.0
 10
4733.052032674481
 20
2518.815918446573
 30
0.0
 10
4733.056982502917
 20
2518.815959627989
 30
0.0
 10
4733.063117387082
 20
2518.81599570059
 30
0.0
 10
4733.067626144924
 20
2518.816001666385
 30
0.0
 10
4733.070421884534
 20
2518.816005365588
 30
0.0
  0
ARC
  5
1558
330
1F
100
AcDbEntity
  8
SANINDUSA
100
AcDbCircle
 10
4733.85567851179
 20
2518.812125860448
 30
0.0
 40
0.0049997153200691
100
AcDbArc
 50
2.003031280683142
 51
90.8480393444818
  0
ARC
  5
1559
330
1F
100
AcDbEntity
  8
SANINDUSA
100
AcDbCircle
 10
4732.970324789932
 20
2518.812125899282
 30
0.0
 40
0.0049996765690881
100
AcDbArc
 50
89.15189353026821
 51
177.9973985016381
  0
LINE
  5
155A
330
1F
100
AcDbEntity
  8
SANINDUSA
100
AcDbLine
 10
4732.973651836392
 20
2518.81710216742
 30
0.0
 11
4732.973651836392
 21
2518.81710497396
 31
0.0
  0
LINE
  5
155B
330
1F
100
AcDbEntity
  8
SANINDUSA
100
AcDbLine
 10
4733.745972650823
 20
2518.773654349278
 30
0.0
 11
4733.745952482101
 21
2518.773654107135
 31
0.0
  0
SPLINE
  5
155C
330
1F
100
AcDbEntity
  8
SANINDUSA
100
AcDbSpline
210
0.0
220
0.0
230
1.0
 70
     8
 71
     3
 72
    13
 73
     9
 74
     0
 42
0.0000000001
 43
0.0000000001
 40
0.0
 40
0.0
 40
0.0
 40
0.0
 40
0.0716666678978443
 40
0.2572112716257182
 40
0.4428155119265591
 40
0.6285150370043383
 40
0.8142695995758598
 40
1.0
 40
1.0
 40
1.0
 40
1.0
 10
4733.448047111508
 20
2518.790408142042
 30
0.0
 10
4733.448158101593
 20
2518.79040028596
 30
0.0
 10
4733.448556444387
 20
2518.790372090524
 30
0.0
 10
4733.448311946609
 20
2518.790356969781
 30
0.0
 10
4733.447316303484
 20
2518.790366869585
 30
0.0
 10
4733.445484664628
 20
2518.790413264215
 30
0.0
 10
4733.443092642703
 20
2518.790486997198
 30
0.0
 10
4733.441292570954
 20
2518.790550796612
 30
0.0
 10
4733.440392593619
 20
2518.790582694244
 30
0.0
  0
SPLINE
  5
155D
330
1F
100
AcDbEntity
  8
SANINDUSA
100
AcDbSpline
210
0.0
220
0.0
230
1.0
 70
     8
 71
     3
 72
    14
 73
    10
 74
     0
 42
0.0000000001
 43
0.0000000001
 40
0.0
 40
0.0
 40
0.0
 40
0.0
 40
0.0520178051095411
 40
0.2176418931902436
 40
0.3831843777491577
 40
0.5486502500781353
 40
0.7140773250405172
 40
0.8795161570215224
 40
0.9008323915079907
 40
0.9008323915079907
 40
0.9008323915079907
 40
0.9008323915079907
 10
4733.280397246358
 20
2518.796237910297
 30
0.0
 10
4733.28011596191
 20
2518.796247775865
 30
0.0
 10
4733.278939071039
 20
2518.796289053288
 30
0.0
 10
4733.276901018977
 20
2518.796364390289
 30
0.0
 10
4733.274663479951
 20
2518.796453879142
 30
0.0
 10
4733.273063165929
 20
2518.796526469566
 30
0.0
 10
4733.272317542128
 20
2518.796572987832
 30
0.0
 10
4733.272359930757
 20
2518.796587636844
 30
0.0
 10
4733.272657039023
 20
2518.796585513273
 30
0.0
 10
4733.272693895846
 20
2518.796585164821
 30
0.0
  0
SPLINE
  5
155E
330
1F
100
AcDbEntity
  8
SANINDUSA
100
AcDbSpline
210
0.0
220
0.0
230
1.0
 70
     8
 71
     3
 72
    12
 73
     8
 74
     0
 42
0.0000000001
 43
0.0000000001
 40
0.4428307785198805
 40
0.4428307785198805
 40
0.4428307785198805
 40
0.4428307785198805
 40
0.5759533945229772
 40
0.7092321693548706
 40
0.8424494744467732
 40
0.9756776612207186
 40
1.0
 40
1.0
 40
1.0
 40
1.0
 10
4733.447611531598
 20
2518.793867741476
 30
0.0
 10
4733.448002244581
 20
2518.793826365241
 30
0.0
 10
4733.448508246898
 20
2518.793747130571
 30
0.0
 10
4733.448369049557
 20
2518.793652076356
 30
0.0
 10
4733.447292999865
 20
2518.793597074183
 30
0.0
 10
4733.446059950744
 20
2518.793577874966
 30
0.0
 10
4733.445120247114
 20
2518.79359008242
 30
0.0
 10
4733.444975177524
 20
2518.793591966983
 30
0.0
  0
SPLINE
  5
155F
330
1F
100
AcDbEntity
  8
SANINDUSA
100
AcDbSpline
210
0.0
220
0.0
230
1.0
 70
     8
 71
     3
 72
    12
 73
     8
 74
     0
 42
0.0000000001
 43
0.0000000001
 40
0.0
 40
0.0
 40
0.0
 40
0.0
 40
0.0388625083377072
 40
0.2212155120001066
 40
0.4035005850540492
 40
0.5857453218245379
 40
0.6655783251775646
 40
0.6655783251775646
 40
0.6655783251775646
 40
0.6655783251775646
 10
4733.275259027955
 20
2518.798473745715
 30
0.0
 10
4733.27509958103
 20
2518.798480195622
 30
0.0
 10
4733.274191967634
 20
2518.798516910173
 30
0.0
 10
4733.273118513287
 20
2518.798581422892
 30
0.0
 10
4733.272316990369
 20
2518.798654745556
 30
0.0
 10
4733.272437528813
 20
2518.798697030026
 30
0.0
 10
4733.272825259578
 20
2518.798711912062
 30
0.0
 10
4733.272968959831
 20
2518.798715619531
 30
0.0
  0
SPLINE
  5
156E
330
1F
100
AcDbEntity
  8
SANINDUSA
100
AcDbSpline
210
0.0
220
0.0
230
1.0
 70
     8
 71
     3
 72
    14
 73
    10
 74
     0
 42
0.0000000001
 43
0.0000000001
 40
0.0
 40
0.0
 40
0.0
 40
0.0
 40
0.1399314460379101
 40
0.282828897245432
 40
0.4261092417237702
 40
0.5694087010076405
 40
0.7128939333303583
 40
0.8564511187619585
 40
0.9999999999999998
 40
0.9999999999999998
 40
0.9999999999999998
 40
0.9999999999999998
 10
4733.278878162381
 20
2518.800370171796
 30
0.0
 10
4733.278712501475
 20
2518.80037419655
 30
0.0
 10
4733.278377668294
 20
2518.800382331366
 30
0.0
 10
4733.278163753539
 20
2518.800383199636
 30
0.0
 10
4733.278201637673
 20
2518.800375241928
 30
0.0
 10
4733.278507318658
 20
2518.800358515284
 30
0.0
 10
4733.279041366909
 20
2518.800335141275
 30
0.0
 10
4733.279744756697
 20
2518.800307468366
 30
0.0
 10
4733.280273294456
 20
2518.800288718362
 30
0.0
 10
4733.280537555692
 20
2518.800279343631
 30
0.0
  0
SPLINE
  5
156F
330
1F
100
AcDbEntity
  8
SANINDUSA
100
AcDbSpline
210
0.0
220
0.0
230
1.0
 70
     8
 71
     3
 72
    16
 73
    12
 74
     0
 42
0.0000000001
 43
0.0000000001
 40
0.0
 40
0.0
 40
0.0
 40
0.0
 40
0.120750913148495
 40
0.2415301047155513
 40
0.3620701521776099
 40
0.482401524101351
 40
0.5203110370977062
 40
0.6408149208189866
 40
0.7613205369962371
 40
0.8819618782455552
 40
1.0
 40
1.0
 40
1.0
 40
1.0
 10
4733.440540204521
 20
2518.794637331869
 30
0.0
 10
4733.440804159372
 20
2518.794627996106
 30
0.0
 10
4733.441332130889
 20
2518.794609322393
 30
0.0
 10
4733.442034659151
 20
2518.794588057835
 30
0.0
 10
4733.442567855533
 20
2518.794575045671
 30
0.0
 10
4733.442802713976
 20
2518.794572759831
 30
0.0
 10
4733.442903895347
 20
2518.794575669913
 30
0.0
 10
4733.442871078715
 20
2518.79458376128
 30
0.0
 10
4733.442563034417
 20
2518.794603292113
 30
0.0
 10
4733.442038127093
 20
2518.794629376808
 30
0.0
 10
4733.441562841419
 20
2518.794649242543
 30
0.0
 10
4733.441327790496
 20
2518.794659067076
 30
0.0
  0
LINE
  5
1575
330
1F
100
AcDbEntity
  8
SANINDUSA
100
AcDbLine
 10
4733.852351455715
 20
2518.81710216742
 30
0.0
 11
4733.852351455715
 21
2518.81710497396
 31
0.0
  0
LINE
  5
1576
330
1F
100
AcDbEntity
  8
SANINDUSA
100
AcDbLine
 10
4733.769112090346
 20
2518.744272243362
 30
0.0
 11
4733.77664027619
 21
2518.744272243362
 31
0.0
  0
LINE
  5
1577
330
1F
100
AcDbEntity
  8
SANINDUSA
100
AcDbLine
 10
4733.345350833206
 20
2518.781702660817
 30
0.0
 11
4733.318211148259
 21
2518.782665729653
 31
0.0
  0
LINE
  5
1578
330
1F
100
AcDbEntity
  8
SANINDUSA
100
AcDbLine
 10
4733.198281003666
 20
2518.786935899935
 30
0.0
 11
4733.168602476594
 21
2518.787995208185
 31
0.0
  0
ARC
  5
157C
330
1F
100
AcDbEntity
  8
SANINDUSA
100
AcDbCircle
 10
4733.361155257496
 20
2518.773137033659
 30
0.0
 40
0.0079997626355787
100
AcDbArc
 50
87.96756817585
 51
166.4912020312654
  0
SPLINE
  5
167E
330
1F
100
AcDbEntity
  8
SANINDUSA
100
AcDbSpline
210
0.0
220
0.0
230
1.0
 70
    24
 71
     3
 72
     9
 73
     5
 74
     0
 42
0.0000000001
 43
0.0000000001
 40
0.0
 40
0.0
 40
0.0
 40
0.0
 40
0.4821307628319116
 40
1.0
 40
1.0
 40
1.0
 40
1.0
 10
4732.680085432239
 20
2518.821509915369
 30
0.0
 10
4732.679562653518
 20
2518.821502191218
 30
0.0
 10
4732.678478344525
 20
2518.821486170355
 30
0.0
 10
4732.677393917877
 20
2518.821488598576
 30
0.0
 10
4732.676832326677
 20
2518.821489856078
 30
0.0
  0
LINE
  5
167F
330
1F
100
AcDbEntity
  8
SANINDUSA
100
AcDbLine
 10
4731.798132967193
 20
2518.821489078423
 30
0.0
 11
4731.794879626471
 21
2518.821513281635
 31
0.0
  0
LINE
  5
1680
330
1F
100
AcDbEntity
  8
SANINDUSA
100
AcDbLine
 10
4732.676832348097
 20
2518.821486372932
 30
0.0
 11
4731.798132728775
 21
2518.821486372932
 31
0.0
  0
LINE
  5
1681
330
1F
100
AcDbEntity
  8
SANINDUSA
100
AcDbLine
 10
4731.794350933273
 20
2518.803650835029
 30
0.0
 11
4732.68061416921
 21
2518.803650835029
 31
0.0
  0
LINE
  5
1688
330
1F
100
AcDbEntity
  8
SANINDUSA
100
AcDbLine
 10
4732.685156064563
 20
2518.81668201132
 30
0.0
 11
4732.685611123266
 21
2518.803650835029
 31
0.0
  0
LINE
  5
1689
330
1F
100
AcDbEntity
  8
SANINDUSA
100
AcDbLine
 10
4732.685611123266
 20
2518.803650835029
 30
0.0
 11
4732.68061416921
 21
2518.803650835029
 31
0.0
  0
LINE
  5
168A
330
1F
100
AcDbEntity
  8
SANINDUSA
100
AcDbLine
 10
4731.789353977878
 20
2518.803650835029
 30
0.0
 11
4731.789809059341
 21
2518.81668201132
 31
0.0
  0
LINE
  5
168C
330
1F
100
AcDbEntity
  8
SANINDUSA
100
AcDbLine
 10
4731.794350933273
 20
2518.803650835029
 30
0.0
 11
4731.789353977878
 21
2518.803650835029
 31
0.0
  0
ARC
  5
168F
330
1F
100
AcDbEntity
  8
SANINDUSA
100
AcDbCircle
 10
4732.680159404172
 20
2518.816507259419
 30
0.0
 40
0.0049997153200688
100
AcDbArc
 50
2.003031280683142
 51
90.8480393444818
  0
ARC
  5
1690
330
1F
100
AcDbEntity
  8
SANINDUSA
100
AcDbCircle
 10
4731.794805682314
 20
2518.816507298252
 30
0.0
 40
0.0049996765690878
100
AcDbArc
 50
89.15189353026821
 51
177.9973985016381
  0
LINE
  5
1692
330
1F
100
AcDbEntity
  8
SANINDUSA
100
AcDbLine
 10
4732.644982550282
 20
2518.803650835029
 30
0.0
 11
4732.644982550282
 21
2518.748653642333
 31
0.0
  0
LINE
  5
1693
330
1F
100
AcDbEntity
  8
SANINDUSA
100
AcDbLine
 10
4732.644982550282
 20
2518.748653642333
 30
0.0
 11
4732.636982548971
 21
2518.748653642333
 31
0.0
  0
LINE
  5
1695
330
1F
100
AcDbEntity
  8
SANINDUSA
100
AcDbLine
 10
4732.636982548971
 20
2518.748653642333
 30
0.0
 11
4731.837982546527
 21
2518.748653642333
 31
0.0
  0
LINE
  5
1696
330
1F
100
AcDbEntity
  8
SANINDUSA
100
AcDbLine
 10
4731.829982530315
 20
2518.748653642333
 30
0.0
 11
4731.829982530315
 21
2518.803650835029
 31
0.0
  0
LINE
  5
1697
330
1F
100
AcDbEntity
  8
SANINDUSA
100
AcDbLine
 10
4731.837982546527
 20
2518.748653642333
 30
0.0
 11
4731.829982530315
 21
2518.748653642333
 31
0.0
  0
ENDSEC
  0
SECTION
  2
OBJECTS
  0
DICTIONARY
  5
C
330
0
100
AcDbDictionary
281
     1
  3
ACAD_2007HEADERVARS_RT
350
1704
  3
ACAD_COLOR
350
EE6
  3
ACAD_GROUP
350
D
  3
ACAD_LAYOUT
350
1A
  3
ACAD_MATERIAL
350
EE5
  3
ACAD_MLEADERSTYLE
350
10A8
  3
ACAD_MLINESTYLE
350
17
  3
ACAD_PLOTSETTINGS
350
19
  3
ACAD_PLOTSTYLENAME
350
E
  3
ACAD_SCALELIST
350
1096
  3
ACAD_TABLESTYLE
350
EE7
  3
ACAD_VISUALSTYLE
350
1082
  3
ACDB_RECOMPOSE_DATA
350
1702
  3
AcDbVariableDictionary
350
3D
  3
AEC_PROPERTY_SET_DEFS
350
136E
  3
ASE_INDEX_DICTIONARY
350
1066
  3
Autodesk_PNP
350
10B2
  3
DWGPROPS
350
1703
  0
DICTIONARY
  5
16C0
330
8
100
AcDbDictionary
280
     1
281
     1
  0
DICTIONARY
  5
1051
330
2
100
AcDbDictionary
280
     1
281
     1
  3
ACAD_LAYERFILTERS
360
1065
  3
ACAD_LAYERSTATES
360
115D
  3
ACLYDICTIONARY
360
1064
  0
DICTIONARY
  5
169A
330
10
100
AcDbDictionary
280
     1
281
     1
  3
ADSK_XREC_LAYER_RECONCILED
360
169B
  0
DICTIONARY
  5
169C
330
2F
100
AcDbDictionary
280
     1
281
     1
  3
ADSK_XREC_LAYER_RECONCILED
360
169D
  0
DICTIONARY
  5
169E
330
30
100
AcDbDictionary
280
     1
281
     1
  3
ADSK_XREC_LAYER_RECONCILED
360
169F
  0
DICTIONARY
  5
16A0
330
31
100
AcDbDictionary
280
     1
281
     1
  3
ADSK_XREC_LAYER_RECONCILED
360
16A1
  0
DICTIONARY
  5
16A2
330
32
100
AcDbDictionary
280
     1
281
     1
  3
ADSK_XREC_LAYER_RECONCILED
360
16A3
  0
DICTIONARY
  5
16A4
330
33
100
AcDbDictionary
280
     1
281
     1
  3
ADSK_XREC_LAYER_RECONCILED
360
16A5
  0
DICTIONARY
  5
16A6
330
34
100
AcDbDictionary
280
     1
281
     1
  3
ADSK_XREC_LAYER_RECONCILED
360
16A7
  0
DICTIONARY
  5
16A8
330
35
100
AcDbDictionary
280
     1
281
     1
  3
ADSK_XREC_LAYER_RECONCILED
360
16A9
  0
DICTIONARY
  5
16AA
330
36
100
AcDbDictionary
280
     1
281
     1
  3
ADSK_XREC_LAYER_RECONCILED
360
16AB
  0
DICTIONARY
  5
16AC
330
37
100
AcDbDictionary
280
     1
281
     1
  3
ADSK_XREC_LAYER_RECONCILED
360
16AD
  0
DICTIONARY
  5
16AE
330
5D6
100
AcDbDictionary
280
     1
281
     1
  3
ADSK_XREC_LAYER_RECONCILED
360
16AF
  0
DICTIONARY
  5
16B0
330
8AF
100
AcDbDictionary
280
     1
281
     1
  3
ADSK_XREC_LAYER_RECONCILED
360
16B1
  0
DICTIONARY
  5
16B2
330
8F8
100
AcDbDictionary
280
     1
281
     1
  3
ADSK_XREC_LAYER_RECONCILED
360
16B3
  0
DICTIONARY
  5
16B4
330
91D
100
AcDbDictionary
280
     1
281
     1
  3
ADSK_XREC_LAYER_RECONCILED
360
16B5
  0
DICTIONARY
  5
16B6
330
C7B
100
AcDbDictionary
280
     1
281
     1
  3
ADSK_XREC_LAYER_RECONCILED
360
16B7
  0
DICTIONARY
  5
16B8
330
1060
100
AcDbDictionary
280
     1
281
     1
  3
ADSK_XREC_LAYER_RECONCILED
360
16B9
  0
DICTIONARY
  5
1704
102
{ACAD_REACTORS
330
C
102
}
330
C
100
AcDbDictionary
281
     1
  3
DIMJOGANG
350
1705
  0
DICTIONARY
  5
EE6
102
{ACAD_REACTORS
330
C
102
}
330
C
100
AcDbDictionary
281
     1
  0
DICTIONARY
  5
D
102
{ACAD_REACTORS
330
C
102
}
330
C
100
AcDbDictionary
281
     1
  0
DICTIONARY
  5
1A
102
{ACAD_REACTORS
330
C
102
}
330
C
100
AcDbDictionary
281
     1
  3
Layout1
350
1E
  3
Layout2
350
26
  3
Model
350
22
  0
DICTIONARY
  5
EE5
102
{ACAD_REACTORS
330
C
102
}
330
C
100
AcDbDictionary
281
     1
  3
ByBlock
350
1072
  3
ByLayer
350
106A
  3
Global
350
107A
  0
DICTIONARY
  5
10A8
102
{ACAD_REACTORS
330
C
102
}
330
C
100
AcDbDictionary
281
     1
  3
Standard
350
10A9
  0
DICTIONARY
  5
17
102
{ACAD_REACTORS
330
C
102
}
330
C
100
AcDbDictionary
281
     1
  3
Standard
350
18
  0
DICTIONARY
  5
19
102
{ACAD_REACTORS
330
C
102
}
330
C
100
AcDbDictionary
281
     1
  0
ACDBDICTIONARYWDFLT
  5
E
102
{ACAD_REACTORS
330
C
102
}
330
C
100
AcDbDictionary
281
     1
  3
Normal
350
F
100
AcDbDictionaryWithDefault
340
F
  0
DICTIONARY
  5
1096
102
{ACAD_REACTORS
330
C
102
}
330
C
100
AcDbDictionary
281
     1
  3
A0
350
1097
  3
A1
350
1098
  3
A2
350
1099
  3
A3
350
109A
  3
A4
350
109B
  3
A5
350
109C
  3
A6
350
109D
  3
A7
350
109E
  3
A8
350
109F
  3
A9
350
10A0
  3
B0
350
10A1
  3
B1
350
10A2
  3
B2
350
10A3
  3
B3
350
10A4
  3
B4
350
10A5
  3
B5
350
10A6
  3
B6
350
10A7
  0
DICTIONARY
  5
EE7
102
{ACAD_REACTORS
330
C
102
}
330
C
100
AcDbDictionary
281
     1
  3
Standard
350
EE8
  0
DICTIONARY
  5
1082
102
{ACAD_REACTORS
330
C
102
}
330
C
100
AcDbDictionary
281
     1
  3
2dWireframe
350
1088
  3
3D Hidden
350
108A
  3
3dWireframe
350
1089
  3
Basic
350
1087
  3
Brighten
350
108E
  3
ColorChange
350
1092
  3
Conceptual
350
108B
  3
Dim
350
108D
  3
EdgeColorOff
350
1095
  3
Facepattern
350
1091
  3
Flat
350
1083
  3
FlatWithEdges
350
1084
  3
Gouraud
350
1085
  3
GouraudWithEdges
350
1086
  3
JitterOff
350
1093
  3
Linepattern
350
1090
  3
OverhangOff
350
1094
  3
Realistic
350
108C
  3
Thicken
350
108F
  0
XRECORD
  5
1702
102
{ACAD_REACTORS
330
C
102
}
330
C
100
AcDbXrecord
280
     1
 90
        1
330
EE8
  0
DICTIONARY
  5
3D
102
{ACAD_REACTORS
330
C
102
}
330
C
100
AcDbDictionary
281
     1
  3
CANNOSCALE
350
16F4
  3
CMLEADERSTYLE
350
16F3
  3
CTABLESTYLE
350
1049
  3
DIMASSOC
350
3F
  3
HIDETEXT
350
3E
  3
INDEXCTL
350
16F6
  3
SORTENTS
350
16F5
  3
XCLIPFRAME
350
1700
  0
DICTIONARY
  5
136E
102
{ACAD_REACTORS
330
C
102
}
330
C
100
AcDbDictionary
281
     1
  0
DICTIONARY
  5
1066
102
{ACAD_REACTORS
330
C
102
}
330
C
100
AcDbDictionary
281
     1
  3
ASEBlockHierarchyIndexRecord
350
1067
1001
DCO15
1040
1602247867.484
  0
DICTIONARY
  5
10B2
102
{ACAD_REACTORS
330
C
102
}
330
C
100
AcDbDictionary
281
     1
  0
XRECORD
  5
1703
102
{ACAD_REACTORS
330
C
102
}
330
C
100
AcDbXrecord
280
     1
  1
DWGPROPS COOKIE
  2

  3

  4

  6

  7

  8
Julio
  9

300
=
301
=
302
=
303
=
304
=
305
=
306
=
307
=
308
=
309
=
 40
0.0042398958333333
 41
2456304.396592882
 42
2456304.420404364
  1

 90
        0
  0
DICTIONARY
  5
1065
102
{ACAD_REACTORS
330
1051
102
}
330
1051
100
AcDbDictionary
281
     1
  0
DICTIONARY
  5
115D
102
{ACAD_REACTORS
330
1051
102
}
330
1051
100
AcDbDictionary
281
     1
  0
DICTIONARY
  5
1064
102
{ACAD_REACTORS
330
1051
102
}
330
1051
100
AcDbDictionary
281
     1
1001
ACAD
1000
<All
  0
XRECORD
  5
169B
102
{ACAD_REACTORS
330
169A
102
}
330
169A
100
AcDbXrecord
280
     1
290
     1
  0
XRECORD
  5
169D
102
{ACAD_REACTORS
330
169C
102
}
330
169C
100
AcDbXrecord
280
     1
290
     1
  0
XRECORD
  5
169F
102
{ACAD_REACTORS
330
169E
102
}
330
169E
100
AcDbXrecord
280
     1
290
     1
  0
XRECORD
  5
16A1
102
{ACAD_REACTORS
330
16A0
102
}
330
16A0
100
AcDbXrecord
280
     1
290
     1
  0
XRECORD
  5
16A3
102
{ACAD_REACTORS
330
16A2
102
}
330
16A2
100
AcDbXrecord
280
     1
290
     1
  0
XRECORD
  5
16A5
102
{ACAD_REACTORS
330
16A4
102
}
330
16A4
100
AcDbXrecord
280
     1
290
     1
  0
XRECORD
  5
16A7
102
{ACAD_REACTORS
330
16A6
102
}
330
16A6
100
AcDbXrecord
280
     1
290
     1
  0
XRECORD
  5
16A9
102
{ACAD_REACTORS
330
16A8
102
}
330
16A8
100
AcDbXrecord
280
     1
290
     1
  0
XRECORD
  5
16AB
102
{ACAD_REACTORS
330
16AA
102
}
330
16AA
100
AcDbXrecord
280
     1
290
     1
  0
XRECORD
  5
16AD
102
{ACAD_REACTORS
330
16AC
102
}
330
16AC
100
AcDbXrecord
280
     1
290
     1
  0
XRECORD
  5
16AF
102
{ACAD_REACTORS
330
16AE
102
}
330
16AE
100
AcDbXrecord
280
     1
290
     1
  0
XRECORD
  5
16B1
102
{ACAD_REACTORS
330
16B0
102
}
330
16B0
100
AcDbXrecord
280
     1
290
     1
  0
XRECORD
  5
16B3
102
{ACAD_REACTORS
330
16B2
102
}
330
16B2
100
AcDbXrecord
280
     1
290
     1
  0
XRECORD
  5
16B5
102
{ACAD_REACTORS
330
16B4
102
}
330
16B4
100
AcDbXrecord
280
     1
290
     1
  0
XRECORD
  5
16B7
102
{ACAD_REACTORS
330
16B6
102
}
330
16B6
100
AcDbXrecord
280
     1
290
     1
  0
XRECORD
  5
16B9
102
{ACAD_REACTORS
330
16B8
102
}
330
16B8
100
AcDbXrecord
280
     1
290
     1
  0
XRECORD
  5
1705
102
{ACAD_REACTORS
330
1704
102
}
330
1704
100
AcDbXrecord
280
     1
 40
1.570796326794896
  0
LAYOUT
  5
1E
102
{ACAD_XDICTIONARY
360
1706
102
}
102
{ACAD_REACTORS
330
1A
102
}
330
1A
100
AcDbPlotSettings
  1

  2
Ploter HP500
  4

  6

 40
0.0
 41
0.0
 42
0.0
 43
0.0
 44
0.0
 45
0.0
 46
0.0
 47
0.0
 48
0.0
 49
0.0
140
0.0
141
0.0
142
1.0
143
1.0
 70
   688
 72
     0
 73
     0
 74
     5
  7
sanindusa.ctb
 75
    16
147
1.0
148
0.0
149
0.0
100
AcDbLayout
  1
Layout1
 70
     1
 71
     1
 10
0.0
 20
0.0
 11
420.0
 21
297.0
 12
0.0
 22
0.0
 32
0.0
 14
1.000000000000000E+20
 24
1.000000000000000E+20
 34
1.000000000000000E+20
 15
-1.000000000000000E+20
 25
-1.000000000000000E+20
 35
-1.000000000000000E+20
146
0.0
 13
0.0
 23
0.0
 33
0.0
 16
1.0
 26
0.0
 36
0.0
 17
0.0
 27
1.0
 37
0.0
 76
     0
330
1B
  0
LAYOUT
  5
26
102
{ACAD_XDICTIONARY
360
170A
102
}
102
{ACAD_REACTORS
330
1A
102
}
330
1A
100
AcDbPlotSettings
  1

  2
Ploter HP500
  4

  6

 40
0.0
 41
0.0
 42
0.0
 43
0.0
 44
0.0
 45
0.0
 46
0.0
 47
0.0
 48
0.0
 49
0.0
140
0.0
141
0.0
142
1.0
143
1.0
 70
   688
 72
     0
 73
     0
 74
     5
  7
sanindusa.ctb
 75
    16
147
1.0
148
0.0
149
0.0
100
AcDbLayout
  1
Layout2
 70
     1
 71
     2
 10
0.0
 20
0.0
 11
12.0
 21
9.0
 12
0.0
 22
0.0
 32
0.0
 14
0.0
 24
0.0
 34
0.0
 15
0.0
 25
0.0
 35
0.0
146
0.0
 13
0.0
 23
0.0
 33
0.0
 16
1.0
 26
0.0
 36
0.0
 17
0.0
 27
1.0
 37
0.0
 76
     0
330
23
  0
LAYOUT
  5
22
102
{ACAD_XDICTIONARY
360
1708
102
}
102
{ACAD_REACTORS
330
1A
102
}
330
1A
100
AcDbPlotSettings
  1

  2
Ploter HP500
  4
User268
  6

 40
4.995333194732666
 41
16.97565841674804
 42
4.995330810546875
 43
16.97567749023437
 44
209.9733276367187
 45
296.9259948730469
 46
0.0
 47
0.0
 48
0.0
 49
0.0
140
0.0
141
0.0
142
1.0
143
1.0
 70
 11952
 72
     1
 73
     1
 74
     0
  7
sanindusa.ctb
 75
     0
147
1.0
148
-427.5957866592534
149
7.362384574453926
100
AcDbLayout
  1
Model
 70
     1
 71
     0
 10
0.0
 20
0.0
 11
12.0
 21
9.0
 12
0.0
 22
0.0
 32
0.0
 14
0.0
 24
0.0
 34
0.0
 15
0.0
 25
0.0
 35
0.0
146
0.0
 13
0.0
 23
0.0
 33
0.0
 16
1.0
 26
0.0
 36
0.0
 17
0.0
 27
1.0
 37
0.0
 76
     0
330
1F
331
1068
  0
MATERIAL
  5
1072
102
{ACAD_XDICTIONARY
360
1073
102
}
102
{ACAD_REACTORS
330
EE5
102
}
330
EE5
100
AcDbMaterial
  1
ByBlock
 72
     0
 43
0.0008202099737533
 43
0.0
 43
0.0
 43
0.0
 43
0.0
 43
0.0008202099737533
 43
0.0
 43
0.0
 43
0.0
 43
0.0
 43
1.0
 43
0.0
 43
0.0
 43
0.0
 43
0.0
 43
1.0
 77
     0
 47
0.0008202099737533
 47
0.0
 47
0.0
 47
0.0
 47
0.0
 47
0.0008202099737533
 47
0.0
 47
0.0
 47
0.0
 47
0.0
 47
1.0
 47
0.0
 47
0.0
 47
0.0
 47
0.0
 47
1.0
171
     0
 49
0.0008202099737533
 49
0.0
 49
0.0
 49
0.0
 49
0.0
 49
0.0008202099737533
 49
0.0
 49
0.0
 49
0.0
 49
0.0
 49
1.0
 49
0.0
 49
0.0
 49
0.0
 49
0.0
 49
1.0
175
     0
142
0.0008202099737533
142
0.0
142
0.0
142
0.0
142
0.0
142
0.0008202099737533
142
0.0
142
0.0
142
0.0
142
0.0
142
1.0
142
0.0
142
0.0
142
0.0
142
0.0
142
1.0
179
     0
144
0.0008202099737533
144
0.0
144
0.0
144
0.0
144
0.0
144
0.0008202099737533
144
0.0
144
0.0
144
0.0
144
0.0
144
1.0
144
0.0
144
0.0
144
0.0
144
0.0
144
1.0
147
0.0008202099737533
147
0.0
147
0.0
147
0.0
147
0.0
147
0.0008202099737533
147
0.0
147
0.0
147
0.0
147
0.0
147
1.0
147
0.0
147
0.0
147
0.0
147
0.0
147
1.0
  0
MATERIAL
  5
106A
102
{ACAD_XDICTIONARY
360
106B
102
}
102
{ACAD_REACTORS
330
EE5
102
}
330
EE5
100
AcDbMaterial
  1
ByLayer
 72
     0
 43
0.0008202099737533
 43
0.0
 43
0.0
 43
0.0
 43
0.0
 43
0.0008202099737533
 43
0.0
 43
0.0
 43
0.0
 43
0.0
 43
1.0
 43
0.0
 43
0.0
 43
0.0
 43
0.0
 43
1.0
 77
     0
 47
0.0008202099737533
 47
0.0
 47
0.0
 47
0.0
 47
0.0
 47
0.0008202099737533
 47
0.0
 47
0.0
 47
0.0
 47
0.0
 47
1.0
 47
0.0
 47
0.0
 47
0.0
 47
0.0
 47
1.0
171
     0
 49
0.0008202099737533
 49
0.0
 49
0.0
 49
0.0
 49
0.0
 49
0.0008202099737533
 49
0.0
 49
0.0
 49
0.0
 49
0.0
 49
1.0
 49
0.0
 49
0.0
 49
0.0
 49
0.0
 49
1.0
175
     0
142
0.0008202099737533
142
0.0
142
0.0
142
0.0
142
0.0
142
0.0008202099737533
142
0.0
142
0.0
142
0.0
142
0.0
142
1.0
142
0.0
142
0.0
142
0.0
142
0.0
142
1.0
179
     0
144
0.0008202099737533
144
0.0
144
0.0
144
0.0
144
0.0
144
0.0008202099737533
144
0.0
144
0.0
144
0.0
144
0.0
144
1.0
144
0.0
144
0.0
144
0.0
144
0.0
144
1.0
147
0.0008202099737533
147
0.0
147
0.0
147
0.0
147
0.0
147
0.0008202099737533
147
0.0
147
0.0
147
0.0
147
0.0
147
1.0
147
0.0
147
0.0
147
0.0
147
0.0
147
1.0
  0
MATERIAL
  5
107A
102
{ACAD_XDICTIONARY
360
107B
102
}
102
{ACAD_REACTORS
330
EE5
102
}
330
EE5
100
AcDbMaterial
  1
Global
 72
     0
 43
0.0008202099737533
 43
0.0
 43
0.0
 43
0.0
 43
0.0
 43
0.0008202099737533
 43
0.0
 43
0.0
 43
0.0
 43
0.0
 43
1.0
 43
0.0
 43
0.0
 43
0.0
 43
0.0
 43
1.0
 77
     0
 47
0.0008202099737533
 47
0.0
 47
0.0
 47
0.0
 47
0.0
 47
0.0008202099737533
 47
0.0
 47
0.0
 47
0.0
 47
0.0
 47
1.0
 47
0.0
 47
0.0
 47
0.0
 47
0.0
 47
1.0
171
     0
 49
0.0008202099737533
 49
0.0
 49
0.0
 49
0.0
 49
0.0
 49
0.0008202099737533
 49
0.0
 49
0.0
 49
0.0
 49
0.0
 49
1.0
 49
0.0
 49
0.0
 49
0.0
 49
0.0
 49
1.0
175
     0
142
0.0008202099737533
142
0.0
142
0.0
142
0.0
142
0.0
142
0.0008202099737533
142
0.0
142
0.0
142
0.0
142
0.0
142
1.0
142
0.0
142
0.0
142
0.0
142
0.0
142
1.0
179
     0
144
0.0008202099737533
144
0.0
144
0.0
144
0.0
144
0.0
144
0.0008202099737533
144
0.0
144
0.0
144
0.0
144
0.0
144
1.0
144
0.0
144
0.0
144
0.0
144
0.0
144
1.0
147
0.0008202099737533
147
0.0
147
0.0
147
0.0
147
0.0
147
0.0008202099737533
147
0.0
147
0.0
147
0.0
147
0.0
147
1.0
147
0.0
147
0.0
147
0.0
147
0.0
147
1.0
  0
MLEADERSTYLE
  5
10A9
102
{ACAD_REACTORS
330
10A8
102
}
330
10A8
100
AcDbMLeaderStyle
170
     2
171
     1
172
     0
 90
        2
 40
0.0
 41
0.0
173
     1
 91
-1056964608
340
14
 92
       -2
290
     1
 42
2.0
291
     1
 43
0.36
  3
Standard
 44
4.0
300

342
11
174
     1
178
     6
175
     1
176
     0
 93
-1056964608
 45
4.0
292
     0
297
     0
 46
4.0
 94
-1056964608
 47
1.0
 49
1.0
140
1.0
293
     1
141
0.0
294
     1
177
     0
142
1.0
295
     0
296
     0
143
0.125
1001
ACAD_MLEADERVER
1070
     2
  0
MLINESTYLE
  5
18
102
{ACAD_REACTORS
330
17
102
}
330
17
100
AcDbMlineStyle
  2
STANDARD
 70
     0
  3

 62
   256
 51
90.0
 52
90.0
 71
     2
 49
0.5
 62
   256
  6
BYLAYER
 49
-0.5
 62
   256
  6
BYLAYER
  0
ACDBPLACEHOLDER
  5
F
102
{ACAD_REACTORS
330
E
102
}
330
E
  0
SCALE
  5
1097
102
{ACAD_REACTORS
330
1096
102
}
330
1096
100
AcDbScale
 70
     0
300
1:1
140
1.0
141
1.0
290
     1
  0
SCALE
  5
1098
102
{ACAD_REACTORS
330
1096
102
}
330
1096
100
AcDbScale
 70
     0
300
1:2
140
1.0
141
2.0
290
     0
  0
SCALE
  5
1099
102
{ACAD_REACTORS
330
1096
102
}
330
1096
100
AcDbScale
 70
     0
300
1:4
140
1.0
141
4.0
290
     0
  0
SCALE
  5
109A
102
{ACAD_REACTORS
330
1096
102
}
330
1096
100
AcDbScale
 70
     0
300
1:5
140
1.0
141
5.0
290
     0
  0
SCALE
  5
109B
102
{ACAD_REACTORS
330
1096
102
}
330
1096
100
AcDbScale
 70
     0
300
1:8
140
1.0
141
8.0
290
     0
  0
SCALE
  5
109C
102
{ACAD_REACTORS
330
1096
102
}
330
1096
100
AcDbScale
 70
     0
300
1:10
140
1.0
141
10.0
290
     0
  0
SCALE
  5
109D
102
{ACAD_REACTORS
330
1096
102
}
330
1096
100
AcDbScale
 70
     0
300
1:16
140
1.0
141
16.0
290
     0
  0
SCALE
  5
109E
102
{ACAD_REACTORS
330
1096
102
}
330
1096
100
AcDbScale
 70
     0
300
1:20
140
1.0
141
20.0
290
     0
  0
SCALE
  5
109F
102
{ACAD_REACTORS
330
1096
102
}
330
1096
100
AcDbScale
 70
     0
300
1:30
140
1.0
141
30.0
290
     0
  0
SCALE
  5
10A0
102
{ACAD_REACTORS
330
1096
102
}
330
1096
100
AcDbScale
 70
     0
300
1:40
140
1.0
141
40.0
290
     0
  0
SCALE
  5
10A1
102
{ACAD_REACTORS
330
1096
102
}
330
1096
100
AcDbScale
 70
     0
300
1:50
140
1.0
141
50.0
290
     0
  0
SCALE
  5
10A2
102
{ACAD_REACTORS
330
1096
102
}
330
1096
100
AcDbScale
 70
     0
300
1:100
140
1.0
141
100.0
290
     0
  0
SCALE
  5
10A3
102
{ACAD_REACTORS
330
1096
102
}
330
1096
100
AcDbScale
 70
     0
300
2:1
140
2.0
141
1.0
290
     0
  0
SCALE
  5
10A4
102
{ACAD_REACTORS
330
1096
102
}
330
1096
100
AcDbScale
 70
     0
300
4:1
140
4.0
141
1.0
290
     0
  0
SCALE
  5
10A5
102
{ACAD_REACTORS
330
1096
102
}
330
1096
100
AcDbScale
 70
     0
300
8:1
140
8.0
141
1.0
290
     0
  0
SCALE
  5
10A6
102
{ACAD_REACTORS
330
1096
102
}
330
1096
100
AcDbScale
 70
     0
300
10:1
140
10.0
141
1.0
290
     0
  0
SCALE
  5
10A7
102
{ACAD_REACTORS
330
1096
102
}
330
1096
100
AcDbScale
 70
     0
300
100:1
140
100.0
141
1.0
290
     0
  0
TABLESTYLE
  5
EE8
102
{ACAD_XDICTIONARY
360
16BA
102
}
102
{ACAD_REACTORS
330
EE7
102
}
330
EE7
100
AcDbTableStyle
  3
Standard
 70
     0
 71
     0
 40
1.5
 41
1.5
280
     0
281
     0
  7
Standard
140
4.5
170
     2
 62
     0
 63
     7
283
     0
274
    -2
284
     1
 64
     0
275
    -2
285
     1
 65
     0
276
    -2
286
     1
 66
     0
277
    -2
287
     1
 67
     0
278
    -2
288
     1
 68
     0
279
    -2
289
     1
 69
     0
  7
Standard
140
6.0
170
     5
 62
     0
 63
     7
283
     0
274
    -2
284
     1
 64
     0
275
    -2
285
     1
 65
     0
276
    -2
286
     1
 66
     0
277
    -2
287
     1
 67
     0
278
    -2
288
     1
 68
     0
279
    -2
289
     1
 69
     0
  7
Standard
140
4.5
170
     5
 62
     0
 63
     7
283
     0
274
    -2
284
     1
 64
     0
275
    -2
285
     1
 65
     0
276
    -2
286
     1
 66
     0
277
    -2
287
     1
 67
     0
278
    -2
288
     1
 68
     0
279
    -2
289
     1
 69
     0
  0
VISUALSTYLE
  5
1088
102
{ACAD_XDICTIONARY
360
171A
102
}
102
{ACAD_REACTORS
330
1082
102
}
330
1082
100
AcDbVisualStyle
  2
2dWireframe
 70
     4
 71
     0
 72
     2
 73
     0
 90
        0
 40
-0.6
 41
-30.0
 62
     5
 63
     7
 74
     1
 91
        4
 64
     7
 65
   257
 75
     1
175
     1
 42
1.0
 92
        0
 66
   257
 43
1.0
 76
     1
 77
     6
 78
     2
 67
     7
 79
     5
170
     0
171
     0
290
     0
174
     0
 93
        1
 44
0.0
173
     0
291
     0
 45
0.0
1001
ACAD
1000
AcDbSavedByObjectVersion
1070
     0
  0
VISUALSTYLE
  5
108A
102
{ACAD_XDICTIONARY
360
171E
102
}
102
{ACAD_REACTORS
330
1082
102
}
330
1082
100
AcDbVisualStyle
  2
3D Hidden
 70
     6
 71
     1
 72
     2
 73
     2
 90
        0
 40
-0.6
 41
-30.0
 62
     5
 63
     7
 74
     2
 91
        2
 64
     7
 65
   257
 75
     2
175
     1
 42
179.0
 92
        0
 66
   257
 43
1.0
 76
     1
 77
     6
 78
     2
 67
     7
 79
     3
170
     0
171
     0
290
     0
174
     0
 93
        1
 44
0.0
173
     0
291
     0
 45
0.0
1001
ACAD
1000
AcDbSavedByObjectVersion
1070
     0
  0
VISUALSTYLE
  5
1089
102
{ACAD_XDICTIONARY
360
171C
102
}
102
{ACAD_REACTORS
330
1082
102
}
330
1082
100
AcDbVisualStyle
  2
3dWireframe
 70
     5
 71
     0
 72
     2
 73
     0
 90
        0
 40
-0.6
 41
-30.0
 62
     5
 63
     7
 74
     1
 91
        4
 64
     7
 65
   257
 75
     1
175
     1
 42
1.0
 92
        0
 66
   257
 43
1.0
 76
     1
 77
     6
 78
     2
 67
     7
 79
     5
170
     0
171
     0
290
     0
174
     0
 93
        1
 44
0.0
173
     0
291
     0
 45
0.0
1001
ACAD
1000
AcDbSavedByObjectVersion
1070
     0
  0
VISUALSTYLE
  5
1087
102
{ACAD_XDICTIONARY
360
1718
102
}
102
{ACAD_REACTORS
330
1082
102
}
330
1082
100
AcDbVisualStyle
  2
Basic
 70
     7
 71
     1
 72
     0
 73
     1
 90
        0
 40
-0.6
 41
-30.0
 62
     5
 63
     7
 74
     0
 91
        4
 64
     7
 65
   257
 75
     1
175
     1
 42
1.0
 92
        8
 66
     7
 43
1.0
 76
     1
 77
     6
 78
     2
 67
     7
 79
     5
170
     0
171
     0
290
     0
174
     0
 93
        1
 44
0.0
173
     0
291
     1
 45
0.0
1001
ACAD
1000
AcDbSavedByObjectVersion
1070
     0
  0
VISUALSTYLE
  5
108E
102
{ACAD_XDICTIONARY
360
1726
102
}
102
{ACAD_REACTORS
330
1082
102
}
330
1082
100
AcDbVisualStyle
  2
Brighten
 70
    12
 71
     2
 72
     2
 73
     0
 90
        0
 40
-0.6
 41
-30.0
 62
     5
 63
     7
 74
     1
 91
        4
 64
     7
 65
   257
 75
     1
175
     1
 42
1.0
 92
        8
 66
     7
 43
1.0
 76
     1
 77
     6
 78
     2
 67
     7
 79
     5
170
     0
171
     0
290
     0
174
     0
 93
        1
 44
50.0
173
     0
291
     1
 45
0.0
1001
ACAD
1000
AcDbSavedByObjectVersion
1070
     0
  0
VISUALSTYLE
  5
1092
102
{ACAD_XDICTIONARY
360
172E
102
}
102
{ACAD_REACTORS
330
1082
102
}
330
1082
100
AcDbVisualStyle
  2
ColorChange
 70
    16
 71
     2
 72
     2
 73
     3
 90
        0
 40
-0.6
 41
-30.0
 62
     5
 63
     8
 74
     1
 91
        4
 64
     7
 65
   257
 75
     1
175
     1
 42
1.0
 92
        8
 66
     8
 43
1.0
 76
     1
 77
     6
 78
     2
 67
     7
 79
     5
170
     0
171
     0
290
     0
174
     0
 93
        1
 44
0.0
173
     0
291
     1
 45
0.0
1001
ACAD
1000
AcDbSavedByObjectVersion
1070
     0
  0
VISUALSTYLE
  5
108B
102
{ACAD_XDICTIONARY
360
1720
102
}
102
{ACAD_REACTORS
330
1082
102
}
330
1082
100
AcDbVisualStyle
  2
Conceptual
 70
     9
 71
     3
 72
     2
 73
     0
 90
        0
 40
-0.6
 41
-30.0
 62
     5
 63
     7
 74
     2
 91
        2
 64
     7
 65
   257
 75
     1
175
     1
 42
179.0
 92
        8
 66
     7
 43
1.0
 76
     1
 77
     6
 78
     2
 67
     7
 79
     3
170
     0
171
     0
290
     0
174
     0
 93
        1
 44
0.0
173
     0
291
     0
 45
0.0
1001
ACAD
1000
AcDbSavedByObjectVersion
1070
     0
  0
VISUALSTYLE
  5
108D
102
{ACAD_XDICTIONARY
360
1724
102
}
102
{ACAD_REACTORS
330
1082
102
}
330
1082
100
AcDbVisualStyle
  2
Dim
 70
    11
 71
     2
 72
     2
 73
     0
 90
        0
 40
-0.6
 41
-30.0
 62
     5
 63
     7
 74
     1
 91
        4
 64
     7
 65
   257
 75
     1
175
     1
 42
1.0
 92
        8
 66
     7
 43
1.0
 76
     1
 77
     6
 78
     2
 67
     7
 79
     5
170
     0
171
     0
290
     0
174
     0
 93
        1
 44
-50.0
173
     0
291
     1
 45
0.0
1001
ACAD
1000
AcDbSavedByObjectVersion
1070
     0
  0
VISUALSTYLE
  5
1095
102
{ACAD_XDICTIONARY
360
1734
102
}
102
{ACAD_REACTORS
330
1082
102
}
330
1082
100
AcDbVisualStyle
  2
EdgeColorOff
 70
    22
 71
     2
 72
     2
 73
     0
 90
        0
 40
-0.6
 41
-30.0
 62
     5
 63
     7
 74
     1
 91
        4
 64
     7
 65
   257
 75
     1
175
     1
 42
1.0
 92
        8
 66
     7
 43
1.0
 76
     1
 77
     6
 78
     2
 67
     7
 79
     5
170
     0
171
     0
290
     0
174
     0
 93
        1
 44
0.0
173
     0
291
     1
 45
0.0
1001
ACAD
1000
AcDbSavedByObjectVersion
1070
     0
  0
VISUALSTYLE
  5
1091
102
{ACAD_XDICTIONARY
360
172C
102
}
102
{ACAD_REACTORS
330
1082
102
}
330
1082
100
AcDbVisualStyle
  2
Facepattern
 70
    15
 71
     2
 72
     2
 73
     0
 90
        0
 40
-0.6
 41
-30.0
 62
     5
 63
     7
 74
     1
 91
        4
 64
     7
 65
   257
 75
     1
175
     1
 42
1.0
 92
        8
 66
     7
 43
1.0
 76
     1
 77
     6
 78
     2
 67
     7
 79
     5
170
     0
171
     0
290
     0
174
     0
 93
        1
 44
0.0
173
     0
291
     1
 45
0.0
1001
ACAD
1000
AcDbSavedByObjectVersion
1070
     0
  0
VISUALSTYLE
  5
1083
102
{ACAD_XDICTIONARY
360
1710
102
}
102
{ACAD_REACTORS
330
1082
102
}
330
1082
100
AcDbVisualStyle
  2
Flat
 70
     0
 71
     2
 72
     1
 73
     1
 90
        2
 40
-0.6
 41
30.0
 62
     5
 63
     7
 74
     0
 91
        4
 64
     7
 65
   257
 75
     1
175
     1
 42
1.0
 92
        8
 66
     7
 43
1.0
 76
     1
 77
     6
 78
     2
 67
     7
 79
     5
170
     0
171
     0
290
     0
174
     0
 93
       13
 44
0.0
173
     0
291
     1
 45
0.0
1001
ACAD
1000
AcDbSavedByObjectVersion
1070
     0
  0
VISUALSTYLE
  5
1084
102
{ACAD_XDICTIONARY
360
1712
102
}
102
{ACAD_REACTORS
330
1082
102
}
330
1082
100
AcDbVisualStyle
  2
FlatWithEdges
 70
     1
 71
     2
 72
     1
 73
     1
 90
        2
 40
-0.6
 41
30.0
 62
     5
 63
     7
 74
     1
 91
        4
 64
     7
 65
   257
 75
     1
175
     1
 42
1.0
 92
        0
 66
   257
 43
1.0
 76
     1
 77
     6
 78
     2
 67
     7
 79
     5
170
     0
171
     0
290
     0
174
     0
 93
       13
 44
0.0
173
     0
291
     1
 45
0.0
1001
ACAD
1000
AcDbSavedByObjectVersion
1070
     0
  0
VISUALSTYLE
  5
1085
102
{ACAD_XDICTIONARY
360
1714
102
}
102
{ACAD_REACTORS
330
1082
102
}
330
1082
100
AcDbVisualStyle
  2
Gouraud
 70
     2
 71
     2
 72
     2
 73
     1
 90
        2
 40
-0.6
 41
30.0
 62
     5
 63
     7
 74
     0
 91
        4
 64
     7
 65
   257
 75
     1
175
     1
 42
1.0
 92
        0
 66
     7
 43
1.0
 76
     1
 77
     6
 78
     2
 67
     7
 79
     5
170
     0
171
     0
290
     0
174
     0
 93
       13
 44
0.0
173
     0
291
     1
 45
0.0
1001
ACAD
1000
AcDbSavedByObjectVersion
1070
     0
  0
VISUALSTYLE
  5
1086
102
{ACAD_XDICTIONARY
360
1716
102
}
102
{ACAD_REACTORS
330
1082
102
}
330
1082
100
AcDbVisualStyle
  2
GouraudWithEdges
 70
     3
 71
     2
 72
     2
 73
     1
 90
        2
 40
-0.6
 41
30.0
 62
     5
 63
     7
 74
     1
 91
        4
 64
     7
 65
   257
 75
     1
175
     1
 42
1.0
 92
        0
 66
   257
 43
1.0
 76
     1
 77
     6
 78
     2
 67
     7
 79
     5
170
     0
171
     0
290
     0
174
     0
 93
       13
 44
0.0
173
     0
291
     1
 45
0.0
1001
ACAD
1000
AcDbSavedByObjectVersion
1070
     0
  0
VISUALSTYLE
  5
1093
102
{ACAD_XDICTIONARY
360
1730
102
}
102
{ACAD_REACTORS
330
1082
102
}
330
1082
100
AcDbVisualStyle
  2
JitterOff
 70
    20
 71
     2
 72
     2
 73
     0
 90
        0
 40
-0.6
 41
-30.0
 62
     5
 63
     7
 74
     1
 91
        4
 64
     7
 65
   257
 75
     1
175
     1
 42
1.0
 92
       10
 66
     7
 43
1.0
 76
     1
 77
     6
 78
     2
 67
     7
 79
     5
170
     0
171
     0
290
     0
174
     0
 93
        1
 44
0.0
173
     0
291
     1
 45
0.0
1001
ACAD
1000
AcDbSavedByObjectVersion
1070
     0
  0
VISUALSTYLE
  5
1090
102
{ACAD_XDICTIONARY
360
172A
102
}
102
{ACAD_REACTORS
330
1082
102
}
330
1082
100
AcDbVisualStyle
  2
Linepattern
 70
    14
 71
     2
 72
     2
 73
     0
 90
        0
 40
-0.6
 41
-30.0
 62
     5
 63
     7
 74
     1
 91
        4
 64
     7
 65
   257
 75
     7
175
     7
 42
1.0
 92
        8
 66
     7
 43
1.0
 76
     1
 77
     6
 78
     2
 67
     7
 79
     5
170
     0
171
     0
290
     0
174
     0
 93
        1
 44
0.0
173
     0
291
     1
 45
0.0
1001
ACAD
1000
AcDbSavedByObjectVersion
1070
     0
  0
VISUALSTYLE
  5
1094
102
{ACAD_XDICTIONARY
360
1732
102
}
102
{ACAD_REACTORS
330
1082
102
}
330
1082
100
AcDbVisualStyle
  2
OverhangOff
 70
    21
 71
     2
 72
     2
 73
     0
 90
        0
 40
-0.6
 41
-30.0
 62
     5
 63
     7
 74
     1
 91
        4
 64
     7
 65
   257
 75
     1
175
     1
 42
1.0
 92
        9
 66
     7
 43
1.0
 76
     1
 77
     6
 78
     2
 67
     7
 79
     5
170
     0
171
     0
290
     0
174
     0
 93
        1
 44
0.0
173
     0
291
     1
 45
0.0
1001
ACAD
1000
AcDbSavedByObjectVersion
1070
     0
  0
VISUALSTYLE
  5
108C
102
{ACAD_XDICTIONARY
360
1722
102
}
102
{ACAD_REACTORS
330
1082
102
}
330
1082
100
AcDbVisualStyle
  2
Realistic
 70
     8
 71
     2
 72
     2
 73
     0
 90
        0
 40
-0.6
 41
-30.0
 62
     5
 63
     7
 74
     1
 91
        0
 64
     7
 65
   257
 75
     1
175
     1
 42
1.0
 92
        8
 66
     8
 43
1.0
 76
     1
 77
     6
 78
     2
 67
     7
 79
     5
170
     0
171
     0
290
     0
174
     0
 93
       13
 44
0.0
173
     0
291
     0
 45
0.0
1001
ACAD
1000
AcDbSavedByObjectVersion
1070
     0
  0
VISUALSTYLE
  5
108F
102
{ACAD_XDICTIONARY
360
1728
102
}
102
{ACAD_REACTORS
330
1082
102
}
330
1082
100
AcDbVisualStyle
  2
Thicken
 70
    13
 71
     2
 72
     2
 73
     0
 90
        0
 40
-0.6
 41
-30.0
 62
     5
 63
     7
 74
     1
 91
        4
 64
     7
 65
   257
 75
     1
175
     1
 42
1.0
 92
       12
 66
     7
 43
1.0
 76
     1
 77
     6
 78
     2
 67
     7
 79
     5
170
     0
171
     0
290
     0
174
     0
 93
        1
 44
0.0
173
     0
291
     1
 45
0.0
1001
ACAD
1000
AcDbSavedByObjectVersion
1070
     0
  0
DICTIONARYVAR
  5
16F4
102
{ACAD_REACTORS
330
3D
102
}
330
3D
100
DictionaryVariables
280
     0
  1
1:1
  0
DICTIONARYVAR
  5
16F3
102
{ACAD_REACTORS
330
3D
102
}
330
3D
100
DictionaryVariables
280
     0
  1
STANDARD
  0
DICTIONARYVAR
  5
1049
102
{ACAD_REACTORS
330
3D
102
}
330
3D
100
DictionaryVariables
280
     0
  1
STANDARD
  0
DICTIONARYVAR
  5
3F
102
{ACAD_REACTORS
330
3D
102
}
330
3D
100
DictionaryVariables
280
     0
  1
2
  0
DICTIONARYVAR
  5
3E
102
{ACAD_REACTORS
330
3D
102
}
330
3D
100
DictionaryVariables
280
     0
  1
1
  0
DICTIONARYVAR
  5
16F6
102
{ACAD_REACTORS
330
3D
102
}
330
3D
100
DictionaryVariables
280
     0
  1
0
  0
DICTIONARYVAR
  5
16F5
102
{ACAD_REACTORS
330
3D
102
}
330
3D
100
DictionaryVariables
280
     0
  1
127
  0
DICTIONARYVAR
  5
1700
102
{ACAD_REACTORS
330
3D
102
}
330
3D
100
DictionaryVariables
280
     0
  1
2
  0
XRECORD
  5
1067
102
{ACAD_REACTORS
330
1066
102
}
330
1066
100
AcDbXrecord
280
     1
  0
DICTIONARY
  5
1706
330
1E
100
AcDbDictionary
280
     1
281
     1
  3
ACAD_XREC_ROUNDTRIP
360
1707
  0
DICTIONARY
  5
170A
330
26
100
AcDbDictionary
280
     1
281
     1
  3
ACAD_XREC_ROUNDTRIP
360
170B
  0
DICTIONARY
  5
1708
330
22
100
AcDbDictionary
280
     1
281
     1
  3
ACAD_XREC_ROUNDTRIP
360
1709
  0
DICTIONARY
  5
1073
330
1072
100
AcDbDictionary
280
     1
281
     1
  3
ACAD_XREC_ROUNDTRIP
360
170E
  3
BUMPTILE
360
1075
  3
DIFFUSETILE
360
1074
  3
OPACITYTILE
360
1078
  3
REFLECTIONTILE
360
1077
  3
REFRACTIONTILE
360
1079
  3
SPECULARTILE
360
1076
  0
DICTIONARY
  5
106B
330
106A
100
AcDbDictionary
280
     1
281
     1
  3
ACAD_XREC_ROUNDTRIP
360
170D
  3
BUMPTILE
360
106D
  3
DIFFUSETILE
360
106C
  3
OPACITYTILE
360
1070
  3
REFLECTIONTILE
360
106F
  3
REFRACTIONTILE
360
1071
  3
SPECULARTILE
360
106E
  0
DICTIONARY
  5
107B
330
107A
100
AcDbDictionary
280
     1
281
     1
  3
ACAD_XREC_ROUNDTRIP
360
170F
  3
BUMPTILE
360
107D
  3
DIFFUSETILE
360
107C
  3
OPACITYTILE
360
1080
  3
REFLECTIONTILE
360
107F
  3
REFRACTIONTILE
360
1081
  3
SPECULARTILE
360
107E
  0
DICTIONARY
  5
16BA
330
EE8
100
AcDbDictionary
280
     1
281
     1
  3
ACAD_ROUNDTRIP_2008_TABLESTYLE_CELLSTYLEMAP
360
1701
  3
ACAD_XREC_ROUNDTRIP
360
170C
  0
DICTIONARY
  5
171A
330
1088
100
AcDbDictionary
280
     1
281
     1
  3
ACAD_XREC_ROUNDTRIP
360
171B
  0
DICTIONARY
  5
171E
330
108A
100
AcDbDictionary
280
     1
281
     1
  3
ACAD_XREC_ROUNDTRIP
360
171F
  0
DICTIONARY
  5
171C
330
1089
100
AcDbDictionary
280
     1
281
     1
  3
ACAD_XREC_ROUNDTRIP
360
171D
  0
DICTIONARY
  5
1718
330
1087
100
AcDbDictionary
280
     1
281
     1
  3
ACAD_XREC_ROUNDTRIP
360
1719
  0
DICTIONARY
  5
1726
330
108E
100
AcDbDictionary
280
     1
281
     1
  3
ACAD_XREC_ROUNDTRIP
360
1727
  0
DICTIONARY
  5
172E
330
1092
100
AcDbDictionary
280
     1
281
     1
  3
ACAD_XREC_ROUNDTRIP
360
172F
  0
DICTIONARY
  5
1720
330
108B
100
AcDbDictionary
280
     1
281
     1
  3
ACAD_XREC_ROUNDTRIP
360
1721
  0
DICTIONARY
  5
1724
330
108D
100
AcDbDictionary
280
     1
281
     1
  3
ACAD_XREC_ROUNDTRIP
360
1725
  0
DICTIONARY
  5
1734
330
1095
100
AcDbDictionary
280
     1
281
     1
  3
ACAD_XREC_ROUNDTRIP
360
1735
  0
DICTIONARY
  5
172C
330
1091
100
AcDbDictionary
280
     1
281
     1
  3
ACAD_XREC_ROUNDTRIP
360
172D
  0
DICTIONARY
  5
1710
330
1083
100
AcDbDictionary
280
     1
281
     1
  3
ACAD_XREC_ROUNDTRIP
360
1711
  0
DICTIONARY
  5
1712
330
1084
100
AcDbDictionary
280
     1
281
     1
  3
ACAD_XREC_ROUNDTRIP
360
1713
  0
DICTIONARY
  5
1714
330
1085
100
AcDbDictionary
280
     1
281
     1
  3
ACAD_XREC_ROUNDTRIP
360
1715
  0
DICTIONARY
  5
1716
330
1086
100
AcDbDictionary
280
     1
281
     1
  3
ACAD_XREC_ROUNDTRIP
360
1717
  0
DICTIONARY
  5
1730
330
1093
100
AcDbDictionary
280
     1
281
     1
  3
ACAD_XREC_ROUNDTRIP
360
1731
  0
DICTIONARY
  5
172A
330
1090
100
AcDbDictionary
280
     1
281
     1
  3
ACAD_XREC_ROUNDTRIP
360
172B
  0
DICTIONARY
  5
1732
330
1094
100
AcDbDictionary
280
     1
281
     1
  3
ACAD_XREC_ROUNDTRIP
360
1733
  0
DICTIONARY
  5
1722
330
108C
100
AcDbDictionary
280
     1
281
     1
  3
ACAD_XREC_ROUNDTRIP
360
1723
  0
DICTIONARY
  5
1728
330
108F
100
AcDbDictionary
280
     1
281
     1
  3
ACAD_XREC_ROUNDTRIP
360
1729
  0
XRECORD
  5
1707
102
{ACAD_REACTORS
330
1706
102
}
330
1706
100
AcDbXrecord
280
     1
102
SHADEPLOT
 70
     0
102
SHADEPLOTRESLEVEL
 70
     2
102
SHADEPLOTCUSTOMDPI
 70
   300
  0
XRECORD
  5
170B
102
{ACAD_REACTORS
330
170A
102
}
330
170A
100
AcDbXrecord
280
     1
102
SHADEPLOT
 70
     0
102
SHADEPLOTRESLEVEL
 70
     2
102
SHADEPLOTCUSTOMDPI
 70
   300
  0
XRECORD
  5
1709
102
{ACAD_REACTORS
330
1708
102
}
330
1708
100
AcDbXrecord
280
     1
102
SHADEPLOT
 70
     0
102
SHADEPLOTRESLEVEL
 70
     2
102
SHADEPLOTCUSTOMDPI
 70
   300
  0
XRECORD
  5
170E
102
{ACAD_REACTORS
330
1073
102
}
330
1073
100
AcDbXrecord
280
     1
102
MATERIAL
148
0.0
149
0.0
149
0.0
 93
        0
 94
      127
282
     0
 72
     0
 77
     0
171
     0
175
     0
179
     0
273
     0
  0
XRECORD
  5
1075
102
{ACAD_REACTORS
330
1073
102
}
330
1073
100
AcDbXrecord
280
     1
270
     1
271
     1
  0
XRECORD
  5
1074
102
{ACAD_REACTORS
330
1073
102
}
330
1073
100
AcDbXrecord
280
     1
270
     1
271
     1
  0
XRECORD
  5
1078
102
{ACAD_REACTORS
330
1073
102
}
330
1073
100
AcDbXrecord
280
     1
270
     1
271
     1
  0
XRECORD
  5
1077
102
{ACAD_REACTORS
330
1073
102
}
330
1073
100
AcDbXrecord
280
     1
270
     1
271
     1
  0
XRECORD
  5
1079
102
{ACAD_REACTORS
330
1073
102
}
330
1073
100
AcDbXrecord
280
     1
270
     1
271
     1
  0
XRECORD
  5
1076
102
{ACAD_REACTORS
330
1073
102
}
330
1073
100
AcDbXrecord
280
     1
270
     1
271
     1
  0
XRECORD
  5
170D
102
{ACAD_REACTORS
330
106B
102
}
330
106B
100
AcDbXrecord
280
     1
102
MATERIAL
148
0.0
149
0.0
149
0.0
 93
        0
 94
      127
282
     0
 72
     0
 77
     0
171
     0
175
     0
179
     0
273
     0
  0
XRECORD
  5
106D
102
{ACAD_REACTORS
330
106B
102
}
330
106B
100
AcDbXrecord
280
     1
270
     1
271
     1
  0
XRECORD
  5
106C
102
{ACAD_REACTORS
330
106B
102
}
330
106B
100
AcDbXrecord
280
     1
270
     1
271
     1
  0
XRECORD
  5
1070
102
{ACAD_REACTORS
330
106B
102
}
330
106B
100
AcDbXrecord
280
     1
270
     1
271
     1
  0
XRECORD
  5
106F
102
{ACAD_REACTORS
330
106B
102
}
330
106B
100
AcDbXrecord
280
     1
270
     1
271
     1
  0
XRECORD
  5
1071
102
{ACAD_REACTORS
330
106B
102
}
330
106B
100
AcDbXrecord
280
     1
270
     1
271
     1
  0
XRECORD
  5
106E
102
{ACAD_REACTORS
330
106B
102
}
330
106B
100
AcDbXrecord
280
     1
270
     1
271
     1
  0
XRECORD
  5
170F
102
{ACAD_REACTORS
330
107B
102
}
330
107B
100
AcDbXrecord
280
     1
102
MATERIAL
148
0.0
149
0.0
149
0.0
 93
        0
 94
      127
282
     0
 72
     0
 77
     0
171
     0
175
     0
179
     0
273
     0
  0
XRECORD
  5
107D
102
{ACAD_REACTORS
330
107B
102
}
330
107B
100
AcDbXrecord
280
     1
270
     1
271
     1
  0
XRECORD
  5
107C
102
{ACAD_REACTORS
330
107B
102
}
330
107B
100
AcDbXrecord
280
     1
270
     1
271
     1
  0
XRECORD
  5
1080
102
{ACAD_REACTORS
330
107B
102
}
330
107B
100
AcDbXrecord
280
     1
270
     1
271
     1
  0
XRECORD
  5
107F
102
{ACAD_REACTORS
330
107B
102
}
330
107B
100
AcDbXrecord
280
     1
270
     1
271
     1
  0
XRECORD
  5
1081
102
{ACAD_REACTORS
330
107B
102
}
330
107B
100
AcDbXrecord
280
     1
270
     1
271
     1
  0
XRECORD
  5
107E
102
{ACAD_REACTORS
330
107B
102
}
330
107B
100
AcDbXrecord
280
     1
270
     1
271
     1
  0
CELLSTYLEMAP
  5
1701
102
{ACAD_REACTORS
330
16BA
102
}
330
16BA
100
AcDbCellStyleMap
 90
        3
300
CELLSTYLE
  1
TABLEFORMAT_BEGIN
 90
        5
170
     1
 91
        0
 92
    32768
 62
   257
 93
        1
300
CONTENTFORMAT
  1
CONTENTFORMAT_BEGIN
 90
        0
 91
        0
 92
        4
 93
        0
300

 40
0.0
140
1.0
 94
        5
 62
     0
340
11
144
6.0
309
CONTENTFORMAT_END
171
     1
301
MARGIN
  1
CELLMARGIN_BEGIN
 40
1.5
 40
1.5
 40
1.5
 40
1.5
 40
0.18
 40
0.18
309
CELLMARGIN_END
 94
        6
 95
        1
302
GRIDFORMAT
  1
GRIDFORMAT_BEGIN
 90
        0
 91
        1
 62
     0
 92
       -2
340
0
 93
        0
 40
0.045
309
GRIDFORMAT_END
 95
        2
302
GRIDFORMAT
  1
GRIDFORMAT_BEGIN
 90
        0
 91
        1
 62
     0
 92
       -2
340
0
 93
        0
 40
0.045
309
GRIDFORMAT_END
 95
        4
302
GRIDFORMAT
  1
GRIDFORMAT_BEGIN
 90
        0
 91
        1
 62
     0
 92
       -2
340
0
 93
        0
 40
0.045
309
GRIDFORMAT_END
 95
        8
302
GRIDFORMAT
  1
GRIDFORMAT_BEGIN
 90
        0
 91
        1
 62
     0
 92
       -2
340
0
 93
        0
 40
0.045
309
GRIDFORMAT_END
 95
       16
302
GRIDFORMAT
  1
GRIDFORMAT_BEGIN
 90
        0
 91
        1
 62
     0
 92
       -2
340
0
 93
        0
 40
0.045
309
GRIDFORMAT_END
 95
       32
302
GRIDFORMAT
  1
GRIDFORMAT_BEGIN
 90
        0
 91
        1
 62
     0
 92
       -2
340
0
 93
        0
 40
0.045
309
GRIDFORMAT_END
309
TABLEFORMAT_END
  1
CELLSTYLE_BEGIN
 90
        1
 91
        1
300
_TITLE
309
CELLSTYLE_END
300
CELLSTYLE
  1
TABLEFORMAT_BEGIN
 90
        5
170
     1
 91
        0
 92
        0
 62
   257
 93
        1
300
CONTENTFORMAT
  1
CONTENTFORMAT_BEGIN
 90
        0
 91
        0
 92
        4
 93
        0
300

 40
0.0
140
1.0
 94
        5
 62
     0
340
11
144
4.5
309
CONTENTFORMAT_END
171
     1
301
MARGIN
  1
CELLMARGIN_BEGIN
 40
1.5
 40
1.5
 40
1.5
 40
1.5
 40
0.18
 40
0.18
309
CELLMARGIN_END
 94
        6
 95
        1
302
GRIDFORMAT
  1
GRIDFORMAT_BEGIN
 90
        0
 91
        1
 62
     0
 92
       -2
340
0
 93
        0
 40
0.045
309
GRIDFORMAT_END
 95
        2
302
GRIDFORMAT
  1
GRIDFORMAT_BEGIN
 90
        0
 91
        1
 62
     0
 92
       -2
340
0
 93
        0
 40
0.045
309
GRIDFORMAT_END
 95
        4
302
GRIDFORMAT
  1
GRIDFORMAT_BEGIN
 90
        0
 91
        1
 62
     0
 92
       -2
340
0
 93
        0
 40
0.045
309
GRIDFORMAT_END
 95
        8
302
GRIDFORMAT
  1
GRIDFORMAT_BEGIN
 90
        0
 91
        1
 62
     0
 92
       -2
340
0
 93
        0
 40
0.045
309
GRIDFORMAT_END
 95
       16
302
GRIDFORMAT
  1
GRIDFORMAT_BEGIN
 90
        0
 91
        1
 62
     0
 92
       -2
340
0
 93
        0
 40
0.045
309
GRIDFORMAT_END
 95
       32
302
GRIDFORMAT
  1
GRIDFORMAT_BEGIN
 90
        0
 91
        1
 62
     0
 92
       -2
340
0
 93
        0
 40
0.045
309
GRIDFORMAT_END
309
TABLEFORMAT_END
  1
CELLSTYLE_BEGIN
 90
        2
 91
        1
300
_HEADER
309
CELLSTYLE_END
300
CELLSTYLE
  1
TABLEFORMAT_BEGIN
 90
        5
170
     1
 91
        0
 92
        0
 62
   257
 93
        1
300
CONTENTFORMAT
  1
CONTENTFORMAT_BEGIN
 90
        0
 91
        0
 92
        4
 93
        0
300

 40
0.0
140
1.0
 94
        2
 62
     0
340
11
144
4.5
309
CONTENTFORMAT_END
171
     1
301
MARGIN
  1
CELLMARGIN_BEGIN
 40
1.5
 40
1.5
 40
1.5
 40
1.5
 40
0.18
 40
0.18
309
CELLMARGIN_END
 94
        6
 95
        1
302
GRIDFORMAT
  1
GRIDFORMAT_BEGIN
 90
        0
 91
        1
 62
     0
 92
       -2
340
0
 93
        0
 40
0.045
309
GRIDFORMAT_END
 95
        2
302
GRIDFORMAT
  1
GRIDFORMAT_BEGIN
 90
        0
 91
        1
 62
     0
 92
       -2
340
0
 93
        0
 40
0.045
309
GRIDFORMAT_END
 95
        4
302
GRIDFORMAT
  1
GRIDFORMAT_BEGIN
 90
        0
 91
        1
 62
     0
 92
       -2
340
0
 93
        0
 40
0.045
309
GRIDFORMAT_END
 95
        8
302
GRIDFORMAT
  1
GRIDFORMAT_BEGIN
 90
        0
 91
        1
 62
     0
 92
       -2
340
0
 93
        0
 40
0.045
309
GRIDFORMAT_END
 95
       16
302
GRIDFORMAT
  1
GRIDFORMAT_BEGIN
 90
        0
 91
        1
 62
     0
 92
       -2
340
0
 93
        0
 40
0.045
309
GRIDFORMAT_END
 95
       32
302
GRIDFORMAT
  1
GRIDFORMAT_BEGIN
 90
        0
 91
        1
 62
     0
 92
       -2
340
0
 93
        0
 40
0.045
309
GRIDFORMAT_END
309
TABLEFORMAT_END
  1
CELLSTYLE_BEGIN
 90
        3
 91
        2
300
_DATA
309
CELLSTYLE_END
  0
XRECORD
  5
170C
102
{ACAD_REACTORS
330
16BA
102
}
330
16BA
100
AcDbXrecord
280
     1
102
ACAD_ROUNDTRIP_PRE2007_TABLESTYLE
 90
        4
 91
        0
  1

 92
        4
 93
        0
  2

 94
        4
 95
        0
  3

  0
XRECORD
  5
171B
102
{ACAD_REACTORS
330
171A
102
}
330
171A
100
AcDbXrecord
280
     1
102
RTVSPropertyOp0
 70
     1
102
RTVSPropertyOp1
 70
     1
102
RTVSPropertyOp2
 70
     1
102
RTVSPropertyOp3
 70
     1
102
RTVSPropertyOp4
 70
     1
102
RTVSPropertyOp5
 70
     1
102
RTVSPropertyOp6
 70
     1
102
RTVSPropertyOp7
 70
     1
102
RTVSPropertyOp8
 70
     1
102
RTVSPropertyOp9
 70
     1
102
RTVSPropertyOp10
 70
     1
102
RTVSPropertyOp11
 70
     1
102
RTVSPropertyOp12
 70
     1
102
RTVSPropertyOp13
 70
     1
102
RTVSPropertyOp14
 70
     1
102
RTVSPropertyOp15
 70
     1
102
RTVSPropertyOp16
 70
     1
102
RTVSPropertyOp17
 70
     1
102
RTVSPropertyOp18
 70
     1
102
RTVSPropertyOp19
 70
     1
102
RTVSPropertyOp20
 70
     1
102
RTVSPropertyOp21
 70
     1
102
RTVSPropertyOp22
 70
     1
102
RTVSPropertyOp23
 70
     1
102
RTVSPropertyOp24
 70
     1
102
RTVSPropertyOp25
 70
     1
102
RTVSPropertyOp26
 70
     1
102
RTVSPropertyOp27
 70
     1
  0
XRECORD
  5
171F
102
{ACAD_REACTORS
330
171E
102
}
330
171E
100
AcDbXrecord
280
     1
102
RTVSPropertyOp0
 70
     1
102
RTVSPropertyOp1
 70
     1
102
RTVSPropertyOp2
 70
     1
102
RTVSPropertyOp3
 70
     1
102
RTVSPropertyOp4
 70
     1
102
RTVSPropertyOp5
 70
     1
102
RTVSPropertyOp6
 70
     1
102
RTVSPropertyOp7
 70
     1
102
RTVSPropertyOp8
 70
     1
102
RTVSPropertyOp9
 70
     1
102
RTVSPropertyOp10
 70
     1
102
RTVSPropertyOp11
 70
     1
102
RTVSPropertyOp12
 70
     1
102
RTVSPropertyOp13
 70
     1
102
RTVSPropertyOp14
 70
     1
102
RTVSPropertyOp15
 70
     1
102
RTVSPropertyOp16
 70
     1
102
RTVSPropertyOp17
 70
     1
102
RTVSPropertyOp18
 70
     1
102
RTVSPropertyOp19
 70
     1
102
RTVSPropertyOp20
 70
     1
102
RTVSPropertyOp21
 70
     1
102
RTVSPropertyOp22
 70
     1
102
RTVSPropertyOp23
 70
     1
102
RTVSPropertyOp24
 70
     1
102
RTVSPropertyOp25
 70
     1
102
RTVSPropertyOp26
 70
     1
102
RTVSPropertyOp27
 70
     1
  0
XRECORD
  5
171D
102
{ACAD_REACTORS
330
171C
102
}
330
171C
100
AcDbXrecord
280
     1
102
RTVSPropertyOp0
 70
     1
102
RTVSPropertyOp1
 70
     1
102
RTVSPropertyOp2
 70
     1
102
RTVSPropertyOp3
 70
     1
102
RTVSPropertyOp4
 70
     1
102
RTVSPropertyOp5
 70
     1
102
RTVSPropertyOp6
 70
     1
102
RTVSPropertyOp7
 70
     1
102
RTVSPropertyOp8
 70
     1
102
RTVSPropertyOp9
 70
     1
102
RTVSPropertyOp10
 70
     1
102
RTVSPropertyOp11
 70
     1
102
RTVSPropertyOp12
 70
     1
102
RTVSPropertyOp13
 70
     1
102
RTVSPropertyOp14
 70
     1
102
RTVSPropertyOp15
 70
     1
102
RTVSPropertyOp16
 70
     1
102
RTVSPropertyOp17
 70
     1
102
RTVSPropertyOp18
 70
     1
102
RTVSPropertyOp19
 70
     1
102
RTVSPropertyOp20
 70
     1
102
RTVSPropertyOp21
 70
     1
102
RTVSPropertyOp22
 70
     1
102
RTVSPropertyOp23
 70
     1
102
RTVSPropertyOp24
 70
     1
102
RTVSPropertyOp25
 70
     1
102
RTVSPropertyOp26
 70
     1
102
RTVSPropertyOp27
 70
     1
  0
XRECORD
  5
1719
102
{ACAD_REACTORS
330
1718
102
}
330
1718
100
AcDbXrecord
280
     1
102
RTVSPropertyOp0
 70
     1
102
RTVSPropertyOp1
 70
     1
102
RTVSPropertyOp2
 70
     1
102
RTVSPropertyOp3
 70
     1
102
RTVSPropertyOp4
 70
     1
102
RTVSPropertyOp5
 70
     1
102
RTVSPropertyOp6
 70
     1
102
RTVSPropertyOp7
 70
     1
102
RTVSPropertyOp8
 70
     1
102
RTVSPropertyOp9
 70
     1
102
RTVSPropertyOp10
 70
     1
102
RTVSPropertyOp11
 70
     1
102
RTVSPropertyOp12
 70
     1
102
RTVSPropertyOp13
 70
     1
102
RTVSPropertyOp14
 70
     1
102
RTVSPropertyOp15
 70
     1
102
RTVSPropertyOp16
 70
     1
102
RTVSPropertyOp17
 70
     1
102
RTVSPropertyOp18
 70
     1
102
RTVSPropertyOp19
 70
     1
102
RTVSPropertyOp20
 70
     1
102
RTVSPropertyOp21
 70
     1
102
RTVSPropertyOp22
 70
     1
102
RTVSPropertyOp23
 70
     1
102
RTVSPropertyOp24
 70
     1
102
RTVSPropertyOp25
 70
     1
102
RTVSPropertyOp26
 70
     1
102
RTVSPropertyOp27
 70
     1
  0
XRECORD
  5
1727
102
{ACAD_REACTORS
330
1726
102
}
330
1726
100
AcDbXrecord
280
     1
102
RTVSPropertyOp0
 70
     1
102
RTVSPropertyOp1
 70
     1
102
RTVSPropertyOp2
 70
     1
102
RTVSPropertyOp3
 70
     1
102
RTVSPropertyOp4
 70
     1
102
RTVSPropertyOp5
 70
     1
102
RTVSPropertyOp6
 70
     1
102
RTVSPropertyOp7
 70
     1
102
RTVSPropertyOp8
 70
     1
102
RTVSPropertyOp9
 70
     1
102
RTVSPropertyOp10
 70
     1
102
RTVSPropertyOp11
 70
     1
102
RTVSPropertyOp12
 70
     1
102
RTVSPropertyOp13
 70
     1
102
RTVSPropertyOp14
 70
     1
102
RTVSPropertyOp15
 70
     1
102
RTVSPropertyOp16
 70
     1
102
RTVSPropertyOp17
 70
     1
102
RTVSPropertyOp18
 70
     1
102
RTVSPropertyOp19
 70
     1
102
RTVSPropertyOp20
 70
     1
102
RTVSPropertyOp21
 70
     1
102
RTVSPropertyOp22
 70
     1
102
RTVSPropertyOp23
 70
     1
102
RTVSPropertyOp24
 70
     1
102
RTVSPropertyOp25
 70
     1
102
RTVSPropertyOp26
 70
     1
102
RTVSPropertyOp27
 70
     1
  0
XRECORD
  5
172F
102
{ACAD_REACTORS
330
172E
102
}
330
172E
100
AcDbXrecord
280
     1
102
RTVSPropertyOp0
 70
     1
102
RTVSPropertyOp1
 70
     1
102
RTVSPropertyOp2
 70
     1
102
RTVSPropertyOp3
 70
     1
102
RTVSPropertyOp4
 70
     1
102
RTVSPropertyOp5
 70
     1
102
RTVSPropertyOp6
 70
     1
102
RTVSPropertyOp7
 70
     1
102
RTVSPropertyOp8
 70
     1
102
RTVSPropertyOp9
 70
     1
102
RTVSPropertyOp10
 70
     1
102
RTVSPropertyOp11
 70
     1
102
RTVSPropertyOp12
 70
     1
102
RTVSPropertyOp13
 70
     1
102
RTVSPropertyOp14
 70
     1
102
RTVSPropertyOp15
 70
     1
102
RTVSPropertyOp16
 70
     1
102
RTVSPropertyOp17
 70
     1
102
RTVSPropertyOp18
 70
     1
102
RTVSPropertyOp19
 70
     1
102
RTVSPropertyOp20
 70
     1
102
RTVSPropertyOp21
 70
     1
102
RTVSPropertyOp22
 70
     1
102
RTVSPropertyOp23
 70
     1
102
RTVSPropertyOp24
 70
     1
102
RTVSPropertyOp25
 70
     1
102
RTVSPropertyOp26
 70
     1
102
RTVSPropertyOp27
 70
     1
  0
XRECORD
  5
1721
102
{ACAD_REACTORS
330
1720
102
}
330
1720
100
AcDbXrecord
280
     1
102
RTVSPropertyOp0
 70
     1
102
RTVSPropertyOp1
 70
     1
102
RTVSPropertyOp2
 70
     1
102
RTVSPropertyOp3
 70
     1
102
RTVSPropertyOp4
 70
     1
102
RTVSPropertyOp5
 70
     1
102
RTVSPropertyOp6
 70
     1
102
RTVSPropertyOp7
 70
     1
102
RTVSPropertyOp8
 70
     1
102
RTVSPropertyOp9
 70
     1
102
RTVSPropertyOp10
 70
     1
102
RTVSPropertyOp11
 70
     1
102
RTVSPropertyOp12
 70
     1
102
RTVSPropertyOp13
 70
     1
102
RTVSPropertyOp14
 70
     1
102
RTVSPropertyOp15
 70
     1
102
RTVSPropertyOp16
 70
     1
102
RTVSPropertyOp17
 70
     1
102
RTVSPropertyOp18
 70
     1
102
RTVSPropertyOp19
 70
     1
102
RTVSPropertyOp20
 70
     1
102
RTVSPropertyOp21
 70
     1
102
RTVSPropertyOp22
 70
     1
102
RTVSPropertyOp23
 70
     1
102
RTVSPropertyOp24
 70
     1
102
RTVSPropertyOp25
 70
     1
102
RTVSPropertyOp26
 70
     1
102
RTVSPropertyOp27
 70
     1
  0
XRECORD
  5
1725
102
{ACAD_REACTORS
330
1724
102
}
330
1724
100
AcDbXrecord
280
     1
102
RTVSPropertyOp0
 70
     1
102
RTVSPropertyOp1
 70
     1
102
RTVSPropertyOp2
 70
     1
102
RTVSPropertyOp3
 70
     1
102
RTVSPropertyOp4
 70
     1
102
RTVSPropertyOp5
 70
     1
102
RTVSPropertyOp6
 70
     1
102
RTVSPropertyOp7
 70
     1
102
RTVSPropertyOp8
 70
     1
102
RTVSPropertyOp9
 70
     1
102
RTVSPropertyOp10
 70
     1
102
RTVSPropertyOp11
 70
     1
102
RTVSPropertyOp12
 70
     1
102
RTVSPropertyOp13
 70
     1
102
RTVSPropertyOp14
 70
     1
102
RTVSPropertyOp15
 70
     1
102
RTVSPropertyOp16
 70
     1
102
RTVSPropertyOp17
 70
     1
102
RTVSPropertyOp18
 70
     1
102
RTVSPropertyOp19
 70
     1
102
RTVSPropertyOp20
 70
     1
102
RTVSPropertyOp21
 70
     1
102
RTVSPropertyOp22
 70
     1
102
RTVSPropertyOp23
 70
     1
102
RTVSPropertyOp24
 70
     1
102
RTVSPropertyOp25
 70
     1
102
RTVSPropertyOp26
 70
     1
102
RTVSPropertyOp27
 70
     1
  0
XRECORD
  5
1735
102
{ACAD_REACTORS
330
1734
102
}
330
1734
100
AcDbXrecord
280
     1
102
RTVSPropertyOp0
 70
     0
102
RTVSPropertyOp1
 70
     0
102
RTVSPropertyOp2
 70
     0
102
RTVSPropertyOp3
 70
     0
102
RTVSPropertyOp4
 70
     0
102
RTVSPropertyOp5
 70
     0
102
RTVSPropertyOp6
 70
     0
102
RTVSPropertyOp7
 70
     0
102
RTVSPropertyOp8
 70
     0
102
RTVSPropertyOp9
 70
     0
102
RTVSPropertyOp10
 70
     0
102
RTVSPropertyOp11
 70
     0
102
RTVSPropertyOp12
 70
     0
102
RTVSPropertyOp13
 70
     0
102
RTVSPropertyOp14
 70
     2
102
RTVSPropertyOp15
 70
     0
102
RTVSPropertyOp16
 70
     0
102
RTVSPropertyOp17
 70
     0
102
RTVSPropertyOp18
 70
     0
102
RTVSPropertyOp19
 70
     0
102
RTVSPropertyOp20
 70
     0
102
RTVSPropertyOp21
 70
     0
102
RTVSPropertyOp22
 70
     0
102
RTVSPropertyOp23
 70
     0
102
RTVSPropertyOp24
 70
     0
102
RTVSPropertyOp25
 70
     0
102
RTVSPropertyOp26
 70
     0
102
RTVSPropertyOp27
 70
     0
  0
XRECORD
  5
172D
102
{ACAD_REACTORS
330
172C
102
}
330
172C
100
AcDbXrecord
280
     1
102
RTVSPropertyOp0
 70
     1
102
RTVSPropertyOp1
 70
     1
102
RTVSPropertyOp2
 70
     1
102
RTVSPropertyOp3
 70
     1
102
RTVSPropertyOp4
 70
     1
102
RTVSPropertyOp5
 70
     1
102
RTVSPropertyOp6
 70
     1
102
RTVSPropertyOp7
 70
     1
102
RTVSPropertyOp8
 70
     1
102
RTVSPropertyOp9
 70
     1
102
RTVSPropertyOp10
 70
     1
102
RTVSPropertyOp11
 70
     1
102
RTVSPropertyOp12
 70
     1
102
RTVSPropertyOp13
 70
     1
102
RTVSPropertyOp14
 70
     1
102
RTVSPropertyOp15
 70
     1
102
RTVSPropertyOp16
 70
     1
102
RTVSPropertyOp17
 70
     1
102
RTVSPropertyOp18
 70
     1
102
RTVSPropertyOp19
 70
     1
102
RTVSPropertyOp20
 70
     1
102
RTVSPropertyOp21
 70
     1
102
RTVSPropertyOp22
 70
     1
102
RTVSPropertyOp23
 70
     1
102
RTVSPropertyOp24
 70
     1
102
RTVSPropertyOp25
 70
     1
102
RTVSPropertyOp26
 70
     1
102
RTVSPropertyOp27
 70
     1
  0
XRECORD
  5
1711
102
{ACAD_REACTORS
330
1710
102
}
330
1710
100
AcDbXrecord
280
     1
102
RTVSPropertyOp0
 70
     1
102
RTVSPropertyOp1
 70
     1
102
RTVSPropertyOp2
 70
     1
102
RTVSPropertyOp3
 70
     1
102
RTVSPropertyOp4
 70
     1
102
RTVSPropertyOp5
 70
     1
102
RTVSPropertyOp6
 70
     1
102
RTVSPropertyOp7
 70
     1
102
RTVSPropertyOp8
 70
     1
102
RTVSPropertyOp9
 70
     1
102
RTVSPropertyOp10
 70
     1
102
RTVSPropertyOp11
 70
     1
102
RTVSPropertyOp12
 70
     1
102
RTVSPropertyOp13
 70
     1
102
RTVSPropertyOp14
 70
     1
102
RTVSPropertyOp15
 70
     1
102
RTVSPropertyOp16
 70
     1
102
RTVSPropertyOp17
 70
     1
102
RTVSPropertyOp18
 70
     1
102
RTVSPropertyOp19
 70
     1
102
RTVSPropertyOp20
 70
     1
102
RTVSPropertyOp21
 70
     1
102
RTVSPropertyOp22
 70
     1
102
RTVSPropertyOp23
 70
     1
102
RTVSPropertyOp24
 70
     1
102
RTVSPropertyOp25
 70
     1
102
RTVSPropertyOp26
 70
     1
102
RTVSPropertyOp27
 70
     1
  0
XRECORD
  5
1713
102
{ACAD_REACTORS
330
1712
102
}
330
1712
100
AcDbXrecord
280
     1
102
RTVSPropertyOp0
 70
     1
102
RTVSPropertyOp1
 70
     1
102
RTVSPropertyOp2
 70
     1
102
RTVSPropertyOp3
 70
     1
102
RTVSPropertyOp4
 70
     1
102
RTVSPropertyOp5
 70
     1
102
RTVSPropertyOp6
 70
     1
102
RTVSPropertyOp7
 70
     1
102
RTVSPropertyOp8
 70
     1
102
RTVSPropertyOp9
 70
     1
102
RTVSPropertyOp10
 70
     1
102
RTVSPropertyOp11
 70
     1
102
RTVSPropertyOp12
 70
     1
102
RTVSPropertyOp13
 70
     1
102
RTVSPropertyOp14
 70
     1
102
RTVSPropertyOp15
 70
     1
102
RTVSPropertyOp16
 70
     1
102
RTVSPropertyOp17
 70
     1
102
RTVSPropertyOp18
 70
     1
102
RTVSPropertyOp19
 70
     1
102
RTVSPropertyOp20
 70
     1
102
RTVSPropertyOp21
 70
     1
102
RTVSPropertyOp22
 70
     1
102
RTVSPropertyOp23
 70
     1
102
RTVSPropertyOp24
 70
     1
102
RTVSPropertyOp25
 70
     1
102
RTVSPropertyOp26
 70
     1
102
RTVSPropertyOp27
 70
     1
  0
XRECORD
  5
1715
102
{ACAD_REACTORS
330
1714
102
}
330
1714
100
AcDbXrecord
280
     1
102
RTVSPropertyOp0
 70
     1
102
RTVSPropertyOp1
 70
     1
102
RTVSPropertyOp2
 70
     1
102
RTVSPropertyOp3
 70
     1
102
RTVSPropertyOp4
 70
     1
102
RTVSPropertyOp5
 70
     1
102
RTVSPropertyOp6
 70
     1
102
RTVSPropertyOp7
 70
     1
102
RTVSPropertyOp8
 70
     1
102
RTVSPropertyOp9
 70
     1
102
RTVSPropertyOp10
 70
     1
102
RTVSPropertyOp11
 70
     1
102
RTVSPropertyOp12
 70
     1
102
RTVSPropertyOp13
 70
     1
102
RTVSPropertyOp14
 70
     1
102
RTVSPropertyOp15
 70
     1
102
RTVSPropertyOp16
 70
     1
102
RTVSPropertyOp17
 70
     1
102
RTVSPropertyOp18
 70
     1
102
RTVSPropertyOp19
 70
     1
102
RTVSPropertyOp20
 70
     1
102
RTVSPropertyOp21
 70
     1
102
RTVSPropertyOp22
 70
     1
102
RTVSPropertyOp23
 70
     1
102
RTVSPropertyOp24
 70
     1
102
RTVSPropertyOp25
 70
     1
102
RTVSPropertyOp26
 70
     1
102
RTVSPropertyOp27
 70
     1
  0
XRECORD
  5
1717
102
{ACAD_REACTORS
330
1716
102
}
330
1716
100
AcDbXrecord
280
     1
102
RTVSPropertyOp0
 70
     1
102
RTVSPropertyOp1
 70
     1
102
RTVSPropertyOp2
 70
     1
102
RTVSPropertyOp3
 70
     1
102
RTVSPropertyOp4
 70
     1
102
RTVSPropertyOp5
 70
     1
102
RTVSPropertyOp6
 70
     1
102
RTVSPropertyOp7
 70
     1
102
RTVSPropertyOp8
 70
     1
102
RTVSPropertyOp9
 70
     1
102
RTVSPropertyOp10
 70
     1
102
RTVSPropertyOp11
 70
     1
102
RTVSPropertyOp12
 70
     1
102
RTVSPropertyOp13
 70
     1
102
RTVSPropertyOp14
 70
     1
102
RTVSPropertyOp15
 70
     1
102
RTVSPropertyOp16
 70
     1
102
RTVSPropertyOp17
 70
     1
102
RTVSPropertyOp18
 70
     1
102
RTVSPropertyOp19
 70
     1
102
RTVSPropertyOp20
 70
     1
102
RTVSPropertyOp21
 70
     1
102
RTVSPropertyOp22
 70
     1
102
RTVSPropertyOp23
 70
     1
102
RTVSPropertyOp24
 70
     1
102
RTVSPropertyOp25
 70
     1
102
RTVSPropertyOp26
 70
     1
102
RTVSPropertyOp27
 70
     1
  0
XRECORD
  5
1731
102
{ACAD_REACTORS
330
1730
102
}
330
1730
100
AcDbXrecord
280
     1
102
RTVSPropertyOp0
 70
     0
102
RTVSPropertyOp1
 70
     0
102
RTVSPropertyOp2
 70
     0
102
RTVSPropertyOp3
 70
     0
102
RTVSPropertyOp4
 70
     0
102
RTVSPropertyOp5
 70
     0
102
RTVSPropertyOp6
 70
     0
102
RTVSPropertyOp7
 70
     0
102
RTVSPropertyOp8
 70
     0
102
RTVSPropertyOp9
 70
     0
102
RTVSPropertyOp10
 70
     0
102
RTVSPropertyOp11
 70
     0
102
RTVSPropertyOp12
 70
     0
102
RTVSPropertyOp13
 70
     0
102
RTVSPropertyOp14
 70
     2
102
RTVSPropertyOp15
 70
     0
102
RTVSPropertyOp16
 70
     0
102
RTVSPropertyOp17
 70
     0
102
RTVSPropertyOp18
 70
     0
102
RTVSPropertyOp19
 70
     0
102
RTVSPropertyOp20
 70
     0
102
RTVSPropertyOp21
 70
     0
102
RTVSPropertyOp22
 70
     0
102
RTVSPropertyOp23
 70
     0
102
RTVSPropertyOp24
 70
     0
102
RTVSPropertyOp25
 70
     0
102
RTVSPropertyOp26
 70
     0
102
RTVSPropertyOp27
 70
     0
  0
XRECORD
  5
172B
102
{ACAD_REACTORS
330
172A
102
}
330
172A
100
AcDbXrecord
280
     1
102
RTVSPropertyOp0
 70
     1
102
RTVSPropertyOp1
 70
     1
102
RTVSPropertyOp2
 70
     1
102
RTVSPropertyOp3
 70
     1
102
RTVSPropertyOp4
 70
     1
102
RTVSPropertyOp5
 70
     1
102
RTVSPropertyOp6
 70
     1
102
RTVSPropertyOp7
 70
     1
102
RTVSPropertyOp8
 70
     1
102
RTVSPropertyOp9
 70
     1
102
RTVSPropertyOp10
 70
     1
102
RTVSPropertyOp11
 70
     1
102
RTVSPropertyOp12
 70
     1
102
RTVSPropertyOp13
 70
     1
102
RTVSPropertyOp14
 70
     1
102
RTVSPropertyOp15
 70
     1
102
RTVSPropertyOp16
 70
     1
102
RTVSPropertyOp17
 70
     1
102
RTVSPropertyOp18
 70
     1
102
RTVSPropertyOp19
 70
     1
102
RTVSPropertyOp20
 70
     1
102
RTVSPropertyOp21
 70
     1
102
RTVSPropertyOp22
 70
     1
102
RTVSPropertyOp23
 70
     1
102
RTVSPropertyOp24
 70
     1
102
RTVSPropertyOp25
 70
     1
102
RTVSPropertyOp26
 70
     1
102
RTVSPropertyOp27
 70
     1
  0
XRECORD
  5
1733
102
{ACAD_REACTORS
330
1732
102
}
330
1732
100
AcDbXrecord
280
     1
102
RTVSPropertyOp0
 70
     0
102
RTVSPropertyOp1
 70
     0
102
RTVSPropertyOp2
 70
     0
102
RTVSPropertyOp3
 70
     0
102
RTVSPropertyOp4
 70
     0
102
RTVSPropertyOp5
 70
     0
102
RTVSPropertyOp6
 70
     0
102
RTVSPropertyOp7
 70
     0
102
RTVSPropertyOp8
 70
     0
102
RTVSPropertyOp9
 70
     0
102
RTVSPropertyOp10
 70
     0
102
RTVSPropertyOp11
 70
     0
102
RTVSPropertyOp12
 70
     0
102
RTVSPropertyOp13
 70
     0
102
RTVSPropertyOp14
 70
     2
102
RTVSPropertyOp15
 70
     0
102
RTVSPropertyOp16
 70
     0
102
RTVSPropertyOp17
 70
     0
102
RTVSPropertyOp18
 70
     0
102
RTVSPropertyOp19
 70
     0
102
RTVSPropertyOp20
 70
     0
102
RTVSPropertyOp21
 70
     0
102
RTVSPropertyOp22
 70
     0
102
RTVSPropertyOp23
 70
     0
102
RTVSPropertyOp24
 70
     0
102
RTVSPropertyOp25
 70
     0
102
RTVSPropertyOp26
 70
     0
102
RTVSPropertyOp27
 70
     0
  0
XRECORD
  5
1723
102
{ACAD_REACTORS
330
1722
102
}
330
1722
100
AcDbXrecord
280
     1
102
RTVSPropertyOp0
 70
     1
102
RTVSPropertyOp1
 70
     1
102
RTVSPropertyOp2
 70
     1
102
RTVSPropertyOp3
 70
     1
102
RTVSPropertyOp4
 70
     1
102
RTVSPropertyOp5
 70
     1
102
RTVSPropertyOp6
 70
     1
102
RTVSPropertyOp7
 70
     1
102
RTVSPropertyOp8
 70
     1
102
RTVSPropertyOp9
 70
     1
102
RTVSPropertyOp10
 70
     1
102
RTVSPropertyOp11
 70
     1
102
RTVSPropertyOp12
 70
     1
102
RTVSPropertyOp13
 70
     1
102
RTVSPropertyOp14
 70
     1
102
RTVSPropertyOp15
 70
     1
102
RTVSPropertyOp16
 70
     1
102
RTVSPropertyOp17
 70
     1
102
RTVSPropertyOp18
 70
     1
102
RTVSPropertyOp19
 70
     1
102
RTVSPropertyOp20
 70
     1
102
RTVSPropertyOp21
 70
     1
102
RTVSPropertyOp22
 70
     1
102
RTVSPropertyOp23
 70
     1
102
RTVSPropertyOp24
 70
     1
102
RTVSPropertyOp25
 70
     1
102
RTVSPropertyOp26
 70
     1
102
RTVSPropertyOp27
 70
     1
  0
XRECORD
  5
1729
102
{ACAD_REACTORS
330
1728
102
}
330
1728
100
AcDbXrecord
280
     1
102
RTVSPropertyOp0
 70
     1
102
RTVSPropertyOp1
 70
     1
102
RTVSPropertyOp2
 70
     1
102
RTVSPropertyOp3
 70
     1
102
RTVSPropertyOp4
 70
     1
102
RTVSPropertyOp5
 70
     1
102
RTVSPropertyOp6
 70
     1
102
RTVSPropertyOp7
 70
     1
102
RTVSPropertyOp8
 70
     1
102
RTVSPropertyOp9
 70
     1
102
RTVSPropertyOp10
 70
     1
102
RTVSPropertyOp11
 70
     1
102
RTVSPropertyOp12
 70
     1
102
RTVSPropertyOp13
 70
     1
102
RTVSPropertyOp14
 70
     1
102
RTVSPropertyOp15
 70
     1
102
RTVSPropertyOp16
 70
     1
102
RTVSPropertyOp17
 70
     1
102
RTVSPropertyOp18
 70
     1
102
RTVSPropertyOp19
 70
     1
102
RTVSPropertyOp20
 70
     1
102
RTVSPropertyOp21
 70
     1
102
RTVSPropertyOp22
 70
     1
102
RTVSPropertyOp23
 70
     1
102
RTVSPropertyOp24
 70
     1
102
RTVSPropertyOp25
 70
     1
102
RTVSPropertyOp26
 70
     1
102
RTVSPropertyOp27
 70
     1
  0
ENDSEC
  0
EOF
