  0
SECTION
  2
HEADER
  9
$ACADVER
  1
AC1015
  9
$ACADMAINTVER
 70
    20
  9
$DWGCODEPAGE
  3
ANSI_1252
  9
$INSBASE
 10
0.0
 20
0.0
 30
0.0
  9
$EXTMIN
 10
1601.478729369332
 20
1392.907845382693
 30
0.0
  9
$EXTMAX
 10
1605.446544040612
 20
1393.657845382692
 30
0.0000000000000003
  9
$LIMMIN
 10
0.0
 20
0.0
  9
$LIMMAX
 10
420.0
 20
297.0
  9
$ORTHOMODE
 70
     1
  9
$REGENMODE
 70
     1
  9
$FILLMODE
 70
     1
  9
$QTEXTMODE
 70
     0
  9
$MIRRTEXT
 70
     0
  9
$LTSCALE
 40
1.0
  9
$ATTMODE
 70
     1
  9
$TEXTSIZE
 40
2.5
  9
$TRACEWID
 40
1.0
  9
$TEXTSTYLE
  7
Standard
  9
$CLAYER
  8
0
  9
$CELTYPE
  6
ByLayer
  9
$CECOLOR
 62
   256
  9
$CELTSCALE
 40
1.0
  9
$DISPSILH
 70
     0
  9
$DIMSCALE
 40
1.0
  9
$DIMASZ
 40
2.5
  9
$DIMEXO
 40
0.625
  9
$DIMDLI
 40
3.75
  9
$DIMRND
 40
0.0
  9
$DIMDLE
 40
0.0
  9
$DIMEXE
 40
1.25
  9
$DIMTP
 40
0.0
  9
$DIMTM
 40
0.0
  9
$DIMTXT
 40
2.5
  9
$DIMCEN
 40
2.5
  9
$DIMTSZ
 40
0.0
  9
$DIMTOL
 70
     0
  9
$DIMLIM
 70
     0
  9
$DIMTIH
 70
     0
  9
$DIMTOH
 70
     0
  9
$DIMSE1
 70
     0
  9
$DIMSE2
 70
     0
  9
$DIMTAD
 70
     1
  9
$DIMZIN
 70
     8
  9
$DIMBLK
  1

  9
$DIMASO
 70
     1
  9
$DIMSHO
 70
     1
  9
$DIMPOST
  1

  9
$DIMAPOST
  1

  9
$DIMALT
 70
     0
  9
$DIMALTD
 70
     3
  9
$DIMALTF
 40
0.03937007874016
  9
$DIMLFAC
 40
1.0
  9
$DIMTOFL
 70
     1
  9
$DIMTVP
 40
0.0
  9
$DIMTIX
 70
     0
  9
$DIMSOXD
 70
     0
  9
$DIMSAH
 70
     0
  9
$DIMBLK1
  1

  9
$DIMBLK2
  1

  9
$DIMSTYLE
  2
ISO-25
  9
$DIMCLRD
 70
     0
  9
$DIMCLRE
 70
     0
  9
$DIMCLRT
 70
     0
  9
$DIMTFAC
 40
1.0
  9
$DIMGAP
 40
0.625
  9
$DIMJUST
 70
     0
  9
$DIMSD1
 70
     0
  9
$DIMSD2
 70
     0
  9
$DIMTOLJ
 70
     0
  9
$DIMTZIN
 70
     8
  9
$DIMALTZ
 70
     0
  9
$DIMALTTZ
 70
     0
  9
$DIMUPT
 70
     0
  9
$DIMDEC
 70
     2
  9
$DIMTDEC
 70
     2
  9
$DIMALTU
 70
     2
  9
$DIMALTTD
 70
     3
  9
$DIMTXSTY
  7
Standard
  9
$DIMAUNIT
 70
     0
  9
$DIMADEC
 70
     0
  9
$DIMALTRND
 40
0.0
  9
$DIMAZIN
 70
     0
  9
$DIMDSEP
 70
    44
  9
$DIMATFIT
 70
     3
  9
$DIMFRAC
 70
     0
  9
$DIMLDRBLK
  1

  9
$DIMLUNIT
 70
     2
  9
$DIMLWD
 70
    -2
  9
$DIMLWE
 70
    -2
  9
$DIMTMOVE
 70
     0
  9
$LUNITS
 70
     2
  9
$LUPREC
 70
     4
  9
$SKETCHINC
 40
1.0
  9
$FILLETRAD
 40
0.0
  9
$AUNITS
 70
     0
  9
$AUPREC
 70
     0
  9
$MENU
  1
.
  9
$ELEVATION
 40
0.0
  9
$PELEVATION
 40
0.0
  9
$THICKNESS
 40
0.0
  9
$LIMCHECK
 70
     0
  9
$CHAMFERA
 40
0.0
  9
$CHAMFERB
 40
0.0
  9
$CHAMFERC
 40
0.0
  9
$CHAMFERD
 40
0.0
  9
$SKPOLY
 70
     0
  9
$TDCREATE
 40
2454922.672436158
  9
$TDUCREATE
 40
2454922.630769491
  9
$TDUPDATE
 40
2454922.676301354
  9
$TDUUPDATE
 40
2454922.634634688
  9
$TDINDWG
 40
0.0038657407
  9
$TDUSRTIMER
 40
0.0038657407
  9
$USRTIMER
 70
     1
  9
$ANGBASE
 50
0.0
  9
$ANGDIR
 70
     0
  9
$PDMODE
 70
     0
  9
$PDSIZE
 40
0.0
  9
$PLINEWID
 40
0.0
  9
$SPLFRAME
 70
     0
  9
$SPLINETYPE
 70
     6
  9
$SPLINESEGS
 70
     8
  9
$HANDSEED
  5
AA6
  9
$SURFTAB1
 70
     6
  9
$SURFTAB2
 70
     6
  9
$SURFTYPE
 70
     6
  9
$SURFU
 70
     6
  9
$SURFV
 70
     6
  9
$UCSBASE
  2

  9
$UCSNAME
  2

  9
$UCSORG
 10
0.0
 20
0.0
 30
0.0
  9
$UCSXDIR
 10
1.0
 20
0.0
 30
0.0
  9
$UCSYDIR
 10
0.0
 20
1.0
 30
0.0
  9
$UCSORTHOREF
  2

  9
$UCSORTHOVIEW
 70
     0
  9
$UCSORGTOP
 10
0.0
 20
0.0
 30
0.0
  9
$UCSORGBOTTOM
 10
0.0
 20
0.0
 30
0.0
  9
$UCSORGLEFT
 10
0.0
 20
0.0
 30
0.0
  9
$UCSORGRIGHT
 10
0.0
 20
0.0
 30
0.0
  9
$UCSORGFRONT
 10
0.0
 20
0.0
 30
0.0
  9
$UCSORGBACK
 10
0.0
 20
0.0
 30
0.0
  9
$PUCSBASE
  2

  9
$PUCSNAME
  2

  9
$PUCSORG
 10
0.0
 20
0.0
 30
0.0
  9
$PUCSXDIR
 10
1.0
 20
0.0
 30
0.0
  9
$PUCSYDIR
 10
0.0
 20
1.0
 30
0.0
  9
$PUCSORTHOREF
  2

  9
$PUCSORTHOVIEW
 70
     0
  9
$PUCSORGTOP
 10
0.0
 20
0.0
 30
0.0
  9
$PUCSORGBOTTOM
 10
0.0
 20
0.0
 30
0.0
  9
$PUCSORGLEFT
 10
0.0
 20
0.0
 30
0.0
  9
$PUCSORGRIGHT
 10
0.0
 20
0.0
 30
0.0
  9
$PUCSORGFRONT
 10
0.0
 20
0.0
 30
0.0
  9
$PUCSORGBACK
 10
0.0
 20
0.0
 30
0.0
  9
$USERI1
 70
     0
  9
$USERI2
 70
     0
  9
$USERI3
 70
     0
  9
$USERI4
 70
     0
  9
$USERI5
 70
     0
  9
$USERR1
 40
0.0
  9
$USERR2
 40
0.0
  9
$USERR3
 40
0.0
  9
$USERR4
 40
0.0
  9
$USERR5
 40
0.0
  9
$WORLDVIEW
 70
     1
  9
$SHADEDGE
 70
     3
  9
$SHADEDIF
 70
    70
  9
$TILEMODE
 70
     1
  9
$MAXACTVP
 70
    64
  9
$PINSBASE
 10
0.0
 20
0.0
 30
0.0
  9
$PLIMCHECK
 70
     0
  9
$PEXTMIN
 10
1.000000000000000E+20
 20
1.000000000000000E+20
 30
1.000000000000000E+20
  9
$PEXTMAX
 10
-1.000000000000000E+20
 20
-1.000000000000000E+20
 30
-1.000000000000000E+20
  9
$PLIMMIN
 10
0.0
 20
0.0
  9
$PLIMMAX
 10
420.0
 20
297.0
  9
$UNITMODE
 70
     0
  9
$VISRETAIN
 70
     1
  9
$PLINEGEN
 70
     0
  9
$PSLTSCALE
 70
     1
  9
$TREEDEPTH
 70
  3020
  9
$CMLSTYLE
  2
Standard
  9
$CMLJUST
 70
     0
  9
$CMLSCALE
 40
20.0
  9
$PROXYGRAPHICS
 70
     1
  9
$MEASUREMENT
 70
     1
  9
$CELWEIGHT
370
    -1
  9
$ENDCAPS
280
     0
  9
$JOINSTYLE
280
     0
  9
$LWDISPLAY
290
     0
  9
$INSUNITS
 70
     4
  9
$HYPERLINKBASE
  1

  9
$STYLESHEET
  1

  9
$XEDIT
290
     1
  9
$CEPSNTYPE
380
     0
  9
$PSTYLEMODE
290
     1
  9
$FINGERPRINTGUID
  2
{7713A67F-D731-4A17-B5FB-4AECB6B4119B}
  9
$VERSIONGUID
  2
{3416FFC1-759D-4ADE-88EA-7D09BFD3CDC0}
  9
$EXTNAMES
290
     1
  9
$PSVPSCALE
 40
0.0
  9
$OLESTARTUP
290
     0
  0
ENDSEC
  0
SECTION
  2
CLASSES
  0
CLASS
  1
ACDBDICTIONARYWDFLT
  2
AcDbDictionaryWithDefault
  3
ObjectDBX Classes
 90
        0
280
     0
281
     0
  0
CLASS
  1
TABLESTYLE
  2
AcDbTableStyle
  3
ObjectDBX Classes
 90
     2047
280
     0
281
     0
  0
CLASS
  1
DIMASSOC
  2
AcDbDimAssoc
  3
"AcDbDimAssoc|Product Desc:     AcDim ARX App For Dimension|Company:          Autodesk, Inc.|WEB Address:      www.autodesk.com"
 90
        0
280
     0
281
     0
  0
CLASS
  1
SORTENTSTABLE
  2
AcDbSortentsTable
  3
ObjectDBX Classes
 90
        0
280
     0
281
     0
  0
CLASS
  1
DICTIONARYVAR
  2
AcDbDictionaryVar
  3
ObjectDBX Classes
 90
        0
280
     0
281
     0
  0
CLASS
  1
ACDBPLACEHOLDER
  2
AcDbPlaceHolder
  3
ObjectDBX Classes
 90
        0
280
     0
281
     0
  0
CLASS
  1
LAYOUT
  2
AcDbLayout
  3
ObjectDBX Classes
 90
        0
280
     0
281
     0
  0
ENDSEC
  0
SECTION
  2
TABLES
  0
TABLE
  2
VPORT
  5
8
330
0
100
AcDbSymbolTable
 70
     9
  0
VPORT
  5
A9E
330
8
100
AcDbSymbolTableRecord
100
AcDbViewportTableRecord
  2
*Active
 70
     0
 10
0.0
 20
0.0
 11
1.0
 21
1.0
 12
1603.462636704972
 22
1393.282845382693
 13
0.0
 23
0.0
 14
10.0
 24
10.0
 15
10.0
 25
10.0
 16
0.0
 26
0.0
 36
1.0
 17
0.0
 27
0.0
 37
0.0
 40
2.486148812640136
 41
1.602030456852791
 42
50.0
 43
0.0
 44
0.0
 50
0.0
 51
0.0
 71
     0
 72
  1000
 73
     1
 74
     3
 75
     0
 76
     0
 77
     0
 78
     0
281
     0
 65
     1
110
0.0
120
0.0
130
0.0
111
1.0
121
0.0
131
0.0
112
0.0
122
1.0
132
0.0
 79
     0
146
0.0
  0
ENDTAB
  0
TABLE
  2
LTYPE
  5
5
330
0
100
AcDbSymbolTable
 70
     3
  0
LTYPE
  5
14
330
5
100
AcDbSymbolTableRecord
100
AcDbLinetypeTableRecord
  2
ByBlock
 70
     0
  3

 72
    65
 73
     0
 40
0.0
  0
LTYPE
  5
15
330
5
100
AcDbSymbolTableRecord
100
AcDbLinetypeTableRecord
  2
ByLayer
 70
     0
  3

 72
    65
 73
     0
 40
0.0
  0
LTYPE
  5
16
330
5
100
AcDbSymbolTableRecord
100
AcDbLinetypeTableRecord
  2
Continuous
 70
     0
  3
Solid line
 72
    65
 73
     0
 40
0.0
  0
LTYPE
  5
283
330
5
100
AcDbSymbolTableRecord
100
AcDbLinetypeTableRecord
  2
DASHDOT
 70
     0
  3
Dash dot __ . __ . __ . __ . __ . __ . __ . __
 72
    65
 73
     4
 40
25.4
 49
12.7
 74
     0
 49
-6.349999999999999
 74
     0
 49
0.0
 74
     0
 49
-6.349999999999999
 74
     0
  0
LTYPE
  5
284
330
5
100
AcDbSymbolTableRecord
100
AcDbLinetypeTableRecord
  2
HIDDEN
 70
     0
  3
Hidden __ __ __ __ __ __ __ __ __ __ __ __ __ _
 72
    65
 73
     2
 40
9.524999999999998
 49
6.349999999999999
 74
     0
 49
-3.174999999999999
 74
     0
  0
ENDTAB
  0
TABLE
  2
LAYER
  5
2
102
{ACAD_XDICTIONARY
360
296
102
}
330
0
100
AcDbSymbolTable
 70
    10
  0
LAYER
  5
10
330
2
100
AcDbSymbolTableRecord
100
AcDbLayerTableRecord
  2
0
 70
     0
 62
     7
  6
Continuous
370
    -3
390
F
  0
LAYER
  5
285
330
2
100
AcDbSymbolTableRecord
100
AcDbLayerTableRecord
  2
1
 70
     0
 62
     1
  6
Continuous
370
    -3
390
F
  0
LAYER
  5
286
330
2
100
AcDbSymbolTableRecord
100
AcDbLayerTableRecord
  2
4
 70
     0
 62
     4
  6
Continuous
370
    -3
390
F
  0
LAYER
  5
287
330
2
100
AcDbSymbolTableRecord
100
AcDbLayerTableRecord
  2
cen
 70
     0
 62
     7
  6
DASHDOT
370
    -3
390
F
  0
LAYER
  5
288
330
2
100
AcDbSymbolTableRecord
100
AcDbLayerTableRecord
  2
hatch
 70
     0
 62
     9
  6
Continuous
370
    -3
390
F
  0
LAYER
  5
289
330
2
100
AcDbSymbolTableRecord
100
AcDbLayerTableRecord
  2
9
 70
     0
 62
     9
  6
Continuous
370
    -3
390
F
  0
LAYER
  5
28A
330
2
100
AcDbSymbolTableRecord
100
AcDbLayerTableRecord
  2
cotas
 70
     0
 62
     1
  6
Continuous
370
    -3
390
F
  0
LAYER
  5
28B
330
2
100
AcDbSymbolTableRecord
100
AcDbLayerTableRecord
  2
Defpoints
 70
     0
 62
     7
  6
Continuous
290
     0
370
    -3
390
F
  0
LAYER
  5
28C
330
2
100
AcDbSymbolTableRecord
100
AcDbLayerTableRecord
  2
SANINDUSA
 70
     0
 62
     3
  6
Continuous
370
    -3
390
F
  0
LAYER
  5
28D
330
2
100
AcDbSymbolTableRecord
100
AcDbLayerTableRecord
  2
hid1
 70
     0
 62
     9
  6
HIDDEN
370
    -3
390
F
1001
AcAecLayerStandard
1000

1000

  0
ENDTAB
  0
TABLE
  2
STYLE
  5
3
330
0
100
AcDbSymbolTable
 70
     2
  0
STYLE
  5
11
330
3
100
AcDbSymbolTableRecord
100
AcDbTextStyleTableRecord
  2
Standard
 70
     0
 40
0.0
 41
1.0
 50
0.0
 71
     0
 42
2.5
  3
txt
  4

  0
STYLE
  5
28E
330
3
100
AcDbSymbolTableRecord
100
AcDbTextStyleTableRecord
  2
SANINDUSA
 70
     0
 40
0.0
 41
1.0
 50
0.0
 71
     0
 42
2.5
  3
verdana.TTF
  4

1001
ACAD
1000
Verdana
1071
       34
  0
ENDTAB
  0
TABLE
  2
VIEW
  5
6
330
0
100
AcDbSymbolTable
 70
     0
  0
ENDTAB
  0
TABLE
  2
UCS
  5
7
330
0
100
AcDbSymbolTable
 70
     0
  0
ENDTAB
  0
TABLE
  2
APPID
  5
9
330
0
100
AcDbSymbolTable
 70
     7
  0
APPID
  5
12
330
9
100
AcDbSymbolTableRecord
100
AcDbRegAppTableRecord
  2
ACAD
 70
     0
  0
APPID
  5
290
330
9
100
AcDbSymbolTableRecord
100
AcDbRegAppTableRecord
  2
ACAD_DSTYLE_DIMEXT_LENGTH
 70
     0
  0
APPID
  5
291
330
9
100
AcDbSymbolTableRecord
100
AcDbRegAppTableRecord
  2
ACAD_DSTYLE_DIMEXT_ENABLED
 70
     0
  0
APPID
  5
292
330
9
100
AcDbSymbolTableRecord
100
AcDbRegAppTableRecord
  2
ACAD_DSTYLE_DIMJOGGED_JOGANGLE_SYMBOL
 70
     0
  0
APPID
  5
293
330
9
100
AcDbSymbolTableRecord
100
AcDbRegAppTableRecord
  2
ACAD_DSTYLE_DIMARC_LENGTH_SYMBOL
 70
     0
  0
APPID
  5
294
330
9
100
AcDbSymbolTableRecord
100
AcDbRegAppTableRecord
  2
AcAecLayerStandard
 70
     0
  0
APPID
  5
295
330
9
100
AcDbSymbolTableRecord
100
AcDbRegAppTableRecord
  2
DCO15
 70
     0
  0
ENDTAB
  0
TABLE
  2
DIMSTYLE
  5
A
330
0
100
AcDbSymbolTable
 70
     2
100
AcDbDimStyleTable
 71
     0
  0
DIMSTYLE
105
2B
330
A
100
AcDbSymbolTableRecord
100
AcDbDimStyleTableRecord
  2
ISO-25
 70
     0
 41
2.5
 42
0.625
 43
3.75
 44
1.25
 73
     0
 74
     0
 77
     1
 78
     8
140
2.5
141
2.5
143
0.03937007874016
147
0.625
171
     3
172
     1
271
     2
272
     2
274
     3
278
    44
283
     0
284
     8
340
11
  0
DIMSTYLE
105
28F
102
{ACAD_REACTORS
330
464
330
467
330
46A
330
46D
330
46E
330
46F
330
472
330
47E
330
481
330
484
330
487
330
48A
330
48D
330
490
330
493
330
496
330
499
330
49C
330
4A7
330
4AA
330
4AD
330
4B0
330
4B3
330
4B6
330
4B9
330
4BC
330
4BD
330
4C0
330
4C1
330
4C4
330
4C7
330
4C8
330
4CB
330
4CE
330
4D3
330
4D6
330
4D9
330
4DA
330
4DD
330
4E0
330
4E3
330
4E6
330
4E9
330
4EE
330
4F1
330
4F4
330
4F7
330
4F8
330
513
330
516
330
519
102
}
330
A
100
AcDbSymbolTableRecord
100
AcDbDimStyleTableRecord
  2
SANINDUSA
 70
     0
 40
5.0
 41
2.0
 42
1.0
 43
1.0
 44
1.0
 73
     0
 74
     0
 77
     1
 78
     8
140
2.0
141
0.0
143
0.03937007874016
147
1.0
171
     3
172
     1
176
   256
177
   256
178
   256
179
     1
271
     1
272
     1
274
     3
278
    44
283
     0
284
     8
340
28E
371
    -1
372
    -1
1001
ACAD_DSTYLE_DIMEXT_LENGTH
1070
   378
1040
1.0
1001
ACAD_DSTYLE_DIMEXT_ENABLED
1070
   383
1070
     0
1001
ACAD_DSTYLE_DIMARC_LENGTH_SYMBOL
1070
   379
1070
     0
1001
ACAD_DSTYLE_DIMJOGGED_JOGANGLE_SYMBOL
1070
   384
1040
1.570796326794896
  0
ENDTAB
  0
TABLE
  2
BLOCK_RECORD
  5
1
330
0
100
AcDbSymbolTable
 70
   104
  0
BLOCK_RECORD
  5
23
330
1
100
AcDbSymbolTableRecord
100
AcDbBlockTableRecord
  2
*Model_Space
340
26
  0
BLOCK_RECORD
  5
1F
330
1
100
AcDbSymbolTableRecord
100
AcDbBlockTableRecord
  2
*Paper_Space
340
22
  0
BLOCK_RECORD
  5
27
330
1
100
AcDbSymbolTableRecord
100
AcDbBlockTableRecord
  2
*Paper_Space0
340
2A
  0
BLOCK_RECORD
  5
2F
330
1
100
AcDbSymbolTableRecord
100
AcDbBlockTableRecord
  2
*D1
340
0
  0
BLOCK_RECORD
  5
3B
330
1
100
AcDbSymbolTableRecord
100
AcDbBlockTableRecord
  2
*D2
340
0
  0
BLOCK_RECORD
  5
49
330
1
100
AcDbSymbolTableRecord
100
AcDbBlockTableRecord
  2
*D3
340
0
  0
BLOCK_RECORD
  5
57
330
1
100
AcDbSymbolTableRecord
100
AcDbBlockTableRecord
  2
*D4
340
0
  0
BLOCK_RECORD
  5
63
330
1
100
AcDbSymbolTableRecord
100
AcDbBlockTableRecord
  2
*D5
340
0
  0
BLOCK_RECORD
  5
6F
330
1
100
AcDbSymbolTableRecord
100
AcDbBlockTableRecord
  2
*D6
340
0
  0
BLOCK_RECORD
  5
7B
330
1
100
AcDbSymbolTableRecord
100
AcDbBlockTableRecord
  2
*D7
340
0
  0
BLOCK_RECORD
  5
87
330
1
100
AcDbSymbolTableRecord
100
AcDbBlockTableRecord
  2
*D8
340
0
  0
BLOCK_RECORD
  5
93
330
1
100
AcDbSymbolTableRecord
100
AcDbBlockTableRecord
  2
*D9
340
0
  0
BLOCK_RECORD
  5
9F
330
1
100
AcDbSymbolTableRecord
100
AcDbBlockTableRecord
  2
*D10
340
0
  0
BLOCK_RECORD
  5
AB
330
1
100
AcDbSymbolTableRecord
100
AcDbBlockTableRecord
  2
*D11
340
0
  0
BLOCK_RECORD
  5
B7
330
1
100
AcDbSymbolTableRecord
100
AcDbBlockTableRecord
  2
*D12
340
0
  0
BLOCK_RECORD
  5
C3
330
1
100
AcDbSymbolTableRecord
100
AcDbBlockTableRecord
  2
*D13
340
0
  0
BLOCK_RECORD
  5
CF
330
1
100
AcDbSymbolTableRecord
100
AcDbBlockTableRecord
  2
*D14
340
0
  0
BLOCK_RECORD
  5
DB
330
1
100
AcDbSymbolTableRecord
100
AcDbBlockTableRecord
  2
*D15
340
0
  0
BLOCK_RECORD
  5
E7
330
1
100
AcDbSymbolTableRecord
100
AcDbBlockTableRecord
  2
*D16
340
0
  0
BLOCK_RECORD
  5
F3
330
1
100
AcDbSymbolTableRecord
100
AcDbBlockTableRecord
  2
*D17
340
0
  0
BLOCK_RECORD
  5
FF
330
1
100
AcDbSymbolTableRecord
100
AcDbBlockTableRecord
  2
*D18
340
0
  0
BLOCK_RECORD
  5
10B
330
1
100
AcDbSymbolTableRecord
100
AcDbBlockTableRecord
  2
*D19
340
0
  0
BLOCK_RECORD
  5
117
330
1
100
AcDbSymbolTableRecord
100
AcDbBlockTableRecord
  2
*D20
340
0
  0
BLOCK_RECORD
  5
123
330
1
100
AcDbSymbolTableRecord
100
AcDbBlockTableRecord
  2
*D21
340
0
  0
BLOCK_RECORD
  5
12F
330
1
100
AcDbSymbolTableRecord
100
AcDbBlockTableRecord
  2
*D22
340
0
  0
BLOCK_RECORD
  5
13B
330
1
100
AcDbSymbolTableRecord
100
AcDbBlockTableRecord
  2
*D23
340
0
  0
BLOCK_RECORD
  5
147
330
1
100
AcDbSymbolTableRecord
100
AcDbBlockTableRecord
  2
*D24
340
0
  0
BLOCK_RECORD
  5
153
330
1
100
AcDbSymbolTableRecord
100
AcDbBlockTableRecord
  2
*D25
340
0
  0
BLOCK_RECORD
  5
161
330
1
100
AcDbSymbolTableRecord
100
AcDbBlockTableRecord
  2
*D26
340
0
  0
BLOCK_RECORD
  5
16D
330
1
100
AcDbSymbolTableRecord
100
AcDbBlockTableRecord
  2
*D27
340
0
  0
BLOCK_RECORD
  5
17B
330
1
100
AcDbSymbolTableRecord
100
AcDbBlockTableRecord
  2
*D28
340
0
  0
BLOCK_RECORD
  5
187
330
1
100
AcDbSymbolTableRecord
100
AcDbBlockTableRecord
  2
*D29
340
0
  0
BLOCK_RECORD
  5
193
330
1
100
AcDbSymbolTableRecord
100
AcDbBlockTableRecord
  2
*D30
340
0
  0
BLOCK_RECORD
  5
19F
330
1
100
AcDbSymbolTableRecord
100
AcDbBlockTableRecord
  2
*D31
340
0
  0
BLOCK_RECORD
  5
1AD
330
1
100
AcDbSymbolTableRecord
100
AcDbBlockTableRecord
  2
*D32
340
0
  0
BLOCK_RECORD
  5
1B9
330
1
100
AcDbSymbolTableRecord
100
AcDbBlockTableRecord
  2
*D33
340
0
  0
BLOCK_RECORD
  5
1C5
330
1
100
AcDbSymbolTableRecord
100
AcDbBlockTableRecord
  2
*D34
340
0
  0
BLOCK_RECORD
  5
1CE
330
1
100
AcDbSymbolTableRecord
100
AcDbBlockTableRecord
  2
*D35
340
0
  0
BLOCK_RECORD
  5
1DA
330
1
100
AcDbSymbolTableRecord
100
AcDbBlockTableRecord
  2
*D36
340
0
  0
BLOCK_RECORD
  5
1E7
330
1
100
AcDbSymbolTableRecord
100
AcDbBlockTableRecord
  2
*D37
340
0
  0
BLOCK_RECORD
  5
1F4
330
1
100
AcDbSymbolTableRecord
100
AcDbBlockTableRecord
  2
*D38
340
0
  0
BLOCK_RECORD
  5
1FC
330
1
100
AcDbSymbolTableRecord
100
AcDbBlockTableRecord
  2
*D39
340
0
  0
BLOCK_RECORD
  5
205
330
1
100
AcDbSymbolTableRecord
100
AcDbBlockTableRecord
  2
*D40
340
0
  0
BLOCK_RECORD
  5
20D
330
1
100
AcDbSymbolTableRecord
100
AcDbBlockTableRecord
  2
*D41
340
0
  0
BLOCK_RECORD
  5
216
330
1
100
AcDbSymbolTableRecord
100
AcDbBlockTableRecord
  2
*D42
340
0
  0
BLOCK_RECORD
  5
21E
330
1
100
AcDbSymbolTableRecord
100
AcDbBlockTableRecord
  2
*D43
340
0
  0
BLOCK_RECORD
  5
22C
330
1
100
AcDbSymbolTableRecord
100
AcDbBlockTableRecord
  2
*D44
340
0
  0
BLOCK_RECORD
  5
238
330
1
100
AcDbSymbolTableRecord
100
AcDbBlockTableRecord
  2
*D45
340
0
  0
BLOCK_RECORD
  5
241
330
1
100
AcDbSymbolTableRecord
100
AcDbBlockTableRecord
  2
*D46
340
0
  0
BLOCK_RECORD
  5
24F
330
1
100
AcDbSymbolTableRecord
100
AcDbBlockTableRecord
  2
*D47
340
0
  0
BLOCK_RECORD
  5
25D
330
1
100
AcDbSymbolTableRecord
100
AcDbBlockTableRecord
  2
*D48
340
0
  0
BLOCK_RECORD
  5
26B
330
1
100
AcDbSymbolTableRecord
100
AcDbBlockTableRecord
  2
*D49
340
0
  0
BLOCK_RECORD
  5
273
330
1
100
AcDbSymbolTableRecord
100
AcDbBlockTableRecord
  2
*D50
340
0
  0
BLOCK_RECORD
  5
27B
330
1
100
AcDbSymbolTableRecord
100
AcDbBlockTableRecord
  2
*D51
340
0
  0
BLOCK_RECORD
  5
7A5
330
1
100
AcDbSymbolTableRecord
100
AcDbBlockTableRecord
  2
*D53
340
0
  0
BLOCK_RECORD
  5
7B1
330
1
100
AcDbSymbolTableRecord
100
AcDbBlockTableRecord
  2
*D54
340
0
  0
BLOCK_RECORD
  5
7BD
330
1
100
AcDbSymbolTableRecord
100
AcDbBlockTableRecord
  2
*D55
340
0
  0
BLOCK_RECORD
  5
7C9
330
1
100
AcDbSymbolTableRecord
100
AcDbBlockTableRecord
  2
*D56
340
0
  0
BLOCK_RECORD
  5
7D5
330
1
100
AcDbSymbolTableRecord
100
AcDbBlockTableRecord
  2
*D57
340
0
  0
BLOCK_RECORD
  5
7E3
330
1
100
AcDbSymbolTableRecord
100
AcDbBlockTableRecord
  2
*D58
340
0
  0
BLOCK_RECORD
  5
7F0
330
1
100
AcDbSymbolTableRecord
100
AcDbBlockTableRecord
  2
*D59
340
0
  0
BLOCK_RECORD
  5
7FE
330
1
100
AcDbSymbolTableRecord
100
AcDbBlockTableRecord
  2
*D60
340
0
  0
BLOCK_RECORD
  5
80A
330
1
100
AcDbSymbolTableRecord
100
AcDbBlockTableRecord
  2
*D61
340
0
  0
BLOCK_RECORD
  5
818
330
1
100
AcDbSymbolTableRecord
100
AcDbBlockTableRecord
  2
*D62
340
0
  0
BLOCK_RECORD
  5
838
330
1
100
AcDbSymbolTableRecord
100
AcDbBlockTableRecord
  2
*D63
340
0
  0
BLOCK_RECORD
  5
844
330
1
100
AcDbSymbolTableRecord
100
AcDbBlockTableRecord
  2
*D64
340
0
  0
BLOCK_RECORD
  5
850
330
1
100
AcDbSymbolTableRecord
100
AcDbBlockTableRecord
  2
*D65
340
0
  0
BLOCK_RECORD
  5
85C
330
1
100
AcDbSymbolTableRecord
100
AcDbBlockTableRecord
  2
*D66
340
0
  0
BLOCK_RECORD
  5
868
330
1
100
AcDbSymbolTableRecord
100
AcDbBlockTableRecord
  2
*D67
340
0
  0
BLOCK_RECORD
  5
874
330
1
100
AcDbSymbolTableRecord
100
AcDbBlockTableRecord
  2
*D68
340
0
  0
BLOCK_RECORD
  5
880
330
1
100
AcDbSymbolTableRecord
100
AcDbBlockTableRecord
  2
*D69
340
0
  0
BLOCK_RECORD
  5
88C
330
1
100
AcDbSymbolTableRecord
100
AcDbBlockTableRecord
  2
*D70
340
0
  0
BLOCK_RECORD
  5
898
330
1
100
AcDbSymbolTableRecord
100
AcDbBlockTableRecord
  2
*D71
340
0
  0
BLOCK_RECORD
  5
8A4
330
1
100
AcDbSymbolTableRecord
100
AcDbBlockTableRecord
  2
*D72
340
0
  0
BLOCK_RECORD
  5
8B0
330
1
100
AcDbSymbolTableRecord
100
AcDbBlockTableRecord
  2
*D73
340
0
  0
BLOCK_RECORD
  5
8BC
330
1
100
AcDbSymbolTableRecord
100
AcDbBlockTableRecord
  2
*D74
340
0
  0
BLOCK_RECORD
  5
8C8
330
1
100
AcDbSymbolTableRecord
100
AcDbBlockTableRecord
  2
*D75
340
0
  0
BLOCK_RECORD
  5
8D4
330
1
100
AcDbSymbolTableRecord
100
AcDbBlockTableRecord
  2
*D76
340
0
  0
BLOCK_RECORD
  5
8E0
330
1
100
AcDbSymbolTableRecord
100
AcDbBlockTableRecord
  2
*D77
340
0
  0
BLOCK_RECORD
  5
8EC
330
1
100
AcDbSymbolTableRecord
100
AcDbBlockTableRecord
  2
*D78
340
0
  0
BLOCK_RECORD
  5
8F8
330
1
100
AcDbSymbolTableRecord
100
AcDbBlockTableRecord
  2
*D79
340
0
  0
BLOCK_RECORD
  5
904
330
1
100
AcDbSymbolTableRecord
100
AcDbBlockTableRecord
  2
*D80
340
0
  0
BLOCK_RECORD
  5
910
330
1
100
AcDbSymbolTableRecord
100
AcDbBlockTableRecord
  2
*D81
340
0
  0
BLOCK_RECORD
  5
91C
330
1
100
AcDbSymbolTableRecord
100
AcDbBlockTableRecord
  2
*D82
340
0
  0
BLOCK_RECORD
  5
933
330
1
100
AcDbSymbolTableRecord
100
AcDbBlockTableRecord
  2
*D83
340
0
  0
BLOCK_RECORD
  5
94A
330
1
100
AcDbSymbolTableRecord
100
AcDbBlockTableRecord
  2
*D84
340
0
  0
BLOCK_RECORD
  5
956
330
1
100
AcDbSymbolTableRecord
100
AcDbBlockTableRecord
  2
*D85
340
0
  0
BLOCK_RECORD
  5
96D
330
1
100
AcDbSymbolTableRecord
100
AcDbBlockTableRecord
  2
*D86
340
0
  0
BLOCK_RECORD
  5
979
330
1
100
AcDbSymbolTableRecord
100
AcDbBlockTableRecord
  2
*D87
340
0
  0
BLOCK_RECORD
  5
985
330
1
100
AcDbSymbolTableRecord
100
AcDbBlockTableRecord
  2
*D88
340
0
  0
BLOCK_RECORD
  5
98E
330
1
100
AcDbSymbolTableRecord
100
AcDbBlockTableRecord
  2
*D89
340
0
  0
BLOCK_RECORD
  5
99A
330
1
100
AcDbSymbolTableRecord
100
AcDbBlockTableRecord
  2
*D90
340
0
  0
BLOCK_RECORD
  5
9B1
330
1
100
AcDbSymbolTableRecord
100
AcDbBlockTableRecord
  2
*D91
340
0
  0
BLOCK_RECORD
  5
9B9
330
1
100
AcDbSymbolTableRecord
100
AcDbBlockTableRecord
  2
*D92
340
0
  0
BLOCK_RECORD
  5
9C2
330
1
100
AcDbSymbolTableRecord
100
AcDbBlockTableRecord
  2
*D93
340
0
  0
BLOCK_RECORD
  5
9CA
330
1
100
AcDbSymbolTableRecord
100
AcDbBlockTableRecord
  2
*D94
340
0
  0
BLOCK_RECORD
  5
9D3
330
1
100
AcDbSymbolTableRecord
100
AcDbBlockTableRecord
  2
*D95
340
0
  0
BLOCK_RECORD
  5
9DB
330
1
100
AcDbSymbolTableRecord
100
AcDbBlockTableRecord
  2
*D96
340
0
  0
BLOCK_RECORD
  5
9E9
330
1
100
AcDbSymbolTableRecord
100
AcDbBlockTableRecord
  2
*D97
340
0
  0
BLOCK_RECORD
  5
9F5
330
1
100
AcDbSymbolTableRecord
100
AcDbBlockTableRecord
  2
*D98
340
0
  0
BLOCK_RECORD
  5
9FE
330
1
100
AcDbSymbolTableRecord
100
AcDbBlockTableRecord
  2
*D99
340
0
  0
BLOCK_RECORD
  5
A17
330
1
100
AcDbSymbolTableRecord
100
AcDbBlockTableRecord
  2
*D100
340
0
  0
BLOCK_RECORD
  5
A25
330
1
100
AcDbSymbolTableRecord
100
AcDbBlockTableRecord
  2
*D101
340
0
  0
BLOCK_RECORD
  5
A2D
330
1
100
AcDbSymbolTableRecord
100
AcDbBlockTableRecord
  2
*D102
340
0
  0
BLOCK_RECORD
  5
A35
330
1
100
AcDbSymbolTableRecord
100
AcDbBlockTableRecord
  2
*D103
340
0
  0
ENDTAB
  0
ENDSEC
  0
SECTION
  2
BLOCKS
  0
BLOCK
  5
24
330
23
100
AcDbEntity
  8
0
100
AcDbBlockBegin
  2
*Model_Space
 70
     0
 10
0.0
 20
0.0
 30
0.0
  3
*Model_Space
  1

  0
ENDBLK
  5
25
330
23
100
AcDbEntity
  8
0
100
AcDbBlockEnd
  0
BLOCK
  5
20
330
1F
100
AcDbEntity
 67
     1
  8
0
100
AcDbBlockBegin
  2
*Paper_Space
 70
     0
 10
0.0
 20
0.0
 30
0.0
  3
*Paper_Space
  1

  0
ENDBLK
  5
21
330
1F
100
AcDbEntity
 67
     1
  8
0
100
AcDbBlockEnd
  0
BLOCK
  5
28
330
27
100
AcDbEntity
 67
     1
  8
0
100
AcDbBlockBegin
  2
*Paper_Space0
 70
     0
 10
0.0
 20
0.0
 30
0.0
  3
*Paper_Space0
  1

  0
ENDBLK
  5
29
330
27
100
AcDbEntity
 67
     1
  8
0
100
AcDbBlockEnd
  0
BLOCK
  5
30
330
2F
100
AcDbEntity
  8
0
100
AcDbBlockBegin
  2
*D1
 70
     1
 10
0.0
 20
0.0
 30
0.0
  3
*D1
  1

  0
LINE
  5
31
330
2F
100
AcDbEntity
  8
cotas
100
AcDbLine
 10
2192.932276423843
 20
1758.164710796727
 30
0.0
 11
2192.932276423843
 21
1788.164710796727
 31
0.0
  0
LINE
  5
32
330
2F
100
AcDbEntity
  8
cotas
100
AcDbLine
 10
3188.393073047516
 20
1758.164709295408
 30
0.0
 11
3188.393073047516
 21
1788.164710796727
 31
0.0
  0
LINE
  5
33
330
2F
100
AcDbEntity
  8
cotas
100
AcDbLine
 10
2202.932276423843
 20
1783.164710796727
 30
0.0
 11
3178.393073047516
 21
1783.164710796727
 31
0.0
  0
SOLID
  5
34
330
2F
100
AcDbEntity
  8
cotas
100
AcDbTrace
 10
2202.932276423843
 20
1784.831377463394
 30
0.0
 11
2202.932276423843
 21
1781.49804413006
 31
0.0
 12
2192.932276423843
 22
1783.164710796727
 32
0.0
 13
2192.932276423843
 23
1783.164710796727
 33
0.0
  0
SOLID
  5
35
330
2F
100
AcDbEntity
  8
cotas
100
AcDbTrace
 10
3178.393073047516
 20
1784.831377463394
 30
0.0
 11
3178.393073047516
 21
1781.49804413006
 31
0.0
 12
3188.393073047516
 22
1783.164710796727
 32
0.0
 13
3188.393073047516
 23
1783.164710796727
 33
0.0
  0
MTEXT
  5
36
330
2F
100
AcDbEntity
  8
cotas
100
AcDbMText
 10
2690.66267473568
 20
1794.507894141253
 30
0.0
 40
10.0
 41
0.0
 71
     5
 72
     1
  1
995,5
  7
SANINDUSA
 73
     1
 44
1.0
1001
ACAD
1000
MTEXTBEGIN
1070
    73
1070
     1
1070
    44
1040
1.0
1070
    74
1070
     0
1000
MTEXTEND
  0
POINT
  5
37
330
2F
100
AcDbEntity
  8
Defpoints
 62
     0
100
AcDbPoint
 10
2192.932276423843
 20
1753.164710796727
 30
0.0
  0
POINT
  5
38
330
2F
100
AcDbEntity
  8
Defpoints
 62
     0
100
AcDbPoint
 10
3188.393073047516
 20
1753.164709295408
 30
0.0
  0
POINT
  5
39
330
2F
100
AcDbEntity
  8
Defpoints
 62
     0
100
AcDbPoint
 10
3188.393073047516
 20
1783.164710796727
 30
0.0
  0
ENDBLK
  5
3A
330
2F
100
AcDbEntity
  8
0
100
AcDbBlockEnd
  0
BLOCK
  5
3C
330
3B
100
AcDbEntity
  8
0
100
AcDbBlockBegin
  2
*D2
 70
     1
 10
0.0
 20
0.0
 30
0.0
  3
*D2
  1

  0
LINE
  5
3D
330
3B
100
AcDbEntity
  8
cotas
100
AcDbLine
 10
3188.393073047516
 20
1758.164709295408
 30
0.0
 11
3188.393073047516
 21
1788.164710796727
 31
0.0
  0
LINE
  5
3E
330
3B
100
AcDbEntity
  8
cotas
100
AcDbLine
 10
3190.662674709471
 20
1693.171820930467
 30
0.0
 11
3190.662674709471
 21
1788.164710796727
 31
0.0
  0
LINE
  5
3F
330
3B
100
AcDbEntity
  8
cotas
100
AcDbLine
 10
3178.393073047516
 20
1783.164710796727
 30
0.0
 11
3168.393073047516
 21
1783.164710796727
 31
0.0
  0
LINE
  5
40
330
3B
100
AcDbEntity
  8
cotas
100
AcDbLine
 10
3200.662674709471
 20
1783.164710796727
 30
0.0
 11
3241.038766045939
 21
1783.164710796727
 31
0.0
  0
LINE
  5
41
330
3B
100
AcDbEntity
  8
cotas
100
AcDbLine
 10
3188.393073047516
 20
1783.164710796727
 30
0.0
 11
3190.662674709471
 21
1783.164710796727
 31
0.0
  0
SOLID
  5
42
330
3B
100
AcDbEntity
  8
cotas
100
AcDbTrace
 10
3178.393073047516
 20
1784.831377463394
 30
0.0
 11
3178.393073047516
 21
1781.49804413006
 31
0.0
 12
3188.393073047516
 22
1783.164710796727
 32
0.0
 13
3188.393073047516
 23
1783.164710796727
 33
0.0
  0
SOLID
  5
43
330
3B
100
AcDbEntity
  8
cotas
100
AcDbTrace
 10
3200.662674709471
 20
1784.831377463394
 30
0.0
 11
3200.662674709471
 21
1781.49804413006
 31
0.0
 12
3190.662674709471
 22
1783.164710796727
 32
0.0
 13
3190.662674709471
 23
1783.164710796727
 33
0.0
  0
MTEXT
  5
44
330
3B
100
AcDbEntity
  8
cotas
100
AcDbMText
 10
3225.850720377704
 20
1794.511252099615
 30
0.0
 40
10.0
 41
0.0
 71
     5
 72
     1
  1
2,3
  7
SANINDUSA
 73
     1
 44
1.0
1001
ACAD
1000
MTEXTBEGIN
1070
    73
1070
     1
1070
    44
1040
1.0
1070
    74
1070
     0
1000
MTEXTEND
  0
POINT
  5
45
330
3B
100
AcDbEntity
  8
Defpoints
 62
     0
100
AcDbPoint
 10
3188.393073047516
 20
1753.164709295408
 30
0.0
  0
POINT
  5
46
330
3B
100
AcDbEntity
  8
Defpoints
 62
     0
100
AcDbPoint
 10
3190.662674709471
 20
1688.171820930467
 30
0.0
  0
POINT
  5
47
330
3B
100
AcDbEntity
  8
Defpoints
 62
     0
100
AcDbPoint
 10
3190.662674709471
 20
1783.164710796727
 30
0.0
  0
ENDBLK
  5
48
330
3B
100
AcDbEntity
  8
0
100
AcDbBlockEnd
  0
BLOCK
  5
4A
330
49
100
AcDbEntity
  8
0
100
AcDbBlockBegin
  2
*D3
 70
     1
 10
0.0
 20
0.0
 30
0.0
  3
*D3
  1

  0
LINE
  5
4B
330
49
100
AcDbEntity
  8
cotas
100
AcDbLine
 10
2192.932276423843
 20
1758.164710796727
 30
0.0
 11
2192.932276423843
 21
1788.164710796727
 31
0.0
  0
LINE
  5
4C
330
49
100
AcDbEntity
  8
cotas
100
AcDbLine
 10
2190.662674709471
 20
1693.171820930467
 30
0.0
 11
2190.662674709471
 21
1788.164710796727
 31
0.0
  0
LINE
  5
4D
330
49
100
AcDbEntity
  8
cotas
100
AcDbLine
 10
2202.932276423843
 20
1783.164710796727
 30
0.0
 11
2212.932276423843
 21
1783.164710796727
 31
0.0
  0
LINE
  5
4E
330
49
100
AcDbEntity
  8
cotas
100
AcDbLine
 10
2180.662674709471
 20
1783.164710796727
 30
0.0
 11
2140.286583373003
 21
1783.164710796727
 31
0.0
  0
LINE
  5
4F
330
49
100
AcDbEntity
  8
cotas
100
AcDbLine
 10
2192.932276423843
 20
1783.164710796727
 30
0.0
 11
2190.662674709471
 21
1783.164710796727
 31
0.0
  0
SOLID
  5
50
330
49
100
AcDbEntity
  8
cotas
100
AcDbTrace
 10
2202.932276423843
 20
1784.831377463394
 30
0.0
 11
2202.932276423843
 21
1781.49804413006
 31
0.0
 12
2192.932276423843
 22
1783.164710796727
 32
0.0
 13
2192.932276423843
 23
1783.164710796727
 33
0.0
  0
SOLID
  5
51
330
49
100
AcDbEntity
  8
cotas
100
AcDbTrace
 10
2180.662674709471
 20
1784.831377463394
 30
0.0
 11
2180.662674709471
 21
1781.49804413006
 31
0.0
 12
2190.662674709471
 22
1783.164710796727
 32
0.0
 13
2190.662674709471
 23
1783.164710796727
 33
0.0
  0
MTEXT
  5
52
330
49
100
AcDbEntity
  8
cotas
100
AcDbMText
 10
2155.474629041237
 20
1794.511252099615
 30
0.0
 40
10.0
 41
0.0
 71
     5
 72
     1
  1
2,3
  7
SANINDUSA
 73
     1
 44
1.0
1001
ACAD
1000
MTEXTBEGIN
1070
    73
1070
     1
1070
    44
1040
1.0
1070
    74
1070
     0
1000
MTEXTEND
  0
POINT
  5
53
330
49
100
AcDbEntity
  8
Defpoints
 62
     0
100
AcDbPoint
 10
2192.932276423843
 20
1753.164710796727
 30
0.0
  0
POINT
  5
54
330
49
100
AcDbEntity
  8
Defpoints
 62
     0
100
AcDbPoint
 10
2190.662674709471
 20
1688.171820930467
 30
0.0
  0
POINT
  5
55
330
49
100
AcDbEntity
  8
Defpoints
 62
     0
100
AcDbPoint
 10
2190.662674709471
 20
1783.164710796727
 30
0.0
  0
ENDBLK
  5
56
330
49
100
AcDbEntity
  8
0
100
AcDbBlockEnd
  0
BLOCK
  5
58
330
57
100
AcDbEntity
  8
0
100
AcDbBlockBegin
  2
*D4
 70
     1
 10
0.0
 20
0.0
 30
0.0
  3
*D4
  1

  0
LINE
  5
59
330
57
100
AcDbEntity
  8
cotas
100
AcDbLine
 10
2190.662674709471
 20
1693.171820930467
 30
0.0
 11
2190.662674709471
 21
1818.164710796727
 31
0.0
  0
LINE
  5
5A
330
57
100
AcDbEntity
  8
cotas
100
AcDbLine
 10
3190.662674709471
 20
1693.171820930467
 30
0.0
 11
3190.662674709471
 21
1818.164710796727
 31
0.0
  0
LINE
  5
5B
330
57
100
AcDbEntity
  8
cotas
100
AcDbLine
 10
2200.662674709471
 20
1813.164710796727
 30
0.0
 11
3180.662674709471
 21
1813.164710796727
 31
0.0
  0
SOLID
  5
5C
330
57
100
AcDbEntity
  8
cotas
100
AcDbTrace
 10
2200.662674709471
 20
1814.831377463394
 30
0.0
 11
2200.662674709471
 21
1811.49804413006
 31
0.0
 12
2190.662674709471
 22
1813.164710796727
 32
0.0
 13
2190.662674709471
 23
1813.164710796727
 33
0.0
  0
SOLID
  5
5D
330
57
100
AcDbEntity
  8
cotas
100
AcDbTrace
 10
3180.662674709471
 20
1814.831377463394
 30
0.0
 11
3180.662674709471
 21
1811.49804413006
 31
0.0
 12
3190.662674709471
 22
1813.164710796727
 32
0.0
 13
3190.662674709471
 23
1813.164710796727
 33
0.0
  0
MTEXT
  5
5E
330
57
100
AcDbEntity
  8
cotas
100
AcDbMText
 10
2690.662674709471
 20
1823.369546256768
 30
0.0
 40
10.0
 41
0.0
 71
     5
 72
     1
  1
1000
  7
SANINDUSA
 73
     1
 44
1.0
1001
ACAD
1000
MTEXTBEGIN
1070
    73
1070
     1
1070
    44
1040
1.0
1070
    74
1070
     0
1000
MTEXTEND
  0
POINT
  5
5F
330
57
100
AcDbEntity
  8
Defpoints
 62
     0
100
AcDbPoint
 10
2190.662674709471
 20
1688.171820930467
 30
0.0
  0
POINT
  5
60
330
57
100
AcDbEntity
  8
Defpoints
 62
     0
100
AcDbPoint
 10
3190.662674709471
 20
1688.171820930467
 30
0.0
  0
POINT
  5
61
330
57
100
AcDbEntity
  8
Defpoints
 62
     0
100
AcDbPoint
 10
3190.662674709471
 20
1813.164710796727
 30
0.0
  0
ENDBLK
  5
62
330
57
100
AcDbEntity
  8
0
100
AcDbBlockEnd
  0
BLOCK
  5
64
330
63
100
AcDbEntity
  8
0
100
AcDbBlockBegin
  2
*D5
 70
     1
 10
0.0
 20
0.0
 30
0.0
  3
*D5
  1

  0
LINE
  5
65
330
63
100
AcDbEntity
  8
cotas
100
AcDbLine
 10
3193.393073047517
 20
1753.164709295408
 30
0.0
 11
3225.662674709471
 21
1753.164709295408
 31
0.0
  0
LINE
  5
66
330
63
100
AcDbEntity
  8
cotas
100
AcDbLine
 10
3195.662674709471
 20
1688.171820930467
 30
0.0
 11
3225.662674709471
 21
1688.171820930467
 31
0.0
  0
LINE
  5
67
330
63
100
AcDbEntity
  8
cotas
100
AcDbLine
 10
3220.662674709471
 20
1743.164709295408
 30
0.0
 11
3220.662674709471
 21
1698.171820930467
 31
0.0
  0
SOLID
  5
68
330
63
100
AcDbEntity
  8
cotas
100
AcDbTrace
 10
3218.996008042804
 20
1743.164709295408
 30
0.0
 11
3222.329341376137
 21
1743.164709295408
 31
0.0
 12
3220.662674709471
 22
1753.164709295408
 32
0.0
 13
3220.662674709471
 23
1753.164709295408
 33
0.0
  0
SOLID
  5
69
330
63
100
AcDbEntity
  8
cotas
100
AcDbTrace
 10
3218.996008042804
 20
1698.171820930467
 30
0.0
 11
3222.329341376137
 21
1698.171820930467
 31
0.0
 12
3220.662674709471
 22
1688.171820930467
 32
0.0
 13
3220.662674709471
 23
1688.171820930467
 33
0.0
  0
MTEXT
  5
6A
330
63
100
AcDbEntity
  8
cotas
100
AcDbMText
 10
3210.464555166153
 20
1720.668265112938
 30
0.0
 40
10.0
 41
0.0
 71
     5
 72
     1
  1
65
  7
SANINDUSA
 11
0.0000000000000001
 21
1.0
 31
0.0
 73
     1
 44
1.0
1001
ACAD
1000
MTEXTBEGIN
1070
    73
1070
     1
1070
    44
1040
1.0
1070
    74
1070
     0
1000
MTEXTEND
  0
POINT
  5
6B
330
63
100
AcDbEntity
  8
Defpoints
 62
     0
100
AcDbPoint
 10
3188.393073047516
 20
1753.164709295408
 30
0.0
  0
POINT
  5
6C
330
63
100
AcDbEntity
  8
Defpoints
 62
     0
100
AcDbPoint
 10
3190.662674709471
 20
1688.171820930467
 30
0.0
  0
POINT
  5
6D
330
63
100
AcDbEntity
  8
Defpoints
 62
     0
100
AcDbPoint
 10
3220.662674709471
 20
1688.171820930467
 30
0.0
  0
ENDBLK
  5
6E
330
63
100
AcDbEntity
  8
0
100
AcDbBlockEnd
  0
BLOCK
  5
70
330
6F
100
AcDbEntity
  8
0
100
AcDbBlockBegin
  2
*D6
 70
     1
 10
0.0
 20
0.0
 30
0.0
  3
*D6
  1

  0
ARC
  5
71
330
6F
100
AcDbEntity
  8
cotas
100
AcDbCircle
 10
3190.66267470947
 20
1688.171820930467
 30
0.0
 40
53.63375055071605
100
AcDbArc
 50
102.6983190448898
 51
169.3016809452124
  0
SOLID
  5
72
330
6F
100
AcDbEntity
  8
cotas
100
AcDbTrace
 10
3178.659840580642
 20
1742.14671831788
 30
0.0
 11
3179.086225922759
 21
1738.840768129033
 31
0.0
 12
3188.790883818243
 22
1741.772899249806
 32
0.0
 13
3188.790883818243
 23
1741.772899249806
 33
0.0
  0
SOLID
  5
73
330
6F
100
AcDbEntity
  8
cotas
100
AcDbTrace
 10
3139.620581429943
 20
1697.972896910505
 30
0.0
 11
3136.301764502839
 21
1698.28364651305
 31
0.0
 12
3137.028924158754
 22
1688.171820930467
 32
0.0
 13
3137.028924158754
 23
1688.171820930467
 33
0.0
  0
MTEXT
  5
74
330
6F
100
AcDbEntity
  8
cotas
100
AcDbMText
 10
3143.912518006159
 20
1733.317922487129
 30
0.0
 40
10.0
 41
0.0
 71
     5
 72
     1
  1
88,0°
  7
SANINDUSA
 11
0.6946583705211255
 21
0.7193398002786548
 31
0.0
 73
     1
 44
1.0
1001
ACAD
1000
MTEXTBEGIN
1070
    73
1070
     1
1070
    44
1040
1.0
1070
    74
1070
     0
1000
MTEXTEND
  0
POINT
  5
75
330
6F
100
AcDbEntity
  8
Defpoints
 62
     0
100
AcDbPoint
 10
3162.772259427041
 20
1733.983434452696
 30
0.0
  0
POINT
  5
76
330
6F
100
AcDbEntity
  8
Defpoints
 62
     0
100
AcDbPoint
 10
3188.561583163076
 20
1748.339210921594
 30
0.0
  0
POINT
  5
77
330
6F
100
AcDbEntity
  8
Defpoints
 62
     0
100
AcDbPoint
 10
2195.665709777983
 20
1688.171820930467
 30
0.0
  0
POINT
  5
78
330
6F
100
AcDbEntity
  8
Defpoints
 62
     0
100
AcDbPoint
 10
3185.659639640959
 20
1688.171820930467
 30
0.0
  0
POINT
  5
79
330
6F
100
AcDbEntity
  8
Defpoints
 62
     0
100
AcDbPoint
 10
3190.66267470947
 20
1688.171820930467
 30
0.0
  0
ENDBLK
  5
7A
330
6F
100
AcDbEntity
  8
0
100
AcDbBlockEnd
  0
BLOCK
  5
7C
330
7B
100
AcDbEntity
  8
0
100
AcDbBlockBegin
  2
*D7
 70
     1
 10
0.0
 20
0.0
 30
0.0
  3
*D7
  1

  0
ARC
  5
7D
330
7B
100
AcDbEntity
  8
cotas
100
AcDbCircle
 10
2190.66267470947
 20
1688.171820930467
 30
0.0
 40
51.11498128920992
100
AcDbArc
 50
11.22714831212042
 51
76.77285169778516
  0
SOLID
  5
7E
330
7B
100
AcDbEntity
  8
cotas
100
AcDbTrace
 10
2242.458142953818
 20
1698.286894597113
 30
0.0
 11
2239.140795442736
 21
1697.960832330311
 31
0.0
 12
2241.77765599868
 22
1688.171820930467
 32
0.0
 13
2241.77765599868
 23
1688.171820930467
 33
0.0
  0
SOLID
  5
7F
330
7B
100
AcDbEntity
  8
cotas
100
AcDbTrace
 10
2202.137584914417
 20
1736.27877853333
 30
0.0
 11
2202.579222310848
 21
1739.582725797011
 31
0.0
 12
2192.44656182159
 22
1739.255664354464
 32
0.0
 13
2192.44656182159
 23
1739.255664354464
 33
0.0
  0
MTEXT
  5
80
330
7B
100
AcDbEntity
  8
cotas
100
AcDbMText
 10
2235.600980435259
 20
1731.568238336216
 30
0.0
 40
10.0
 41
0.0
 71
     5
 72
     1
  1
88,0°
  7
SANINDUSA
 11
0.6946583705211774
 21
-0.7193398002786048
 31
0.0
 73
     1
 44
1.0
1001
ACAD
1000
MTEXTBEGIN
1070
    73
1070
     1
1070
    44
1040
1.0
1070
    74
1070
     0
1000
MTEXTEND
  0
POINT
  5
81
330
7B
100
AcDbEntity
  8
Defpoints
 62
     0
100
AcDbPoint
 10
2235.223918702362
 20
1713.212524714551
 30
0.0
  0
POINT
  5
82
330
7B
100
AcDbEntity
  8
Defpoints
 62
     0
100
AcDbPoint
 10
2190.66267470947
 20
1688.171820930467
 30
0.0
  0
POINT
  5
83
330
7B
100
AcDbEntity
  8
Defpoints
 62
     0
100
AcDbPoint
 10
2195.665709777982
 20
1688.171820930467
 30
0.0
  0
POINT
  5
84
330
7B
100
AcDbEntity
  8
Defpoints
 62
     0
100
AcDbPoint
 10
3185.659639640958
 20
1688.171820930467
 30
0.0
  0
POINT
  5
85
330
7B
100
AcDbEntity
  8
Defpoints
 62
     0
100
AcDbPoint
 10
2192.763766255856
 20
1748.339210921594
 30
0.0
  0
ENDBLK
  5
86
330
7B
100
AcDbEntity
  8
0
100
AcDbBlockEnd
  0
BLOCK
  5
88
330
87
100
AcDbEntity
  8
0
100
AcDbBlockBegin
  2
*D8
 70
     1
 10
0.0
 20
0.0
 30
0.0
  3
*D8
  1

  0
LINE
  5
89
330
87
100
AcDbEntity
  8
cotas
100
AcDbLine
 10
2185.662674709471
 20
1144.168926464626
 30
0.0
 11
2155.662674709471
 21
1144.168926464626
 31
0.0
  0
LINE
  5
8A
330
87
100
AcDbEntity
  8
cotas
100
AcDbLine
 10
2190.659630104216
 20
1314.168926464626
 30
0.0
 11
2155.662674709471
 21
1314.168926464626
 31
0.0
  0
LINE
  5
8B
330
87
100
AcDbEntity
  8
cotas
100
AcDbLine
 10
2160.662674709471
 20
1154.168926464626
 30
0.0
 11
2160.662674709471
 21
1304.168926464626
 31
0.0
  0
SOLID
  5
8C
330
87
100
AcDbEntity
  8
cotas
100
AcDbTrace
 10
2158.996008042805
 20
1154.168926464626
 30
0.0
 11
2162.329341376138
 21
1154.168926464626
 31
0.0
 12
2160.662674709471
 22
1144.168926464626
 32
0.0
 13
2160.662674709471
 23
1144.168926464626
 33
0.0
  0
SOLID
  5
8D
330
87
100
AcDbEntity
  8
cotas
100
AcDbTrace
 10
2158.996008042805
 20
1304.168926464626
 30
0.0
 11
2162.329341376138
 21
1304.168926464626
 31
0.0
 12
2160.662674709471
 22
1314.168926464626
 32
0.0
 13
2160.662674709471
 23
1314.168926464626
 33
0.0
  0
MTEXT
  5
8E
330
87
100
AcDbEntity
  8
cotas
100
AcDbMText
 10
2150.457839249431
 20
1229.168926464627
 30
0.0
 40
10.0
 41
0.0
 71
     5
 72
     1
  1
170
  7
SANINDUSA
 11
0.0000000000000001
 21
1.0
 31
0.0
 73
     1
 44
1.0
1001
ACAD
1000
MTEXTBEGIN
1070
    73
1070
     1
1070
    44
1040
1.0
1070
    74
1070
     0
1000
MTEXTEND
  0
POINT
  5
8F
330
87
100
AcDbEntity
  8
Defpoints
 62
     0
100
AcDbPoint
 10
2190.662674709471
 20
1144.168926464626
 30
0.0
  0
POINT
  5
90
330
87
100
AcDbEntity
  8
Defpoints
 62
     0
100
AcDbPoint
 10
2195.659630104215
 20
1314.168926464626
 30
0.0
  0
POINT
  5
91
330
87
100
AcDbEntity
  8
Defpoints
 62
     0
100
AcDbPoint
 10
2160.662674709471
 20
1314.168926464626
 30
0.0
  0
ENDBLK
  5
92
330
87
100
AcDbEntity
  8
0
100
AcDbBlockEnd
  0
BLOCK
  5
94
330
93
100
AcDbEntity
  8
0
100
AcDbBlockBegin
  2
*D9
 70
     1
 10
0.0
 20
0.0
 30
0.0
  3
*D9
  1

  0
LINE
  5
95
330
93
100
AcDbEntity
  8
cotas
100
AcDbLine
 10
2185.662674709471
 20
1144.168926464626
 30
0.0
 11
2155.662674709471
 21
1144.168926464626
 31
0.0
  0
LINE
  5
96
330
93
100
AcDbEntity
  8
cotas
100
AcDbLine
 10
2299.736510618175
 20
1004.161796991808
 30
0.0
 11
2155.662674709471
 21
1004.161796991808
 31
0.0
  0
LINE
  5
97
330
93
100
AcDbEntity
  8
cotas
100
AcDbLine
 10
2160.662674709471
 20
1134.168926464626
 30
0.0
 11
2160.66267470947
 21
1014.161796991808
 31
0.0
  0
SOLID
  5
98
330
93
100
AcDbEntity
  8
cotas
100
AcDbTrace
 10
2158.996008042805
 20
1134.168926464626
 30
0.0
 11
2162.329341376138
 21
1134.168926464626
 31
0.0
 12
2160.662674709471
 22
1144.168926464626
 32
0.0
 13
2160.662674709471
 23
1144.168926464626
 33
0.0
  0
SOLID
  5
99
330
93
100
AcDbEntity
  8
cotas
100
AcDbTrace
 10
2158.996008042804
 20
1014.161796991808
 30
0.0
 11
2162.329341376137
 21
1014.161796991808
 31
0.0
 12
2160.66267470947
 22
1004.161796991808
 32
0.0
 13
2160.66267470947
 23
1004.161796991808
 33
0.0
  0
MTEXT
  5
9A
330
93
100
AcDbEntity
  8
cotas
100
AcDbMText
 10
2150.457839249431
 20
1074.165361728217
 30
0.0
 40
10.0
 41
0.0
 71
     5
 72
     1
  1
140
  7
SANINDUSA
 11
0.0000000000000001
 21
1.0
 31
0.0
 73
     1
 44
1.0
1001
ACAD
1000
MTEXTBEGIN
1070
    73
1070
     1
1070
    44
1040
1.0
1070
    74
1070
     0
1000
MTEXTEND
  0
POINT
  5
9B
330
93
100
AcDbEntity
  8
Defpoints
 62
     0
100
AcDbPoint
 10
2190.662674709471
 20
1144.168926464626
 30
0.0
  0
POINT
  5
9C
330
93
100
AcDbEntity
  8
Defpoints
 62
     0
100
AcDbPoint
 10
2304.736510618175
 20
1004.161796991808
 30
0.0
  0
POINT
  5
9D
330
93
100
AcDbEntity
  8
Defpoints
 62
     0
100
AcDbPoint
 10
2160.66267470947
 20
1004.161796991808
 30
0.0
  0
ENDBLK
  5
9E
330
93
100
AcDbEntity
  8
0
100
AcDbBlockEnd
  0
BLOCK
  5
A0
330
9F
100
AcDbEntity
  8
0
100
AcDbBlockBegin
  2
*D10
 70
     1
 10
0.0
 20
0.0
 30
0.0
  3
*D10
  1

  0
LINE
  5
A1
330
9F
100
AcDbEntity
  8
cotas
100
AcDbLine
 10
2299.736510618175
 20
1004.161796991808
 30
0.0
 11
2155.662674709471
 21
1004.161796991808
 31
0.0
  0
LINE
  5
A2
330
9F
100
AcDbEntity
  8
cotas
100
AcDbLine
 10
2299.736510618175
 20
869.161796991808
 30
0.0
 11
2155.662674709471
 21
869.161796991808
 31
0.0
  0
LINE
  5
A3
330
9F
100
AcDbEntity
  8
cotas
100
AcDbLine
 10
2160.66267470947
 20
994.161796991808
 30
0.0
 11
2160.66267470947
 21
879.161796991808
 31
0.0
  0
SOLID
  5
A4
330
9F
100
AcDbEntity
  8
cotas
100
AcDbTrace
 10
2158.996008042804
 20
994.161796991808
 30
0.0
 11
2162.329341376137
 21
994.161796991808
 31
0.0
 12
2160.66267470947
 22
1004.161796991808
 32
0.0
 13
2160.66267470947
 23
1004.161796991808
 33
0.0
  0
SOLID
  5
A5
330
9F
100
AcDbEntity
  8
cotas
100
AcDbTrace
 10
2158.996008042804
 20
879.161796991808
 30
0.0
 11
2162.329341376137
 21
879.161796991808
 31
0.0
 12
2160.66267470947
 22
869.161796991808
 32
0.0
 13
2160.66267470947
 23
869.161796991808
 33
0.0
  0
MTEXT
  5
A6
330
9F
100
AcDbEntity
  8
cotas
100
AcDbMText
 10
2150.454481291069
 20
936.6617969918083
 30
0.0
 40
10.0
 41
0.0
 71
     5
 72
     1
  1
135
  7
SANINDUSA
 11
0.0000000000000001
 21
1.0
 31
0.0
 73
     1
 44
1.0
1001
ACAD
1000
MTEXTBEGIN
1070
    73
1070
     1
1070
    44
1040
1.0
1070
    74
1070
     0
1000
MTEXTEND
  0
POINT
  5
A7
330
9F
100
AcDbEntity
  8
Defpoints
 62
     0
100
AcDbPoint
 10
2304.736510618175
 20
1004.161796991808
 30
0.0
  0
POINT
  5
A8
330
9F
100
AcDbEntity
  8
Defpoints
 62
     0
100
AcDbPoint
 10
2304.736510618175
 20
869.1617969918079
 30
0.0
  0
POINT
  5
A9
330
9F
100
AcDbEntity
  8
Defpoints
 62
     0
100
AcDbPoint
 10
2160.66267470947
 20
869.161796991808
 30
0.0
  0
ENDBLK
  5
AA
330
9F
100
AcDbEntity
  8
0
100
AcDbBlockEnd
  0
BLOCK
  5
AC
330
AB
100
AcDbEntity
  8
0
100
AcDbBlockBegin
  2
*D11
 70
     1
 10
0.0
 20
0.0
 30
0.0
  3
*D11
  1

  0
LINE
  5
AD
330
AB
100
AcDbEntity
  8
cotas
100
AcDbLine
 10
2299.736510618175
 20
869.161796991808
 30
0.0
 11
2155.662674709471
 21
869.161796991808
 31
0.0
  0
LINE
  5
AE
330
AB
100
AcDbEntity
  8
cotas
100
AcDbLine
 10
2299.736510618175
 20
734.161796991808
 30
0.0
 11
2155.662674709471
 21
734.161796991808
 31
0.0
  0
LINE
  5
AF
330
AB
100
AcDbEntity
  8
cotas
100
AcDbLine
 10
2160.66267470947
 20
859.1617969918081
 30
0.0
 11
2160.66267470947
 21
744.161796991808
 31
0.0
  0
SOLID
  5
B0
330
AB
100
AcDbEntity
  8
cotas
100
AcDbTrace
 10
2158.996008042804
 20
859.1617969918081
 30
0.0
 11
2162.329341376137
 21
859.1617969918081
 31
0.0
 12
2160.66267470947
 22
869.161796991808
 32
0.0
 13
2160.66267470947
 23
869.161796991808
 33
0.0
  0
SOLID
  5
B1
330
AB
100
AcDbEntity
  8
cotas
100
AcDbTrace
 10
2158.996008042804
 20
744.161796991808
 30
0.0
 11
2162.329341376137
 21
744.161796991808
 31
0.0
 12
2160.66267470947
 22
734.161796991808
 32
0.0
 13
2160.66267470947
 23
734.161796991808
 33
0.0
  0
MTEXT
  5
B2
330
AB
100
AcDbEntity
  8
cotas
100
AcDbMText
 10
2150.454481291069
 20
801.6617969918083
 30
0.0
 40
10.0
 41
0.0
 71
     5
 72
     1
  1
135
  7
SANINDUSA
 11
0.0000000000000001
 21
1.0
 31
0.0
 73
     1
 44
1.0
1001
ACAD
1000
MTEXTBEGIN
1070
    73
1070
     1
1070
    44
1040
1.0
1070
    74
1070
     0
1000
MTEXTEND
  0
POINT
  5
B3
330
AB
100
AcDbEntity
  8
Defpoints
 62
     0
100
AcDbPoint
 10
2304.736510618175
 20
869.1617969918079
 30
0.0
  0
POINT
  5
B4
330
AB
100
AcDbEntity
  8
Defpoints
 62
     0
100
AcDbPoint
 10
2304.736510618175
 20
734.1617969918079
 30
0.0
  0
POINT
  5
B5
330
AB
100
AcDbEntity
  8
Defpoints
 62
     0
100
AcDbPoint
 10
2160.66267470947
 20
734.161796991808
 30
0.0
  0
ENDBLK
  5
B6
330
AB
100
AcDbEntity
  8
0
100
AcDbBlockEnd
  0
BLOCK
  5
B8
330
B7
100
AcDbEntity
  8
0
100
AcDbBlockBegin
  2
*D12
 70
     1
 10
0.0
 20
0.0
 30
0.0
  3
*D12
  1

  0
LINE
  5
B9
330
B7
100
AcDbEntity
  8
cotas
100
AcDbLine
 10
2190.66572243096
 20
564.1689264646301
 30
0.0
 11
2125.66267470947
 21
564.1689264646301
 31
0.0
  0
LINE
  5
BA
330
B7
100
AcDbEntity
  8
cotas
100
AcDbLine
 10
2185.662674709471
 20
1144.168926464626
 30
0.0
 11
2125.662674709471
 21
1144.168926464626
 31
0.0
  0
LINE
  5
BB
330
B7
100
AcDbEntity
  8
cotas
100
AcDbLine
 10
2130.66267470947
 20
574.1689264646302
 30
0.0
 11
2130.662674709471
 21
1134.168926464626
 31
0.0
  0
SOLID
  5
BC
330
B7
100
AcDbEntity
  8
cotas
100
AcDbTrace
 10
2128.996008042804
 20
574.1689264646302
 30
0.0
 11
2132.329341376137
 21
574.1689264646302
 31
0.0
 12
2130.66267470947
 22
564.1689264646301
 32
0.0
 13
2130.66267470947
 23
564.1689264646301
 33
0.0
  0
SOLID
  5
BD
330
B7
100
AcDbEntity
  8
cotas
100
AcDbTrace
 10
2128.996008042804
 20
1134.168926464626
 30
0.0
 11
2132.329341376137
 21
1134.168926464626
 31
0.0
 12
2130.662674709471
 22
1144.168926464626
 32
0.0
 13
2130.662674709471
 23
1144.168926464626
 33
0.0
  0
MTEXT
  5
BE
330
B7
100
AcDbEntity
  8
cotas
100
AcDbMText
 10
2120.434333540901
 20
854.1689264646286
 30
0.0
 40
10.0
 41
0.0
 71
     5
 72
     1
  1
580
  7
SANINDUSA
 11
0.0000000000000001
 21
1.0
 31
0.0
 73
     1
 44
1.0
1001
ACAD
1000
MTEXTBEGIN
1070
    73
1070
     1
1070
    44
1040
1.0
1070
    74
1070
     0
1000
MTEXTEND
  0
POINT
  5
BF
330
B7
100
AcDbEntity
  8
Defpoints
 62
     0
100
AcDbPoint
 10
2195.66572243096
 20
564.1689264646301
 30
0.0
  0
POINT
  5
C0
330
B7
100
AcDbEntity
  8
Defpoints
 62
     0
100
AcDbPoint
 10
2190.662674709471
 20
1144.168926464626
 30
0.0
  0
POINT
  5
C1
330
B7
100
AcDbEntity
  8
Defpoints
 62
     0
100
AcDbPoint
 10
2130.662674709471
 20
1144.168926464626
 30
0.0
  0
ENDBLK
  5
C2
330
B7
100
AcDbEntity
  8
0
100
AcDbBlockEnd
  0
BLOCK
  5
C4
330
C3
100
AcDbEntity
  8
0
100
AcDbBlockBegin
  2
*D13
 70
     1
 10
0.0
 20
0.0
 30
0.0
  3
*D13
  1

  0
LINE
  5
C5
330
C3
100
AcDbEntity
  8
cotas
100
AcDbLine
 10
2365.706837178732
 20
666.0556885906044
 30
0.0
 11
2365.706837178732
 21
529.5770681624672
 31
0.0
  0
LINE
  5
C6
330
C3
100
AcDbEntity
  8
cotas
100
AcDbLine
 10
2495.706837178732
 20
666.0556885906044
 30
0.0
 11
2495.706837178732
 21
529.5770681624672
 31
0.0
  0
LINE
  5
C7
330
C3
100
AcDbEntity
  8
cotas
100
AcDbLine
 10
2375.706837178732
 20
534.5770681624672
 30
0.0
 11
2485.706837178732
 21
534.5770681624672
 31
0.0
  0
SOLID
  5
C8
330
C3
100
AcDbEntity
  8
cotas
100
AcDbTrace
 10
2375.706837178732
 20
536.2437348291337
 30
0.0
 11
2375.706837178732
 21
532.9104014958005
 31
0.0
 12
2365.706837178732
 22
534.5770681624672
 32
0.0
 13
2365.706837178732
 23
534.5770681624672
 33
0.0
  0
SOLID
  5
C9
330
C3
100
AcDbEntity
  8
cotas
100
AcDbTrace
 10
2485.706837178732
 20
536.2437348291337
 30
0.0
 11
2485.706837178732
 21
532.9104014958005
 31
0.0
 12
2495.706837178732
 22
534.5770681624672
 32
0.0
 13
2495.706837178732
 23
534.5770681624672
 33
0.0
  0
MTEXT
  5
CA
330
C3
100
AcDbEntity
  8
cotas
100
AcDbMText
 10
2430.706837178732
 20
544.7852615808687
 30
0.0
 40
10.0
 41
0.0
 71
     5
 72
     1
  1
130
  7
SANINDUSA
 73
     1
 44
1.0
1001
ACAD
1000
MTEXTBEGIN
1070
    73
1070
     1
1070
    44
1040
1.0
1070
    74
1070
     0
1000
MTEXTEND
  0
POINT
  5
CB
330
C3
100
AcDbEntity
  8
Defpoints
 62
     0
100
AcDbPoint
 10
2365.706837178732
 20
671.0556885906044
 30
0.0
  0
POINT
  5
CC
330
C3
100
AcDbEntity
  8
Defpoints
 62
     0
100
AcDbPoint
 10
2495.706837178732
 20
671.0556885906044
 30
0.0
  0
POINT
  5
CD
330
C3
100
AcDbEntity
  8
Defpoints
 62
     0
100
AcDbPoint
 10
2495.706837178732
 20
534.5770681624672
 30
0.0
  0
ENDBLK
  5
CE
330
C3
100
AcDbEntity
  8
0
100
AcDbBlockEnd
  0
BLOCK
  5
D0
330
CF
100
AcDbEntity
  8
0
100
AcDbBlockBegin
  2
*D14
 70
     1
 10
0.0
 20
0.0
 30
0.0
  3
*D14
  1

  0
LINE
  5
D1
330
CF
100
AcDbEntity
  8
cotas
100
AcDbLine
 10
2495.706837178732
 20
666.0556885906044
 30
0.0
 11
2495.706837178732
 21
529.5770681624672
 31
0.0
  0
LINE
  5
D2
330
CF
100
AcDbEntity
  8
cotas
100
AcDbLine
 10
2625.706837178732
 20
666.0556885906044
 30
0.0
 11
2625.706837178732
 21
529.5770681624672
 31
0.0
  0
LINE
  5
D3
330
CF
100
AcDbEntity
  8
cotas
100
AcDbLine
 10
2505.706837178732
 20
534.5770681624672
 30
0.0
 11
2615.706837178732
 21
534.5770681624672
 31
0.0
  0
SOLID
  5
D4
330
CF
100
AcDbEntity
  8
cotas
100
AcDbTrace
 10
2505.706837178732
 20
536.2437348291337
 30
0.0
 11
2505.706837178732
 21
532.9104014958005
 31
0.0
 12
2495.706837178732
 22
534.5770681624672
 32
0.0
 13
2495.706837178732
 23
534.5770681624672
 33
0.0
  0
SOLID
  5
D5
330
CF
100
AcDbEntity
  8
cotas
100
AcDbTrace
 10
2615.706837178732
 20
536.2437348291337
 30
0.0
 11
2615.706837178732
 21
532.9104014958005
 31
0.0
 12
2625.706837178732
 22
534.5770681624672
 32
0.0
 13
2625.706837178732
 23
534.5770681624672
 33
0.0
  0
MTEXT
  5
D6
330
CF
100
AcDbEntity
  8
cotas
100
AcDbMText
 10
2560.706837178732
 20
544.7852615808687
 30
0.0
 40
10.0
 41
0.0
 71
     5
 72
     1
  1
130
  7
SANINDUSA
 73
     1
 44
1.0
1001
ACAD
1000
MTEXTBEGIN
1070
    73
1070
     1
1070
    44
1040
1.0
1070
    74
1070
     0
1000
MTEXTEND
  0
POINT
  5
D7
330
CF
100
AcDbEntity
  8
Defpoints
 62
     0
100
AcDbPoint
 10
2495.706837178732
 20
671.0556885906044
 30
0.0
  0
POINT
  5
D8
330
CF
100
AcDbEntity
  8
Defpoints
 62
     0
100
AcDbPoint
 10
2625.706837178732
 20
671.0556885906044
 30
0.0
  0
POINT
  5
D9
330
CF
100
AcDbEntity
  8
Defpoints
 62
     0
100
AcDbPoint
 10
2625.706837178732
 20
534.5770681624672
 30
0.0
  0
ENDBLK
  5
DA
330
CF
100
AcDbEntity
  8
0
100
AcDbBlockEnd
  0
BLOCK
  5
DC
330
DB
100
AcDbEntity
  8
0
100
AcDbBlockBegin
  2
*D15
 70
     1
 10
0.0
 20
0.0
 30
0.0
  3
*D15
  1

  0
LINE
  5
DD
330
DB
100
AcDbEntity
  8
cotas
100
AcDbLine
 10
2625.706837178732
 20
666.0556885906044
 30
0.0
 11
2625.706837178732
 21
529.5770681624672
 31
0.0
  0
LINE
  5
DE
330
DB
100
AcDbEntity
  8
cotas
100
AcDbLine
 10
2690.662674709471
 20
559.1689264646301
 30
0.0
 11
2690.662674709471
 21
529.5770681624672
 31
0.0
  0
LINE
  5
DF
330
DB
100
AcDbEntity
  8
cotas
100
AcDbLine
 10
2635.706837178732
 20
534.5770681624672
 30
0.0
 11
2680.662674709471
 21
534.5770681624672
 31
0.0
  0
SOLID
  5
E0
330
DB
100
AcDbEntity
  8
cotas
100
AcDbTrace
 10
2635.706837178732
 20
536.2437348291337
 30
0.0
 11
2635.706837178732
 21
532.9104014958005
 31
0.0
 12
2625.706837178732
 22
534.5770681624672
 32
0.0
 13
2625.706837178732
 23
534.5770681624672
 33
0.0
  0
SOLID
  5
E1
330
DB
100
AcDbEntity
  8
cotas
100
AcDbTrace
 10
2680.662674709471
 20
536.2437348291337
 30
0.0
 11
2680.662674709471
 21
532.9104014958005
 31
0.0
 12
2690.662674709471
 22
534.5770681624672
 32
0.0
 13
2690.662674709471
 23
534.5770681624672
 33
0.0
  0
MTEXT
  5
E2
330
DB
100
AcDbEntity
  8
cotas
100
AcDbMText
 10
2658.184755944101
 20
544.7751877057848
 30
0.0
 40
10.0
 41
0.0
 71
     5
 72
     1
  1
65
  7
SANINDUSA
 73
     1
 44
1.0
1001
ACAD
1000
MTEXTBEGIN
1070
    73
1070
     1
1070
    44
1040
1.0
1070
    74
1070
     0
1000
MTEXTEND
  0
POINT
  5
E3
330
DB
100
AcDbEntity
  8
Defpoints
 62
     0
100
AcDbPoint
 10
2625.706837178732
 20
671.0556885906044
 30
0.0
  0
POINT
  5
E4
330
DB
100
AcDbEntity
  8
Defpoints
 62
     0
100
AcDbPoint
 10
2690.662674709471
 20
564.1689264646301
 30
0.0
  0
POINT
  5
E5
330
DB
100
AcDbEntity
  8
Defpoints
 62
     0
100
AcDbPoint
 10
2690.662674709471
 20
534.5770681624672
 30
0.0
  0
ENDBLK
  5
E6
330
DB
100
AcDbEntity
  8
0
100
AcDbBlockEnd
  0
BLOCK
  5
E8
330
E7
100
AcDbEntity
  8
0
100
AcDbBlockBegin
  2
*D16
 70
     1
 10
0.0
 20
0.0
 30
0.0
  3
*D16
  1

  0
LINE
  5
E9
330
E7
100
AcDbEntity
  8
cotas
100
AcDbLine
 10
2690.662674709471
 20
559.1689264646301
 30
0.0
 11
2690.662674709471
 21
529.5770681624672
 31
0.0
  0
LINE
  5
EA
330
E7
100
AcDbEntity
  8
cotas
100
AcDbLine
 10
2755.706837178732
 20
666.0556885906044
 30
0.0
 11
2755.706837178732
 21
529.5770681624672
 31
0.0
  0
LINE
  5
EB
330
E7
100
AcDbEntity
  8
cotas
100
AcDbLine
 10
2700.662674709471
 20
534.5770681624672
 30
0.0
 11
2745.706837178732
 21
534.5770681624672
 31
0.0
  0
SOLID
  5
EC
330
E7
100
AcDbEntity
  8
cotas
100
AcDbTrace
 10
2700.662674709471
 20
536.2437348291337
 30
0.0
 11
2700.662674709471
 21
532.9104014958005
 31
0.0
 12
2690.662674709471
 22
534.5770681624672
 32
0.0
 13
2690.662674709471
 23
534.5770681624672
 33
0.0
  0
SOLID
  5
ED
330
E7
100
AcDbEntity
  8
cotas
100
AcDbTrace
 10
2745.706837178732
 20
536.2437348291337
 30
0.0
 11
2745.706837178732
 21
532.9104014958005
 31
0.0
 12
2755.706837178732
 22
534.5770681624672
 32
0.0
 13
2755.706837178732
 23
534.5770681624672
 33
0.0
  0
MTEXT
  5
EE
330
E7
100
AcDbEntity
  8
cotas
100
AcDbMText
 10
2723.184755944101
 20
544.7751877057848
 30
0.0
 40
10.0
 41
0.0
 71
     5
 72
     1
  1
65
  7
SANINDUSA
 73
     1
 44
1.0
1001
ACAD
1000
MTEXTBEGIN
1070
    73
1070
     1
1070
    44
1040
1.0
1070
    74
1070
     0
1000
MTEXTEND
  0
POINT
  5
EF
330
E7
100
AcDbEntity
  8
Defpoints
 62
     0
100
AcDbPoint
 10
2690.662674709471
 20
564.1689264646301
 30
0.0
  0
POINT
  5
F0
330
E7
100
AcDbEntity
  8
Defpoints
 62
     0
100
AcDbPoint
 10
2755.706837178732
 20
671.0556885906044
 30
0.0
  0
POINT
  5
F1
330
E7
100
AcDbEntity
  8
Defpoints
 62
     0
100
AcDbPoint
 10
2755.706837178732
 20
534.5770681624672
 30
0.0
  0
ENDBLK
  5
F2
330
E7
100
AcDbEntity
  8
0
100
AcDbBlockEnd
  0
BLOCK
  5
F4
330
F3
100
AcDbEntity
  8
0
100
AcDbBlockBegin
  2
*D17
 70
     1
 10
0.0
 20
0.0
 30
0.0
  3
*D17
  1

  0
LINE
  5
F5
330
F3
100
AcDbEntity
  8
cotas
100
AcDbLine
 10
2755.706837178732
 20
666.0556885906044
 30
0.0
 11
2755.706837178732
 21
529.5770681624672
 31
0.0
  0
LINE
  5
F6
330
F3
100
AcDbEntity
  8
cotas
100
AcDbLine
 10
2885.706837178732
 20
666.0556885906044
 30
0.0
 11
2885.706837178732
 21
529.5770681624672
 31
0.0
  0
LINE
  5
F7
330
F3
100
AcDbEntity
  8
cotas
100
AcDbLine
 10
2765.706837178732
 20
534.5770681624672
 30
0.0
 11
2875.706837178732
 21
534.5770681624672
 31
0.0
  0
SOLID
  5
F8
330
F3
100
AcDbEntity
  8
cotas
100
AcDbTrace
 10
2765.706837178732
 20
536.2437348291337
 30
0.0
 11
2765.706837178732
 21
532.9104014958005
 31
0.0
 12
2755.706837178732
 22
534.5770681624672
 32
0.0
 13
2755.706837178732
 23
534.5770681624672
 33
0.0
  0
SOLID
  5
F9
330
F3
100
AcDbEntity
  8
cotas
100
AcDbTrace
 10
2875.706837178732
 20
536.2437348291337
 30
0.0
 11
2875.706837178732
 21
532.9104014958005
 31
0.0
 12
2885.706837178732
 22
534.5770681624672
 32
0.0
 13
2885.706837178732
 23
534.5770681624672
 33
0.0
  0
MTEXT
  5
FA
330
F3
100
AcDbEntity
  8
cotas
100
AcDbMText
 10
2820.706837178732
 20
544.7852615808687
 30
0.0
 40
10.0
 41
0.0
 71
     5
 72
     1
  1
130
  7
SANINDUSA
 73
     1
 44
1.0
1001
ACAD
1000
MTEXTBEGIN
1070
    73
1070
     1
1070
    44
1040
1.0
1070
    74
1070
     0
1000
MTEXTEND
  0
POINT
  5
FB
330
F3
100
AcDbEntity
  8
Defpoints
 62
     0
100
AcDbPoint
 10
2755.706837178732
 20
671.0556885906044
 30
0.0
  0
POINT
  5
FC
330
F3
100
AcDbEntity
  8
Defpoints
 62
     0
100
AcDbPoint
 10
2885.706837178732
 20
671.0556885906044
 30
0.0
  0
POINT
  5
FD
330
F3
100
AcDbEntity
  8
Defpoints
 62
     0
100
AcDbPoint
 10
2885.706837178732
 20
534.5770681624672
 30
0.0
  0
ENDBLK
  5
FE
330
F3
100
AcDbEntity
  8
0
100
AcDbBlockEnd
  0
BLOCK
  5
100
330
FF
100
AcDbEntity
  8
0
100
AcDbBlockBegin
  2
*D18
 70
     1
 10
0.0
 20
0.0
 30
0.0
  3
*D18
  1

  0
LINE
  5
101
330
FF
100
AcDbEntity
  8
cotas
100
AcDbLine
 10
2885.706837178732
 20
666.0556885906044
 30
0.0
 11
2885.706837178732
 21
529.5770681624672
 31
0.0
  0
LINE
  5
102
330
FF
100
AcDbEntity
  8
cotas
100
AcDbLine
 10
3015.706837178732
 20
666.0556885906044
 30
0.0
 11
3015.706837178732
 21
529.5770681624672
 31
0.0
  0
LINE
  5
103
330
FF
100
AcDbEntity
  8
cotas
100
AcDbLine
 10
2895.706837178732
 20
534.5770681624672
 30
0.0
 11
3005.706837178732
 21
534.5770681624672
 31
0.0
  0
SOLID
  5
104
330
FF
100
AcDbEntity
  8
cotas
100
AcDbTrace
 10
2895.706837178732
 20
536.2437348291337
 30
0.0
 11
2895.706837178732
 21
532.9104014958005
 31
0.0
 12
2885.706837178732
 22
534.5770681624672
 32
0.0
 13
2885.706837178732
 23
534.5770681624672
 33
0.0
  0
SOLID
  5
105
330
FF
100
AcDbEntity
  8
cotas
100
AcDbTrace
 10
3005.706837178732
 20
536.2437348291337
 30
0.0
 11
3005.706837178732
 21
532.9104014958005
 31
0.0
 12
3015.706837178732
 22
534.5770681624672
 32
0.0
 13
3015.706837178732
 23
534.5770681624672
 33
0.0
  0
MTEXT
  5
106
330
FF
100
AcDbEntity
  8
cotas
100
AcDbMText
 10
2950.706837178732
 20
544.7852615808687
 30
0.0
 40
10.0
 41
0.0
 71
     5
 72
     1
  1
130
  7
SANINDUSA
 73
     1
 44
1.0
1001
ACAD
1000
MTEXTBEGIN
1070
    73
1070
     1
1070
    44
1040
1.0
1070
    74
1070
     0
1000
MTEXTEND
  0
POINT
  5
107
330
FF
100
AcDbEntity
  8
Defpoints
 62
     0
100
AcDbPoint
 10
2885.706837178732
 20
671.0556885906044
 30
0.0
  0
POINT
  5
108
330
FF
100
AcDbEntity
  8
Defpoints
 62
     0
100
AcDbPoint
 10
3015.706837178732
 20
671.0556885906044
 30
0.0
  0
POINT
  5
109
330
FF
100
AcDbEntity
  8
Defpoints
 62
     0
100
AcDbPoint
 10
3015.706837178732
 20
534.5770681624672
 30
0.0
  0
ENDBLK
  5
10A
330
FF
100
AcDbEntity
  8
0
100
AcDbBlockEnd
  0
BLOCK
  5
10C
330
10B
100
AcDbEntity
  8
0
100
AcDbBlockBegin
  2
*D19
 70
     1
 10
0.0
 20
0.0
 30
0.0
  3
*D19
  1

  0
LINE
  5
10D
330
10B
100
AcDbEntity
  8
cotas
100
AcDbLine
 10
2192.932276423843
 20
559.9811617503718
 30
0.0
 11
2192.932276423843
 21
499.1689264646303
 31
0.0
  0
LINE
  5
10E
330
10B
100
AcDbEntity
  8
cotas
100
AcDbLine
 10
2232.932276423843
 20
679.1737997535204
 30
0.0
 11
2232.932276423843
 21
499.1689264646303
 31
0.0
  0
LINE
  5
10F
330
10B
100
AcDbEntity
  8
cotas
100
AcDbLine
 10
2202.932276423843
 20
504.1689264646302
 30
0.0
 11
2222.932276423843
 21
504.1689264646302
 31
0.0
  0
SOLID
  5
110
330
10B
100
AcDbEntity
  8
cotas
100
AcDbTrace
 10
2202.932276423843
 20
505.835593131297
 30
0.0
 11
2202.932276423843
 21
502.5022597979636
 31
0.0
 12
2192.932276423843
 22
504.1689264646302
 32
0.0
 13
2192.932276423843
 23
504.1689264646302
 33
0.0
  0
SOLID
  5
111
330
10B
100
AcDbEntity
  8
cotas
100
AcDbTrace
 10
2222.932276423843
 20
505.835593131297
 30
0.0
 11
2222.932276423843
 21
502.5022597979636
 31
0.0
 12
2232.932276423843
 22
504.1689264646302
 32
0.0
 13
2232.932276423843
 23
504.1689264646302
 33
0.0
  0
MTEXT
  5
112
330
10B
100
AcDbEntity
  8
cotas
100
AcDbMText
 10
2212.932276423843
 20
514.3737619246706
 30
0.0
 40
10.0
 41
0.0
 71
     5
 72
     1
  1
40
  7
SANINDUSA
 73
     1
 44
1.0
1001
ACAD
1000
MTEXTBEGIN
1070
    73
1070
     1
1070
    44
1040
1.0
1070
    74
1070
     0
1000
MTEXTEND
  0
POINT
  5
113
330
10B
100
AcDbEntity
  8
Defpoints
 62
     0
100
AcDbPoint
 10
2192.932276423843
 20
564.9811617503718
 30
0.0
  0
POINT
  5
114
330
10B
100
AcDbEntity
  8
Defpoints
 62
     0
100
AcDbPoint
 10
2232.932276423843
 20
684.1737997535203
 30
0.0
  0
POINT
  5
115
330
10B
100
AcDbEntity
  8
Defpoints
 62
     0
100
AcDbPoint
 10
2232.932276423843
 20
504.1689264646302
 30
0.0
  0
ENDBLK
  5
116
330
10B
100
AcDbEntity
  8
0
100
AcDbBlockEnd
  0
BLOCK
  5
118
330
117
100
AcDbEntity
  8
0
100
AcDbBlockBegin
  2
*D20
 70
     1
 10
0.0
 20
0.0
 30
0.0
  3
*D20
  1

  0
LINE
  5
119
330
117
100
AcDbEntity
  8
cotas
100
AcDbLine
 10
2232.932276423843
 20
679.1737997535204
 30
0.0
 11
2232.932276423843
 21
499.1689264646303
 31
0.0
  0
LINE
  5
11A
330
117
100
AcDbEntity
  8
cotas
100
AcDbLine
 10
3148.393073047516
 20
679.1689264646302
 30
0.0
 11
3148.393073047516
 21
499.1689264646303
 31
0.0
  0
LINE
  5
11B
330
117
100
AcDbEntity
  8
cotas
100
AcDbLine
 10
2242.932276423843
 20
504.1689264646302
 30
0.0
 11
3138.393073047517
 21
504.1689264646302
 31
0.0
  0
SOLID
  5
11C
330
117
100
AcDbEntity
  8
cotas
100
AcDbTrace
 10
2242.932276423843
 20
505.835593131297
 30
0.0
 11
2242.932276423843
 21
502.5022597979636
 31
0.0
 12
2232.932276423843
 22
504.1689264646302
 32
0.0
 13
2232.932276423843
 23
504.1689264646302
 33
0.0
  0
SOLID
  5
11D
330
117
100
AcDbEntity
  8
cotas
100
AcDbTrace
 10
3138.393073047517
 20
505.835593131297
 30
0.0
 11
3138.393073047517
 21
502.5022597979636
 31
0.0
 12
3148.393073047516
 22
504.1689264646302
 32
0.0
 13
3148.393073047516
 23
504.1689264646302
 33
0.0
  0
MTEXT
  5
11E
330
117
100
AcDbEntity
  8
cotas
100
AcDbMText
 10
2690.66267473568
 20
515.5121098091568
 30
0.0
 40
10.0
 41
0.0
 71
     5
 72
     1
  1
915,5
  7
SANINDUSA
 73
     1
 44
1.0
1001
ACAD
1000
MTEXTBEGIN
1070
    73
1070
     1
1070
    44
1040
1.0
1070
    74
1070
     0
1000
MTEXTEND
  0
POINT
  5
11F
330
117
100
AcDbEntity
  8
Defpoints
 62
     0
100
AcDbPoint
 10
2232.932276423843
 20
684.1737997535203
 30
0.0
  0
POINT
  5
120
330
117
100
AcDbEntity
  8
Defpoints
 62
     0
100
AcDbPoint
 10
3148.393073047516
 20
684.1689264646303
 30
0.0
  0
POINT
  5
121
330
117
100
AcDbEntity
  8
Defpoints
 62
     0
100
AcDbPoint
 10
3148.393073047516
 20
504.1689264646302
 30
0.0
  0
ENDBLK
  5
122
330
117
100
AcDbEntity
  8
0
100
AcDbBlockEnd
  0
BLOCK
  5
124
330
123
100
AcDbEntity
  8
0
100
AcDbBlockBegin
  2
*D21
 70
     1
 10
0.0
 20
0.0
 30
0.0
  3
*D21
  1

  0
LINE
  5
125
330
123
100
AcDbEntity
  8
cotas
100
AcDbLine
 10
3148.393073047516
 20
679.1737123461066
 30
0.0
 11
3148.393073047516
 21
499.1689264646303
 31
0.0
  0
LINE
  5
126
330
123
100
AcDbEntity
  8
cotas
100
AcDbLine
 10
3188.393073047516
 20
559.9811617845541
 30
0.0
 11
3188.393073047516
 21
499.1689264646303
 31
0.0
  0
LINE
  5
127
330
123
100
AcDbEntity
  8
cotas
100
AcDbLine
 10
3158.393073047517
 20
504.1689264646302
 30
0.0
 11
3178.393073047516
 21
504.1689264646302
 31
0.0
  0
SOLID
  5
128
330
123
100
AcDbEntity
  8
cotas
100
AcDbTrace
 10
3158.393073047517
 20
505.835593131297
 30
0.0
 11
3158.393073047517
 21
502.5022597979636
 31
0.0
 12
3148.393073047516
 22
504.1689264646302
 32
0.0
 13
3148.393073047516
 23
504.1689264646302
 33
0.0
  0
SOLID
  5
129
330
123
100
AcDbEntity
  8
cotas
100
AcDbTrace
 10
3178.393073047516
 20
505.835593131297
 30
0.0
 11
3178.393073047516
 21
502.5022597979636
 31
0.0
 12
3188.393073047516
 22
504.1689264646302
 32
0.0
 13
3188.393073047516
 23
504.1689264646302
 33
0.0
  0
MTEXT
  5
12A
330
123
100
AcDbEntity
  8
cotas
100
AcDbMText
 10
3168.393073047516
 20
514.3737619246706
 30
0.0
 40
10.0
 41
0.0
 71
     5
 72
     1
  1
40
  7
SANINDUSA
 73
     1
 44
1.0
1001
ACAD
1000
MTEXTBEGIN
1070
    73
1070
     1
1070
    44
1040
1.0
1070
    74
1070
     0
1000
MTEXTEND
  0
POINT
  5
12B
330
123
100
AcDbEntity
  8
Defpoints
 62
     0
100
AcDbPoint
 10
3148.393073047516
 20
684.1737123461066
 30
0.0
  0
POINT
  5
12C
330
123
100
AcDbEntity
  8
Defpoints
 62
     0
100
AcDbPoint
 10
3188.393073047516
 20
564.9811617845541
 30
0.0
  0
POINT
  5
12D
330
123
100
AcDbEntity
  8
Defpoints
 62
     0
100
AcDbPoint
 10
3188.393073047516
 20
504.1689264646302
 30
0.0
  0
ENDBLK
  5
12E
330
123
100
AcDbEntity
  8
0
100
AcDbBlockEnd
  0
BLOCK
  5
130
330
12F
100
AcDbEntity
  8
0
100
AcDbBlockBegin
  2
*D22
 70
     1
 10
0.0
 20
0.0
 30
0.0
  3
*D22
  1

  0
LINE
  5
131
330
12F
100
AcDbEntity
  8
cotas
100
AcDbLine
 10
3073.393073047516
 20
604.1689264646302
 30
0.0
 11
3225.66267470947
 21
604.1689264646302
 31
0.0
  0
LINE
  5
132
330
12F
100
AcDbEntity
  8
cotas
100
AcDbLine
 10
3190.659639640959
 20
564.1689264646301
 30
0.0
 11
3225.66267470947
 21
564.1689264646301
 31
0.0
  0
LINE
  5
133
330
12F
100
AcDbEntity
  8
cotas
100
AcDbLine
 10
3220.66267470947
 20
594.1689264646303
 30
0.0
 11
3220.66267470947
 21
574.1689264646302
 31
0.0
  0
SOLID
  5
134
330
12F
100
AcDbEntity
  8
cotas
100
AcDbTrace
 10
3218.996008042804
 20
594.1689264646303
 30
0.0
 11
3222.329341376137
 21
594.1689264646303
 31
0.0
 12
3220.66267470947
 22
604.1689264646302
 32
0.0
 13
3220.66267470947
 23
604.1689264646302
 33
0.0
  0
SOLID
  5
135
330
12F
100
AcDbEntity
  8
cotas
100
AcDbTrace
 10
3218.996008042804
 20
574.1689264646302
 30
0.0
 11
3222.329341376137
 21
574.1689264646302
 31
0.0
 12
3220.66267470947
 22
564.1689264646301
 32
0.0
 13
3220.66267470947
 23
564.1689264646301
 33
0.0
  0
MTEXT
  5
136
330
12F
100
AcDbEntity
  8
cotas
100
AcDbMText
 10
3210.457839249431
 20
584.1689264646306
 30
0.0
 40
10.0
 41
0.0
 71
     5
 72
     1
  1
40
  7
SANINDUSA
 11
0.0000000000000001
 21
1.0
 31
0.0
 73
     1
 44
1.0
1001
ACAD
1000
MTEXTBEGIN
1070
    73
1070
     1
1070
    44
1040
1.0
1070
    74
1070
     0
1000
MTEXTEND
  0
POINT
  5
137
330
12F
100
AcDbEntity
  8
Defpoints
 62
     0
100
AcDbPoint
 10
3068.393073047517
 20
604.1689264646302
 30
0.0
  0
POINT
  5
138
330
12F
100
AcDbEntity
  8
Defpoints
 62
     0
100
AcDbPoint
 10
3185.659639640959
 20
564.1689264646301
 30
0.0
  0
POINT
  5
139
330
12F
100
AcDbEntity
  8
Defpoints
 62
     0
100
AcDbPoint
 10
3220.66267470947
 20
564.1689264646301
 30
0.0
  0
ENDBLK
  5
13A
330
12F
100
AcDbEntity
  8
0
100
AcDbBlockEnd
  0
BLOCK
  5
13C
330
13B
100
AcDbEntity
  8
0
100
AcDbBlockBegin
  2
*D23
 70
     1
 10
0.0
 20
0.0
 30
0.0
  3
*D23
  1

  0
LINE
  5
13D
330
13B
100
AcDbEntity
  8
cotas
100
AcDbLine
 10
3073.387883123123
 20
604.1689264646302
 30
0.0
 11
3225.66267470947
 21
604.1689264646302
 31
0.0
  0
LINE
  5
13E
330
13B
100
AcDbEntity
  8
cotas
100
AcDbLine
 10
3073.393073047516
 20
1271.899426464626
 30
0.0
 11
3225.662674709471
 21
1271.899426464626
 31
0.0
  0
LINE
  5
13F
330
13B
100
AcDbEntity
  8
cotas
100
AcDbLine
 10
3220.66267470947
 20
614.1689264646303
 30
0.0
 11
3220.662674709471
 21
1261.899426464626
 31
0.0
  0
SOLID
  5
140
330
13B
100
AcDbEntity
  8
cotas
100
AcDbTrace
 10
3218.996008042804
 20
614.1689264646303
 30
0.0
 11
3222.329341376137
 21
614.1689264646303
 31
0.0
 12
3220.66267470947
 22
604.1689264646302
 32
0.0
 13
3220.66267470947
 23
604.1689264646302
 33
0.0
  0
SOLID
  5
141
330
13B
100
AcDbEntity
  8
cotas
100
AcDbTrace
 10
3218.996008042804
 20
1261.899426464626
 30
0.0
 11
3222.329341376137
 21
1261.899426464626
 31
0.0
 12
3220.662674709471
 22
1271.899426464626
 32
0.0
 13
3220.662674709471
 23
1271.899426464626
 33
0.0
  0
MTEXT
  5
142
330
13B
100
AcDbEntity
  8
cotas
100
AcDbMText
 10
3209.326207281666
 20
938.0341764646288
 30
0.0
 40
10.0
 41
0.0
 71
     5
 72
     1
  1
667,7
  7
SANINDUSA
 11
0.0000000000000001
 21
1.0
 31
0.0
 73
     1
 44
1.0
1001
ACAD
1000
MTEXTBEGIN
1070
    73
1070
     1
1070
    44
1040
1.0
1070
    74
1070
     0
1000
MTEXTEND
  0
POINT
  5
143
330
13B
100
AcDbEntity
  8
Defpoints
 62
     0
100
AcDbPoint
 10
3068.387883123123
 20
604.1689264646302
 30
0.0
  0
POINT
  5
144
330
13B
100
AcDbEntity
  8
Defpoints
 62
     0
100
AcDbPoint
 10
3068.393073047517
 20
1271.899426464626
 30
0.0
  0
POINT
  5
145
330
13B
100
AcDbEntity
  8
Defpoints
 62
     0
100
AcDbPoint
 10
3220.662674709471
 20
1271.899426464626
 30
0.0
  0
ENDBLK
  5
146
330
13B
100
AcDbEntity
  8
0
100
AcDbBlockEnd
  0
BLOCK
  5
148
330
147
100
AcDbEntity
  8
0
100
AcDbBlockBegin
  2
*D24
 70
     1
 10
0.0
 20
0.0
 30
0.0
  3
*D24
  1

  0
LINE
  5
149
330
147
100
AcDbEntity
  8
cotas
100
AcDbLine
 10
3073.393073047516
 20
1271.899426464626
 30
0.0
 11
3225.662674709471
 21
1271.899426464626
 31
0.0
  0
LINE
  5
14A
330
147
100
AcDbEntity
  8
cotas
100
AcDbLine
 10
3188.393073047516
 20
1311.899426464626
 30
0.0
 11
3225.662674709471
 21
1311.899426464626
 31
0.0
  0
LINE
  5
14B
330
147
100
AcDbEntity
  8
cotas
100
AcDbLine
 10
3220.662674709471
 20
1281.899426464626
 30
0.0
 11
3220.662674709471
 21
1301.899426464626
 31
0.0
  0
SOLID
  5
14C
330
147
100
AcDbEntity
  8
cotas
100
AcDbTrace
 10
3218.996008042804
 20
1281.899426464626
 30
0.0
 11
3222.329341376137
 21
1281.899426464626
 31
0.0
 12
3220.662674709471
 22
1271.899426464626
 32
0.0
 13
3220.662674709471
 23
1271.899426464626
 33
0.0
  0
SOLID
  5
14D
330
147
100
AcDbEntity
  8
cotas
100
AcDbTrace
 10
3218.996008042804
 20
1301.899426464626
 30
0.0
 11
3222.329341376137
 21
1301.899426464626
 31
0.0
 12
3220.662674709471
 22
1311.899426464626
 32
0.0
 13
3220.662674709471
 23
1311.899426464626
 33
0.0
  0
MTEXT
  5
14E
330
147
100
AcDbEntity
  8
cotas
100
AcDbMText
 10
3210.457839249431
 20
1291.899426464627
 30
0.0
 40
10.0
 41
0.0
 71
     5
 72
     1
  1
40
  7
SANINDUSA
 11
0.0000000000000001
 21
1.0
 31
0.0
 73
     1
 44
1.0
1001
ACAD
1000
MTEXTBEGIN
1070
    73
1070
     1
1070
    44
1040
1.0
1070
    74
1070
     0
1000
MTEXTEND
  0
POINT
  5
14F
330
147
100
AcDbEntity
  8
Defpoints
 62
     0
100
AcDbPoint
 10
3068.393073047517
 20
1271.899426464626
 30
0.0
  0
POINT
  5
150
330
147
100
AcDbEntity
  8
Defpoints
 62
     0
100
AcDbPoint
 10
3183.393073047516
 20
1311.899426464626
 30
0.0
  0
POINT
  5
151
330
147
100
AcDbEntity
  8
Defpoints
 62
     0
100
AcDbPoint
 10
3220.662674709471
 20
1311.899426464626
 30
0.0
  0
ENDBLK
  5
152
330
147
100
AcDbEntity
  8
0
100
AcDbBlockEnd
  0
BLOCK
  5
154
330
153
100
AcDbEntity
  8
0
100
AcDbBlockBegin
  2
*D25
 70
     1
 10
0.0
 20
0.0
 30
0.0
  3
*D25
  1

  0
LINE
  5
155
330
153
100
AcDbEntity
  8
cotas
100
AcDbLine
 10
3188.393073047516
 20
1311.899426464626
 30
0.0
 11
3188.393073047516
 21
1349.168926464626
 31
0.0
  0
LINE
  5
156
330
153
100
AcDbEntity
  8
cotas
100
AcDbLine
 10
3190.662674709461
 20
1314.171972329536
 30
0.0
 11
3190.662674709461
 21
1349.168926464626
 31
0.0
  0
LINE
  5
157
330
153
100
AcDbEntity
  8
cotas
100
AcDbLine
 10
3178.393073047516
 20
1344.168926464626
 30
0.0
 11
3168.393073047516
 21
1344.168926464626
 31
0.0
  0
LINE
  5
158
330
153
100
AcDbEntity
  8
cotas
100
AcDbLine
 10
3200.662674709461
 20
1344.168926464626
 30
0.0
 11
3241.038766045928
 21
1344.168926464626
 31
0.0
  0
LINE
  5
159
330
153
100
AcDbEntity
  8
cotas
100
AcDbLine
 10
3188.393073047516
 20
1344.168926464626
 30
0.0
 11
3190.662674709461
 21
1344.168926464626
 31
0.0
  0
SOLID
  5
15A
330
153
100
AcDbEntity
  8
cotas
100
AcDbTrace
 10
3178.393073047516
 20
1345.835593131293
 30
0.0
 11
3178.393073047516
 21
1342.50225979796
 31
0.0
 12
3188.393073047516
 22
1344.168926464626
 32
0.0
 13
3188.393073047516
 23
1344.168926464626
 33
0.0
  0
SOLID
  5
15B
330
153
100
AcDbEntity
  8
cotas
100
AcDbTrace
 10
3200.662674709461
 20
1345.835593131293
 30
0.0
 11
3200.662674709461
 21
1342.50225979796
 31
0.0
 12
3190.662674709461
 22
1344.168926464626
 32
0.0
 13
3190.662674709461
 23
1344.168926464626
 33
0.0
  0
MTEXT
  5
15C
330
153
100
AcDbEntity
  8
cotas
100
AcDbMText
 10
3225.850720377695
 20
1355.515467767514
 30
0.0
 40
10.0
 41
0.0
 71
     5
 72
     1
  1
2,3
  7
SANINDUSA
 73
     1
 44
1.0
1001
ACAD
1000
MTEXTBEGIN
1070
    73
1070
     1
1070
    44
1040
1.0
1070
    74
1070
     0
1000
MTEXTEND
  0
POINT
  5
15D
330
153
100
AcDbEntity
  8
Defpoints
 62
     0
100
AcDbPoint
 10
3188.393073047516
 20
1306.899426464626
 30
0.0
  0
POINT
  5
15E
330
153
100
AcDbEntity
  8
Defpoints
 62
     0
100
AcDbPoint
 10
3190.662674709461
 20
1309.171972329536
 30
0.0000000000002011
  0
POINT
  5
15F
330
153
100
AcDbEntity
  8
Defpoints
 62
     0
100
AcDbPoint
 10
3190.662674709461
 20
1344.168926464626
 30
0.0
  0
ENDBLK
  5
160
330
153
100
AcDbEntity
  8
0
100
AcDbBlockEnd
  0
BLOCK
  5
162
330
161
100
AcDbEntity
  8
0
100
AcDbBlockBegin
  2
*D26
 70
     1
 10
0.0
 20
0.0
 30
0.0
  3
*D26
  1

  0
LINE
  5
163
330
161
100
AcDbEntity
  8
cotas
100
AcDbLine
 10
3188.393073047516
 20
1311.899426464626
 30
0.0
 11
3188.393073047516
 21
1349.168926464626
 31
0.0
  0
LINE
  5
164
330
161
100
AcDbEntity
  8
cotas
100
AcDbLine
 10
2690.662674709471
 20
1319.168926464626
 30
0.0
 11
2690.662674709471
 21
1349.168926464626
 31
0.0
  0
LINE
  5
165
330
161
100
AcDbEntity
  8
cotas
100
AcDbLine
 10
3178.393073047516
 20
1344.168926464626
 30
0.0
 11
2700.662674709471
 21
1344.168926464626
 31
0.0
  0
SOLID
  5
166
330
161
100
AcDbEntity
  8
cotas
100
AcDbTrace
 10
3178.393073047516
 20
1345.835593131293
 30
0.0
 11
3178.393073047516
 21
1342.50225979796
 31
0.0
 12
3188.393073047516
 22
1344.168926464626
 32
0.0
 13
3188.393073047516
 23
1344.168926464626
 33
0.0
  0
SOLID
  5
167
330
161
100
AcDbEntity
  8
cotas
100
AcDbTrace
 10
2700.662674709471
 20
1345.835593131293
 30
0.0
 11
2700.662674709471
 21
1342.50225979796
 31
0.0
 12
2690.662674709471
 22
1344.168926464626
 32
0.0
 13
2690.662674709471
 23
1344.168926464626
 33
0.0
  0
MTEXT
  5
168
330
161
100
AcDbEntity
  8
cotas
100
AcDbMText
 10
2939.527873878493
 20
1355.512109809153
 30
0.0
 40
10.0
 41
0.0
 71
     5
 72
     1
  1
497,7
  7
SANINDUSA
 73
     1
 44
1.0
1001
ACAD
1000
MTEXTBEGIN
1070
    73
1070
     1
1070
    44
1040
1.0
1070
    74
1070
     0
1000
MTEXTEND
  0
POINT
  5
169
330
161
100
AcDbEntity
  8
Defpoints
 62
     0
100
AcDbPoint
 10
3188.393073047516
 20
1306.899426464626
 30
0.0
  0
POINT
  5
16A
330
161
100
AcDbEntity
  8
Defpoints
 62
     0
100
AcDbPoint
 10
2690.662674709471
 20
1314.168926464626
 30
0.0
  0
POINT
  5
16B
330
161
100
AcDbEntity
  8
Defpoints
 62
     0
100
AcDbPoint
 10
2690.662674709471
 20
1344.168926464626
 30
0.0
  0
ENDBLK
  5
16C
330
161
100
AcDbEntity
  8
0
100
AcDbBlockEnd
  0
BLOCK
  5
16E
330
16D
100
AcDbEntity
  8
0
100
AcDbBlockBegin
  2
*D27
 70
     1
 10
0.0
 20
0.0
 30
0.0
  3
*D27
  1

  0
LINE
  5
16F
330
16D
100
AcDbEntity
  8
cotas
100
AcDbLine
 10
2192.932276423843
 20
1311.899426464626
 30
0.0
 11
2192.932276423843
 21
1349.168926464626
 31
0.0
  0
LINE
  5
170
330
16D
100
AcDbEntity
  8
cotas
100
AcDbLine
 10
2190.662674709466
 20
1314.171972329535
 30
0.0
 11
2190.662674709466
 21
1349.168926464626
 31
0.0
  0
LINE
  5
171
330
16D
100
AcDbEntity
  8
cotas
100
AcDbLine
 10
2202.932276423843
 20
1344.168926464626
 30
0.0
 11
2212.932276423843
 21
1344.168926464626
 31
0.0
  0
LINE
  5
172
330
16D
100
AcDbEntity
  8
cotas
100
AcDbLine
 10
2180.662674709466
 20
1344.168926464626
 30
0.0
 11
2140.286583372998
 21
1344.168926464626
 31
0.0
  0
LINE
  5
173
330
16D
100
AcDbEntity
  8
cotas
100
AcDbLine
 10
2192.932276423843
 20
1344.168926464626
 30
0.0
 11
2190.662674709466
 21
1344.168926464626
 31
0.0
  0
SOLID
  5
174
330
16D
100
AcDbEntity
  8
cotas
100
AcDbTrace
 10
2202.932276423843
 20
1345.835593131293
 30
0.0
 11
2202.932276423843
 21
1342.50225979796
 31
0.0
 12
2192.932276423843
 22
1344.168926464626
 32
0.0
 13
2192.932276423843
 23
1344.168926464626
 33
0.0
  0
SOLID
  5
175
330
16D
100
AcDbEntity
  8
cotas
100
AcDbTrace
 10
2180.662674709466
 20
1345.835593131293
 30
0.0
 11
2180.662674709466
 21
1342.50225979796
 31
0.0
 12
2190.662674709466
 22
1344.168926464626
 32
0.0
 13
2190.662674709466
 23
1344.168926464626
 33
0.0
  0
MTEXT
  5
176
330
16D
100
AcDbEntity
  8
cotas
100
AcDbMText
 10
2155.474629041232
 20
1355.515467767514
 30
0.0
 40
10.0
 41
0.0
 71
     5
 72
     1
  1
2,3
  7
SANINDUSA
 73
     1
 44
1.0
1001
ACAD
1000
MTEXTBEGIN
1070
    73
1070
     1
1070
    44
1040
1.0
1070
    74
1070
     0
1000
MTEXTEND
  0
POINT
  5
177
330
16D
100
AcDbEntity
  8
Defpoints
 62
     0
100
AcDbPoint
 10
2192.932276423843
 20
1306.899426464626
 30
0.0
  0
POINT
  5
178
330
16D
100
AcDbEntity
  8
Defpoints
 62
     0
100
AcDbPoint
 10
2190.662674709466
 20
1309.171972329535
 30
0.0000000000002011
  0
POINT
  5
179
330
16D
100
AcDbEntity
  8
Defpoints
 62
     0
100
AcDbPoint
 10
2190.662674709466
 20
1344.168926464626
 30
0.0
  0
ENDBLK
  5
17A
330
16D
100
AcDbEntity
  8
0
100
AcDbBlockEnd
  0
BLOCK
  5
17C
330
17B
100
AcDbEntity
  8
0
100
AcDbBlockBegin
  2
*D28
 70
     1
 10
0.0
 20
0.0
 30
0.0
  3
*D28
  1

  0
LINE
  5
17D
330
17B
100
AcDbEntity
  8
cotas
100
AcDbLine
 10
2690.662674709471
 20
1319.168926464626
 30
0.0
 11
2690.662674709471
 21
1349.168926464626
 31
0.0
  0
LINE
  5
17E
330
17B
100
AcDbEntity
  8
cotas
100
AcDbLine
 10
2192.932276423843
 20
1311.899426464626
 30
0.0
 11
2192.932276423843
 21
1349.168926464626
 31
0.0
  0
LINE
  5
17F
330
17B
100
AcDbEntity
  8
cotas
100
AcDbLine
 10
2680.662674709471
 20
1344.168926464626
 30
0.0
 11
2202.932276423843
 21
1344.168926464626
 31
0.0
  0
SOLID
  5
180
330
17B
100
AcDbEntity
  8
cotas
100
AcDbTrace
 10
2680.662674709471
 20
1345.835593131293
 30
0.0
 11
2680.662674709471
 21
1342.50225979796
 31
0.0
 12
2690.662674709471
 22
1344.168926464626
 32
0.0
 13
2690.662674709471
 23
1344.168926464626
 33
0.0
  0
SOLID
  5
181
330
17B
100
AcDbEntity
  8
cotas
100
AcDbTrace
 10
2202.932276423843
 20
1345.835593131293
 30
0.0
 11
2202.932276423843
 21
1342.50225979796
 31
0.0
 12
2192.932276423843
 22
1344.168926464626
 32
0.0
 13
2192.932276423843
 23
1344.168926464626
 33
0.0
  0
MTEXT
  5
182
330
17B
100
AcDbEntity
  8
cotas
100
AcDbMText
 10
2441.797475566657
 20
1355.512109809153
 30
0.0
 40
10.0
 41
0.0
 71
     5
 72
     1
  1
497,7
  7
SANINDUSA
 73
     1
 44
1.0
1001
ACAD
1000
MTEXTBEGIN
1070
    73
1070
     1
1070
    44
1040
1.0
1070
    74
1070
     0
1000
MTEXTEND
  0
POINT
  5
183
330
17B
100
AcDbEntity
  8
Defpoints
 62
     0
100
AcDbPoint
 10
2690.662674709471
 20
1314.168926464626
 30
0.0
  0
POINT
  5
184
330
17B
100
AcDbEntity
  8
Defpoints
 62
     0
100
AcDbPoint
 10
2192.932276423843
 20
1306.899426464626
 30
0.0
  0
POINT
  5
185
330
17B
100
AcDbEntity
  8
Defpoints
 62
     0
100
AcDbPoint
 10
2192.932276423843
 20
1344.168926464626
 30
0.0
  0
ENDBLK
  5
186
330
17B
100
AcDbEntity
  8
0
100
AcDbBlockEnd
  0
BLOCK
  5
188
330
187
100
AcDbEntity
  8
0
100
AcDbBlockBegin
  2
*D29
 70
     1
 10
0.0
 20
0.0
 30
0.0
  3
*D29
  1

  0
LINE
  5
189
330
187
100
AcDbEntity
  8
cotas
100
AcDbLine
 10
3637.526443830061
 20
1758.162596326688
 30
0.0
 11
3637.526443830061
 21
1788.162596326688
 31
0.0
  0
LINE
  5
18A
330
187
100
AcDbEntity
  8
cotas
100
AcDbLine
 10
4385.256915954611
 20
1758.164711819116
 30
0.0
 11
4385.256915954611
 21
1788.162596326688
 31
0.0
  0
LINE
  5
18B
330
187
100
AcDbEntity
  8
cotas
100
AcDbLine
 10
3647.526443830062
 20
1783.162596326688
 30
0.0
 11
4375.256915954611
 21
1783.162596326688
 31
0.0
  0
SOLID
  5
18C
330
187
100
AcDbEntity
  8
cotas
100
AcDbTrace
 10
3647.526443830062
 20
1784.829262993354
 30
0.0
 11
3647.526443830062
 21
1781.495929660021
 31
0.0
 12
3637.526443830061
 22
1783.162596326688
 32
0.0
 13
3637.526443830061
 23
1783.162596326688
 33
0.0
  0
SOLID
  5
18D
330
187
100
AcDbEntity
  8
cotas
100
AcDbTrace
 10
4375.256915954611
 20
1784.829262993354
 30
0.0
 11
4375.256915954611
 21
1781.495929660021
 31
0.0
 12
4385.256915954611
 22
1783.162596326688
 32
0.0
 13
4385.256915954611
 23
1783.162596326688
 33
0.0
  0
MTEXT
  5
18E
330
187
100
AcDbEntity
  8
cotas
100
AcDbMText
 10
4011.391679892336
 20
1794.405040920375
 30
0.0
 40
10.0
 41
0.0
 71
     5
 72
     1
  1
747,7
  7
SANINDUSA
 73
     1
 44
1.0
1001
ACAD
1000
MTEXTBEGIN
1070
    73
1070
     1
1070
    44
1040
1.0
1070
    74
1070
     0
1000
MTEXTEND
  0
POINT
  5
18F
330
187
100
AcDbEntity
  8
Defpoints
 62
     0
100
AcDbPoint
 10
3637.526443830061
 20
1753.162596326688
 30
0.0
  0
POINT
  5
190
330
187
100
AcDbEntity
  8
Defpoints
 62
     0
100
AcDbPoint
 10
4385.256915954611
 20
1753.164711819116
 30
0.0
  0
POINT
  5
191
330
187
100
AcDbEntity
  8
Defpoints
 62
     0
100
AcDbPoint
 10
4385.256915954611
 20
1783.162596326688
 30
0.0
  0
ENDBLK
  5
192
330
187
100
AcDbEntity
  8
0
100
AcDbBlockEnd
  0
BLOCK
  5
194
330
193
100
AcDbEntity
  8
0
100
AcDbBlockBegin
  2
*D30
 70
     1
 10
0.0
 20
0.0
 30
0.0
  3
*D30
  1

  0
LINE
  5
195
330
193
100
AcDbEntity
  8
cotas
100
AcDbLine
 10
4385.256915954611
 20
1758.164711819116
 30
0.0
 11
4385.256915954611
 21
1818.162596326688
 31
0.0
  0
LINE
  5
196
330
193
100
AcDbEntity
  8
cotas
100
AcDbLine
 10
3635.256915954612
 20
1693.171820930467
 30
0.0
 11
3635.256915954612
 21
1818.162596326688
 31
0.0
  0
LINE
  5
197
330
193
100
AcDbEntity
  8
cotas
100
AcDbLine
 10
4375.256915954611
 20
1813.162596326688
 30
0.0
 11
3645.256915954611
 21
1813.162596326688
 31
0.0
  0
SOLID
  5
198
330
193
100
AcDbEntity
  8
cotas
100
AcDbTrace
 10
4375.256915954611
 20
1814.829262993354
 30
0.0
 11
4375.256915954611
 21
1811.495929660021
 31
0.0
 12
4385.256915954611
 22
1813.162596326688
 32
0.0
 13
4385.256915954611
 23
1813.162596326688
 33
0.0
  0
SOLID
  5
199
330
193
100
AcDbEntity
  8
cotas
100
AcDbTrace
 10
3645.256915954611
 20
1814.829262993354
 30
0.0
 11
3645.256915954611
 21
1811.495929660021
 31
0.0
 12
3635.256915954612
 22
1813.162596326688
 32
0.0
 13
3635.256915954612
 23
1813.162596326688
 33
0.0
  0
MTEXT
  5
19A
330
193
100
AcDbEntity
  8
cotas
100
AcDbMText
 10
4010.256915954611
 20
1823.367431786728
 30
0.0
 40
10.0
 41
0.0
 71
     5
 72
     1
  1
750
  7
SANINDUSA
 73
     1
 44
1.0
1001
ACAD
1000
MTEXTBEGIN
1070
    73
1070
     1
1070
    44
1040
1.0
1070
    74
1070
     0
1000
MTEXTEND
  0
POINT
  5
19B
330
193
100
AcDbEntity
  8
Defpoints
 62
     0
100
AcDbPoint
 10
4385.256915954611
 20
1753.164711819116
 30
0.0
  0
POINT
  5
19C
330
193
100
AcDbEntity
  8
Defpoints
 62
     0
100
AcDbPoint
 10
3635.256915954612
 20
1688.171820930467
 30
0.0
  0
POINT
  5
19D
330
193
100
AcDbEntity
  8
Defpoints
 62
     0
100
AcDbPoint
 10
3635.256915954612
 20
1813.162596326688
 30
0.0
  0
ENDBLK
  5
19E
330
193
100
AcDbEntity
  8
0
100
AcDbBlockEnd
  0
BLOCK
  5
1A0
330
19F
100
AcDbEntity
  8
0
100
AcDbBlockBegin
  2
*D31
 70
     1
 10
0.0
 20
0.0
 30
0.0
  3
*D31
  1

  0
LINE
  5
1A1
330
19F
100
AcDbEntity
  8
cotas
100
AcDbLine
 10
3637.526443830061
 20
1758.162596326688
 30
0.0
 11
3637.526443830061
 21
1788.162596326688
 31
0.0
  0
LINE
  5
1A2
330
19F
100
AcDbEntity
  8
cotas
100
AcDbLine
 10
3635.256915954612
 20
1693.171820930467
 30
0.0
 11
3635.256915954612
 21
1788.162596326688
 31
0.0
  0
LINE
  5
1A3
330
19F
100
AcDbEntity
  8
cotas
100
AcDbLine
 10
3647.526443830062
 20
1783.162596326688
 30
0.0
 11
3657.526443830061
 21
1783.162596326688
 31
0.0
  0
LINE
  5
1A4
330
19F
100
AcDbEntity
  8
cotas
100
AcDbLine
 10
3625.256915954611
 20
1783.162596326688
 30
0.0
 11
3584.880824618144
 21
1783.162596326688
 31
0.0
  0
LINE
  5
1A5
330
19F
100
AcDbEntity
  8
cotas
100
AcDbLine
 10
3637.526443830061
 20
1783.162596326688
 30
0.0
 11
3635.256915954612
 21
1783.162596326688
 31
0.0
  0
SOLID
  5
1A6
330
19F
100
AcDbEntity
  8
cotas
100
AcDbTrace
 10
3647.526443830062
 20
1784.829262993354
 30
0.0
 11
3647.526443830062
 21
1781.495929660021
 31
0.0
 12
3637.526443830061
 22
1783.162596326688
 32
0.0
 13
3637.526443830061
 23
1783.162596326688
 33
0.0
  0
SOLID
  5
1A7
330
19F
100
AcDbEntity
  8
cotas
100
AcDbTrace
 10
3625.256915954611
 20
1784.829262993354
 30
0.0
 11
3625.256915954611
 21
1781.495929660021
 31
0.0
 12
3635.256915954612
 22
1783.162596326688
 32
0.0
 13
3635.256915954612
 23
1783.162596326688
 33
0.0
  0
MTEXT
  5
1A8
330
19F
100
AcDbEntity
  8
cotas
100
AcDbMText
 10
3600.068870286378
 20
1794.509137629576
 30
0.0
 40
10.0
 41
0.0
 71
     5
 72
     1
  1
2,3
  7
SANINDUSA
 73
     1
 44
1.0
1001
ACAD
1000
MTEXTBEGIN
1070
    73
1070
     1
1070
    44
1040
1.0
1070
    74
1070
     0
1000
MTEXTEND
  0
POINT
  5
1A9
330
19F
100
AcDbEntity
  8
Defpoints
 62
     0
100
AcDbPoint
 10
3637.526443830061
 20
1753.162596326688
 30
0.0
  0
POINT
  5
1AA
330
19F
100
AcDbEntity
  8
Defpoints
 62
     0
100
AcDbPoint
 10
3635.256915954612
 20
1688.171820930467
 30
0.0
  0
POINT
  5
1AB
330
19F
100
AcDbEntity
  8
Defpoints
 62
     0
100
AcDbPoint
 10
3635.256915954612
 20
1783.162596326688
 30
0.0
  0
ENDBLK
  5
1AC
330
19F
100
AcDbEntity
  8
0
100
AcDbBlockEnd
  0
BLOCK
  5
1AE
330
1AD
100
AcDbEntity
  8
0
100
AcDbBlockBegin
  2
*D32
 70
     1
 10
0.0
 20
0.0
 30
0.0
  3
*D32
  1

  0
ARC
  5
1AF
330
1AD
100
AcDbEntity
  8
cotas
100
AcDbCircle
 10
3635.256915954612
 20
1688.171820930467
 30
0.0
 40
50.67479182558936
100
AcDbArc
 50
11.3249909492396
 51
76.67500906066696
  0
SOLID
  5
1B0
330
1AD
100
AcDbEntity
  8
cotas
100
AcDbTrace
 10
3686.603557853224
 20
1698.287471935576
 30
0.0
 11
3683.286489955728
 21
1697.958577310334
 31
0.0
 12
3685.931707780201
 22
1688.171820930467
 32
0.0
 13
3685.931707780201
 23
1688.171820930467
 33
0.0
  0
SOLID
  5
1B1
330
1AD
100
AcDbEntity
  8
cotas
100
AcDbTrace
 10
3646.713918458156
 20
1735.830583742792
 30
0.0
 11
3647.158376729257
 21
1739.134152715337
 31
0.0
 12
3637.025440676072
 22
1738.815743042369
 32
0.0
 13
3637.025440676072
 23
1738.815743042369
 33
0.0
  0
MTEXT
  5
1B2
330
1AD
100
AcDbEntity
  8
cotas
100
AcDbMText
 10
3679.878575879553
 20
1731.262457040697
 30
0.0
 40
10.0
 41
0.0
 71
     5
 72
     1
  1
88,0°
  7
SANINDUSA
 11
0.6946583705211867
 21
-0.7193398002785957
 31
0.0
 73
     1
 44
1.0
1001
ACAD
1000
MTEXTBEGIN
1070
    73
1070
     1
1070
    44
1040
1.0
1070
    74
1070
     0
1000
MTEXTEND
  0
POINT
  5
1B3
330
1AD
100
AcDbEntity
  8
Defpoints
 62
     0
100
AcDbPoint
 10
3679.434409634057
 20
1712.996880422225
 30
0.0
  0
POINT
  5
1B4
330
1AD
100
AcDbEntity
  8
Defpoints
 62
     0
100
AcDbPoint
 10
3635.256915954612
 20
1688.171820930467
 30
0.0
  0
POINT
  5
1B5
330
1AD
100
AcDbEntity
  8
Defpoints
 62
     0
100
AcDbPoint
 10
3640.253869952373
 20
1688.171820930467
 30
0.0
  0
POINT
  5
1B6
330
1AD
100
AcDbEntity
  8
Defpoints
 62
     0
100
AcDbPoint
 10
4380.256920722984
 20
1688.171820930467
 30
0.0
  0
POINT
  5
1B7
330
1AD
100
AcDbEntity
  8
Defpoints
 62
     0
100
AcDbPoint
 10
3637.35796670318
 20
1748.338042625002
 30
0.0
  0
ENDBLK
  5
1B8
330
1AD
100
AcDbEntity
  8
0
100
AcDbBlockEnd
  0
BLOCK
  5
1BA
330
1B9
100
AcDbEntity
  8
0
100
AcDbBlockBegin
  2
*D33
 70
     1
 10
0.0
 20
0.0
 30
0.0
  3
*D33
  1

  0
ARC
  5
1BB
330
1B9
100
AcDbEntity
  8
cotas
100
AcDbCircle
 10
4385.256915954611
 20
1688.171820930467
 30
0.0
 40
49.08295971313738
100
AcDbArc
 50
101.6935368307374
 51
168.3064631692627
  0
SOLID
  5
1BC
330
1B9
100
AcDbEntity
  8
cotas
100
AcDbTrace
 10
4375.139156486308
 20
1737.89409364937
 30
0.0
 11
4375.478717644887
 21
1734.578100686366
 31
0.0
 12
4385.256915954611
 22
1737.254780643604
 32
0.0
 13
4385.256915954611
 23
1737.254780643604
 33
0.0
  0
SOLID
  5
1BD
330
1B9
100
AcDbEntity
  8
cotas
100
AcDbTrace
 10
4338.850636198712
 20
1697.950019240191
 30
0.0
 11
4335.534643235708
 21
1698.289580398771
 31
0.0
 12
4336.173956241474
 22
1688.171820930467
 32
0.0
 13
4336.173956241474
 23
1688.171820930467
 33
0.0
  0
MTEXT
  5
1BE
330
1B9
100
AcDbEntity
  8
cotas
100
AcDbMText
 10
4342.529180437588
 20
1730.899556447489
 30
0.0
 40
10.0
 41
0.0
 71
     5
 72
     1
  1
90,0°
  7
SANINDUSA
 11
0.7071067811865476
 21
0.7071067811865475
 31
0.0
 73
     1
 44
1.0
1001
ACAD
1000
MTEXTBEGIN
1070
    73
1070
     1
1070
    44
1040
1.0
1070
    74
1070
     0
1000
MTEXTEND
  0
POINT
  5
1BF
330
1B9
100
AcDbEntity
  8
Defpoints
 62
     0
100
AcDbPoint
 10
4360.715436098042
 20
1730.678910934972
 30
0.0
  0
POINT
  5
1C0
330
1B9
100
AcDbEntity
  8
Defpoints
 62
     0
100
AcDbPoint
 10
3640.253869952372
 20
1688.171820930467
 30
0.0
  0
POINT
  5
1C1
330
1B9
100
AcDbEntity
  8
Defpoints
 62
     0
100
AcDbPoint
 10
4385.256915954611
 20
1748.164713598116
 30
0.0
  0
POINT
  5
1C2
330
1B9
100
AcDbEntity
  8
Defpoints
 62
     0
100
AcDbPoint
 10
4385.256915954611
 20
1688.171820930467
 30
0.0
  0
POINT
  5
1C3
330
1B9
100
AcDbEntity
  8
Defpoints
 62
     0
100
AcDbPoint
 10
4380.256920722981
 20
1688.171820930467
 30
0.0
  0
ENDBLK
  5
1C4
330
1B9
100
AcDbEntity
  8
0
100
AcDbBlockEnd
  0
BLOCK
  5
1C6
330
1C5
100
AcDbEntity
  8
0
100
AcDbBlockBegin
  2
*D34
 70
     1
 10
0.0
 20
0.0
 30
0.0
  3
*D34
  1

  0
LINE
  5
1C7
330
1C5
100
AcDbEntity
  8
cotas
100
AcDbLine
 10
4418.497356837772
 20
1781.894641317224
 30
0.0
 11
4391.506171647957
 21
1758.087099527981
 31
0.0
  0
MTEXT
  5
1C8
330
1C5
100
AcDbEntity
  8
cotas
100
AcDbMText
 10
4402.067726316366
 20
1780.875914830172
 30
0.0
 40
10.0
 41
0.0
 71
     5
 72
     1
  1
R5
  7
SANINDUSA
 11
0.7499510122715431
 21
0.6614933704829459
 31
0.0
 73
     1
 44
1.0
1001
ACAD
1000
MTEXTBEGIN
1070
    73
1070
     1
1070
    44
1040
1.0
1070
    74
1070
     0
1000
MTEXTEND
  0
LINE
  5
1C9
330
1C5
100
AcDbEntity
  8
cotas
100
AcDbLine
 10
4380.256877998689
 20
1748.164673863047
 30
0.0
 11
4384.006661525241
 21
1751.472165823152
 31
0.0
  0
SOLID
  5
1CA
330
1C5
100
AcDbEntity
  8
cotas
100
AcDbTrace
 10
4390.403682697153
 20
1759.337017881767
 30
0.0
 11
4392.608660598762
 21
1756.837181174195
 31
0.0
 12
4384.006661525241
 22
1751.472165823152
 32
0.0
 13
4384.006661525241
 23
1751.472165823152
 33
0.0
  0
POINT
  5
1CB
330
1C5
100
AcDbEntity
  8
Defpoints
 62
     0
100
AcDbPoint
 10
4384.006661525241
 20
1751.472165823152
 30
0.0
  0
POINT
  5
1CC
330
1C5
100
AcDbEntity
  8
Defpoints
 62
     0
100
AcDbPoint
 10
4380.256877998689
 20
1748.164673863047
 30
0.0
  0
ENDBLK
  5
1CD
330
1C5
100
AcDbEntity
  8
0
100
AcDbBlockEnd
  0
BLOCK
  5
1CF
330
1CE
100
AcDbEntity
  8
0
100
AcDbBlockBegin
  2
*D35
 70
     1
 10
0.0
 20
0.0
 30
0.0
  3
*D35
  1

  0
LINE
  5
1D0
330
1CE
100
AcDbEntity
  8
cotas
100
AcDbLine
 10
4665.788729602712
 20
1758.166596312488
 30
0.0
 11
4665.788729602712
 21
1788.166596312488
 31
0.0
  0
LINE
  5
1D1
330
1CE
100
AcDbEntity
  8
cotas
100
AcDbLine
 10
4705.784583160041
 20
1756.558381095571
 30
0.0
 11
4705.784583160041
 21
1788.166596312488
 31
0.0
  0
LINE
  5
1D2
330
1CE
100
AcDbEntity
  8
cotas
100
AcDbLine
 10
4675.788729602712
 20
1783.166596312488
 30
0.0
 11
4695.78458316004
 21
1783.166596312488
 31
0.0
  0
SOLID
  5
1D3
330
1CE
100
AcDbEntity
  8
cotas
100
AcDbTrace
 10
4675.788729602712
 20
1784.833262979155
 30
0.0
 11
4675.788729602712
 21
1781.499929645821
 31
0.0
 12
4665.788729602712
 22
1783.166596312488
 32
0.0
 13
4665.788729602712
 23
1783.166596312488
 33
0.0
  0
SOLID
  5
1D4
330
1CE
100
AcDbEntity
  8
cotas
100
AcDbTrace
 10
4695.78458316004
 20
1784.833262979155
 30
0.0
 11
4695.78458316004
 21
1781.499929645821
 31
0.0
 12
4705.784583160041
 22
1783.166596312488
 32
0.0
 13
4705.784583160041
 23
1783.166596312488
 33
0.0
  0
MTEXT
  5
1D5
330
1CE
100
AcDbEntity
  8
cotas
100
AcDbMText
 10
4685.786656381377
 20
1793.371431772528
 30
0.0
 40
10.0
 41
0.0
 71
     5
 72
     1
  1
40
  7
SANINDUSA
 73
     1
 44
1.0
1001
ACAD
1000
MTEXTBEGIN
1070
    73
1070
     1
1070
    44
1040
1.0
1070
    74
1070
     0
1000
MTEXTEND
  0
POINT
  5
1D6
330
1CE
100
AcDbEntity
  8
Defpoints
 62
     0
100
AcDbPoint
 10
4665.788729602712
 20
1753.166596312488
 30
0.0
  0
POINT
  5
1D7
330
1CE
100
AcDbEntity
  8
Defpoints
 62
     0
100
AcDbPoint
 10
4705.784583160041
 20
1751.558381095571
 30
0.0
  0
POINT
  5
1D8
330
1CE
100
AcDbEntity
  8
Defpoints
 62
     0
100
AcDbPoint
 10
4705.784583160041
 20
1783.166596312488
 30
0.0
  0
ENDBLK
  5
1D9
330
1CE
100
AcDbEntity
  8
0
100
AcDbBlockEnd
  0
BLOCK
  5
1DB
330
1DA
100
AcDbEntity
  8
0
100
AcDbBlockBegin
  2
*D36
 70
     1
 10
0.0
 20
0.0
 30
0.0
  3
*D36
  1

  0
LINE
  5
1DC
330
1DA
100
AcDbEntity
  8
cotas
100
AcDbLine
 10
4740.420962514983
 20
1720.876531890857
 30
0.0
 11
4629.572223617683
 21
1720.876531890857
 31
0.0
  0
LINE
  5
1DD
330
1DA
100
AcDbEntity
  8
cotas
100
AcDbLine
 10
4660.788729602712
 20
1753.166596312488
 30
0.0
 11
4629.572223617683
 21
1753.166596312488
 31
0.0
  0
LINE
  5
1DE
330
1DA
100
AcDbEntity
  8
cotas
100
AcDbLine
 10
4634.572223617683
 20
1730.876531890858
 30
0.0
 11
4634.572223617683
 21
1743.166596312488
 31
0.0
  0
LINE
  5
1DF
330
1DA
100
AcDbEntity
  8
cotas
100
AcDbLine
 10
4634.572223617683
 20
1753.166596312488
 30
0.0
 11
4634.572223617683
 21
1802.246515721487
 31
0.0
  0
SOLID
  5
1E0
330
1DA
100
AcDbEntity
  8
cotas
100
AcDbTrace
 10
4632.905556951016
 20
1730.876531890858
 30
0.0
 11
4636.23889028435
 21
1730.876531890858
 31
0.0
 12
4634.572223617683
 22
1720.876531890857
 32
0.0
 13
4634.572223617683
 23
1720.876531890857
 33
0.0
  0
SOLID
  5
1E1
330
1DA
100
AcDbEntity
  8
cotas
100
AcDbTrace
 10
4632.905556951016
 20
1743.166596312488
 30
0.0
 11
4636.23889028435
 21
1743.166596312488
 31
0.0
 12
4634.572223617683
 22
1753.166596312488
 32
0.0
 13
4634.572223617683
 23
1753.166596312488
 33
0.0
  0
MTEXT
  5
1E2
330
1DA
100
AcDbEntity
  8
cotas
100
AcDbMText
 10
4623.225682314795
 20
1782.706556016989
 30
0.0
 40
10.0
 41
0.0
 71
     5
 72
     1
  1
32,3
  7
SANINDUSA
 11
0.0000000000000001
 21
1.0
 31
0.0
 73
     1
 44
1.0
1001
ACAD
1000
MTEXTBEGIN
1070
    73
1070
     1
1070
    44
1040
1.0
1070
    74
1070
     0
1000
MTEXTEND
  0
POINT
  5
1E3
330
1DA
100
AcDbEntity
  8
Defpoints
 62
     0
100
AcDbPoint
 10
4745.420962514983
 20
1720.876531890857
 30
0.0
  0
POINT
  5
1E4
330
1DA
100
AcDbEntity
  8
Defpoints
 62
     0
100
AcDbPoint
 10
4665.788729602712
 20
1753.166596312488
 30
0.0
  0
POINT
  5
1E5
330
1DA
100
AcDbEntity
  8
Defpoints
 62
     0
100
AcDbPoint
 10
4634.572223617683
 20
1753.166596312488
 30
0.0
  0
ENDBLK
  5
1E6
330
1DA
100
AcDbEntity
  8
0
100
AcDbBlockEnd
  0
BLOCK
  5
1E8
330
1E7
100
AcDbEntity
  8
0
100
AcDbBlockBegin
  2
*D37
 70
     1
 10
0.0
 20
0.0
 30
0.0
  3
*D37
  1

  0
LINE
  5
1E9
330
1E7
100
AcDbEntity
  8
cotas
100
AcDbLine
 10
4833.397413435082
 20
1718.330422631725
 30
0.0
 11
4599.572223617683
 21
1718.330422631725
 31
0.0
  0
LINE
  5
1EA
330
1E7
100
AcDbEntity
  8
cotas
100
AcDbLine
 10
4660.788729602712
 20
1753.166596312488
 30
0.0
 11
4599.572223617683
 21
1753.166596312488
 31
0.0
  0
LINE
  5
1EB
330
1E7
100
AcDbEntity
  8
cotas
100
AcDbLine
 10
4604.572223617683
 20
1728.330422631725
 30
0.0
 11
4604.572223617683
 21
1743.166596312488
 31
0.0
  0
LINE
  5
1EC
330
1E7
100
AcDbEntity
  8
cotas
100
AcDbLine
 10
4604.572223617683
 20
1753.166596312488
 30
0.0
 11
4604.572223617683
 21
1802.461425056612
 31
0.0
  0
SOLID
  5
1ED
330
1E7
100
AcDbEntity
  8
cotas
100
AcDbTrace
 10
4602.905556951016
 20
1728.330422631725
 30
0.0
 11
4606.23889028435
 21
1728.330422631725
 31
0.0
 12
4604.572223617683
 22
1718.330422631725
 32
0.0
 13
4604.572223617683
 23
1718.330422631725
 33
0.0
  0
SOLID
  5
1EE
330
1E7
100
AcDbEntity
  8
cotas
100
AcDbTrace
 10
4602.905556951016
 20
1743.166596312488
 30
0.0
 11
4606.23889028435
 21
1743.166596312488
 31
0.0
 12
4604.572223617683
 22
1753.166596312488
 32
0.0
 13
4604.572223617683
 23
1753.166596312488
 33
0.0
  0
MTEXT
  5
1EF
330
1E7
100
AcDbEntity
  8
cotas
100
AcDbMText
 10
4593.215608439712
 20
1782.814010684551
 30
0.0
 40
10.0
 41
0.0
 71
     5
 72
     1
  1
34,8
  7
SANINDUSA
 11
0.0000000000000001
 21
1.0
 31
0.0
 73
     1
 44
1.0
1001
ACAD
1000
MTEXTBEGIN
1070
    73
1070
     1
1070
    44
1040
1.0
1070
    74
1070
     0
1000
MTEXTEND
  0
POINT
  5
1F0
330
1E7
100
AcDbEntity
  8
Defpoints
 62
     0
100
AcDbPoint
 10
4838.397413435082
 20
1718.330422631725
 30
0.0
  0
POINT
  5
1F1
330
1E7
100
AcDbEntity
  8
Defpoints
 62
     0
100
AcDbPoint
 10
4665.788729602712
 20
1753.166596312488
 30
0.0
  0
POINT
  5
1F2
330
1E7
100
AcDbEntity
  8
Defpoints
 62
     0
100
AcDbPoint
 10
4604.572223617683
 20
1753.166596312488
 30
0.0
  0
ENDBLK
  5
1F3
330
1E7
100
AcDbEntity
  8
0
100
AcDbBlockEnd
  0
BLOCK
  5
1F5
330
1F4
100
AcDbEntity
  8
0
100
AcDbBlockBegin
  2
*D38
 70
     1
 10
0.0
 20
0.0
 30
0.0
  3
*D38
  1

  0
LINE
  5
1F6
330
1F4
100
AcDbEntity
  8
cotas
100
AcDbLine
 10
4755.116402360505
 20
1774.155417684234
 30
0.0
 11
4726.845628512402
 21
1739.399528420911
 31
0.0
  0
MTEXT
  5
1F7
330
1F4
100
AcDbEntity
  8
cotas
100
AcDbMText
 10
4736.219513022168
 20
1767.095746237813
 30
0.0
 40
10.0
 41
0.0
 71
     5
 72
     1
  1
R50
  7
SANINDUSA
 11
0.6310175724752482
 21
0.7757685371471603
 31
0.0
 73
     1
 44
1.0
1001
ACAD
1000
MTEXTBEGIN
1070
    73
1070
     1
1070
    44
1040
1.0
1070
    74
1070
     0
1000
MTEXTEND
  0
SOLID
  5
1F8
330
1F4
100
AcDbEntity
  8
cotas
100
AcDbTrace
 10
4725.552680950491
 20
1740.451224375036
 30
0.0
 11
4728.138576074313
 21
1738.347832466785
 31
0.0
 12
4720.535452787649
 22
1731.641843049439
 32
0.0
 13
4720.535452787649
 23
1731.641843049439
 33
0.0
  0
POINT
  5
1F9
330
1F4
100
AcDbEntity
  8
Defpoints
 62
     0
100
AcDbPoint
 10
4720.535452787649
 20
1731.641843049439
 30
0.0
  0
POINT
  5
1FA
330
1F4
100
AcDbEntity
  8
Defpoints
 62
     0
100
AcDbPoint
 10
4752.086335440263
 20
1770.430274859837
 30
0.0
  0
ENDBLK
  5
1FB
330
1F4
100
AcDbEntity
  8
0
100
AcDbBlockEnd
  0
BLOCK
  5
1FD
330
1FC
100
AcDbEntity
  8
0
100
AcDbBlockBegin
  2
*D39
 70
     1
 10
0.0
 20
0.0
 30
0.0
  3
*D39
  1

  0
LINE
  5
1FE
330
1FC
100
AcDbEntity
  8
cotas
100
AcDbLine
 10
4731.329955139382
 20
1645.821017325923
 30
0.0
 11
4717.97613431886
 21
1679.242546218101
 31
0.0
  0
MTEXT
  5
1FF
330
1FC
100
AcDbEntity
  8
cotas
100
AcDbMText
 10
4735.891076044508
 20
1661.637677492156
 30
0.0
 40
10.0
 41
0.0
 71
     5
 72
     1
  1
R5
  7
SANINDUSA
 11
0.3710363724903291
 21
-0.9286183340259967
 31
0.0
 73
     1
 44
1.0
1001
ACAD
1000
MTEXTBEGIN
1070
    73
1070
     1
1070
    44
1040
1.0
1070
    74
1070
     0
1000
MTEXTEND
  0
LINE
  5
200
330
1FC
100
AcDbEntity
  8
cotas
100
AcDbLine
 10
4712.410588731506
 20
1693.171821228492
 30
0.0
 11
4714.265770593957
 21
1688.528729558361
 31
0.0
  0
SOLID
  5
201
330
1FC
100
AcDbEntity
  8
cotas
100
AcDbTrace
 10
4719.523831542236
 20
1679.860940172252
 30
0.0
 11
4716.428437095482
 21
1678.62415226395
 31
0.0
 12
4714.265770593957
 22
1688.528729558361
 32
0.0
 13
4714.265770593957
 23
1688.528729558361
 33
0.0
  0
POINT
  5
202
330
1FC
100
AcDbEntity
  8
Defpoints
 62
     0
100
AcDbPoint
 10
4714.265770593957
 20
1688.528729558361
 30
0.0
  0
POINT
  5
203
330
1FC
100
AcDbEntity
  8
Defpoints
 62
     0
100
AcDbPoint
 10
4712.410588731506
 20
1693.171821228492
 30
0.0
  0
ENDBLK
  5
204
330
1FC
100
AcDbEntity
  8
0
100
AcDbBlockEnd
  0
BLOCK
  5
206
330
205
100
AcDbEntity
  8
0
100
AcDbBlockBegin
  2
*D40
 70
     1
 10
0.0
 20
0.0
 30
0.0
  3
*D40
  1

  0
LINE
  5
207
330
205
100
AcDbEntity
  8
cotas
100
AcDbLine
 10
4928.760942388817
 20
1654.443961818101
 30
0.0
 11
4902.75105699605
 21
1695.660386820944
 31
0.0
  0
MTEXT
  5
208
330
205
100
AcDbEntity
  8
cotas
100
AcDbMText
 10
4928.051497647118
 20
1674.532621491877
 30
0.0
 40
10.0
 41
0.0
 71
     5
 72
     1
  1
R15
  7
SANINDUSA
 11
0.5336770027508596
 21
-0.8456883922195331
 31
0.0
 73
     1
 44
1.0
1001
ACAD
1000
MTEXTBEGIN
1070
    73
1070
     1
1070
    44
1040
1.0
1070
    74
1070
     0
1000
MTEXTEND
  0
SOLID
  5
209
330
205
100
AcDbEntity
  8
cotas
100
AcDbTrace
 10
4904.16053764975
 20
1696.549848492196
 30
0.0
 11
4901.341576342351
 21
1694.770925149692
 31
0.0
 12
4897.414286968542
 22
1704.117270743139
 32
0.0
 13
4897.414286968542
 23
1704.117270743139
 33
0.0
  0
POINT
  5
20A
330
205
100
AcDbEntity
  8
Defpoints
 62
     0
100
AcDbPoint
 10
4897.414286968542
 20
1704.117270743139
 30
0.0
  0
POINT
  5
20B
330
205
100
AcDbEntity
  8
Defpoints
 62
     0
100
AcDbPoint
 10
4905.421765489589
 20
1691.428262970102
 30
0.0
  0
ENDBLK
  5
20C
330
205
100
AcDbEntity
  8
0
100
AcDbBlockEnd
  0
BLOCK
  5
20E
330
20D
100
AcDbEntity
  8
0
100
AcDbBlockBegin
  2
*D41
 70
     1
 10
0.0
 20
0.0
 30
0.0
  3
*D41
  1

  0
LINE
  5
20F
330
20D
100
AcDbEntity
  8
cotas
100
AcDbLine
 10
5042.030733586999
 20
1769.356831144179
 30
0.0
 11
5064.417552161587
 21
1735.177847096378
 31
0.0
  0
MTEXT
  5
210
330
20D
100
AcDbEntity
  8
cotas
100
AcDbMText
 10
5057.674015068791
 20
1764.104385522593
 30
0.0
 40
10.0
 41
0.0
 71
     5
 72
     1
  1
R3
  7
SANINDUSA
 11
0.5479182166452407
 21
-0.8365319048717145
 31
0.0
 73
     1
 44
1.0
1001
ACAD
1000
MTEXTBEGIN
1070
    73
1070
     1
1070
    44
1040
1.0
1070
    74
1070
     0
1000
MTEXTEND
  0
LINE
  5
211
330
20D
100
AcDbEntity
  8
cotas
100
AcDbLine
 10
5071.543305307601
 20
1724.298632513263
 30
0.0
 11
5069.89673432804
 21
1726.812528047661
 31
0.0
  0
SOLID
  5
212
330
20D
100
AcDbEntity
  8
cotas
100
AcDbTrace
 10
5065.811772003041
 20
1736.09104412412
 30
0.0
 11
5063.023332320135
 21
1734.264650068636
 31
0.0
 12
5069.89673432804
 22
1726.812528047661
 32
0.0
 13
5069.89673432804
 23
1726.812528047661
 33
0.0
  0
POINT
  5
213
330
20D
100
AcDbEntity
  8
Defpoints
 62
     0
100
AcDbPoint
 10
5069.89673432804
 20
1726.812528047661
 30
0.0
  0
POINT
  5
214
330
20D
100
AcDbEntity
  8
Defpoints
 62
     0
100
AcDbPoint
 10
5071.543305307601
 20
1724.298632513263
 30
0.0
  0
ENDBLK
  5
215
330
20D
100
AcDbEntity
  8
0
100
AcDbBlockEnd
  0
BLOCK
  5
217
330
216
100
AcDbEntity
  8
0
100
AcDbBlockBegin
  2
*D42
 70
     1
 10
0.0
 20
0.0
 30
0.0
  3
*D42
  1

  0
LINE
  5
218
330
216
100
AcDbEntity
  8
cotas
100
AcDbLine
 10
5328.143889041508
 20
1781.715581821355
 30
0.0
 11
5353.820510681015
 21
1745.001557339742
 31
0.0
  0
MTEXT
  5
219
330
216
100
AcDbEntity
  8
cotas
100
AcDbMText
 10
5346.479234097387
 20
1773.304487405131
 30
0.0
 40
10.0
 41
0.0
 71
     5
 72
     1
  1
R50
  7
SANINDUSA
 11
0.573114819685592
 21
-0.8194750779961227
 31
0.0
 73
     1
 44
1.0
1001
ACAD
1000
MTEXTBEGIN
1070
    73
1070
     1
1070
    44
1040
1.0
1070
    74
1070
     0
1000
MTEXTEND
  0
SOLID
  5
21A
330
216
100
AcDbEntity
  8
cotas
100
AcDbTrace
 10
5355.186302477676
 20
1745.956748705884
 30
0.0
 11
5352.454718884354
 21
1744.046365973599
 31
0.0
 12
5359.551658877872
 22
1736.806806559781
 32
0.0
 13
5359.551658877872
 23
1736.806806559781
 33
0.0
  0
POINT
  5
21B
330
216
100
AcDbEntity
  8
Defpoints
 62
     0
100
AcDbPoint
 10
5359.551658877872
 20
1736.806806559781
 30
0.0
  0
POINT
  5
21C
330
216
100
AcDbEntity
  8
Defpoints
 62
     0
100
AcDbPoint
 10
5330.895283983971
 20
1777.781466862838
 30
0.0
  0
ENDBLK
  5
21D
330
216
100
AcDbEntity
  8
0
100
AcDbBlockEnd
  0
BLOCK
  5
21F
330
21E
100
AcDbEntity
  8
0
100
AcDbBlockBegin
  2
*D43
 70
     1
 10
0.0
 20
0.0
 30
0.0
  3
*D43
  1

  0
LINE
  5
220
330
21E
100
AcDbEntity
  8
cotas
100
AcDbLine
 10
5336.411577704051
 20
1727.783026389097
 30
0.0
 11
5448.519062044868
 21
1727.783026389097
 31
0.0
  0
LINE
  5
221
330
21E
100
AcDbEntity
  8
cotas
100
AcDbLine
 10
5418.519062044868
 20
1753.169004580144
 30
0.0
 11
5448.519062044868
 21
1753.169004580144
 31
0.0
  0
LINE
  5
222
330
21E
100
AcDbEntity
  8
cotas
100
AcDbLine
 10
5443.519062044869
 20
1717.783026389097
 30
0.0
 11
5443.519062044869
 21
1707.783026389097
 31
0.0
  0
LINE
  5
223
330
21E
100
AcDbEntity
  8
cotas
100
AcDbLine
 10
5443.519062044869
 20
1763.169004580144
 30
0.0
 11
5443.519062044869
 21
1812.658594909224
 31
0.0
  0
LINE
  5
224
330
21E
100
AcDbEntity
  8
cotas
100
AcDbLine
 10
5443.519062044869
 20
1727.783026389097
 30
0.0
 11
5443.519062044869
 21
1753.169004580144
 31
0.0
  0
SOLID
  5
225
330
21E
100
AcDbEntity
  8
cotas
100
AcDbTrace
 10
5441.852395378202
 20
1717.783026389097
 30
0.0
 11
5445.185728711535
 21
1717.783026389097
 31
0.0
 12
5443.519062044869
 22
1727.783026389097
 32
0.0
 13
5443.519062044869
 23
1727.783026389097
 33
0.0
  0
SOLID
  5
226
330
21E
100
AcDbEntity
  8
cotas
100
AcDbTrace
 10
5441.852395378202
 20
1763.169004580144
 30
0.0
 11
5445.185728711535
 21
1763.169004580144
 31
0.0
 12
5443.519062044869
 22
1753.169004580144
 32
0.0
 13
5443.519062044869
 23
1753.169004580144
 33
0.0
  0
MTEXT
  5
227
330
21E
100
AcDbEntity
  8
cotas
100
AcDbMText
 10
5432.17252074198
 20
1792.913799744685
 30
0.0
 40
10.0
 41
0.0
 71
     5
 72
     1
  1
25,4
  7
SANINDUSA
 11
0.0000000000000001
 21
1.0
 31
0.0
 73
     1
 44
1.0
1001
ACAD
1000
MTEXTBEGIN
1070
    73
1070
     1
1070
    44
1040
1.0
1070
    74
1070
     0
1000
MTEXTEND
  0
POINT
  5
228
330
21E
100
AcDbEntity
  8
Defpoints
 62
     0
100
AcDbPoint
 10
5331.411577704051
 20
1727.783026389097
 30
0.0
  0
POINT
  5
229
330
21E
100
AcDbEntity
  8
Defpoints
 62
     0
100
AcDbPoint
 10
5413.519062044868
 20
1753.169004580144
 30
0.0
  0
POINT
  5
22A
330
21E
100
AcDbEntity
  8
Defpoints
 62
     0
100
AcDbPoint
 10
5443.519062044869
 20
1753.169004580144
 30
0.0
  0
ENDBLK
  5
22B
330
21E
100
AcDbEntity
  8
0
100
AcDbBlockEnd
  0
BLOCK
  5
22D
330
22C
100
AcDbEntity
  8
0
100
AcDbBlockBegin
  2
*D44
 70
     1
 10
0.0
 20
0.0
 30
0.0
  3
*D44
  1

  0
LINE
  5
22E
330
22C
100
AcDbEntity
  8
cotas
100
AcDbLine
 10
5373.517545239248
 20
1756.638524134492
 30
0.0
 11
5373.517545239248
 21
1788.169004580144
 31
0.0
  0
LINE
  5
22F
330
22C
100
AcDbEntity
  8
cotas
100
AcDbLine
 10
5413.519062044868
 20
1758.169004580144
 30
0.0
 11
5413.519062044868
 21
1788.169004580144
 31
0.0
  0
LINE
  5
230
330
22C
100
AcDbEntity
  8
cotas
100
AcDbLine
 10
5383.517545239249
 20
1783.169004580144
 30
0.0
 11
5403.519062044868
 21
1783.169004580144
 31
0.0
  0
SOLID
  5
231
330
22C
100
AcDbEntity
  8
cotas
100
AcDbTrace
 10
5383.517545239249
 20
1784.835671246811
 30
0.0
 11
5383.517545239249
 21
1781.502337913478
 31
0.0
 12
5373.517545239248
 22
1783.169004580144
 32
0.0
 13
5373.517545239248
 23
1783.169004580144
 33
0.0
  0
SOLID
  5
232
330
22C
100
AcDbEntity
  8
cotas
100
AcDbTrace
 10
5403.519062044868
 20
1784.835671246811
 30
0.0
 11
5403.519062044868
 21
1781.502337913478
 31
0.0
 12
5413.519062044868
 22
1783.169004580144
 32
0.0
 13
5413.519062044868
 23
1783.169004580144
 33
0.0
  0
MTEXT
  5
233
330
22C
100
AcDbEntity
  8
cotas
100
AcDbMText
 10
5393.518303642059
 20
1793.373840040185
 30
0.0
 40
10.0
 41
0.0
 71
     5
 72
     1
  1
40
  7
SANINDUSA
 73
     1
 44
1.0
1001
ACAD
1000
MTEXTBEGIN
1070
    73
1070
     1
1070
    44
1040
1.0
1070
    74
1070
     0
1000
MTEXTEND
  0
POINT
  5
234
330
22C
100
AcDbEntity
  8
Defpoints
 62
     0
100
AcDbPoint
 10
5373.517545239248
 20
1751.638524134492
 30
0.0
  0
POINT
  5
235
330
22C
100
AcDbEntity
  8
Defpoints
 62
     0
100
AcDbPoint
 10
5413.519062044868
 20
1753.169004580144
 30
0.0
  0
POINT
  5
236
330
22C
100
AcDbEntity
  8
Defpoints
 62
     0
100
AcDbPoint
 10
5413.519062044868
 20
1783.169004580144
 30
0.0
  0
ENDBLK
  5
237
330
22C
100
AcDbEntity
  8
0
100
AcDbBlockEnd
  0
BLOCK
  5
239
330
238
100
AcDbEntity
  8
0
100
AcDbBlockBegin
  2
*D45
 70
     1
 10
0.0
 20
0.0
 30
0.0
  3
*D45
  1

  0
LINE
  5
23A
330
238
100
AcDbEntity
  8
cotas
100
AcDbLine
 10
5322.999988993363
 20
1654.647907203154
 30
0.0
 11
5346.578759219928
 21
1681.839169009111
 31
0.0
  0
MTEXT
  5
23B
330
238
100
AcDbEntity
  8
cotas
100
AcDbMText
 10
5323.879941783313
 20
1671.085554413529
 30
0.0
 40
10.0
 41
0.0
 71
     5
 72
     1
  1
R5
  7
SANINDUSA
 11
0.655136944716487
 21
0.7555101479580185
 31
0.0
 73
     1
 44
1.0
1001
ACAD
1000
MTEXTBEGIN
1070
    73
1070
     1
1070
    44
1040
1.0
1070
    74
1070
     0
1000
MTEXTEND
  0
LINE
  5
23C
330
238
100
AcDbEntity
  8
cotas
100
AcDbLine
 10
5356.40581339067
 20
1693.171821228475
 30
0.0
 11
5353.130128667093
 21
1689.394270488692
 31
0.0
  0
SOLID
  5
23D
330
238
100
AcDbEntity
  8
cotas
100
AcDbTrace
 10
5345.319575639998
 20
1682.931063916972
 30
0.0
 11
5347.837942799859
 21
1680.747274101251
 31
0.0
 12
5353.130128667093
 22
1689.394270488692
 32
0.0
 13
5353.130128667093
 23
1689.394270488692
 33
0.0
  0
POINT
  5
23E
330
238
100
AcDbEntity
  8
Defpoints
 62
     0
100
AcDbPoint
 10
5353.130128667093
 20
1689.394270488692
 30
0.0
  0
POINT
  5
23F
330
238
100
AcDbEntity
  8
Defpoints
 62
     0
100
AcDbPoint
 10
5356.40581339067
 20
1693.171821228475
 30
0.0
  0
ENDBLK
  5
240
330
238
100
AcDbEntity
  8
0
100
AcDbBlockEnd
  0
BLOCK
  5
242
330
241
100
AcDbEntity
  8
0
100
AcDbBlockBegin
  2
*D46
 70
     1
 10
0.0
 20
0.0
 30
0.0
  3
*D46
  1

  0
LINE
  5
243
330
241
100
AcDbEntity
  8
cotas
100
AcDbLine
 10
4903.614793709938
 20
1721.172056681407
 30
0.0
 11
4913.6841759795
 21
1728.222715016627
 31
0.0
  0
LINE
  5
244
330
241
100
AcDbEntity
  8
cotas
100
AcDbLine
 10
4762.995938599747
 20
1721.471316343669
 30
0.0
 11
4753.353951575038
 21
1728.222708009723
 31
0.0
  0
ARC
  5
245
330
241
100
AcDbEntity
  8
cotas
100
AcDbCircle
 10
4833.519066230413
 20
1672.090493186614
 30
0.0
 40
92.86353329334165
100
AcDbArc
 50
41.17287877923968
 51
138.8271262287495
  0
SOLID
  5
246
330
241
100
AcDbEntity
  8
cotas
100
AcDbTrace
 10
4904.731721304817
 20
1734.253725478732
 30
0.0
 11
4902.108117909912
 21
1732.197560033697
 31
0.0
 12
4909.58841594247
 22
1725.3548325715
 32
0.0
 13
4909.58841594247
 23
1725.3548325715
 33
0.0
  0
SOLID
  5
247
330
241
100
AcDbEntity
  8
cotas
100
AcDbTrace
 10
4764.9300092972
 20
1732.197554038609
 30
0.0
 11
4762.306405722575
 21
1734.253719254325
 31
0.0
 12
4757.449711862738
 22
1725.35482592259
 32
0.0
 13
4757.449711862738
 23
1725.35482592259
 33
0.0
  0
MTEXT
  5
248
330
241
100
AcDbEntity
  8
cotas
100
AcDbMText
 10
4833.519062172003
 20
1776.297209824482
 30
0.0
 40
10.0
 41
0.0
 71
     5
 72
     1
  1
110,0°
  7
SANINDUSA
 73
     1
 44
1.0
1001
ACAD
1000
MTEXTBEGIN
1070
    73
1070
     1
1070
    44
1040
1.0
1070
    74
1070
     0
1000
MTEXTEND
  0
POINT
  5
249
330
241
100
AcDbEntity
  8
Defpoints
 62
     0
100
AcDbPoint
 10
4804.309325548178
 20
1760.240517945545
 30
0.0
  0
POINT
  5
24A
330
241
100
AcDbEntity
  8
Defpoints
 62
     0
100
AcDbPoint
 10
4788.519062044719
 20
1703.599833787586
 30
0.0
  0
POINT
  5
24B
330
241
100
AcDbEntity
  8
Defpoints
 62
     0
100
AcDbPoint
 10
4899.519033672908
 20
1718.30417423628
 30
0.0
  0
POINT
  5
24C
330
241
100
AcDbEntity
  8
Defpoints
 62
     0
100
AcDbPoint
 10
4878.51906204472
 20
1703.599833787586
 30
0.0
  0
POINT
  5
24D
330
241
100
AcDbEntity
  8
Defpoints
 62
     0
100
AcDbPoint
 10
4767.091698887447
 20
1718.603434256536
 30
0.0
  0
ENDBLK
  5
24E
330
241
100
AcDbEntity
  8
0
100
AcDbBlockEnd
  0
BLOCK
  5
250
330
24F
100
AcDbEntity
  8
0
100
AcDbBlockBegin
  2
*D47
 70
     1
 10
0.0
 20
0.0
 30
0.0
  3
*D47
  1

  0
LINE
  5
251
330
24F
100
AcDbEntity
  8
cotas
100
AcDbLine
 10
4771.519060077766
 20
1693.171823612676
 30
0.0
 11
4629.572223617683
 21
1693.171823612676
 31
0.0
  0
LINE
  5
252
330
24F
100
AcDbEntity
  8
cotas
100
AcDbLine
 10
4658.519062044719
 20
1688.171820930467
 30
0.0
 11
4629.572223617683
 21
1688.171820930467
 31
0.0
  0
LINE
  5
253
330
24F
100
AcDbEntity
  8
cotas
100
AcDbLine
 10
4634.572223617683
 20
1703.171823612676
 30
0.0
 11
4634.572223617683
 21
1713.171823612676
 31
0.0
  0
LINE
  5
254
330
24F
100
AcDbEntity
  8
cotas
100
AcDbLine
 10
4634.572223617683
 20
1678.171820930467
 30
0.0
 11
4634.572223617683
 21
1651.657381709513
 31
0.0
  0
LINE
  5
255
330
24F
100
AcDbEntity
  8
cotas
100
AcDbLine
 10
4634.572223617683
 20
1693.171823612676
 30
0.0
 11
4634.572223617683
 21
1688.171820930467
 31
0.0
  0
SOLID
  5
256
330
24F
100
AcDbEntity
  8
cotas
100
AcDbTrace
 10
4632.905556951016
 20
1703.171823612676
 30
0.0
 11
4636.23889028435
 21
1703.171823612676
 31
0.0
 12
4634.572223617683
 22
1693.171823612676
 32
0.0
 13
4634.572223617683
 23
1693.171823612676
 33
0.0
  0
SOLID
  5
257
330
24F
100
AcDbEntity
  8
cotas
100
AcDbTrace
 10
4632.905556951016
 20
1678.171820930467
 30
0.0
 11
4636.23889028435
 21
1678.171820930467
 31
0.0
 12
4634.572223617683
 22
1688.171820930467
 32
0.0
 13
4634.572223617683
 23
1688.171820930467
 33
0.0
  0
MTEXT
  5
258
330
24F
100
AcDbEntity
  8
cotas
100
AcDbMText
 10
4624.468126908482
 20
1659.914601319991
 30
0.0
 40
10.0
 41
0.0
 71
     5
 72
     1
  1
5
  7
SANINDUSA
 11
0.0000000000000001
 21
1.0
 31
0.0
 73
     1
 44
1.0
1001
ACAD
1000
MTEXTBEGIN
1070
    73
1070
     1
1070
    44
1040
1.0
1070
    74
1070
     0
1000
MTEXTEND
  0
POINT
  5
259
330
24F
100
AcDbEntity
  8
Defpoints
 62
     0
100
AcDbPoint
 10
4776.519060077766
 20
1693.171823612676
 30
0.0
  0
POINT
  5
25A
330
24F
100
AcDbEntity
  8
Defpoints
 62
     0
100
AcDbPoint
 10
4663.519062044719
 20
1688.171820930467
 30
0.0
  0
POINT
  5
25B
330
24F
100
AcDbEntity
  8
Defpoints
 62
     0
100
AcDbPoint
 10
4634.572223617683
 20
1688.171820930467
 30
0.0
  0
ENDBLK
  5
25C
330
24F
100
AcDbEntity
  8
0
100
AcDbBlockEnd
  0
BLOCK
  5
25E
330
25D
100
AcDbEntity
  8
0
100
AcDbBlockBegin
  2
*D48
 70
     1
 10
0.0
 20
0.0
 30
0.0
  3
*D48
  1

  0
LINE
  5
25F
330
25D
100
AcDbEntity
  8
cotas
100
AcDbLine
 10
5398.519062044719
 20
1692.171821228486
 30
0.0
 11
5448.519062044868
 21
1692.171821228486
 31
0.0
  0
LINE
  5
260
330
25D
100
AcDbEntity
  8
cotas
100
AcDbLine
 10
5418.519062044719
 20
1688.171820930456
 30
0.0
 11
5448.519062044868
 21
1688.171820930456
 31
0.0
  0
LINE
  5
261
330
25D
100
AcDbEntity
  8
cotas
100
AcDbLine
 10
5443.519062044869
 20
1702.171821228487
 30
0.0
 11
5443.519062044869
 21
1712.171821228486
 31
0.0
  0
LINE
  5
262
330
25D
100
AcDbEntity
  8
cotas
100
AcDbLine
 10
5443.519062044869
 20
1678.171820930456
 30
0.0
 11
5443.519062044869
 21
1650.609698700772
 31
0.0
  0
LINE
  5
263
330
25D
100
AcDbEntity
  8
cotas
100
AcDbLine
 10
5443.519062044869
 20
1692.171821228486
 30
0.0
 11
5443.519062044869
 21
1688.171820930456
 31
0.0
  0
SOLID
  5
264
330
25D
100
AcDbEntity
  8
cotas
100
AcDbTrace
 10
5441.852395378202
 20
1702.171821228487
 30
0.0
 11
5445.185728711535
 21
1702.171821228487
 31
0.0
 12
5443.519062044869
 22
1692.171821228486
 32
0.0
 13
5443.519062044869
 23
1692.171821228486
 33
0.0
  0
SOLID
  5
265
330
25D
100
AcDbEntity
  8
cotas
100
AcDbTrace
 10
5441.852395378202
 20
1678.171820930456
 30
0.0
 11
5445.185728711535
 21
1678.171820930456
 31
0.0
 12
5443.519062044869
 22
1688.171820930456
 32
0.0
 13
5443.519062044869
 23
1688.171820930456
 33
0.0
  0
MTEXT
  5
266
330
25D
100
AcDbEntity
  8
cotas
100
AcDbMText
 10
5433.519062044869
 20
1659.390759815615
 30
0.0
 40
10.0
 41
0.0
 71
     5
 72
     1
  1
4
  7
SANINDUSA
 11
0.0000000000000001
 21
1.0
 31
0.0
 73
     1
 44
1.0
1001
ACAD
1000
MTEXTBEGIN
1070
    73
1070
     1
1070
    44
1040
1.0
1070
    74
1070
     0
1000
MTEXTEND
  0
POINT
  5
267
330
25D
100
AcDbEntity
  8
Defpoints
 62
     0
100
AcDbPoint
 10
5393.519062044719
 20
1692.171821228486
 30
0.0
  0
POINT
  5
268
330
25D
100
AcDbEntity
  8
Defpoints
 62
     0
100
AcDbPoint
 10
5413.519062044719
 20
1688.171820930456
 30
0.0
  0
POINT
  5
269
330
25D
100
AcDbEntity
  8
Defpoints
 62
     0
100
AcDbPoint
 10
5443.519062044869
 20
1688.171820930456
 30
0.0
  0
ENDBLK
  5
26A
330
25D
100
AcDbEntity
  8
0
100
AcDbBlockEnd
  0
BLOCK
  5
26C
330
26B
100
AcDbEntity
  8
0
100
AcDbBlockBegin
  2
*D49
 70
     1
 10
0.0
 20
0.0
 30
0.0
  3
*D49
  1

  0
LINE
  5
26D
330
26B
100
AcDbEntity
  8
cotas
100
AcDbLine
 10
2294.843736456292
 20
1209.442229842696
 30
0.0
 11
2262.682582372193
 21
1240.633072416017
 31
0.0
  0
MTEXT
  5
26E
330
26B
100
AcDbEntity
  8
cotas
100
AcDbMText
 10
2289.473342663348
 20
1228.899119481065
 30
0.0
 40
10.0
 41
0.0
 71
     5
 72
     1
  1
R80
  7
SANINDUSA
 11
0.7178527721664367
 21
-0.6961949421627266
 31
0.0
 73
     1
 44
1.0
1001
ACAD
1000
MTEXTBEGIN
1070
    73
1070
     1
1070
    44
1040
1.0
1070
    74
1070
     0
1000
MTEXTEND
  0
SOLID
  5
26F
330
26B
100
AcDbEntity
  8
cotas
100
AcDbTrace
 10
2263.842907275797
 20
1241.829493702961
 30
0.0
 11
2261.522257468589
 21
1239.436651129073
 31
0.0
 12
2255.504054650529
 22
1247.595021837645
 32
0.0
 13
2255.504054650529
 23
1247.595021837645
 33
0.0
  0
POINT
  5
270
330
26B
100
AcDbEntity
  8
Defpoints
 62
     0
100
AcDbPoint
 10
2255.504054650529
 20
1247.595021837645
 30
0.0
  0
POINT
  5
271
330
26B
100
AcDbEntity
  8
Defpoints
 62
     0
100
AcDbPoint
 10
2312.932276423843
 20
1191.899426464627
 30
0.0
  0
ENDBLK
  5
272
330
26B
100
AcDbEntity
  8
0
100
AcDbBlockEnd
  0
BLOCK
  5
274
330
273
100
AcDbEntity
  8
0
100
AcDbBlockBegin
  2
*D50
 70
     1
 10
0.0
 20
0.0
 30
0.0
  3
*D50
  1

  0
LINE
  5
275
330
273
100
AcDbEntity
  8
cotas
100
AcDbLine
 10
3085.6046261737
 20
665.7649141981733
 30
0.0
 11
3116.206510743205
 21
633.0428550751662
 31
0.0
  0
MTEXT
  5
276
330
273
100
AcDbEntity
  8
cotas
100
AcDbMText
 10
3104.960821491332
 20
660.0422062101122
 30
0.0
 40
10.0
 41
0.0
 71
     5
 72
     1
  1
R80
  7
SANINDUSA
 11
0.6830491099384313
 21
-0.730372448420884
 31
0.0
 73
     1
 44
1.0
1001
ACAD
1000
MTEXTBEGIN
1070
    73
1070
     1
1070
    44
1040
1.0
1070
    74
1070
     0
1000
MTEXTEND
  0
SOLID
  5
277
330
273
100
AcDbEntity
  8
cotas
100
AcDbTrace
 10
3117.42379815724
 20
634.1812702583967
 30
0.0
 11
3114.98922332917
 21
631.9044398919356
 31
0.0
 12
3123.03700184259
 22
625.7391305909575
 32
0.0
 13
3123.03700184259
 23
625.7391305909575
 33
0.0
  0
POINT
  5
278
330
273
100
AcDbEntity
  8
Defpoints
 62
     0
100
AcDbPoint
 10
3123.03700184259
 20
625.7391305909575
 30
0.0
  0
POINT
  5
279
330
273
100
AcDbEntity
  8
Defpoints
 62
     0
100
AcDbPoint
 10
3068.393073047513
 20
684.1689264646295
 30
0.0
  0
ENDBLK
  5
27A
330
273
100
AcDbEntity
  8
0
100
AcDbBlockEnd
  0
BLOCK
  5
27C
330
27B
100
AcDbEntity
  8
0
100
AcDbBlockBegin
  2
*D51
 70
     1
 10
0.0
 20
0.0
 30
0.0
  3
*D51
  1

  0
LINE
  5
27D
330
27B
100
AcDbEntity
  8
cotas
100
AcDbLine
 10
3155.303273999113
 20
1277.046582536727
 30
0.0
 11
3179.966702048657
 21
1303.258000675437
 31
0.0
  0
MTEXT
  5
27E
330
27B
100
AcDbEntity
  8
cotas
100
AcDbMText
 10
3156.849953358356
 20
1293.434942603706
 30
0.0
 40
10.0
 41
0.0
 71
     5
 72
     1
  1
R5
  7
SANINDUSA
 11
0.6852741997717936
 21
0.7282851578380051
 31
0.0
 73
     1
 44
1.0
1001
ACAD
1000
MTEXTBEGIN
1070
    73
1070
     1
1070
    44
1040
1.0
1070
    74
1070
     0
1000
MTEXTEND
  0
SOLID
  5
27F
330
27B
100
AcDbEntity
  8
cotas
100
AcDbTrace
 10
3178.75289345226
 20
1304.400124341723
 30
0.0
 11
3181.180510645053
 21
1302.11587700915
 31
0.0
 12
3186.819444046375
 22
1310.540852253817
 32
0.0
 13
3186.819444046375
 23
1310.540852253817
 33
0.0
  0
POINT
  5
280
330
27B
100
AcDbEntity
  8
Defpoints
 62
     0
100
AcDbPoint
 10
3186.819444046375
 20
1310.540852253817
 30
0.0
  0
POINT
  5
281
330
27B
100
AcDbEntity
  8
Defpoints
 62
     0
100
AcDbPoint
 10
3183.393073047514
 20
1306.899426464625
 30
0.0
  0
ENDBLK
  5
282
330
27B
100
AcDbEntity
  8
0
100
AcDbBlockEnd
  0
BLOCK
  5
7AF
330
7A5
100
AcDbEntity
  8
0
100
AcDbBlockBegin
  2
*D53
 70
     1
 10
0.0
 20
0.0
 30
0.0
  3
*D53
  1

  0
LINE
  5
826
330
7A5
100
AcDbEntity
  8
cotas
100
AcDbLine
 10
363.851016659707
 20
1401.80867852869
 30
0.0
 11
363.851016659707
 21
1526.80156839495
 31
0.0
  0
LINE
  5
827
330
7A5
100
AcDbEntity
  8
cotas
100
AcDbLine
 10
1363.851016659707
 20
1401.80867852869
 30
0.0
 11
1363.851016659707
 21
1526.80156839495
 31
0.0
  0
LINE
  5
828
330
7A5
100
AcDbEntity
  8
cotas
100
AcDbLine
 10
373.8510166597071
 20
1521.80156839495
 30
0.0
 11
1353.851016659707
 21
1521.80156839495
 31
0.0
  0
SOLID
  5
829
330
7A5
100
AcDbEntity
  8
cotas
100
AcDbTrace
 10
373.8510166597071
 20
1523.468235061617
 30
0.0
 11
373.8510166597071
 21
1520.134901728283
 31
0.0
 12
363.851016659707
 22
1521.80156839495
 32
0.0
 13
363.851016659707
 23
1521.80156839495
 33
0.0
  0
SOLID
  5
82A
330
7A5
100
AcDbEntity
  8
cotas
100
AcDbTrace
 10
1353.851016659707
 20
1523.468235061617
 30
0.0
 11
1353.851016659707
 21
1520.134901728283
 31
0.0
 12
1363.851016659707
 22
1521.80156839495
 32
0.0
 13
1363.851016659707
 23
1521.80156839495
 33
0.0
  0
MTEXT
  5
82B
330
7A5
100
AcDbEntity
  8
cotas
100
AcDbMText
 10
863.851016659707
 20
1532.006403854991
 30
0.0
 40
10.0
 41
0.0
 71
     5
 72
     1
  1
1000
  7
SANINDUSA
 73
     1
 44
1.0
1001
ACAD
1000
MTEXTBEGIN
1070
    73
1070
     1
1070
    44
1040
1.0
1070
    74
1070
     0
1000
MTEXTEND
  0
POINT
  5
82C
330
7A5
100
AcDbEntity
  8
Defpoints
 62
     0
100
AcDbPoint
 10
363.851016659707
 20
1396.80867852869
 30
0.0
  0
POINT
  5
82D
330
7A5
100
AcDbEntity
  8
Defpoints
 62
     0
100
AcDbPoint
 10
1363.851016659707
 20
1396.80867852869
 30
0.0
  0
POINT
  5
82E
330
7A5
100
AcDbEntity
  8
Defpoints
 62
     0
100
AcDbPoint
 10
1363.851016659707
 20
1521.80156839495
 30
0.0
  0
ENDBLK
  5
7B0
330
7A5
100
AcDbEntity
  8
0
100
AcDbBlockEnd
  0
BLOCK
  5
7BB
330
7B1
100
AcDbEntity
  8
0
100
AcDbBlockBegin
  2
*D54
 70
     1
 10
0.0
 20
0.0
 30
0.0
  3
*D54
  1

  0
LINE
  5
82F
330
7B1
100
AcDbEntity
  8
cotas
100
AcDbLine
 10
1366.581414997753
 20
1461.801566893631
 30
0.0
 11
1398.851016659707
 21
1461.801566893631
 31
0.0
  0
LINE
  5
830
330
7B1
100
AcDbEntity
  8
cotas
100
AcDbLine
 10
1368.851016659707
 20
1396.80867852869
 30
0.0
 11
1398.851016659707
 21
1396.80867852869
 31
0.0
  0
LINE
  5
831
330
7B1
100
AcDbEntity
  8
cotas
100
AcDbLine
 10
1393.851016659707
 20
1451.801566893631
 30
0.0
 11
1393.851016659707
 21
1406.80867852869
 31
0.0
  0
SOLID
  5
832
330
7B1
100
AcDbEntity
  8
cotas
100
AcDbTrace
 10
1392.18434999304
 20
1451.801566893631
 30
0.0
 11
1395.517683326374
 21
1451.801566893631
 31
0.0
 12
1393.851016659707
 22
1461.801566893631
 32
0.0
 13
1393.851016659707
 23
1461.801566893631
 33
0.0
  0
SOLID
  5
833
330
7B1
100
AcDbEntity
  8
cotas
100
AcDbTrace
 10
1392.18434999304
 20
1406.80867852869
 30
0.0
 11
1395.517683326374
 21
1406.80867852869
 31
0.0
 12
1393.851016659707
 22
1396.80867852869
 32
0.0
 13
1393.851016659707
 23
1396.80867852869
 33
0.0
  0
MTEXT
  5
834
330
7B1
100
AcDbEntity
  8
cotas
100
AcDbMText
 10
1383.652897116389
 20
1429.305122711161
 30
0.0
 40
10.0
 41
0.0
 71
     5
 72
     1
  1
65
  7
SANINDUSA
 11
0.0000000000000001
 21
1.0
 31
0.0
 73
     1
 44
1.0
1001
ACAD
1000
MTEXTBEGIN
1070
    73
1070
     1
1070
    44
1040
1.0
1070
    74
1070
     0
1000
MTEXTEND
  0
POINT
  5
835
330
7B1
100
AcDbEntity
  8
Defpoints
 62
     0
100
AcDbPoint
 10
1361.581414997752
 20
1461.801566893631
 30
0.0
  0
POINT
  5
836
330
7B1
100
AcDbEntity
  8
Defpoints
 62
     0
100
AcDbPoint
 10
1363.851016659707
 20
1396.80867852869
 30
0.0
  0
POINT
  5
837
330
7B1
100
AcDbEntity
  8
Defpoints
 62
     0
100
AcDbPoint
 10
1393.851016659707
 20
1396.80867852869
 30
0.0
  0
ENDBLK
  5
7BC
330
7B1
100
AcDbEntity
  8
0
100
AcDbBlockEnd
  0
BLOCK
  5
7C7
330
7BD
100
AcDbEntity
  8
0
100
AcDbBlockBegin
  2
*D55
 70
     1
 10
0.0
 20
0.0
 30
0.0
  3
*D55
  1

  0
LINE
  5
92A
330
7BD
100
AcDbEntity
  8
cotas
100
AcDbLine
 10
1361.581414997752
 20
1020.53628406285
 30
0.0
 11
1361.581414997752
 21
1057.80578406285
 31
0.0
  0
LINE
  5
92B
330
7BD
100
AcDbEntity
  8
cotas
100
AcDbLine
 10
863.851016659707
 20
1027.80578406285
 30
0.0
 11
863.851016659707
 21
1057.80578406285
 31
0.0
  0
LINE
  5
92C
330
7BD
100
AcDbEntity
  8
cotas
100
AcDbLine
 10
1351.581414997752
 20
1052.80578406285
 30
0.0
 11
873.851016659707
 21
1052.80578406285
 31
0.0
  0
SOLID
  5
92D
330
7BD
100
AcDbEntity
  8
cotas
100
AcDbTrace
 10
1351.581414997752
 20
1054.472450729516
 30
0.0
 11
1351.581414997752
 21
1051.139117396183
 31
0.0
 12
1361.581414997752
 22
1052.80578406285
 32
0.0
 13
1361.581414997752
 23
1052.80578406285
 33
0.0
  0
SOLID
  5
92E
330
7BD
100
AcDbEntity
  8
cotas
100
AcDbTrace
 10
873.851016659707
 20
1054.472450729516
 30
0.0
 11
873.851016659707
 21
1051.139117396183
 31
0.0
 12
863.851016659707
 22
1052.80578406285
 32
0.0
 13
863.851016659707
 23
1052.80578406285
 33
0.0
  0
MTEXT
  5
92F
330
7BD
100
AcDbEntity
  8
cotas
100
AcDbMText
 10
1112.716215828729
 20
1064.148967407376
 30
0.0
 40
10.0
 41
0.0
 71
     5
 72
     1
  1
497,7
  7
SANINDUSA
 73
     1
 44
1.0
1001
ACAD
1000
MTEXTBEGIN
1070
    73
1070
     1
1070
    44
1040
1.0
1070
    74
1070
     0
1000
MTEXTEND
  0
POINT
  5
930
330
7BD
100
AcDbEntity
  8
Defpoints
 62
     0
100
AcDbPoint
 10
1361.581414997752
 20
1015.536284062849
 30
0.0
  0
POINT
  5
931
330
7BD
100
AcDbEntity
  8
Defpoints
 62
     0
100
AcDbPoint
 10
863.851016659707
 20
1022.80578406285
 30
0.0
  0
POINT
  5
932
330
7BD
100
AcDbEntity
  8
Defpoints
 62
     0
100
AcDbPoint
 10
863.851016659707
 20
1052.80578406285
 30
0.0
  0
ENDBLK
  5
7C8
330
7BD
100
AcDbEntity
  8
0
100
AcDbBlockEnd
  0
BLOCK
  5
7D3
330
7C9
100
AcDbEntity
  8
0
100
AcDbBlockBegin
  2
*D56
 70
     1
 10
0.0
 20
0.0
 30
0.0
  3
*D56
  1

  0
LINE
  5
941
330
7C9
100
AcDbEntity
  8
cotas
100
AcDbLine
 10
863.851016659707
 20
1027.80578406285
 30
0.0
 11
863.851016659707
 21
1057.80578406285
 31
0.0
  0
LINE
  5
942
330
7C9
100
AcDbEntity
  8
cotas
100
AcDbLine
 10
366.1206183740796
 20
1020.53628406285
 30
0.0
 11
366.1206183740796
 21
1057.80578406285
 31
0.0
  0
LINE
  5
943
330
7C9
100
AcDbEntity
  8
cotas
100
AcDbLine
 10
853.851016659707
 20
1052.80578406285
 30
0.0
 11
376.1206183740796
 21
1052.80578406285
 31
0.0
  0
SOLID
  5
944
330
7C9
100
AcDbEntity
  8
cotas
100
AcDbTrace
 10
853.851016659707
 20
1054.472450729516
 30
0.0
 11
853.851016659707
 21
1051.139117396183
 31
0.0
 12
863.851016659707
 22
1052.80578406285
 32
0.0
 13
863.851016659707
 23
1052.80578406285
 33
0.0
  0
SOLID
  5
945
330
7C9
100
AcDbEntity
  8
cotas
100
AcDbTrace
 10
376.1206183740796
 20
1054.472450729516
 30
0.0
 11
376.1206183740796
 21
1051.139117396183
 31
0.0
 12
366.1206183740796
 22
1052.80578406285
 32
0.0
 13
366.1206183740796
 23
1052.80578406285
 33
0.0
  0
MTEXT
  5
946
330
7C9
100
AcDbEntity
  8
cotas
100
AcDbMText
 10
614.9858175168933
 20
1064.148967407376
 30
0.0
 40
10.0
 41
0.0
 71
     5
 72
     1
  1
497,7
  7
SANINDUSA
 73
     1
 44
1.0
1001
ACAD
1000
MTEXTBEGIN
1070
    73
1070
     1
1070
    44
1040
1.0
1070
    74
1070
     0
1000
MTEXTEND
  0
POINT
  5
947
330
7C9
100
AcDbEntity
  8
Defpoints
 62
     0
100
AcDbPoint
 10
863.851016659707
 20
1022.80578406285
 30
0.0
  0
POINT
  5
948
330
7C9
100
AcDbEntity
  8
Defpoints
 62
     0
100
AcDbPoint
 10
366.1206183740796
 20
1015.536284062849
 30
0.0
  0
POINT
  5
949
330
7C9
100
AcDbEntity
  8
Defpoints
 62
     0
100
AcDbPoint
 10
366.1206183740796
 20
1052.80578406285
 30
0.0
  0
ENDBLK
  5
7D4
330
7C9
100
AcDbEntity
  8
0
100
AcDbBlockEnd
  0
BLOCK
  5
7E1
330
7D5
100
AcDbEntity
  8
0
100
AcDbBlockBegin
  2
*D57
 70
     1
 10
0.0
 20
0.0
 30
0.0
  3
*D57
  1

  0
LINE
  5
962
330
7D5
100
AcDbEntity
  8
cotas
100
AcDbLine
 10
1810.714785780297
 20
1466.799453924911
 30
0.0
 11
1810.714785780297
 21
1496.799453924911
 31
0.0
  0
LINE
  5
963
330
7D5
100
AcDbEntity
  8
cotas
100
AcDbLine
 10
1808.445257904847
 20
1401.80867852869
 30
0.0
 11
1808.445257904847
 21
1496.799453924911
 31
0.0
  0
LINE
  5
964
330
7D5
100
AcDbEntity
  8
cotas
100
AcDbLine
 10
1820.714785780297
 20
1491.799453924911
 30
0.0
 11
1830.714785780297
 21
1491.799453924911
 31
0.0
  0
LINE
  5
965
330
7D5
100
AcDbEntity
  8
cotas
100
AcDbLine
 10
1798.445257904847
 20
1491.799453924911
 30
0.0
 11
1758.06916656838
 21
1491.799453924911
 31
0.0
  0
LINE
  5
966
330
7D5
100
AcDbEntity
  8
cotas
100
AcDbLine
 10
1810.714785780297
 20
1491.799453924911
 30
0.0
 11
1808.445257904847
 21
1491.799453924911
 31
0.0
  0
SOLID
  5
967
330
7D5
100
AcDbEntity
  8
cotas
100
AcDbTrace
 10
1820.714785780297
 20
1493.466120591578
 30
0.0
 11
1820.714785780297
 21
1490.132787258244
 31
0.0
 12
1810.714785780297
 22
1491.799453924911
 32
0.0
 13
1810.714785780297
 23
1491.799453924911
 33
0.0
  0
SOLID
  5
968
330
7D5
100
AcDbEntity
  8
cotas
100
AcDbTrace
 10
1798.445257904847
 20
1493.466120591578
 30
0.0
 11
1798.445257904847
 21
1490.132787258244
 31
0.0
 12
1808.445257904847
 22
1491.799453924911
 32
0.0
 13
1808.445257904847
 23
1491.799453924911
 33
0.0
  0
MTEXT
  5
969
330
7D5
100
AcDbEntity
  8
cotas
100
AcDbMText
 10
1773.257212236613
 20
1503.145995227799
 30
0.0
 40
10.0
 41
0.0
 71
     5
 72
     1
  1
2,3
  7
SANINDUSA
 73
     1
 44
1.0
1001
ACAD
1000
MTEXTBEGIN
1070
    73
1070
     1
1070
    44
1040
1.0
1070
    74
1070
     0
1000
MTEXTEND
  0
POINT
  5
96A
330
7D5
100
AcDbEntity
  8
Defpoints
 62
     0
100
AcDbPoint
 10
1810.714785780297
 20
1461.799453924911
 30
0.0
  0
POINT
  5
96B
330
7D5
100
AcDbEntity
  8
Defpoints
 62
     0
100
AcDbPoint
 10
1808.445257904847
 20
1396.80867852869
 30
0.0
  0
POINT
  5
96C
330
7D5
100
AcDbEntity
  8
Defpoints
 62
     0
100
AcDbPoint
 10
1808.445257904847
 20
1491.799453924911
 30
0.0
  0
ENDBLK
  5
7E2
330
7D5
100
AcDbEntity
  8
0
100
AcDbBlockEnd
  0
BLOCK
  5
7EE
330
7E3
100
AcDbEntity
  8
0
100
AcDbBlockBegin
  2
*D58
 70
     1
 10
0.0
 20
0.0
 30
0.0
  3
*D58
  1

  0
LINE
  5
9A7
330
7E3
100
AcDbEntity
  8
cotas
100
AcDbLine
 10
3006.585755385319
 20
1426.967280229948
 30
0.0
 11
2772.76056556792
 21
1426.967280229948
 31
0.0
  0
LINE
  5
9A8
330
7E3
100
AcDbEntity
  8
cotas
100
AcDbLine
 10
2833.977071552949
 20
1461.803453910711
 30
0.0
 11
2772.76056556792
 21
1461.803453910711
 31
0.0
  0
LINE
  5
9A9
330
7E3
100
AcDbEntity
  8
cotas
100
AcDbLine
 10
2777.76056556792
 20
1436.967280229947
 30
0.0
 11
2777.76056556792
 21
1451.803453910711
 31
0.0
  0
LINE
  5
9AA
330
7E3
100
AcDbEntity
  8
cotas
100
AcDbLine
 10
2777.76056556792
 20
1461.803453910711
 30
0.0
 11
2777.76056556792
 21
1511.098282654835
 31
0.0
  0
SOLID
  5
9AB
330
7E3
100
AcDbEntity
  8
cotas
100
AcDbTrace
 10
2776.093898901253
 20
1436.967280229947
 30
0.0
 11
2779.427232234587
 21
1436.967280229947
 31
0.0
 12
2777.76056556792
 22
1426.967280229948
 32
0.0
 13
2777.76056556792
 23
1426.967280229948
 33
0.0
  0
SOLID
  5
9AC
330
7E3
100
AcDbEntity
  8
cotas
100
AcDbTrace
 10
2776.093898901253
 20
1451.803453910711
 30
0.0
 11
2779.427232234587
 21
1451.803453910711
 31
0.0
 12
2777.76056556792
 22
1461.803453910711
 32
0.0
 13
2777.76056556792
 23
1461.803453910711
 33
0.0
  0
MTEXT
  5
9AD
330
7E3
100
AcDbEntity
  8
cotas
100
AcDbMText
 10
2766.403950389948
 20
1491.450868282774
 30
0.0
 40
10.0
 41
0.0
 71
     5
 72
     1
  1
34,8
  7
SANINDUSA
 11
0.0000000000000001
 21
1.0
 31
0.0
 73
     1
 44
1.0
1001
ACAD
1000
MTEXTBEGIN
1070
    73
1070
     1
1070
    44
1040
1.0
1070
    74
1070
     0
1000
MTEXTEND
  0
POINT
  5
9AE
330
7E3
100
AcDbEntity
  8
Defpoints
 62
     0
100
AcDbPoint
 10
3011.585755385319
 20
1426.967280229948
 30
0.0
  0
POINT
  5
9AF
330
7E3
100
AcDbEntity
  8
Defpoints
 62
     0
100
AcDbPoint
 10
2838.977071552949
 20
1461.803453910711
 30
0.0
  0
POINT
  5
9B0
330
7E3
100
AcDbEntity
  8
Defpoints
 62
     0
100
AcDbPoint
 10
2777.76056556792
 20
1461.803453910711
 30
0.0
  0
ENDBLK
  5
7EF
330
7E3
100
AcDbEntity
  8
0
100
AcDbBlockEnd
  0
BLOCK
  5
7FC
330
7F0
100
AcDbEntity
  8
0
100
AcDbBlockBegin
  2
*D59
 70
     1
 10
0.0
 20
0.0
 30
0.0
  3
*D59
  1

  0
LINE
  5
A0C
330
7F0
100
AcDbEntity
  8
cotas
100
AcDbLine
 10
2944.707402028003
 20
1401.808681210899
 30
0.0
 11
2802.76056556792
 21
1401.808681210899
 31
0.0
  0
LINE
  5
A0D
330
7F0
100
AcDbEntity
  8
cotas
100
AcDbLine
 10
2831.707403994956
 20
1396.80867852869
 30
0.0
 11
2802.76056556792
 21
1396.80867852869
 31
0.0
  0
LINE
  5
A0E
330
7F0
100
AcDbEntity
  8
cotas
100
AcDbLine
 10
2807.76056556792
 20
1411.808681210899
 30
0.0
 11
2807.76056556792
 21
1421.808681210899
 31
0.0
  0
LINE
  5
A0F
330
7F0
100
AcDbEntity
  8
cotas
100
AcDbLine
 10
2807.76056556792
 20
1386.80867852869
 30
0.0
 11
2807.76056556792
 21
1360.294239307737
 31
0.0
  0
LINE
  5
A10
330
7F0
100
AcDbEntity
  8
cotas
100
AcDbLine
 10
2807.76056556792
 20
1401.808681210899
 30
0.0
 11
2807.76056556792
 21
1396.80867852869
 31
0.0
  0
SOLID
  5
A11
330
7F0
100
AcDbEntity
  8
cotas
100
AcDbTrace
 10
2806.093898901254
 20
1411.808681210899
 30
0.0
 11
2809.427232234586
 21
1411.808681210899
 31
0.0
 12
2807.76056556792
 22
1401.808681210899
 32
0.0
 13
2807.76056556792
 23
1401.808681210899
 33
0.0
  0
SOLID
  5
A12
330
7F0
100
AcDbEntity
  8
cotas
100
AcDbTrace
 10
2806.093898901254
 20
1386.80867852869
 30
0.0
 11
2809.427232234586
 21
1386.80867852869
 31
0.0
 12
2807.76056556792
 22
1396.80867852869
 32
0.0
 13
2807.76056556792
 23
1396.80867852869
 33
0.0
  0
MTEXT
  5
A13
330
7F0
100
AcDbEntity
  8
cotas
100
AcDbMText
 10
2797.656468858719
 20
1368.551458918214
 30
0.0
 40
10.0
 41
0.0
 71
     5
 72
     1
  1
5
  7
SANINDUSA
 11
0.0000000000000001
 21
1.0
 31
0.0
 73
     1
 44
1.0
1001
ACAD
1000
MTEXTBEGIN
1070
    73
1070
     1
1070
    44
1040
1.0
1070
    74
1070
     0
1000
MTEXTEND
  0
POINT
  5
A14
330
7F0
100
AcDbEntity
  8
Defpoints
 62
     0
100
AcDbPoint
 10
2949.707402028002
 20
1401.808681210899
 30
0.0
  0
POINT
  5
A15
330
7F0
100
AcDbEntity
  8
Defpoints
 62
     0
100
AcDbPoint
 10
2836.707403994956
 20
1396.80867852869
 30
0.0
  0
POINT
  5
A16
330
7F0
100
AcDbEntity
  8
Defpoints
 62
     0
100
AcDbPoint
 10
2807.76056556792
 20
1396.80867852869
 30
0.0
  0
ENDBLK
  5
7FD
330
7F0
100
AcDbEntity
  8
0
100
AcDbBlockEnd
  0
BLOCK
  5
808
330
7FE
100
AcDbEntity
  8
0
100
AcDbBlockBegin
  2
*D60
 70
     1
 10
0.0
 20
0.0
 30
0.0
  3
*D60
  1

  0
LINE
  5
7FF
330
7FE
100
AcDbEntity
  8
cotas
100
AcDbLine
 10
366.1206183740796
 20
1466.80156839495
 30
0.0
 11
366.1206183740796
 21
1496.80156839495
 31
0.0
  0
LINE
  5
800
330
7FE
100
AcDbEntity
  8
cotas
100
AcDbLine
 10
1361.581414997752
 20
1466.801566893632
 30
0.0
 11
1361.581414997752
 21
1496.80156839495
 31
0.0
  0
LINE
  5
801
330
7FE
100
AcDbEntity
  8
cotas
100
AcDbLine
 10
376.1206183740796
 20
1491.80156839495
 30
0.0
 11
1351.581414997753
 21
1491.80156839495
 31
0.0
  0
SOLID
  5
802
330
7FE
100
AcDbEntity
  8
cotas
100
AcDbTrace
 10
376.1206183740796
 20
1493.468235061617
 30
0.0
 11
376.1206183740796
 21
1490.134901728284
 31
0.0
 12
366.1206183740796
 22
1491.80156839495
 32
0.0
 13
366.1206183740796
 23
1491.80156839495
 33
0.0
  0
SOLID
  5
803
330
7FE
100
AcDbEntity
  8
cotas
100
AcDbTrace
 10
1351.581414997753
 20
1493.468235061617
 30
0.0
 11
1351.581414997753
 21
1490.134901728284
 31
0.0
 12
1361.581414997752
 22
1491.80156839495
 32
0.0
 13
1361.581414997752
 23
1491.80156839495
 33
0.0
  0
MTEXT
  5
804
330
7FE
100
AcDbEntity
  8
cotas
100
AcDbMText
 10
863.8510166859161
 20
1503.144751739477
 30
0.0
 40
10.0
 41
0.0
 71
     5
 72
     1
  1
995,5
  7
SANINDUSA
 73
     1
 44
1.0
1001
ACAD
1000
MTEXTBEGIN
1070
    73
1070
     1
1070
    44
1040
1.0
1070
    74
1070
     0
1000
MTEXTEND
  0
POINT
  5
805
330
7FE
100
AcDbEntity
  8
Defpoints
 62
     0
100
AcDbPoint
 10
366.1206183740796
 20
1461.80156839495
 30
0.0
  0
POINT
  5
806
330
7FE
100
AcDbEntity
  8
Defpoints
 62
     0
100
AcDbPoint
 10
1361.581414997752
 20
1461.801566893631
 30
0.0
  0
POINT
  5
807
330
7FE
100
AcDbEntity
  8
Defpoints
 62
     0
100
AcDbPoint
 10
1361.581414997752
 20
1491.80156839495
 30
0.0
  0
ENDBLK
  5
809
330
7FE
100
AcDbEntity
  8
0
100
AcDbBlockEnd
  0
BLOCK
  5
816
330
80A
100
AcDbEntity
  8
0
100
AcDbBlockBegin
  2
*D61
 70
     1
 10
0.0
 20
0.0
 30
0.0
  3
*D61
  1

  0
LINE
  5
80B
330
80A
100
AcDbEntity
  8
cotas
100
AcDbLine
 10
1361.581414997752
 20
1466.801566893632
 30
0.0
 11
1361.581414997752
 21
1496.80156839495
 31
0.0
  0
LINE
  5
80C
330
80A
100
AcDbEntity
  8
cotas
100
AcDbLine
 10
1363.851016659707
 20
1401.80867852869
 30
0.0
 11
1363.851016659707
 21
1496.80156839495
 31
0.0
  0
LINE
  5
80D
330
80A
100
AcDbEntity
  8
cotas
100
AcDbLine
 10
1351.581414997753
 20
1491.80156839495
 30
0.0
 11
1341.581414997753
 21
1491.80156839495
 31
0.0
  0
LINE
  5
80E
330
80A
100
AcDbEntity
  8
cotas
100
AcDbLine
 10
1373.851016659707
 20
1491.80156839495
 30
0.0
 11
1414.227107996174
 21
1491.80156839495
 31
0.0
  0
LINE
  5
80F
330
80A
100
AcDbEntity
  8
cotas
100
AcDbLine
 10
1361.581414997752
 20
1491.80156839495
 30
0.0
 11
1363.851016659707
 21
1491.80156839495
 31
0.0
  0
SOLID
  5
810
330
80A
100
AcDbEntity
  8
cotas
100
AcDbTrace
 10
1351.581414997753
 20
1493.468235061617
 30
0.0
 11
1351.581414997753
 21
1490.134901728284
 31
0.0
 12
1361.581414997752
 22
1491.80156839495
 32
0.0
 13
1361.581414997752
 23
1491.80156839495
 33
0.0
  0
SOLID
  5
811
330
80A
100
AcDbEntity
  8
cotas
100
AcDbTrace
 10
1373.851016659707
 20
1493.468235061617
 30
0.0
 11
1373.851016659707
 21
1490.134901728284
 31
0.0
 12
1363.851016659707
 22
1491.80156839495
 32
0.0
 13
1363.851016659707
 23
1491.80156839495
 33
0.0
  0
MTEXT
  5
812
330
80A
100
AcDbEntity
  8
cotas
100
AcDbMText
 10
1399.039062327941
 20
1503.148109697838
 30
0.0
 40
10.0
 41
0.0
 71
     5
 72
     1
  1
2,3
  7
SANINDUSA
 73
     1
 44
1.0
1001
ACAD
1000
MTEXTBEGIN
1070
    73
1070
     1
1070
    44
1040
1.0
1070
    74
1070
     0
1000
MTEXTEND
  0
POINT
  5
813
330
80A
100
AcDbEntity
  8
Defpoints
 62
     0
100
AcDbPoint
 10
1361.581414997752
 20
1461.801566893631
 30
0.0
  0
POINT
  5
814
330
80A
100
AcDbEntity
  8
Defpoints
 62
     0
100
AcDbPoint
 10
1363.851016659707
 20
1396.80867852869
 30
0.0
  0
POINT
  5
815
330
80A
100
AcDbEntity
  8
Defpoints
 62
     0
100
AcDbPoint
 10
1363.851016659707
 20
1491.80156839495
 30
0.0
  0
ENDBLK
  5
817
330
80A
100
AcDbEntity
  8
0
100
AcDbBlockEnd
  0
BLOCK
  5
824
330
818
100
AcDbEntity
  8
0
100
AcDbBlockBegin
  2
*D62
 70
     1
 10
0.0
 20
0.0
 30
0.0
  3
*D62
  1

  0
LINE
  5
819
330
818
100
AcDbEntity
  8
cotas
100
AcDbLine
 10
366.1206183740796
 20
1466.80156839495
 30
0.0
 11
366.1206183740796
 21
1496.80156839495
 31
0.0
  0
LINE
  5
81A
330
818
100
AcDbEntity
  8
cotas
100
AcDbLine
 10
363.851016659707
 20
1401.80867852869
 30
0.0
 11
363.851016659707
 21
1496.80156839495
 31
0.0
  0
LINE
  5
81B
330
818
100
AcDbEntity
  8
cotas
100
AcDbLine
 10
376.1206183740796
 20
1491.80156839495
 30
0.0
 11
386.1206183740796
 21
1491.80156839495
 31
0.0
  0
LINE
  5
81C
330
818
100
AcDbEntity
  8
cotas
100
AcDbLine
 10
353.8510166597071
 20
1491.80156839495
 30
0.0
 11
313.4749253232396
 21
1491.80156839495
 31
0.0
  0
LINE
  5
81D
330
818
100
AcDbEntity
  8
cotas
100
AcDbLine
 10
366.1206183740796
 20
1491.80156839495
 30
0.0
 11
363.851016659707
 21
1491.80156839495
 31
0.0
  0
SOLID
  5
81E
330
818
100
AcDbEntity
  8
cotas
100
AcDbTrace
 10
376.1206183740796
 20
1493.468235061617
 30
0.0
 11
376.1206183740796
 21
1490.134901728284
 31
0.0
 12
366.1206183740796
 22
1491.80156839495
 32
0.0
 13
366.1206183740796
 23
1491.80156839495
 33
0.0
  0
SOLID
  5
81F
330
818
100
AcDbEntity
  8
cotas
100
AcDbTrace
 10
353.8510166597071
 20
1493.468235061617
 30
0.0
 11
353.8510166597071
 21
1490.134901728284
 31
0.0
 12
363.851016659707
 22
1491.80156839495
 32
0.0
 13
363.851016659707
 23
1491.80156839495
 33
0.0
  0
MTEXT
  5
820
330
818
100
AcDbEntity
  8
cotas
100
AcDbMText
 10
328.6629709914734
 20
1503.148109697838
 30
0.0
 40
10.0
 41
0.0
 71
     5
 72
     1
  1
2,3
  7
SANINDUSA
 73
     1
 44
1.0
1001
ACAD
1000
MTEXTBEGIN
1070
    73
1070
     1
1070
    44
1040
1.0
1070
    74
1070
     0
1000
MTEXTEND
  0
POINT
  5
821
330
818
100
AcDbEntity
  8
Defpoints
 62
     0
100
AcDbPoint
 10
366.1206183740796
 20
1461.80156839495
 30
0.0
  0
POINT
  5
822
330
818
100
AcDbEntity
  8
Defpoints
 62
     0
100
AcDbPoint
 10
363.851016659707
 20
1396.80867852869
 30
0.0
  0
POINT
  5
823
330
818
100
AcDbEntity
  8
Defpoints
 62
     0
100
AcDbPoint
 10
363.851016659707
 20
1491.80156839495
 30
0.0
  0
ENDBLK
  5
825
330
818
100
AcDbEntity
  8
0
100
AcDbBlockEnd
  0
BLOCK
  5
842
330
838
100
AcDbEntity
  8
0
100
AcDbBlockBegin
  2
*D63
 70
     1
 10
0.0
 20
0.0
 30
0.0
  3
*D63
  1

  0
ARC
  5
839
330
838
100
AcDbEntity
  8
cotas
100
AcDbCircle
 10
1363.851016659707
 20
1396.80867852869
 30
0.0
 40
53.6337505507164
100
AcDbArc
 50
102.6983190448905
 51
169.3016809452125
  0
SOLID
  5
83A
330
838
100
AcDbEntity
  8
cotas
100
AcDbTrace
 10
1351.848182530878
 20
1450.783575916104
 30
0.0
 11
1352.274567872995
 21
1447.477625727257
 31
0.0
 12
1361.979225768478
 22
1450.40975684803
 32
0.0
 13
1361.979225768478
 23
1450.40975684803
 33
0.0
  0
SOLID
  5
83B
330
838
100
AcDbEntity
  8
cotas
100
AcDbTrace
 10
1312.808923380179
 20
1406.609754508728
 30
0.0
 11
1309.490106453076
 21
1406.920504111274
 31
0.0
 12
1310.217266108991
 22
1396.80867852869
 32
0.0
 13
1310.217266108991
 23
1396.80867852869
 33
0.0
  0
MTEXT
  5
83C
330
838
100
AcDbEntity
  8
cotas
100
AcDbMText
 10
1317.100859956396
 20
1441.954780085353
 30
0.0
 40
10.0
 41
0.0
 71
     5
 72
     1
  1
88,0°
  7
SANINDUSA
 11
0.6946583705211255
 21
0.7193398002786548
 31
0.0
 73
     1
 44
1.0
1001
ACAD
1000
MTEXTBEGIN
1070
    73
1070
     1
1070
    44
1040
1.0
1070
    74
1070
     0
1000
MTEXTEND
  0
POINT
  5
83D
330
838
100
AcDbEntity
  8
Defpoints
 62
     0
100
AcDbPoint
 10
1335.960601377278
 20
1442.62029205092
 30
0.0
  0
POINT
  5
83E
330
838
100
AcDbEntity
  8
Defpoints
 62
     0
100
AcDbPoint
 10
1361.749925113312
 20
1456.976068519817
 30
0.0
  0
POINT
  5
83F
330
838
100
AcDbEntity
  8
Defpoints
 62
     0
100
AcDbPoint
 10
368.8540517282189
 20
1396.80867852869
 30
0.0
  0
POINT
  5
840
330
838
100
AcDbEntity
  8
Defpoints
 62
     0
100
AcDbPoint
 10
1358.847981591195
 20
1396.80867852869
 30
0.0
  0
POINT
  5
841
330
838
100
AcDbEntity
  8
Defpoints
 62
     0
100
AcDbPoint
 10
1363.851016659707
 20
1396.80867852869
 30
0.0
  0
ENDBLK
  5
843
330
838
100
AcDbEntity
  8
0
100
AcDbBlockEnd
  0
BLOCK
  5
84E
330
844
100
AcDbEntity
  8
0
100
AcDbBlockBegin
  2
*D64
 70
     1
 10
0.0
 20
0.0
 30
0.0
  3
*D64
  1

  0
ARC
  5
845
330
844
100
AcDbEntity
  8
cotas
100
AcDbCircle
 10
363.851016659707
 20
1396.80867852869
 30
0.0
 40
51.11498128920947
100
AcDbArc
 50
11.22714831212052
 51
76.7728516977848
  0
SOLID
  5
846
330
844
100
AcDbEntity
  8
cotas
100
AcDbTrace
 10
415.6464849040532
 20
1406.923752195336
 30
0.0
 11
412.3291373929716
 21
1406.597689928535
 31
0.0
 12
414.9659979489164
 22
1396.80867852869
 32
0.0
 13
414.9659979489164
 23
1396.80867852869
 33
0.0
  0
SOLID
  5
847
330
844
100
AcDbEntity
  8
cotas
100
AcDbTrace
 10
375.3259268646539
 20
1444.915636131553
 30
0.0
 11
375.767564261085
 21
1448.219583395234
 31
0.0
 12
365.6349037718268
 22
1447.892521952687
 32
0.0
 13
365.6349037718268
 23
1447.892521952687
 33
0.0
  0
MTEXT
  5
848
330
844
100
AcDbEntity
  8
cotas
100
AcDbMText
 10
408.7893223854949
 20
1440.205095934439
 30
0.0
 40
10.0
 41
0.0
 71
     5
 72
     1
  1
88,0°
  7
SANINDUSA
 11
0.6946583705211774
 21
-0.7193398002786048
 31
0.0
 73
     1
 44
1.0
1001
ACAD
1000
MTEXTBEGIN
1070
    73
1070
     1
1070
    44
1040
1.0
1070
    74
1070
     0
1000
MTEXTEND
  0
POINT
  5
849
330
844
100
AcDbEntity
  8
Defpoints
 62
     0
100
AcDbPoint
 10
408.4122606525983
 20
1421.849382312774
 30
0.0
  0
POINT
  5
84A
330
844
100
AcDbEntity
  8
Defpoints
 62
     0
100
AcDbPoint
 10
363.851016659707
 20
1396.80867852869
 30
0.0
  0
POINT
  5
84B
330
844
100
AcDbEntity
  8
Defpoints
 62
     0
100
AcDbPoint
 10
368.854051728219
 20
1396.80867852869
 30
0.0
  0
POINT
  5
84C
330
844
100
AcDbEntity
  8
Defpoints
 62
     0
100
AcDbPoint
 10
1358.847981591195
 20
1396.80867852869
 30
0.0
  0
POINT
  5
84D
330
844
100
AcDbEntity
  8
Defpoints
 62
     0
100
AcDbPoint
 10
365.9521082060927
 20
1456.976068519817
 30
0.0
  0
ENDBLK
  5
84F
330
844
100
AcDbEntity
  8
0
100
AcDbBlockEnd
  0
BLOCK
  5
85A
330
850
100
AcDbEntity
  8
0
100
AcDbBlockBegin
  2
*D65
 70
     1
 10
0.0
 20
0.0
 30
0.0
  3
*D65
  1

  0
LINE
  5
851
330
850
100
AcDbEntity
  8
cotas
100
AcDbLine
 10
358.8510166597071
 20
852.8057840628498
 30
0.0
 11
328.8510166597074
 21
852.8057840628498
 31
0.0
  0
LINE
  5
852
330
850
100
AcDbEntity
  8
cotas
100
AcDbLine
 10
363.8479720544519
 20
1022.80578406285
 30
0.0
 11
328.8510166597075
 21
1022.80578406285
 31
0.0
  0
LINE
  5
853
330
850
100
AcDbEntity
  8
cotas
100
AcDbLine
 10
333.8510166597075
 20
862.8057840628498
 30
0.0
 11
333.8510166597075
 21
1012.80578406285
 31
0.0
  0
SOLID
  5
854
330
850
100
AcDbEntity
  8
cotas
100
AcDbTrace
 10
332.1843499930408
 20
862.8057840628498
 30
0.0
 11
335.5176833263741
 21
862.8057840628498
 31
0.0
 12
333.8510166597075
 22
852.8057840628498
 32
0.0
 13
333.8510166597075
 23
852.8057840628498
 33
0.0
  0
SOLID
  5
855
330
850
100
AcDbEntity
  8
cotas
100
AcDbTrace
 10
332.1843499930408
 20
1012.80578406285
 30
0.0
 11
335.5176833263742
 21
1012.80578406285
 31
0.0
 12
333.8510166597075
 22
1022.80578406285
 32
0.0
 13
333.8510166597075
 23
1022.80578406285
 33
0.0
  0
MTEXT
  5
856
330
850
100
AcDbEntity
  8
cotas
100
AcDbMText
 10
323.6461811996671
 20
937.80578406285
 30
0.0
 40
10.0
 41
0.0
 71
     5
 72
     1
  1
170
  7
SANINDUSA
 11
0.0000000000000001
 21
1.0
 31
0.0
 73
     1
 44
1.0
1001
ACAD
1000
MTEXTBEGIN
1070
    73
1070
     1
1070
    44
1040
1.0
1070
    74
1070
     0
1000
MTEXTEND
  0
POINT
  5
857
330
850
100
AcDbEntity
  8
Defpoints
 62
     0
100
AcDbPoint
 10
363.851016659707
 20
852.8057840628498
 30
0.0
  0
POINT
  5
858
330
850
100
AcDbEntity
  8
Defpoints
 62
     0
100
AcDbPoint
 10
368.8479720544519
 20
1022.80578406285
 30
0.0
  0
POINT
  5
859
330
850
100
AcDbEntity
  8
Defpoints
 62
     0
100
AcDbPoint
 10
333.8510166597075
 20
1022.80578406285
 30
0.0
  0
ENDBLK
  5
85B
330
850
100
AcDbEntity
  8
0
100
AcDbBlockEnd
  0
BLOCK
  5
866
330
85C
100
AcDbEntity
  8
0
100
AcDbBlockBegin
  2
*D66
 70
     1
 10
0.0
 20
0.0
 30
0.0
  3
*D66
  1

  0
LINE
  5
85D
330
85C
100
AcDbEntity
  8
cotas
100
AcDbLine
 10
358.8510166597071
 20
852.8057840628498
 30
0.0
 11
328.8510166597071
 21
852.8057840628498
 31
0.0
  0
LINE
  5
85E
330
85C
100
AcDbEntity
  8
cotas
100
AcDbLine
 10
472.9248525684115
 20
712.7986545900312
 30
0.0
 11
328.8510166597071
 21
712.7986545900312
 31
0.0
  0
LINE
  5
85F
330
85C
100
AcDbEntity
  8
cotas
100
AcDbLine
 10
333.8510166597071
 20
842.8057840628499
 30
0.0
 11
333.8510166597071
 21
722.7986545900312
 31
0.0
  0
SOLID
  5
860
330
85C
100
AcDbEntity
  8
cotas
100
AcDbTrace
 10
332.1843499930404
 20
842.8057840628499
 30
0.0
 11
335.5176833263737
 21
842.8057840628499
 31
0.0
 12
333.8510166597071
 22
852.8057840628498
 32
0.0
 13
333.8510166597071
 23
852.8057840628498
 33
0.0
  0
SOLID
  5
861
330
85C
100
AcDbEntity
  8
cotas
100
AcDbTrace
 10
332.1843499930404
 20
722.7986545900312
 30
0.0
 11
335.5176833263737
 21
722.7986545900312
 31
0.0
 12
333.8510166597071
 22
712.7986545900312
 32
0.0
 13
333.8510166597071
 23
712.7986545900312
 33
0.0
  0
MTEXT
  5
862
330
85C
100
AcDbEntity
  8
cotas
100
AcDbMText
 10
323.6461811996667
 20
782.8022193264406
 30
0.0
 40
10.0
 41
0.0
 71
     5
 72
     1
  1
140
  7
SANINDUSA
 11
0.0000000000000001
 21
1.0
 31
0.0
 73
     1
 44
1.0
1001
ACAD
1000
MTEXTBEGIN
1070
    73
1070
     1
1070
    44
1040
1.0
1070
    74
1070
     0
1000
MTEXTEND
  0
POINT
  5
863
330
85C
100
AcDbEntity
  8
Defpoints
 62
     0
100
AcDbPoint
 10
363.851016659707
 20
852.8057840628498
 30
0.0
  0
POINT
  5
864
330
85C
100
AcDbEntity
  8
Defpoints
 62
     0
100
AcDbPoint
 10
477.9248525684115
 20
712.7986545900312
 30
0.0
  0
POINT
  5
865
330
85C
100
AcDbEntity
  8
Defpoints
 62
     0
100
AcDbPoint
 10
333.8510166597071
 20
712.7986545900312
 30
0.0
  0
ENDBLK
  5
867
330
85C
100
AcDbEntity
  8
0
100
AcDbBlockEnd
  0
BLOCK
  5
872
330
868
100
AcDbEntity
  8
0
100
AcDbBlockBegin
  2
*D67
 70
     1
 10
0.0
 20
0.0
 30
0.0
  3
*D67
  1

  0
LINE
  5
869
330
868
100
AcDbEntity
  8
cotas
100
AcDbLine
 10
472.9248525684115
 20
712.7986545900312
 30
0.0
 11
328.8510166597071
 21
712.7986545900312
 31
0.0
  0
LINE
  5
86A
330
868
100
AcDbEntity
  8
cotas
100
AcDbLine
 10
472.9248525684115
 20
577.7986545900311
 30
0.0
 11
328.8510166597071
 21
577.7986545900311
 31
0.0
  0
LINE
  5
86B
330
868
100
AcDbEntity
  8
cotas
100
AcDbLine
 10
333.8510166597071
 20
702.7986545900311
 30
0.0
 11
333.8510166597071
 21
587.7986545900312
 31
0.0
  0
SOLID
  5
86C
330
868
100
AcDbEntity
  8
cotas
100
AcDbTrace
 10
332.1843499930404
 20
702.7986545900311
 30
0.0
 11
335.5176833263738
 21
702.7986545900311
 31
0.0
 12
333.8510166597071
 22
712.7986545900312
 32
0.0
 13
333.8510166597071
 23
712.7986545900312
 33
0.0
  0
SOLID
  5
86D
330
868
100
AcDbEntity
  8
cotas
100
AcDbTrace
 10
332.1843499930404
 20
587.7986545900312
 30
0.0
 11
335.5176833263737
 21
587.7986545900312
 31
0.0
 12
333.8510166597071
 22
577.7986545900311
 32
0.0
 13
333.8510166597071
 23
577.7986545900311
 33
0.0
  0
MTEXT
  5
86E
330
868
100
AcDbEntity
  8
cotas
100
AcDbMText
 10
323.6428232413054
 20
645.2986545900313
 30
0.0
 40
10.0
 41
0.0
 71
     5
 72
     1
  1
135
  7
SANINDUSA
 11
0.0000000000000001
 21
1.0
 31
0.0
 73
     1
 44
1.0
1001
ACAD
1000
MTEXTBEGIN
1070
    73
1070
     1
1070
    44
1040
1.0
1070
    74
1070
     0
1000
MTEXTEND
  0
POINT
  5
86F
330
868
100
AcDbEntity
  8
Defpoints
 62
     0
100
AcDbPoint
 10
477.9248525684115
 20
712.7986545900312
 30
0.0
  0
POINT
  5
870
330
868
100
AcDbEntity
  8
Defpoints
 62
     0
100
AcDbPoint
 10
477.9248525684115
 20
577.7986545900311
 30
0.0
  0
POINT
  5
871
330
868
100
AcDbEntity
  8
Defpoints
 62
     0
100
AcDbPoint
 10
333.8510166597071
 20
577.7986545900311
 30
0.0
  0
ENDBLK
  5
873
330
868
100
AcDbEntity
  8
0
100
AcDbBlockEnd
  0
BLOCK
  5
87E
330
874
100
AcDbEntity
  8
0
100
AcDbBlockBegin
  2
*D68
 70
     1
 10
0.0
 20
0.0
 30
0.0
  3
*D68
  1

  0
LINE
  5
875
330
874
100
AcDbEntity
  8
cotas
100
AcDbLine
 10
472.9248525684115
 20
577.7986545900311
 30
0.0
 11
328.8510166597071
 21
577.7986545900311
 31
0.0
  0
LINE
  5
876
330
874
100
AcDbEntity
  8
cotas
100
AcDbLine
 10
472.9248525684115
 20
442.7986545900312
 30
0.0
 11
328.8510166597071
 21
442.7986545900313
 31
0.0
  0
LINE
  5
877
330
874
100
AcDbEntity
  8
cotas
100
AcDbLine
 10
333.8510166597071
 20
567.7986545900312
 30
0.0
 11
333.8510166597071
 21
452.7986545900312
 31
0.0
  0
SOLID
  5
878
330
874
100
AcDbEntity
  8
cotas
100
AcDbTrace
 10
332.1843499930404
 20
567.7986545900312
 30
0.0
 11
335.5176833263737
 21
567.7986545900312
 31
0.0
 12
333.8510166597071
 22
577.7986545900311
 32
0.0
 13
333.8510166597071
 23
577.7986545900311
 33
0.0
  0
SOLID
  5
879
330
874
100
AcDbEntity
  8
cotas
100
AcDbTrace
 10
332.1843499930404
 20
452.7986545900312
 30
0.0
 11
335.5176833263737
 21
452.7986545900312
 31
0.0
 12
333.8510166597071
 22
442.7986545900313
 32
0.0
 13
333.8510166597071
 23
442.7986545900313
 33
0.0
  0
MTEXT
  5
87A
330
874
100
AcDbEntity
  8
cotas
100
AcDbMText
 10
323.6428232413054
 20
510.2986545900313
 30
0.0
 40
10.0
 41
0.0
 71
     5
 72
     1
  1
135
  7
SANINDUSA
 11
0.0000000000000001
 21
1.0
 31
0.0
 73
     1
 44
1.0
1001
ACAD
1000
MTEXTBEGIN
1070
    73
1070
     1
1070
    44
1040
1.0
1070
    74
1070
     0
1000
MTEXTEND
  0
POINT
  5
87B
330
874
100
AcDbEntity
  8
Defpoints
 62
     0
100
AcDbPoint
 10
477.9248525684115
 20
577.7986545900311
 30
0.0
  0
POINT
  5
87C
330
874
100
AcDbEntity
  8
Defpoints
 62
     0
100
AcDbPoint
 10
477.9248525684115
 20
442.7986545900312
 30
0.0
  0
POINT
  5
87D
330
874
100
AcDbEntity
  8
Defpoints
 62
     0
100
AcDbPoint
 10
333.8510166597071
 20
442.7986545900313
 30
0.0
  0
ENDBLK
  5
87F
330
874
100
AcDbEntity
  8
0
100
AcDbBlockEnd
  0
BLOCK
  5
88A
330
880
100
AcDbEntity
  8
0
100
AcDbBlockBegin
  2
*D69
 70
     1
 10
0.0
 20
0.0
 30
0.0
  3
*D69
  1

  0
LINE
  5
A3D
330
880
100
AcDbEntity
  8
cotas
100
AcDbLine
 10
363.8540643811966
 20
272.8057840628535
 30
0.0
 11
298.851016659707
 21
272.8057840628535
 31
0.0
  0
LINE
  5
A3E
330
880
100
AcDbEntity
  8
cotas
100
AcDbLine
 10
358.8510166597071
 20
852.8057840628498
 30
0.0
 11
298.8510166597071
 21
852.8057840628498
 31
0.0
  0
LINE
  5
A3F
330
880
100
AcDbEntity
  8
cotas
100
AcDbLine
 10
303.851016659707
 20
282.8057840628535
 30
0.0
 11
303.8510166597071
 21
842.8057840628499
 31
0.0
  0
SOLID
  5
A40
330
880
100
AcDbEntity
  8
cotas
100
AcDbTrace
 10
302.1843499930403
 20
282.8057840628535
 30
0.0
 11
305.5176833263737
 21
282.8057840628535
 31
0.0
 12
303.851016659707
 22
272.8057840628535
 32
0.0
 13
303.851016659707
 23
272.8057840628535
 33
0.0
  0
SOLID
  5
A41
330
880
100
AcDbEntity
  8
cotas
100
AcDbTrace
 10
302.1843499930404
 20
842.8057840628499
 30
0.0
 11
305.5176833263738
 21
842.8057840628499
 31
0.0
 12
303.8510166597071
 22
852.8057840628498
 32
0.0
 13
303.8510166597071
 23
852.8057840628498
 33
0.0
  0
MTEXT
  5
A42
330
880
100
AcDbEntity
  8
cotas
100
AcDbMText
 10
293.6226754911375
 20
562.8057840628517
 30
0.0
 40
10.0
 41
0.0
 71
     5
 72
     1
  1
580
  7
SANINDUSA
 11
0.0000000000000001
 21
1.0
 31
0.0
 73
     1
 44
1.0
1001
ACAD
1000
MTEXTBEGIN
1070
    73
1070
     1
1070
    44
1040
1.0
1070
    74
1070
     0
1000
MTEXTEND
  0
POINT
  5
A43
330
880
100
AcDbEntity
  8
Defpoints
 62
     0
100
AcDbPoint
 10
368.8540643811966
 20
272.8057840628535
 30
0.0
  0
POINT
  5
A44
330
880
100
AcDbEntity
  8
Defpoints
 62
     0
100
AcDbPoint
 10
363.851016659707
 20
852.8057840628498
 30
0.0
  0
POINT
  5
A45
330
880
100
AcDbEntity
  8
Defpoints
 62
     0
100
AcDbPoint
 10
303.8510166597071
 20
852.8057840628498
 30
0.0
  0
ENDBLK
  5
88B
330
880
100
AcDbEntity
  8
0
100
AcDbBlockEnd
  0
BLOCK
  5
896
330
88C
100
AcDbEntity
  8
0
100
AcDbBlockBegin
  2
*D70
 70
     1
 10
0.0
 20
0.0
 30
0.0
  3
*D70
  1

  0
LINE
  5
88D
330
88C
100
AcDbEntity
  8
cotas
100
AcDbLine
 10
538.8951791289683
 20
374.6925461888277
 30
0.0
 11
538.8951791289683
 21
238.2139257606905
 31
0.0
  0
LINE
  5
88E
330
88C
100
AcDbEntity
  8
cotas
100
AcDbLine
 10
668.8951791289682
 20
374.6925461888277
 30
0.0
 11
668.8951791289682
 21
238.2139257606905
 31
0.0
  0
LINE
  5
88F
330
88C
100
AcDbEntity
  8
cotas
100
AcDbLine
 10
548.8951791289682
 20
243.2139257606905
 30
0.0
 11
658.8951791289682
 21
243.2139257606905
 31
0.0
  0
SOLID
  5
890
330
88C
100
AcDbEntity
  8
cotas
100
AcDbTrace
 10
548.8951791289682
 20
244.8805924273571
 30
0.0
 11
548.8951791289682
 21
241.5472590940238
 31
0.0
 12
538.8951791289683
 22
243.2139257606905
 32
0.0
 13
538.8951791289683
 23
243.2139257606905
 33
0.0
  0
SOLID
  5
891
330
88C
100
AcDbEntity
  8
cotas
100
AcDbTrace
 10
658.8951791289682
 20
244.8805924273571
 30
0.0
 11
658.8951791289682
 21
241.5472590940238
 31
0.0
 12
668.8951791289682
 22
243.2139257606905
 32
0.0
 13
668.8951791289682
 23
243.2139257606905
 33
0.0
  0
MTEXT
  5
892
330
88C
100
AcDbEntity
  8
cotas
100
AcDbMText
 10
603.8951791289682
 20
253.4221191790921
 30
0.0
 40
10.0
 41
0.0
 71
     5
 72
     1
  1
130
  7
SANINDUSA
 73
     1
 44
1.0
1001
ACAD
1000
MTEXTBEGIN
1070
    73
1070
     1
1070
    44
1040
1.0
1070
    74
1070
     0
1000
MTEXTEND
  0
POINT
  5
893
330
88C
100
AcDbEntity
  8
Defpoints
 62
     0
100
AcDbPoint
 10
538.8951791289683
 20
379.6925461888277
 30
0.0
  0
POINT
  5
894
330
88C
100
AcDbEntity
  8
Defpoints
 62
     0
100
AcDbPoint
 10
668.8951791289682
 20
379.6925461888277
 30
0.0
  0
POINT
  5
895
330
88C
100
AcDbEntity
  8
Defpoints
 62
     0
100
AcDbPoint
 10
668.8951791289682
 20
243.2139257606905
 30
0.0
  0
ENDBLK
  5
897
330
88C
100
AcDbEntity
  8
0
100
AcDbBlockEnd
  0
BLOCK
  5
8A2
330
898
100
AcDbEntity
  8
0
100
AcDbBlockBegin
  2
*D71
 70
     1
 10
0.0
 20
0.0
 30
0.0
  3
*D71
  1

  0
LINE
  5
899
330
898
100
AcDbEntity
  8
cotas
100
AcDbLine
 10
668.8951791289682
 20
374.6925461888277
 30
0.0
 11
668.8951791289682
 21
238.2139257606905
 31
0.0
  0
LINE
  5
89A
330
898
100
AcDbEntity
  8
cotas
100
AcDbLine
 10
798.8951791289682
 20
374.6925461888277
 30
0.0
 11
798.8951791289682
 21
238.2139257606905
 31
0.0
  0
LINE
  5
89B
330
898
100
AcDbEntity
  8
cotas
100
AcDbLine
 10
678.8951791289682
 20
243.2139257606905
 30
0.0
 11
788.8951791289683
 21
243.2139257606905
 31
0.0
  0
SOLID
  5
89C
330
898
100
AcDbEntity
  8
cotas
100
AcDbTrace
 10
678.8951791289682
 20
244.8805924273571
 30
0.0
 11
678.8951791289682
 21
241.5472590940238
 31
0.0
 12
668.8951791289682
 22
243.2139257606905
 32
0.0
 13
668.8951791289682
 23
243.2139257606905
 33
0.0
  0
SOLID
  5
89D
330
898
100
AcDbEntity
  8
cotas
100
AcDbTrace
 10
788.8951791289683
 20
244.8805924273571
 30
0.0
 11
788.8951791289683
 21
241.5472590940238
 31
0.0
 12
798.8951791289682
 22
243.2139257606905
 32
0.0
 13
798.8951791289682
 23
243.2139257606905
 33
0.0
  0
MTEXT
  5
89E
330
898
100
AcDbEntity
  8
cotas
100
AcDbMText
 10
733.8951791289682
 20
253.4221191790921
 30
0.0
 40
10.0
 41
0.0
 71
     5
 72
     1
  1
130
  7
SANINDUSA
 73
     1
 44
1.0
1001
ACAD
1000
MTEXTBEGIN
1070
    73
1070
     1
1070
    44
1040
1.0
1070
    74
1070
     0
1000
MTEXTEND
  0
POINT
  5
89F
330
898
100
AcDbEntity
  8
Defpoints
 62
     0
100
AcDbPoint
 10
668.8951791289682
 20
379.6925461888277
 30
0.0
  0
POINT
  5
8A0
330
898
100
AcDbEntity
  8
Defpoints
 62
     0
100
AcDbPoint
 10
798.8951791289682
 20
379.6925461888277
 30
0.0
  0
POINT
  5
8A1
330
898
100
AcDbEntity
  8
Defpoints
 62
     0
100
AcDbPoint
 10
798.8951791289682
 20
243.2139257606905
 30
0.0
  0
ENDBLK
  5
8A3
330
898
100
AcDbEntity
  8
0
100
AcDbBlockEnd
  0
BLOCK
  5
8AE
330
8A4
100
AcDbEntity
  8
0
100
AcDbBlockBegin
  2
*D72
 70
     1
 10
0.0
 20
0.0
 30
0.0
  3
*D72
  1

  0
LINE
  5
8A5
330
8A4
100
AcDbEntity
  8
cotas
100
AcDbLine
 10
798.8951791289682
 20
374.6925461888277
 30
0.0
 11
798.8951791289682
 21
238.2139257606905
 31
0.0
  0
LINE
  5
8A6
330
8A4
100
AcDbEntity
  8
cotas
100
AcDbLine
 10
863.851016659707
 20
267.8057840628535
 30
0.0
 11
863.851016659707
 21
238.2139257606905
 31
0.0
  0
LINE
  5
8A7
330
8A4
100
AcDbEntity
  8
cotas
100
AcDbLine
 10
808.8951791289682
 20
243.2139257606905
 30
0.0
 11
853.851016659707
 21
243.2139257606905
 31
0.0
  0
SOLID
  5
8A8
330
8A4
100
AcDbEntity
  8
cotas
100
AcDbTrace
 10
808.8951791289682
 20
244.8805924273571
 30
0.0
 11
808.8951791289682
 21
241.5472590940238
 31
0.0
 12
798.8951791289682
 22
243.2139257606905
 32
0.0
 13
798.8951791289682
 23
243.2139257606905
 33
0.0
  0
SOLID
  5
8A9
330
8A4
100
AcDbEntity
  8
cotas
100
AcDbTrace
 10
853.851016659707
 20
244.8805924273571
 30
0.0
 11
853.851016659707
 21
241.5472590940238
 31
0.0
 12
863.851016659707
 22
243.2139257606905
 32
0.0
 13
863.851016659707
 23
243.2139257606905
 33
0.0
  0
MTEXT
  5
8AA
330
8A4
100
AcDbEntity
  8
cotas
100
AcDbMText
 10
831.3730978943377
 20
253.4120453040081
 30
0.0
 40
10.0
 41
0.0
 71
     5
 72
     1
  1
65
  7
SANINDUSA
 73
     1
 44
1.0
1001
ACAD
1000
MTEXTBEGIN
1070
    73
1070
     1
1070
    44
1040
1.0
1070
    74
1070
     0
1000
MTEXTEND
  0
POINT
  5
8AB
330
8A4
100
AcDbEntity
  8
Defpoints
 62
     0
100
AcDbPoint
 10
798.8951791289682
 20
379.6925461888277
 30
0.0
  0
POINT
  5
8AC
330
8A4
100
AcDbEntity
  8
Defpoints
 62
     0
100
AcDbPoint
 10
863.851016659707
 20
272.8057840628535
 30
0.0
  0
POINT
  5
8AD
330
8A4
100
AcDbEntity
  8
Defpoints
 62
     0
100
AcDbPoint
 10
863.851016659707
 20
243.2139257606905
 30
0.0
  0
ENDBLK
  5
8AF
330
8A4
100
AcDbEntity
  8
0
100
AcDbBlockEnd
  0
BLOCK
  5
8BA
330
8B0
100
AcDbEntity
  8
0
100
AcDbBlockBegin
  2
*D73
 70
     1
 10
0.0
 20
0.0
 30
0.0
  3
*D73
  1

  0
LINE
  5
8B1
330
8B0
100
AcDbEntity
  8
cotas
100
AcDbLine
 10
863.851016659707
 20
267.8057840628535
 30
0.0
 11
863.851016659707
 21
238.2139257606905
 31
0.0
  0
LINE
  5
8B2
330
8B0
100
AcDbEntity
  8
cotas
100
AcDbLine
 10
928.8951791289683
 20
374.6925461888277
 30
0.0
 11
928.8951791289683
 21
238.2139257606905
 31
0.0
  0
LINE
  5
8B3
330
8B0
100
AcDbEntity
  8
cotas
100
AcDbLine
 10
873.851016659707
 20
243.2139257606905
 30
0.0
 11
918.8951791289682
 21
243.2139257606905
 31
0.0
  0
SOLID
  5
8B4
330
8B0
100
AcDbEntity
  8
cotas
100
AcDbTrace
 10
873.851016659707
 20
244.8805924273571
 30
0.0
 11
873.851016659707
 21
241.5472590940238
 31
0.0
 12
863.851016659707
 22
243.2139257606905
 32
0.0
 13
863.851016659707
 23
243.2139257606905
 33
0.0
  0
SOLID
  5
8B5
330
8B0
100
AcDbEntity
  8
cotas
100
AcDbTrace
 10
918.8951791289682
 20
244.8805924273571
 30
0.0
 11
918.8951791289682
 21
241.5472590940238
 31
0.0
 12
928.8951791289683
 22
243.2139257606905
 32
0.0
 13
928.8951791289683
 23
243.2139257606905
 33
0.0
  0
MTEXT
  5
8B6
330
8B0
100
AcDbEntity
  8
cotas
100
AcDbMText
 10
896.3730978943376
 20
253.4120453040081
 30
0.0
 40
10.0
 41
0.0
 71
     5
 72
     1
  1
65
  7
SANINDUSA
 73
     1
 44
1.0
1001
ACAD
1000
MTEXTBEGIN
1070
    73
1070
     1
1070
    44
1040
1.0
1070
    74
1070
     0
1000
MTEXTEND
  0
POINT
  5
8B7
330
8B0
100
AcDbEntity
  8
Defpoints
 62
     0
100
AcDbPoint
 10
863.851016659707
 20
272.8057840628535
 30
0.0
  0
POINT
  5
8B8
330
8B0
100
AcDbEntity
  8
Defpoints
 62
     0
100
AcDbPoint
 10
928.8951791289683
 20
379.6925461888277
 30
0.0
  0
POINT
  5
8B9
330
8B0
100
AcDbEntity
  8
Defpoints
 62
     0
100
AcDbPoint
 10
928.8951791289683
 20
243.2139257606905
 30
0.0
  0
ENDBLK
  5
8BB
330
8B0
100
AcDbEntity
  8
0
100
AcDbBlockEnd
  0
BLOCK
  5
8C6
330
8BC
100
AcDbEntity
  8
0
100
AcDbBlockBegin
  2
*D74
 70
     1
 10
0.0
 20
0.0
 30
0.0
  3
*D74
  1

  0
LINE
  5
8BD
330
8BC
100
AcDbEntity
  8
cotas
100
AcDbLine
 10
928.8951791289683
 20
374.6925461888277
 30
0.0
 11
928.8951791289683
 21
238.2139257606905
 31
0.0
  0
LINE
  5
8BE
330
8BC
100
AcDbEntity
  8
cotas
100
AcDbLine
 10
1058.895179128968
 20
374.6925461888277
 30
0.0
 11
1058.895179128968
 21
238.2139257606905
 31
0.0
  0
LINE
  5
8BF
330
8BC
100
AcDbEntity
  8
cotas
100
AcDbLine
 10
938.8951791289683
 20
243.2139257606905
 30
0.0
 11
1048.895179128968
 21
243.2139257606905
 31
0.0
  0
SOLID
  5
8C0
330
8BC
100
AcDbEntity
  8
cotas
100
AcDbTrace
 10
938.8951791289683
 20
244.8805924273571
 30
0.0
 11
938.8951791289683
 21
241.5472590940238
 31
0.0
 12
928.8951791289683
 22
243.2139257606905
 32
0.0
 13
928.8951791289683
 23
243.2139257606905
 33
0.0
  0
SOLID
  5
8C1
330
8BC
100
AcDbEntity
  8
cotas
100
AcDbTrace
 10
1048.895179128968
 20
244.8805924273571
 30
0.0
 11
1048.895179128968
 21
241.5472590940238
 31
0.0
 12
1058.895179128968
 22
243.2139257606905
 32
0.0
 13
1058.895179128968
 23
243.2139257606905
 33
0.0
  0
MTEXT
  5
8C2
330
8BC
100
AcDbEntity
  8
cotas
100
AcDbMText
 10
993.8951791289682
 20
253.4221191790921
 30
0.0
 40
10.0
 41
0.0
 71
     5
 72
     1
  1
130
  7
SANINDUSA
 73
     1
 44
1.0
1001
ACAD
1000
MTEXTBEGIN
1070
    73
1070
     1
1070
    44
1040
1.0
1070
    74
1070
     0
1000
MTEXTEND
  0
POINT
  5
8C3
330
8BC
100
AcDbEntity
  8
Defpoints
 62
     0
100
AcDbPoint
 10
928.8951791289683
 20
379.6925461888277
 30
0.0
  0
POINT
  5
8C4
330
8BC
100
AcDbEntity
  8
Defpoints
 62
     0
100
AcDbPoint
 10
1058.895179128968
 20
379.6925461888277
 30
0.0
  0
POINT
  5
8C5
330
8BC
100
AcDbEntity
  8
Defpoints
 62
     0
100
AcDbPoint
 10
1058.895179128968
 20
243.2139257606905
 30
0.0
  0
ENDBLK
  5
8C7
330
8BC
100
AcDbEntity
  8
0
100
AcDbBlockEnd
  0
BLOCK
  5
8D2
330
8C8
100
AcDbEntity
  8
0
100
AcDbBlockBegin
  2
*D75
 70
     1
 10
0.0
 20
0.0
 30
0.0
  3
*D75
  1

  0
LINE
  5
8C9
330
8C8
100
AcDbEntity
  8
cotas
100
AcDbLine
 10
1058.895179128968
 20
374.6925461888277
 30
0.0
 11
1058.895179128968
 21
238.2139257606905
 31
0.0
  0
LINE
  5
8CA
330
8C8
100
AcDbEntity
  8
cotas
100
AcDbLine
 10
1188.895179128968
 20
374.6925461888277
 30
0.0
 11
1188.895179128968
 21
238.2139257606905
 31
0.0
  0
LINE
  5
8CB
330
8C8
100
AcDbEntity
  8
cotas
100
AcDbLine
 10
1068.895179128968
 20
243.2139257606905
 30
0.0
 11
1178.895179128968
 21
243.2139257606905
 31
0.0
  0
SOLID
  5
8CC
330
8C8
100
AcDbEntity
  8
cotas
100
AcDbTrace
 10
1068.895179128968
 20
244.8805924273571
 30
0.0
 11
1068.895179128968
 21
241.5472590940238
 31
0.0
 12
1058.895179128968
 22
243.2139257606905
 32
0.0
 13
1058.895179128968
 23
243.2139257606905
 33
0.0
  0
SOLID
  5
8CD
330
8C8
100
AcDbEntity
  8
cotas
100
AcDbTrace
 10
1178.895179128968
 20
244.8805924273571
 30
0.0
 11
1178.895179128968
 21
241.5472590940238
 31
0.0
 12
1188.895179128968
 22
243.2139257606905
 32
0.0
 13
1188.895179128968
 23
243.2139257606905
 33
0.0
  0
MTEXT
  5
8CE
330
8C8
100
AcDbEntity
  8
cotas
100
AcDbMText
 10
1123.895179128968
 20
253.4221191790921
 30
0.0
 40
10.0
 41
0.0
 71
     5
 72
     1
  1
130
  7
SANINDUSA
 73
     1
 44
1.0
1001
ACAD
1000
MTEXTBEGIN
1070
    73
1070
     1
1070
    44
1040
1.0
1070
    74
1070
     0
1000
MTEXTEND
  0
POINT
  5
8CF
330
8C8
100
AcDbEntity
  8
Defpoints
 62
     0
100
AcDbPoint
 10
1058.895179128968
 20
379.6925461888277
 30
0.0
  0
POINT
  5
8D0
330
8C8
100
AcDbEntity
  8
Defpoints
 62
     0
100
AcDbPoint
 10
1188.895179128968
 20
379.6925461888277
 30
0.0
  0
POINT
  5
8D1
330
8C8
100
AcDbEntity
  8
Defpoints
 62
     0
100
AcDbPoint
 10
1188.895179128968
 20
243.2139257606905
 30
0.0
  0
ENDBLK
  5
8D3
330
8C8
100
AcDbEntity
  8
0
100
AcDbBlockEnd
  0
BLOCK
  5
8DE
330
8D4
100
AcDbEntity
  8
0
100
AcDbBlockBegin
  2
*D76
 70
     1
 10
0.0
 20
0.0
 30
0.0
  3
*D76
  1

  0
LINE
  5
8D5
330
8D4
100
AcDbEntity
  8
cotas
100
AcDbLine
 10
366.1206183740796
 20
268.6180193485951
 30
0.0
 11
366.1206183740796
 21
207.8057840628536
 31
0.0
  0
LINE
  5
8D6
330
8D4
100
AcDbEntity
  8
cotas
100
AcDbLine
 10
406.1206183740796
 20
387.8106573517436
 30
0.0
 11
406.1206183740796
 21
207.8057840628536
 31
0.0
  0
LINE
  5
8D7
330
8D4
100
AcDbEntity
  8
cotas
100
AcDbLine
 10
376.1206183740796
 20
212.8057840628536
 30
0.0
 11
396.1206183740797
 21
212.8057840628536
 31
0.0
  0
SOLID
  5
8D8
330
8D4
100
AcDbEntity
  8
cotas
100
AcDbTrace
 10
376.1206183740796
 20
214.4724507295203
 30
0.0
 11
376.1206183740796
 21
211.139117396187
 31
0.0
 12
366.1206183740796
 22
212.8057840628536
 32
0.0
 13
366.1206183740796
 23
212.8057840628536
 33
0.0
  0
SOLID
  5
8D9
330
8D4
100
AcDbEntity
  8
cotas
100
AcDbTrace
 10
396.1206183740797
 20
214.4724507295203
 30
0.0
 11
396.1206183740797
 21
211.139117396187
 31
0.0
 12
406.1206183740796
 22
212.8057840628536
 32
0.0
 13
406.1206183740796
 23
212.8057840628536
 33
0.0
  0
MTEXT
  5
8DA
330
8D4
100
AcDbEntity
  8
cotas
100
AcDbMText
 10
386.1206183740796
 20
223.0106195228939
 30
0.0
 40
10.0
 41
0.0
 71
     5
 72
     1
  1
40
  7
SANINDUSA
 73
     1
 44
1.0
1001
ACAD
1000
MTEXTBEGIN
1070
    73
1070
     1
1070
    44
1040
1.0
1070
    74
1070
     0
1000
MTEXTEND
  0
POINT
  5
8DB
330
8D4
100
AcDbEntity
  8
Defpoints
 62
     0
100
AcDbPoint
 10
366.1206183740796
 20
273.6180193485951
 30
0.0
  0
POINT
  5
8DC
330
8D4
100
AcDbEntity
  8
Defpoints
 62
     0
100
AcDbPoint
 10
406.1206183740796
 20
392.8106573517437
 30
0.0
  0
POINT
  5
8DD
330
8D4
100
AcDbEntity
  8
Defpoints
 62
     0
100
AcDbPoint
 10
406.1206183740796
 20
212.8057840628536
 30
0.0
  0
ENDBLK
  5
8DF
330
8D4
100
AcDbEntity
  8
0
100
AcDbBlockEnd
  0
BLOCK
  5
8EA
330
8E0
100
AcDbEntity
  8
0
100
AcDbBlockBegin
  2
*D77
 70
     1
 10
0.0
 20
0.0
 30
0.0
  3
*D77
  1

  0
LINE
  5
8E1
330
8E0
100
AcDbEntity
  8
cotas
100
AcDbLine
 10
406.1206183740796
 20
387.8106573517436
 30
0.0
 11
406.1206183740796
 21
207.8057840628536
 31
0.0
  0
LINE
  5
8E2
330
8E0
100
AcDbEntity
  8
cotas
100
AcDbLine
 10
1321.581414997752
 20
387.8057840628536
 30
0.0
 11
1321.581414997752
 21
207.8057840628536
 31
0.0
  0
LINE
  5
8E3
330
8E0
100
AcDbEntity
  8
cotas
100
AcDbLine
 10
416.1206183740796
 20
212.8057840628536
 30
0.0
 11
1311.581414997753
 21
212.8057840628536
 31
0.0
  0
SOLID
  5
8E4
330
8E0
100
AcDbEntity
  8
cotas
100
AcDbTrace
 10
416.1206183740796
 20
214.4724507295203
 30
0.0
 11
416.1206183740796
 21
211.139117396187
 31
0.0
 12
406.1206183740796
 22
212.8057840628536
 32
0.0
 13
406.1206183740796
 23
212.8057840628536
 33
0.0
  0
SOLID
  5
8E5
330
8E0
100
AcDbEntity
  8
cotas
100
AcDbTrace
 10
1311.581414997753
 20
214.4724507295203
 30
0.0
 11
1311.581414997753
 21
211.139117396187
 31
0.0
 12
1321.581414997752
 22
212.8057840628536
 32
0.0
 13
1321.581414997752
 23
212.8057840628536
 33
0.0
  0
MTEXT
  5
8E6
330
8E0
100
AcDbEntity
  8
cotas
100
AcDbMText
 10
863.8510166859161
 20
224.1489674073801
 30
0.0
 40
10.0
 41
0.0
 71
     5
 72
     1
  1
915,5
  7
SANINDUSA
 73
     1
 44
1.0
1001
ACAD
1000
MTEXTBEGIN
1070
    73
1070
     1
1070
    44
1040
1.0
1070
    74
1070
     0
1000
MTEXTEND
  0
POINT
  5
8E7
330
8E0
100
AcDbEntity
  8
Defpoints
 62
     0
100
AcDbPoint
 10
406.1206183740796
 20
392.8106573517437
 30
0.0
  0
POINT
  5
8E8
330
8E0
100
AcDbEntity
  8
Defpoints
 62
     0
100
AcDbPoint
 10
1321.581414997752
 20
392.8057840628536
 30
0.0
  0
POINT
  5
8E9
330
8E0
100
AcDbEntity
  8
Defpoints
 62
     0
100
AcDbPoint
 10
1321.581414997752
 20
212.8057840628536
 30
0.0
  0
ENDBLK
  5
8EB
330
8E0
100
AcDbEntity
  8
0
100
AcDbBlockEnd
  0
BLOCK
  5
8F6
330
8EC
100
AcDbEntity
  8
0
100
AcDbBlockBegin
  2
*D78
 70
     1
 10
0.0
 20
0.0
 30
0.0
  3
*D78
  1

  0
LINE
  5
8ED
330
8EC
100
AcDbEntity
  8
cotas
100
AcDbLine
 10
1321.581414997752
 20
387.8105699443299
 30
0.0
 11
1321.581414997752
 21
207.8057840628536
 31
0.0
  0
LINE
  5
8EE
330
8EC
100
AcDbEntity
  8
cotas
100
AcDbLine
 10
1361.581414997752
 20
268.6180193827774
 30
0.0
 11
1361.581414997752
 21
207.8057840628536
 31
0.0
  0
LINE
  5
8EF
330
8EC
100
AcDbEntity
  8
cotas
100
AcDbLine
 10
1331.581414997752
 20
212.8057840628536
 30
0.0
 11
1351.581414997753
 21
212.8057840628536
 31
0.0
  0
SOLID
  5
8F0
330
8EC
100
AcDbEntity
  8
cotas
100
AcDbTrace
 10
1331.581414997752
 20
214.4724507295203
 30
0.0
 11
1331.581414997752
 21
211.139117396187
 31
0.0
 12
1321.581414997752
 22
212.8057840628536
 32
0.0
 13
1321.581414997752
 23
212.8057840628536
 33
0.0
  0
SOLID
  5
8F1
330
8EC
100
AcDbEntity
  8
cotas
100
AcDbTrace
 10
1351.581414997753
 20
214.4724507295203
 30
0.0
 11
1351.581414997753
 21
211.139117396187
 31
0.0
 12
1361.581414997752
 22
212.8057840628536
 32
0.0
 13
1361.581414997752
 23
212.8057840628536
 33
0.0
  0
MTEXT
  5
8F2
330
8EC
100
AcDbEntity
  8
cotas
100
AcDbMText
 10
1341.581414997753
 20
223.0106195228939
 30
0.0
 40
10.0
 41
0.0
 71
     5
 72
     1
  1
40
  7
SANINDUSA
 73
     1
 44
1.0
1001
ACAD
1000
MTEXTBEGIN
1070
    73
1070
     1
1070
    44
1040
1.0
1070
    74
1070
     0
1000
MTEXTEND
  0
POINT
  5
8F3
330
8EC
100
AcDbEntity
  8
Defpoints
 62
     0
100
AcDbPoint
 10
1321.581414997752
 20
392.8105699443299
 30
0.0
  0
POINT
  5
8F4
330
8EC
100
AcDbEntity
  8
Defpoints
 62
     0
100
AcDbPoint
 10
1361.581414997752
 20
273.6180193827774
 30
0.0
  0
POINT
  5
8F5
330
8EC
100
AcDbEntity
  8
Defpoints
 62
     0
100
AcDbPoint
 10
1361.581414997752
 20
212.8057840628536
 30
0.0
  0
ENDBLK
  5
8F7
330
8EC
100
AcDbEntity
  8
0
100
AcDbBlockEnd
  0
BLOCK
  5
902
330
8F8
100
AcDbEntity
  8
0
100
AcDbBlockBegin
  2
*D79
 70
     1
 10
0.0
 20
0.0
 30
0.0
  3
*D79
  1

  0
LINE
  5
8F9
330
8F8
100
AcDbEntity
  8
cotas
100
AcDbLine
 10
1246.581414997752
 20
312.8057840628536
 30
0.0
 11
1398.851016659707
 21
312.8057840628536
 31
0.0
  0
LINE
  5
8FA
330
8F8
100
AcDbEntity
  8
cotas
100
AcDbLine
 10
1363.847981591195
 20
272.8057840628535
 30
0.0
 11
1398.851016659707
 21
272.8057840628535
 31
0.0
  0
LINE
  5
8FB
330
8F8
100
AcDbEntity
  8
cotas
100
AcDbLine
 10
1393.851016659706
 20
302.8057840628536
 30
0.0
 11
1393.851016659706
 21
282.8057840628535
 31
0.0
  0
SOLID
  5
8FC
330
8F8
100
AcDbEntity
  8
cotas
100
AcDbTrace
 10
1392.18434999304
 20
302.8057840628536
 30
0.0
 11
1395.517683326373
 21
302.8057840628536
 31
0.0
 12
1393.851016659706
 22
312.8057840628536
 32
0.0
 13
1393.851016659706
 23
312.8057840628536
 33
0.0
  0
SOLID
  5
8FD
330
8F8
100
AcDbEntity
  8
cotas
100
AcDbTrace
 10
1392.18434999304
 20
282.8057840628535
 30
0.0
 11
1395.517683326373
 21
282.8057840628535
 31
0.0
 12
1393.851016659706
 22
272.8057840628535
 32
0.0
 13
1393.851016659706
 23
272.8057840628535
 33
0.0
  0
MTEXT
  5
8FE
330
8F8
100
AcDbEntity
  8
cotas
100
AcDbMText
 10
1383.646181199666
 20
292.8057840628538
 30
0.0
 40
10.0
 41
0.0
 71
     5
 72
     1
  1
40
  7
SANINDUSA
 11
0.0000000000000001
 21
1.0
 31
0.0
 73
     1
 44
1.0
1001
ACAD
1000
MTEXTBEGIN
1070
    73
1070
     1
1070
    44
1040
1.0
1070
    74
1070
     0
1000
MTEXTEND
  0
POINT
  5
8FF
330
8F8
100
AcDbEntity
  8
Defpoints
 62
     0
100
AcDbPoint
 10
1241.581414997753
 20
312.8057840628536
 30
0.0
  0
POINT
  5
900
330
8F8
100
AcDbEntity
  8
Defpoints
 62
     0
100
AcDbPoint
 10
1358.847981591195
 20
272.8057840628535
 30
0.0
  0
POINT
  5
901
330
8F8
100
AcDbEntity
  8
Defpoints
 62
     0
100
AcDbPoint
 10
1393.851016659706
 20
272.8057840628535
 30
0.0
  0
ENDBLK
  5
903
330
8F8
100
AcDbEntity
  8
0
100
AcDbBlockEnd
  0
BLOCK
  5
90E
330
904
100
AcDbEntity
  8
0
100
AcDbBlockBegin
  2
*D80
 70
     1
 10
0.0
 20
0.0
 30
0.0
  3
*D80
  1

  0
LINE
  5
905
330
904
100
AcDbEntity
  8
cotas
100
AcDbLine
 10
1246.576225073359
 20
312.8057840628536
 30
0.0
 11
1398.851016659707
 21
312.8057840628536
 31
0.0
  0
LINE
  5
906
330
904
100
AcDbEntity
  8
cotas
100
AcDbLine
 10
1246.581414997752
 20
980.5362840628497
 30
0.0
 11
1398.851016659707
 21
980.5362840628497
 31
0.0
  0
LINE
  5
907
330
904
100
AcDbEntity
  8
cotas
100
AcDbLine
 10
1393.851016659707
 20
322.8057840628536
 30
0.0
 11
1393.851016659707
 21
970.5362840628495
 31
0.0
  0
SOLID
  5
908
330
904
100
AcDbEntity
  8
cotas
100
AcDbTrace
 10
1392.18434999304
 20
322.8057840628536
 30
0.0
 11
1395.517683326373
 21
322.8057840628536
 31
0.0
 12
1393.851016659707
 22
312.8057840628536
 32
0.0
 13
1393.851016659707
 23
312.8057840628536
 33
0.0
  0
SOLID
  5
909
330
904
100
AcDbEntity
  8
cotas
100
AcDbTrace
 10
1392.18434999304
 20
970.5362840628495
 30
0.0
 11
1395.517683326374
 21
970.5362840628495
 31
0.0
 12
1393.851016659707
 22
980.5362840628497
 32
0.0
 13
1393.851016659707
 23
980.5362840628497
 33
0.0
  0
MTEXT
  5
90A
330
904
100
AcDbEntity
  8
cotas
100
AcDbMText
 10
1382.514549231903
 20
646.6710340628518
 30
0.0
 40
10.0
 41
0.0
 71
     5
 72
     1
  1
667,7
  7
SANINDUSA
 11
0.0000000000000001
 21
1.0
 31
0.0
 73
     1
 44
1.0
1001
ACAD
1000
MTEXTBEGIN
1070
    73
1070
     1
1070
    44
1040
1.0
1070
    74
1070
     0
1000
MTEXTEND
  0
POINT
  5
90B
330
904
100
AcDbEntity
  8
Defpoints
 62
     0
100
AcDbPoint
 10
1241.576225073359
 20
312.8057840628536
 30
0.0
  0
POINT
  5
90C
330
904
100
AcDbEntity
  8
Defpoints
 62
     0
100
AcDbPoint
 10
1241.581414997753
 20
980.5362840628497
 30
0.0
  0
POINT
  5
90D
330
904
100
AcDbEntity
  8
Defpoints
 62
     0
100
AcDbPoint
 10
1393.851016659707
 20
980.5362840628497
 30
0.0
  0
ENDBLK
  5
90F
330
904
100
AcDbEntity
  8
0
100
AcDbBlockEnd
  0
BLOCK
  5
91A
330
910
100
AcDbEntity
  8
0
100
AcDbBlockBegin
  2
*D81
 70
     1
 10
0.0
 20
0.0
 30
0.0
  3
*D81
  1

  0
LINE
  5
911
330
910
100
AcDbEntity
  8
cotas
100
AcDbLine
 10
1246.581414997752
 20
980.5362840628497
 30
0.0
 11
1398.851016659707
 21
980.5362840628497
 31
0.0
  0
LINE
  5
912
330
910
100
AcDbEntity
  8
cotas
100
AcDbLine
 10
1361.581414997752
 20
1020.53628406285
 30
0.0
 11
1398.851016659707
 21
1020.53628406285
 31
0.0
  0
LINE
  5
913
330
910
100
AcDbEntity
  8
cotas
100
AcDbLine
 10
1393.851016659707
 20
990.5362840628496
 30
0.0
 11
1393.851016659707
 21
1010.53628406285
 31
0.0
  0
SOLID
  5
914
330
910
100
AcDbEntity
  8
cotas
100
AcDbTrace
 10
1392.18434999304
 20
990.5362840628496
 30
0.0
 11
1395.517683326374
 21
990.5362840628496
 31
0.0
 12
1393.851016659707
 22
980.5362840628497
 32
0.0
 13
1393.851016659707
 23
980.5362840628497
 33
0.0
  0
SOLID
  5
915
330
910
100
AcDbEntity
  8
cotas
100
AcDbTrace
 10
1392.18434999304
 20
1010.53628406285
 30
0.0
 11
1395.517683326374
 21
1010.53628406285
 31
0.0
 12
1393.851016659707
 22
1020.53628406285
 32
0.0
 13
1393.851016659707
 23
1020.53628406285
 33
0.0
  0
MTEXT
  5
916
330
910
100
AcDbEntity
  8
cotas
100
AcDbMText
 10
1383.646181199666
 20
1000.53628406285
 30
0.0
 40
10.0
 41
0.0
 71
     5
 72
     1
  1
40
  7
SANINDUSA
 11
0.0000000000000001
 21
1.0
 31
0.0
 73
     1
 44
1.0
1001
ACAD
1000
MTEXTBEGIN
1070
    73
1070
     1
1070
    44
1040
1.0
1070
    74
1070
     0
1000
MTEXTEND
  0
POINT
  5
917
330
910
100
AcDbEntity
  8
Defpoints
 62
     0
100
AcDbPoint
 10
1241.581414997753
 20
980.5362840628497
 30
0.0
  0
POINT
  5
918
330
910
100
AcDbEntity
  8
Defpoints
 62
     0
100
AcDbPoint
 10
1356.581414997752
 20
1020.53628406285
 30
0.0
  0
POINT
  5
919
330
910
100
AcDbEntity
  8
Defpoints
 62
     0
100
AcDbPoint
 10
1393.851016659707
 20
1020.53628406285
 30
0.0
  0
ENDBLK
  5
91B
330
910
100
AcDbEntity
  8
0
100
AcDbBlockEnd
  0
BLOCK
  5
928
330
91C
100
AcDbEntity
  8
0
100
AcDbBlockBegin
  2
*D82
 70
     1
 10
0.0
 20
0.0
 30
0.0
  3
*D82
  1

  0
LINE
  5
91D
330
91C
100
AcDbEntity
  8
cotas
100
AcDbLine
 10
1361.581414997752
 20
1020.53628406285
 30
0.0
 11
1361.581414997752
 21
1057.80578406285
 31
0.0
  0
LINE
  5
91E
330
91C
100
AcDbEntity
  8
cotas
100
AcDbLine
 10
1363.851016659697
 20
1022.808829927759
 30
0.0
 11
1363.851016659697
 21
1057.80578406285
 31
0.0
  0
LINE
  5
91F
330
91C
100
AcDbEntity
  8
cotas
100
AcDbLine
 10
1351.581414997752
 20
1052.80578406285
 30
0.0
 11
1341.581414997752
 21
1052.80578406285
 31
0.0
  0
LINE
  5
920
330
91C
100
AcDbEntity
  8
cotas
100
AcDbLine
 10
1373.851016659697
 20
1052.80578406285
 30
0.0
 11
1414.227107996164
 21
1052.80578406285
 31
0.0
  0
LINE
  5
921
330
91C
100
AcDbEntity
  8
cotas
100
AcDbLine
 10
1361.581414997752
 20
1052.80578406285
 30
0.0
 11
1363.851016659697
 21
1052.80578406285
 31
0.0
  0
SOLID
  5
922
330
91C
100
AcDbEntity
  8
cotas
100
AcDbTrace
 10
1351.581414997752
 20
1054.472450729516
 30
0.0
 11
1351.581414997752
 21
1051.139117396183
 31
0.0
 12
1361.581414997752
 22
1052.80578406285
 32
0.0
 13
1361.581414997752
 23
1052.80578406285
 33
0.0
  0
SOLID
  5
923
330
91C
100
AcDbEntity
  8
cotas
100
AcDbTrace
 10
1373.851016659697
 20
1054.472450729516
 30
0.0
 11
1373.851016659697
 21
1051.139117396183
 31
0.0
 12
1363.851016659697
 22
1052.80578406285
 32
0.0
 13
1363.851016659697
 23
1052.80578406285
 33
0.0
  0
MTEXT
  5
924
330
91C
100
AcDbEntity
  8
cotas
100
AcDbMText
 10
1399.039062327931
 20
1064.152325365737
 30
0.0
 40
10.0
 41
0.0
 71
     5
 72
     1
  1
2,3
  7
SANINDUSA
 73
     1
 44
1.0
1001
ACAD
1000
MTEXTBEGIN
1070
    73
1070
     1
1070
    44
1040
1.0
1070
    74
1070
     0
1000
MTEXTEND
  0
POINT
  5
925
330
91C
100
AcDbEntity
  8
Defpoints
 62
     0
100
AcDbPoint
 10
1361.581414997752
 20
1015.536284062849
 30
0.0
  0
POINT
  5
926
330
91C
100
AcDbEntity
  8
Defpoints
 62
     0
100
AcDbPoint
 10
1363.851016659697
 20
1017.808829927759
 30
0.0000000000002011
  0
POINT
  5
927
330
91C
100
AcDbEntity
  8
Defpoints
 62
     0
100
AcDbPoint
 10
1363.851016659697
 20
1052.80578406285
 30
0.0
  0
ENDBLK
  5
929
330
91C
100
AcDbEntity
  8
0
100
AcDbBlockEnd
  0
BLOCK
  5
93F
330
933
100
AcDbEntity
  8
0
100
AcDbBlockBegin
  2
*D83
 70
     1
 10
0.0
 20
0.0
 30
0.0
  3
*D83
  1

  0
LINE
  5
934
330
933
100
AcDbEntity
  8
cotas
100
AcDbLine
 10
366.1206183740796
 20
1020.53628406285
 30
0.0
 11
366.1206183740796
 21
1057.80578406285
 31
0.0
  0
LINE
  5
935
330
933
100
AcDbEntity
  8
cotas
100
AcDbLine
 10
363.8510166597025
 20
1022.808829927758
 30
0.0
 11
363.8510166597025
 21
1057.80578406285
 31
0.0
  0
LINE
  5
936
330
933
100
AcDbEntity
  8
cotas
100
AcDbLine
 10
376.1206183740796
 20
1052.80578406285
 30
0.0
 11
386.1206183740796
 21
1052.80578406285
 31
0.0
  0
LINE
  5
937
330
933
100
AcDbEntity
  8
cotas
100
AcDbLine
 10
353.8510166597025
 20
1052.80578406285
 30
0.0
 11
313.4749253232351
 21
1052.80578406285
 31
0.0
  0
LINE
  5
938
330
933
100
AcDbEntity
  8
cotas
100
AcDbLine
 10
366.1206183740796
 20
1052.80578406285
 30
0.0
 11
363.8510166597025
 21
1052.80578406285
 31
0.0
  0
SOLID
  5
939
330
933
100
AcDbEntity
  8
cotas
100
AcDbTrace
 10
376.1206183740796
 20
1054.472450729516
 30
0.0
 11
376.1206183740796
 21
1051.139117396183
 31
0.0
 12
366.1206183740796
 22
1052.80578406285
 32
0.0
 13
366.1206183740796
 23
1052.80578406285
 33
0.0
  0
SOLID
  5
93A
330
933
100
AcDbEntity
  8
cotas
100
AcDbTrace
 10
353.8510166597025
 20
1054.472450729516
 30
0.0
 11
353.8510166597025
 21
1051.139117396183
 31
0.0
 12
363.8510166597025
 22
1052.80578406285
 32
0.0
 13
363.8510166597025
 23
1052.80578406285
 33
0.0
  0
MTEXT
  5
93B
330
933
100
AcDbEntity
  8
cotas
100
AcDbMText
 10
328.6629709914688
 20
1064.152325365737
 30
0.0
 40
10.0
 41
0.0
 71
     5
 72
     1
  1
2,3
  7
SANINDUSA
 73
     1
 44
1.0
1001
ACAD
1000
MTEXTBEGIN
1070
    73
1070
     1
1070
    44
1040
1.0
1070
    74
1070
     0
1000
MTEXTEND
  0
POINT
  5
93C
330
933
100
AcDbEntity
  8
Defpoints
 62
     0
100
AcDbPoint
 10
366.1206183740796
 20
1015.536284062849
 30
0.0
  0
POINT
  5
93D
330
933
100
AcDbEntity
  8
Defpoints
 62
     0
100
AcDbPoint
 10
363.8510166597025
 20
1017.808829927759
 30
0.0000000000002011
  0
POINT
  5
93E
330
933
100
AcDbEntity
  8
Defpoints
 62
     0
100
AcDbPoint
 10
363.8510166597025
 20
1052.80578406285
 30
0.0
  0
ENDBLK
  5
940
330
933
100
AcDbEntity
  8
0
100
AcDbBlockEnd
  0
BLOCK
  5
954
330
94A
100
AcDbEntity
  8
0
100
AcDbBlockBegin
  2
*D84
 70
     1
 10
0.0
 20
0.0
 30
0.0
  3
*D84
  1

  0
LINE
  5
94B
330
94A
100
AcDbEntity
  8
cotas
100
AcDbLine
 10
1810.714785780297
 20
1466.799453924911
 30
0.0
 11
1810.714785780297
 21
1496.799453924911
 31
0.0
  0
LINE
  5
94C
330
94A
100
AcDbEntity
  8
cotas
100
AcDbLine
 10
2558.445257904848
 20
1466.801569417339
 30
0.0
 11
2558.445257904848
 21
1496.799453924911
 31
0.0
  0
LINE
  5
94D
330
94A
100
AcDbEntity
  8
cotas
100
AcDbLine
 10
1820.714785780297
 20
1491.799453924911
 30
0.0
 11
2548.445257904848
 21
1491.799453924911
 31
0.0
  0
SOLID
  5
94E
330
94A
100
AcDbEntity
  8
cotas
100
AcDbTrace
 10
1820.714785780297
 20
1493.466120591578
 30
0.0
 11
1820.714785780297
 21
1490.132787258244
 31
0.0
 12
1810.714785780297
 22
1491.799453924911
 32
0.0
 13
1810.714785780297
 23
1491.799453924911
 33
0.0
  0
SOLID
  5
94F
330
94A
100
AcDbEntity
  8
cotas
100
AcDbTrace
 10
2548.445257904848
 20
1493.466120591578
 30
0.0
 11
2548.445257904848
 21
1490.132787258244
 31
0.0
 12
2558.445257904848
 22
1491.799453924911
 32
0.0
 13
2558.445257904848
 23
1491.799453924911
 33
0.0
  0
MTEXT
  5
950
330
94A
100
AcDbEntity
  8
cotas
100
AcDbMText
 10
2184.580021842573
 20
1503.041898518598
 30
0.0
 40
10.0
 41
0.0
 71
     5
 72
     1
  1
747,7
  7
SANINDUSA
 73
     1
 44
1.0
1001
ACAD
1000
MTEXTBEGIN
1070
    73
1070
     1
1070
    44
1040
1.0
1070
    74
1070
     0
1000
MTEXTEND
  0
POINT
  5
951
330
94A
100
AcDbEntity
  8
Defpoints
 62
     0
100
AcDbPoint
 10
1810.714785780297
 20
1461.799453924911
 30
0.0
  0
POINT
  5
952
330
94A
100
AcDbEntity
  8
Defpoints
 62
     0
100
AcDbPoint
 10
2558.445257904848
 20
1461.801569417339
 30
0.0
  0
POINT
  5
953
330
94A
100
AcDbEntity
  8
Defpoints
 62
     0
100
AcDbPoint
 10
2558.445257904848
 20
1491.799453924911
 30
0.0
  0
ENDBLK
  5
955
330
94A
100
AcDbEntity
  8
0
100
AcDbBlockEnd
  0
BLOCK
  5
960
330
956
100
AcDbEntity
  8
0
100
AcDbBlockBegin
  2
*D85
 70
     1
 10
0.0
 20
0.0
 30
0.0
  3
*D85
  1

  0
LINE
  5
957
330
956
100
AcDbEntity
  8
cotas
100
AcDbLine
 10
2558.445257904848
 20
1466.801569417339
 30
0.0
 11
2558.445257904848
 21
1526.799453924911
 31
0.0
  0
LINE
  5
958
330
956
100
AcDbEntity
  8
cotas
100
AcDbLine
 10
1808.445257904847
 20
1401.80867852869
 30
0.0
 11
1808.445257904847
 21
1526.799453924911
 31
0.0
  0
LINE
  5
959
330
956
100
AcDbEntity
  8
cotas
100
AcDbLine
 10
2548.445257904848
 20
1521.799453924911
 30
0.0
 11
1818.445257904847
 21
1521.799453924911
 31
0.0
  0
SOLID
  5
95A
330
956
100
AcDbEntity
  8
cotas
100
AcDbTrace
 10
2548.445257904848
 20
1523.466120591578
 30
0.0
 11
2548.445257904848
 21
1520.132787258244
 31
0.0
 12
2558.445257904848
 22
1521.799453924911
 32
0.0
 13
2558.445257904848
 23
1521.799453924911
 33
0.0
  0
SOLID
  5
95B
330
956
100
AcDbEntity
  8
cotas
100
AcDbTrace
 10
1818.445257904847
 20
1523.466120591578
 30
0.0
 11
1818.445257904847
 21
1520.132787258244
 31
0.0
 12
1808.445257904847
 22
1521.799453924911
 32
0.0
 13
1808.445257904847
 23
1521.799453924911
 33
0.0
  0
MTEXT
  5
95C
330
956
100
AcDbEntity
  8
cotas
100
AcDbMText
 10
2183.445257904848
 20
1532.004289384951
 30
0.0
 40
10.0
 41
0.0
 71
     5
 72
     1
  1
750
  7
SANINDUSA
 73
     1
 44
1.0
1001
ACAD
1000
MTEXTBEGIN
1070
    73
1070
     1
1070
    44
1040
1.0
1070
    74
1070
     0
1000
MTEXTEND
  0
POINT
  5
95D
330
956
100
AcDbEntity
  8
Defpoints
 62
     0
100
AcDbPoint
 10
2558.445257904848
 20
1461.801569417339
 30
0.0
  0
POINT
  5
95E
330
956
100
AcDbEntity
  8
Defpoints
 62
     0
100
AcDbPoint
 10
1808.445257904847
 20
1396.80867852869
 30
0.0
  0
POINT
  5
95F
330
956
100
AcDbEntity
  8
Defpoints
 62
     0
100
AcDbPoint
 10
1808.445257904847
 20
1521.799453924911
 30
0.0
  0
ENDBLK
  5
961
330
956
100
AcDbEntity
  8
0
100
AcDbBlockEnd
  0
BLOCK
  5
977
330
96D
100
AcDbEntity
  8
0
100
AcDbBlockBegin
  2
*D86
 70
     1
 10
0.0
 20
0.0
 30
0.0
  3
*D86
  1

  0
ARC
  5
96E
330
96D
100
AcDbEntity
  8
cotas
100
AcDbCircle
 10
1808.445257904848
 20
1396.808678528691
 30
0.0
 40
50.67479182558937
100
AcDbArc
 50
11.3249909492396
 51
76.67500906066722
  0
SOLID
  5
96F
330
96D
100
AcDbEntity
  8
cotas
100
AcDbTrace
 10
1859.791899803461
 20
1406.924329533799
 30
0.0
 11
1856.474831905964
 21
1406.595434908558
 31
0.0
 12
1859.120049730437
 22
1396.80867852869
 32
0.0
 13
1859.120049730437
 23
1396.80867852869
 33
0.0
  0
SOLID
  5
970
330
96D
100
AcDbEntity
  8
cotas
100
AcDbTrace
 10
1819.902260408392
 20
1444.467441341015
 30
0.0
 11
1820.346718679493
 21
1447.77101031356
 31
0.0
 12
1810.213782626308
 22
1447.452600640593
 32
0.0
 13
1810.213782626308
 23
1447.452600640593
 33
0.0
  0
MTEXT
  5
971
330
96D
100
AcDbEntity
  8
cotas
100
AcDbMText
 10
1853.066917829789
 20
1439.899314638921
 30
0.0
 40
10.0
 41
0.0
 71
     5
 72
     1
  1
88,0°
  7
SANINDUSA
 11
0.6946583705211867
 21
-0.7193398002785957
 31
0.0
 73
     1
 44
1.0
1001
ACAD
1000
MTEXTBEGIN
1070
    73
1070
     1
1070
    44
1040
1.0
1070
    74
1070
     0
1000
MTEXTEND
  0
POINT
  5
972
330
96D
100
AcDbEntity
  8
Defpoints
 62
     0
100
AcDbPoint
 10
1852.622751584294
 20
1421.633738020448
 30
0.0
  0
POINT
  5
973
330
96D
100
AcDbEntity
  8
Defpoints
 62
     0
100
AcDbPoint
 10
1808.445257904848
 20
1396.808678528691
 30
0.0
  0
POINT
  5
974
330
96D
100
AcDbEntity
  8
Defpoints
 62
     0
100
AcDbPoint
 10
1813.442211902609
 20
1396.80867852869
 30
0.0
  0
POINT
  5
975
330
96D
100
AcDbEntity
  8
Defpoints
 62
     0
100
AcDbPoint
 10
2553.445262673219
 20
1396.80867852869
 30
0.0
  0
POINT
  5
976
330
96D
100
AcDbEntity
  8
Defpoints
 62
     0
100
AcDbPoint
 10
1810.546308653416
 20
1456.974900223225
 30
0.0
  0
ENDBLK
  5
978
330
96D
100
AcDbEntity
  8
0
100
AcDbBlockEnd
  0
BLOCK
  5
983
330
979
100
AcDbEntity
  8
0
100
AcDbBlockBegin
  2
*D87
 70
     1
 10
0.0
 20
0.0
 30
0.0
  3
*D87
  1

  0
ARC
  5
97A
330
979
100
AcDbEntity
  8
cotas
100
AcDbCircle
 10
2558.445257904848
 20
1396.80867852869
 30
0.0
 40
49.08295971313783
100
AcDbArc
 50
101.6935368307373
 51
168.3064631692627
  0
SOLID
  5
97B
330
979
100
AcDbEntity
  8
cotas
100
AcDbTrace
 10
2548.327498436545
 20
1446.530951247594
 30
0.0
 11
2548.667059595124
 21
1443.21495828459
 31
0.0
 12
2558.445257904848
 22
1445.891638241828
 32
0.0
 13
2558.445257904848
 23
1445.891638241828
 33
0.0
  0
SOLID
  5
97C
330
979
100
AcDbEntity
  8
cotas
100
AcDbTrace
 10
2512.038978148949
 20
1406.586876838414
 30
0.0
 11
2508.722985185944
 21
1406.926437996993
 31
0.0
 12
2509.36229819171
 22
1396.80867852869
 32
0.0
 13
2509.36229819171
 23
1396.80867852869
 33
0.0
  0
MTEXT
  5
97D
330
979
100
AcDbEntity
  8
cotas
100
AcDbMText
 10
2515.717522387826
 20
1439.536414045713
 30
0.0
 40
10.0
 41
0.0
 71
     5
 72
     1
  1
90,0°
  7
SANINDUSA
 11
0.7071067811865476
 21
0.7071067811865475
 31
0.0
 73
     1
 44
1.0
1001
ACAD
1000
MTEXTBEGIN
1070
    73
1070
     1
1070
    44
1040
1.0
1070
    74
1070
     0
1000
MTEXTEND
  0
POINT
  5
97E
330
979
100
AcDbEntity
  8
Defpoints
 62
     0
100
AcDbPoint
 10
2533.903778048279
 20
1439.315768533196
 30
0.0
  0
POINT
  5
97F
330
979
100
AcDbEntity
  8
Defpoints
 62
     0
100
AcDbPoint
 10
1813.442211902608
 20
1396.808678528691
 30
0.0
  0
POINT
  5
980
330
979
100
AcDbEntity
  8
Defpoints
 62
     0
100
AcDbPoint
 10
2558.445257904848
 20
1456.80157119634
 30
0.0
  0
POINT
  5
981
330
979
100
AcDbEntity
  8
Defpoints
 62
     0
100
AcDbPoint
 10
2558.445257904848
 20
1396.80867852869
 30
0.0
  0
POINT
  5
982
330
979
100
AcDbEntity
  8
Defpoints
 62
     0
100
AcDbPoint
 10
2553.445262673219
 20
1396.80867852869
 30
0.0
  0
ENDBLK
  5
984
330
979
100
AcDbEntity
  8
0
100
AcDbBlockEnd
  0
BLOCK
  5
98C
330
985
100
AcDbEntity
  8
0
100
AcDbBlockBegin
  2
*D88
 70
     1
 10
0.0
 20
0.0
 30
0.0
  3
*D88
  1

  0
LINE
  5
A46
330
985
100
AcDbEntity
  8
cotas
100
AcDbLine
 10
2591.685698788006
 20
1490.531498915448
 30
0.0
 11
2564.694513598195
 21
1466.723957126204
 31
0.0
  0
MTEXT
  5
A47
330
985
100
AcDbEntity
  8
cotas
100
AcDbMText
 10
2575.256068266602
 20
1489.512772428395
 30
0.0
 40
10.0
 41
0.0
 71
     5
 72
     1
  1
R5
  7
SANINDUSA
 11
0.7499510122714808
 21
0.6614933704830165
 31
0.0
 73
     1
 44
1.0
1001
ACAD
1000
MTEXTBEGIN
1070
    73
1070
     1
1070
    44
1040
1.0
1070
    74
1070
     0
1000
MTEXTEND
  0
LINE
  5
A48
330
985
100
AcDbEntity
  8
cotas
100
AcDbLine
 10
2553.445219948927
 20
1456.801531461268
 30
0.0
 11
2557.19500347548
 21
1460.109023421373
 31
0.0
  0
SOLID
  5
A49
330
985
100
AcDbEntity
  8
cotas
100
AcDbTrace
 10
2563.59202464739
 20
1467.973875479989
 30
0.0
 11
2565.797002549
 21
1465.474038772418
 31
0.0
 12
2557.19500347548
 22
1460.109023421373
 32
0.0
 13
2557.19500347548
 23
1460.109023421373
 33
0.0
  0
POINT
  5
A4A
330
985
100
AcDbEntity
  8
Defpoints
 62
     0
100
AcDbPoint
 10
2557.19500347548
 20
1460.109023421373
 30
0.0
  0
POINT
  5
A4B
330
985
100
AcDbEntity
  8
Defpoints
 62
     0
100
AcDbPoint
 10
2553.445219948927
 20
1456.801531461268
 30
0.0
  0
ENDBLK
  5
98D
330
985
100
AcDbEntity
  8
0
100
AcDbBlockEnd
  0
BLOCK
  5
998
330
98E
100
AcDbEntity
  8
0
100
AcDbBlockBegin
  2
*D89
 70
     1
 10
0.0
 20
0.0
 30
0.0
  3
*D89
  1

  0
LINE
  5
98F
330
98E
100
AcDbEntity
  8
cotas
100
AcDbLine
 10
2838.977071552949
 20
1466.803453910711
 30
0.0
 11
2838.977071552949
 21
1496.803453910711
 31
0.0
  0
LINE
  5
990
330
98E
100
AcDbEntity
  8
cotas
100
AcDbLine
 10
2878.972925110277
 20
1465.195238693794
 30
0.0
 11
2878.972925110277
 21
1496.803453910711
 31
0.0
  0
LINE
  5
991
330
98E
100
AcDbEntity
  8
cotas
100
AcDbLine
 10
2848.977071552948
 20
1491.803453910711
 30
0.0
 11
2868.972925110277
 21
1491.803453910711
 31
0.0
  0
SOLID
  5
992
330
98E
100
AcDbEntity
  8
cotas
100
AcDbTrace
 10
2848.977071552948
 20
1493.470120577378
 30
0.0
 11
2848.977071552948
 21
1490.136787244044
 31
0.0
 12
2838.977071552949
 22
1491.803453910711
 32
0.0
 13
2838.977071552949
 23
1491.803453910711
 33
0.0
  0
SOLID
  5
993
330
98E
100
AcDbEntity
  8
cotas
100
AcDbTrace
 10
2868.972925110277
 20
1493.470120577378
 30
0.0
 11
2868.972925110277
 21
1490.136787244044
 31
0.0
 12
2878.972925110277
 22
1491.803453910711
 32
0.0
 13
2878.972925110277
 23
1491.803453910711
 33
0.0
  0
MTEXT
  5
994
330
98E
100
AcDbEntity
  8
cotas
100
AcDbMText
 10
2858.974998331613
 20
1502.008289370752
 30
0.0
 40
10.0
 41
0.0
 71
     5
 72
     1
  1
40
  7
SANINDUSA
 73
     1
 44
1.0
1001
ACAD
1000
MTEXTBEGIN
1070
    73
1070
     1
1070
    44
1040
1.0
1070
    74
1070
     0
1000
MTEXTEND
  0
POINT
  5
995
330
98E
100
AcDbEntity
  8
Defpoints
 62
     0
100
AcDbPoint
 10
2838.977071552949
 20
1461.803453910711
 30
0.0
  0
POINT
  5
996
330
98E
100
AcDbEntity
  8
Defpoints
 62
     0
100
AcDbPoint
 10
2878.972925110277
 20
1460.195238693794
 30
0.0
  0
POINT
  5
997
330
98E
100
AcDbEntity
  8
Defpoints
 62
     0
100
AcDbPoint
 10
2878.972925110277
 20
1491.803453910711
 30
0.0
  0
ENDBLK
  5
999
330
98E
100
AcDbEntity
  8
0
100
AcDbBlockEnd
  0
BLOCK
  5
9A5
330
99A
100
AcDbEntity
  8
0
100
AcDbBlockBegin
  2
*D90
 70
     1
 10
0.0
 20
0.0
 30
0.0
  3
*D90
  1

  0
LINE
  5
A52
330
99A
100
AcDbEntity
  8
cotas
100
AcDbLine
 10
2913.60930446522
 20
1429.513389489081
 30
0.0
 11
2802.76056556792
 21
1429.513389489081
 31
0.0
  0
LINE
  5
A53
330
99A
100
AcDbEntity
  8
cotas
100
AcDbLine
 10
2833.977071552949
 20
1461.803453910711
 30
0.0
 11
2802.76056556792
 21
1461.803453910711
 31
0.0
  0
LINE
  5
A54
330
99A
100
AcDbEntity
  8
cotas
100
AcDbLine
 10
2807.760565567919
 20
1439.513389489081
 30
0.0
 11
2807.760565567919
 21
1451.803453910711
 31
0.0
  0
LINE
  5
A55
330
99A
100
AcDbEntity
  8
cotas
100
AcDbLine
 10
2807.760565567919
 20
1461.803453910711
 30
0.0
 11
2807.760565567919
 21
1510.883373319711
 31
0.0
  0
SOLID
  5
A56
330
99A
100
AcDbEntity
  8
cotas
100
AcDbTrace
 10
2806.093898901253
 20
1439.513389489081
 30
0.0
 11
2809.427232234586
 21
1439.513389489081
 31
0.0
 12
2807.760565567919
 22
1429.513389489081
 32
0.0
 13
2807.760565567919
 23
1429.513389489081
 33
0.0
  0
SOLID
  5
A57
330
99A
100
AcDbEntity
  8
cotas
100
AcDbTrace
 10
2806.093898901253
 20
1451.803453910711
 30
0.0
 11
2809.427232234586
 21
1451.803453910711
 31
0.0
 12
2807.760565567919
 22
1461.803453910711
 32
0.0
 13
2807.760565567919
 23
1461.803453910711
 33
0.0
  0
MTEXT
  5
A58
330
99A
100
AcDbEntity
  8
cotas
100
AcDbMText
 10
2796.414024265031
 20
1491.343413615211
 30
0.0
 40
10.0
 41
0.0
 71
     5
 72
     1
  1
32,3
  7
SANINDUSA
 11
0.0000000000000001
 21
1.0
 31
0.0
 73
     1
 44
1.0
1001
ACAD
1000
MTEXTBEGIN
1070
    73
1070
     1
1070
    44
1040
1.0
1070
    74
1070
     0
1000
MTEXTEND
  0
POINT
  5
A59
330
99A
100
AcDbEntity
  8
Defpoints
 62
     0
100
AcDbPoint
 10
2918.60930446522
 20
1429.513389489081
 30
0.0
  0
POINT
  5
A5A
330
99A
100
AcDbEntity
  8
Defpoints
 62
     0
100
AcDbPoint
 10
2838.977071552949
 20
1461.803453910711
 30
0.0
  0
POINT
  5
A5B
330
99A
100
AcDbEntity
  8
Defpoints
 62
     0
100
AcDbPoint
 10
2807.760565567919
 20
1461.803453910711
 30
0.0
  0
ENDBLK
  5
9A6
330
99A
100
AcDbEntity
  8
0
100
AcDbBlockEnd
  0
BLOCK
  5
9B7
330
9B1
100
AcDbEntity
  8
0
100
AcDbBlockBegin
  2
*D91
 70
     1
 10
0.0
 20
0.0
 30
0.0
  3
*D91
  1

  0
LINE
  5
A62
330
9B1
100
AcDbEntity
  8
cotas
100
AcDbLine
 10
2928.304744310742
 20
1482.792275282458
 30
0.0
 11
2900.033970462638
 21
1448.036386019135
 31
0.0
  0
MTEXT
  5
A63
330
9B1
100
AcDbEntity
  8
cotas
100
AcDbMText
 10
2909.407854972404
 20
1475.732603836037
 30
0.0
 40
10.0
 41
0.0
 71
     5
 72
     1
  1
R50
  7
SANINDUSA
 11
0.6310175724752634
 21
0.7757685371471482
 31
0.0
 73
     1
 44
1.0
1001
ACAD
1000
MTEXTBEGIN
1070
    73
1070
     1
1070
    44
1040
1.0
1070
    74
1070
     0
1000
MTEXTEND
  0
SOLID
  5
A64
330
9B1
100
AcDbEntity
  8
cotas
100
AcDbTrace
 10
2898.741022900726
 20
1449.08808197326
 30
0.0
 11
2901.32691802455
 21
1446.984690065009
 31
0.0
 12
2893.723794737886
 22
1440.278700647663
 32
0.0
 13
2893.723794737886
 23
1440.278700647663
 33
0.0
  0
POINT
  5
A65
330
9B1
100
AcDbEntity
  8
Defpoints
 62
     0
100
AcDbPoint
 10
2893.723794737886
 20
1440.278700647663
 30
0.0
  0
POINT
  5
A66
330
9B1
100
AcDbEntity
  8
Defpoints
 62
     0
100
AcDbPoint
 10
2925.274677390499
 20
1479.067132458061
 30
0.0
  0
ENDBLK
  5
9B8
330
9B1
100
AcDbEntity
  8
0
100
AcDbBlockEnd
  0
BLOCK
  5
9C0
330
9B9
100
AcDbEntity
  8
0
100
AcDbBlockBegin
  2
*D92
 70
     1
 10
0.0
 20
0.0
 30
0.0
  3
*D92
  1

  0
LINE
  5
A5C
330
9B9
100
AcDbEntity
  8
cotas
100
AcDbLine
 10
2904.518297089609
 20
1354.457874924142
 30
0.0
 11
2891.164476269093
 21
1387.879403816322
 31
0.0
  0
MTEXT
  5
A5D
330
9B9
100
AcDbEntity
  8
cotas
100
AcDbMText
 10
2909.079417994739
 20
1370.274535090374
 30
0.0
 40
10.0
 41
0.0
 71
     5
 72
     1
  1
R5
  7
SANINDUSA
 11
0.3710363724901724
 21
-0.9286183340260594
 31
0.0
 73
     1
 44
1.0
1001
ACAD
1000
MTEXTBEGIN
1070
    73
1070
     1
1070
    44
1040
1.0
1070
    74
1070
     0
1000
MTEXTEND
  0
LINE
  5
A5E
330
9B9
100
AcDbEntity
  8
cotas
100
AcDbLine
 10
2885.59893068174
 20
1401.808678826713
 30
0.0
 11
2887.454112544191
 21
1397.165587156583
 31
0.0
  0
SOLID
  5
A5F
330
9B9
100
AcDbEntity
  8
cotas
100
AcDbTrace
 10
2892.71217349247
 20
1388.497797770473
 30
0.0
 11
2889.616779045717
 21
1387.261009862172
 31
0.0
 12
2887.454112544191
 22
1397.165587156583
 32
0.0
 13
2887.454112544191
 23
1397.165587156583
 33
0.0
  0
POINT
  5
A60
330
9B9
100
AcDbEntity
  8
Defpoints
 62
     0
100
AcDbPoint
 10
2887.454112544191
 20
1397.165587156583
 30
0.0
  0
POINT
  5
A61
330
9B9
100
AcDbEntity
  8
Defpoints
 62
     0
100
AcDbPoint
 10
2885.59893068174
 20
1401.808678826713
 30
0.0
  0
ENDBLK
  5
9C1
330
9B9
100
AcDbEntity
  8
0
100
AcDbBlockEnd
  0
BLOCK
  5
9C8
330
9C2
100
AcDbEntity
  8
0
100
AcDbBlockBegin
  2
*D93
 70
     1
 10
0.0
 20
0.0
 30
0.0
  3
*D93
  1

  0
LINE
  5
A72
330
9C2
100
AcDbEntity
  8
cotas
100
AcDbLine
 10
3101.949284339051
 20
1363.080819416328
 30
0.0
 11
3075.939398946283
 21
1404.29724441917
 31
0.0
  0
MTEXT
  5
A73
330
9C2
100
AcDbEntity
  8
cotas
100
AcDbMText
 10
3101.239839597352
 20
1383.169479090105
 30
0.0
 40
10.0
 41
0.0
 71
     5
 72
     1
  1
R15
  7
SANINDUSA
 11
0.533677002750895
 21
-0.8456883922195109
 31
0.0
 73
     1
 44
1.0
1001
ACAD
1000
MTEXTBEGIN
1070
    73
1070
     1
1070
    44
1040
1.0
1070
    74
1070
     0
1000
MTEXTEND
  0
SOLID
  5
A74
330
9C2
100
AcDbEntity
  8
cotas
100
AcDbTrace
 10
3077.348879599983
 20
1405.186706090421
 30
0.0
 11
3074.529918292584
 21
1403.407782747918
 31
0.0
 12
3070.602628918774
 22
1412.754128341365
 32
0.0
 13
3070.602628918774
 23
1412.754128341365
 33
0.0
  0
POINT
  5
A75
330
9C2
100
AcDbEntity
  8
Defpoints
 62
     0
100
AcDbPoint
 10
3070.602628918774
 20
1412.754128341365
 30
0.0
  0
POINT
  5
A76
330
9C2
100
AcDbEntity
  8
Defpoints
 62
     0
100
AcDbPoint
 10
3078.610107439822
 20
1400.065120568328
 30
0.0
  0
ENDBLK
  5
9C9
330
9C2
100
AcDbEntity
  8
0
100
AcDbBlockEnd
  0
BLOCK
  5
9D1
330
9CA
100
AcDbEntity
  8
0
100
AcDbBlockBegin
  2
*D94
 70
     1
 10
0.0
 20
0.0
 30
0.0
  3
*D94
  1

  0
LINE
  5
A4C
330
9CA
100
AcDbEntity
  8
cotas
100
AcDbLine
 10
3215.219075537234
 20
1477.993688742398
 30
0.0
 11
3237.605894111815
 21
1443.814704694594
 31
0.0
  0
MTEXT
  5
A4D
330
9CA
100
AcDbEntity
  8
cotas
100
AcDbMText
 10
3230.862357019024
 20
1472.74124312081
 30
0.0
 40
10.0
 41
0.0
 71
     5
 72
     1
  1
R3
  7
SANINDUSA
 11
0.5479182166451003
 21
-0.8365319048718063
 31
0.0
 73
     1
 44
1.0
1001
ACAD
1000
MTEXTBEGIN
1070
    73
1070
     1
1070
    44
1040
1.0
1070
    74
1070
     0
1000
MTEXTEND
  0
LINE
  5
A4E
330
9CA
100
AcDbEntity
  8
cotas
100
AcDbLine
 10
3244.731647257828
 20
1432.935490111478
 30
0.0
 11
3243.085076278266
 21
1435.449385645876
 31
0.0
  0
SOLID
  5
A4F
330
9CA
100
AcDbEntity
  8
cotas
100
AcDbTrace
 10
3239.000113953269
 20
1444.727901722336
 30
0.0
 11
3236.211674270363
 21
1442.901507666852
 31
0.0
 12
3243.085076278266
 22
1435.449385645876
 32
0.0
 13
3243.085076278266
 23
1435.449385645876
 33
0.0
  0
POINT
  5
A50
330
9CA
100
AcDbEntity
  8
Defpoints
 62
     0
100
AcDbPoint
 10
3243.085076278266
 20
1435.449385645876
 30
0.0
  0
POINT
  5
A51
330
9CA
100
AcDbEntity
  8
Defpoints
 62
     0
100
AcDbPoint
 10
3244.731647257828
 20
1432.935490111478
 30
0.0
  0
ENDBLK
  5
9D2
330
9CA
100
AcDbEntity
  8
0
100
AcDbBlockEnd
  0
BLOCK
  5
9D9
330
9D3
100
AcDbEntity
  8
0
100
AcDbBlockBegin
  2
*D95
 70
     1
 10
0.0
 20
0.0
 30
0.0
  3
*D95
  1

  0
LINE
  5
A6D
330
9D3
100
AcDbEntity
  8
cotas
100
AcDbLine
 10
3501.332230991746
 20
1490.352439419578
 30
0.0
 11
3527.008852631253
 21
1453.638414937964
 31
0.0
  0
MTEXT
  5
A6E
330
9D3
100
AcDbEntity
  8
cotas
100
AcDbMText
 10
3519.667576047626
 20
1481.941345003354
 30
0.0
 40
10.0
 41
0.0
 71
     5
 72
     1
  1
R50
  7
SANINDUSA
 11
0.5731148196855877
 21
-0.8194750779961257
 31
0.0
 73
     1
 44
1.0
1001
ACAD
1000
MTEXTBEGIN
1070
    73
1070
     1
1070
    44
1040
1.0
1070
    74
1070
     0
1000
MTEXTEND
  0
SOLID
  5
A6F
330
9D3
100
AcDbEntity
  8
cotas
100
AcDbTrace
 10
3528.374644427913
 20
1454.593606304107
 30
0.0
 11
3525.643060834593
 21
1452.683223571822
 31
0.0
 12
3532.740000828108
 22
1445.443664158003
 32
0.0
 13
3532.740000828108
 23
1445.443664158003
 33
0.0
  0
POINT
  5
A70
330
9D3
100
AcDbEntity
  8
Defpoints
 62
     0
100
AcDbPoint
 10
3532.740000828108
 20
1445.443664158003
 30
0.0
  0
POINT
  5
A71
330
9D3
100
AcDbEntity
  8
Defpoints
 62
     0
100
AcDbPoint
 10
3504.083625934208
 20
1486.418324461061
 30
0.0
  0
ENDBLK
  5
9DA
330
9D3
100
AcDbEntity
  8
0
100
AcDbBlockEnd
  0
BLOCK
  5
9E7
330
9DB
100
AcDbEntity
  8
0
100
AcDbBlockBegin
  2
*D96
 70
     1
 10
0.0
 20
0.0
 30
0.0
  3
*D96
  1

  0
LINE
  5
9DC
330
9DB
100
AcDbEntity
  8
cotas
100
AcDbLine
 10
3509.599919654288
 20
1436.419883987321
 30
0.0
 11
3621.707403995105
 21
1436.41988398732
 31
0.0
  0
LINE
  5
9DD
330
9DB
100
AcDbEntity
  8
cotas
100
AcDbLine
 10
3591.707403995105
 20
1461.805862178368
 30
0.0
 11
3621.707403995105
 21
1461.805862178368
 31
0.0
  0
LINE
  5
9DE
330
9DB
100
AcDbEntity
  8
cotas
100
AcDbLine
 10
3616.707403995105
 20
1426.41988398732
 30
0.0
 11
3616.707403995105
 21
1416.41988398732
 31
0.0
  0
LINE
  5
9DF
330
9DB
100
AcDbEntity
  8
cotas
100
AcDbLine
 10
3616.707403995105
 20
1471.805862178368
 30
0.0
 11
3616.707403995105
 21
1521.295452507447
 31
0.0
  0
LINE
  5
9E0
330
9DB
100
AcDbEntity
  8
cotas
100
AcDbLine
 10
3616.707403995105
 20
1436.41988398732
 30
0.0
 11
3616.707403995105
 21
1461.805862178368
 31
0.0
  0
SOLID
  5
9E1
330
9DB
100
AcDbEntity
  8
cotas
100
AcDbTrace
 10
3615.040737328439
 20
1426.41988398732
 30
0.0
 11
3618.374070661771
 21
1426.41988398732
 31
0.0
 12
3616.707403995105
 22
1436.41988398732
 32
0.0
 13
3616.707403995105
 23
1436.41988398732
 33
0.0
  0
SOLID
  5
9E2
330
9DB
100
AcDbEntity
  8
cotas
100
AcDbTrace
 10
3615.040737328439
 20
1471.805862178368
 30
0.0
 11
3618.374070661771
 21
1471.805862178368
 31
0.0
 12
3616.707403995105
 22
1461.805862178368
 32
0.0
 13
3616.707403995105
 23
1461.805862178368
 33
0.0
  0
MTEXT
  5
9E3
330
9DB
100
AcDbEntity
  8
cotas
100
AcDbMText
 10
3605.360862692216
 20
1501.550657342908
 30
0.0
 40
10.0
 41
0.0
 71
     5
 72
     1
  1
25,4
  7
SANINDUSA
 11
0.0000000000000001
 21
1.0
 31
0.0
 73
     1
 44
1.0
1001
ACAD
1000
MTEXTBEGIN
1070
    73
1070
     1
1070
    44
1040
1.0
1070
    74
1070
     0
1000
MTEXTEND
  0
POINT
  5
9E4
330
9DB
100
AcDbEntity
  8
Defpoints
 62
     0
100
AcDbPoint
 10
3504.599919654288
 20
1436.419883987321
 30
0.0
  0
POINT
  5
9E5
330
9DB
100
AcDbEntity
  8
Defpoints
 62
     0
100
AcDbPoint
 10
3586.707403995105
 20
1461.805862178368
 30
0.0
  0
POINT
  5
9E6
330
9DB
100
AcDbEntity
  8
Defpoints
 62
     0
100
AcDbPoint
 10
3616.707403995105
 20
1461.805862178368
 30
0.0
  0
ENDBLK
  5
9E8
330
9DB
100
AcDbEntity
  8
0
100
AcDbBlockEnd
  0
BLOCK
  5
9F3
330
9E9
100
AcDbEntity
  8
0
100
AcDbBlockBegin
  2
*D97
 70
     1
 10
0.0
 20
0.0
 30
0.0
  3
*D97
  1

  0
LINE
  5
9EA
330
9E9
100
AcDbEntity
  8
cotas
100
AcDbLine
 10
3546.705887189485
 20
1465.275381732715
 30
0.0
 11
3546.705887189485
 21
1496.805862178368
 31
0.0
  0
LINE
  5
9EB
330
9E9
100
AcDbEntity
  8
cotas
100
AcDbLine
 10
3586.707403995105
 20
1466.805862178367
 30
0.0
 11
3586.707403995105
 21
1496.805862178368
 31
0.0
  0
LINE
  5
9EC
330
9E9
100
AcDbEntity
  8
cotas
100
AcDbLine
 10
3556.705887189485
 20
1491.805862178368
 30
0.0
 11
3576.707403995105
 21
1491.805862178368
 31
0.0
  0
SOLID
  5
9ED
330
9E9
100
AcDbEntity
  8
cotas
100
AcDbTrace
 10
3556.705887189485
 20
1493.472528845034
 30
0.0
 11
3556.705887189485
 21
1490.139195511701
 31
0.0
 12
3546.705887189485
 22
1491.805862178368
 32
0.0
 13
3546.705887189485
 23
1491.805862178368
 33
0.0
  0
SOLID
  5
9EE
330
9E9
100
AcDbEntity
  8
cotas
100
AcDbTrace
 10
3576.707403995105
 20
1493.472528845034
 30
0.0
 11
3576.707403995105
 21
1490.139195511701
 31
0.0
 12
3586.707403995105
 22
1491.805862178368
 32
0.0
 13
3586.707403995105
 23
1491.805862178368
 33
0.0
  0
MTEXT
  5
9EF
330
9E9
100
AcDbEntity
  8
cotas
100
AcDbMText
 10
3566.706645592295
 20
1502.010697638408
 30
0.0
 40
10.0
 41
0.0
 71
     5
 72
     1
  1
40
  7
SANINDUSA
 73
     1
 44
1.0
1001
ACAD
1000
MTEXTBEGIN
1070
    73
1070
     1
1070
    44
1040
1.0
1070
    74
1070
     0
1000
MTEXTEND
  0
POINT
  5
9F0
330
9E9
100
AcDbEntity
  8
Defpoints
 62
     0
100
AcDbPoint
 10
3546.705887189485
 20
1460.275381732716
 30
0.0
  0
POINT
  5
9F1
330
9E9
100
AcDbEntity
  8
Defpoints
 62
     0
100
AcDbPoint
 10
3586.707403995105
 20
1461.805862178368
 30
0.0
  0
POINT
  5
9F2
330
9E9
100
AcDbEntity
  8
Defpoints
 62
     0
100
AcDbPoint
 10
3586.707403995105
 20
1491.805862178368
 30
0.0
  0
ENDBLK
  5
9F4
330
9E9
100
AcDbEntity
  8
0
100
AcDbBlockEnd
  0
BLOCK
  5
9FC
330
9F5
100
AcDbEntity
  8
0
100
AcDbBlockBegin
  2
*D98
 70
     1
 10
0.0
 20
0.0
 30
0.0
  3
*D98
  1

  0
LINE
  5
A67
330
9F5
100
AcDbEntity
  8
cotas
100
AcDbLine
 10
3496.188330943601
 20
1363.284764801387
 30
0.0
 11
3519.767101170169
 21
1390.476026607341
 31
0.0
  0
MTEXT
  5
A68
330
9F5
100
AcDbEntity
  8
cotas
100
AcDbMText
 10
3497.068283733553
 20
1379.722412011761
 30
0.0
 40
10.0
 41
0.0
 71
     5
 72
     1
  1
R5
  7
SANINDUSA
 11
0.6551369447165703
 21
0.7555101479579461
 31
0.0
 73
     1
 44
1.0
1001
ACAD
1000
MTEXTBEGIN
1070
    73
1070
     1
1070
    44
1040
1.0
1070
    74
1070
     0
1000
MTEXTEND
  0
LINE
  5
A69
330
9F5
100
AcDbEntity
  8
cotas
100
AcDbLine
 10
3529.594155340912
 20
1401.808678826703
 30
0.0
 11
3526.318470617335
 21
1398.03112808692
 31
0.0
  0
SOLID
  5
A6A
330
9F5
100
AcDbEntity
  8
cotas
100
AcDbTrace
 10
3518.50791759024
 20
1391.567921515202
 30
0.0
 11
3521.026284750099
 21
1389.38413169948
 31
0.0
 12
3526.318470617335
 22
1398.03112808692
 32
0.0
 13
3526.318470617335
 23
1398.03112808692
 33
0.0
  0
POINT
  5
A6B
330
9F5
100
AcDbEntity
  8
Defpoints
 62
     0
100
AcDbPoint
 10
3526.318470617335
 20
1398.03112808692
 30
0.0
  0
POINT
  5
A6C
330
9F5
100
AcDbEntity
  8
Defpoints
 62
     0
100
AcDbPoint
 10
3529.594155340912
 20
1401.808678826703
 30
0.0
  0
ENDBLK
  5
9FD
330
9F5
100
AcDbEntity
  8
0
100
AcDbBlockEnd
  0
BLOCK
  5
A0A
330
9FE
100
AcDbEntity
  8
0
100
AcDbBlockBegin
  2
*D99
 70
     1
 10
0.0
 20
0.0
 30
0.0
  3
*D99
  1

  0
LINE
  5
9FF
330
9FE
100
AcDbEntity
  8
cotas
100
AcDbLine
 10
3076.803135660175
 20
1429.80891427963
 30
0.0
 11
3086.872517929736
 21
1436.85957261485
 31
0.0
  0
LINE
  5
A00
330
9FE
100
AcDbEntity
  8
cotas
100
AcDbLine
 10
2936.184280549984
 20
1430.108173941893
 30
0.0
 11
2926.542293525275
 21
1436.859565607947
 31
0.0
  0
ARC
  5
A01
330
9FE
100
AcDbEntity
  8
cotas
100
AcDbCircle
 10
3006.707408180649
 20
1380.727350784837
 30
0.0
 40
92.86353329334149
100
AcDbArc
 50
41.17287877923952
 51
138.8271262287493
  0
SOLID
  5
A02
330
9FE
100
AcDbEntity
  8
cotas
100
AcDbTrace
 10
3077.920063255054
 20
1442.890583076955
 30
0.0
 11
3075.296459860149
 21
1440.83441763192
 31
0.0
 12
3082.776757892706
 22
1433.991690169723
 32
0.0
 13
3082.776757892706
 23
1433.991690169723
 33
0.0
  0
SOLID
  5
A03
330
9FE
100
AcDbEntity
  8
cotas
100
AcDbTrace
 10
2938.118351247437
 20
1440.834411636832
 30
0.0
 11
2935.494747672812
 21
1442.890576852549
 31
0.0
 12
2930.638053812975
 22
1433.991683520813
 32
0.0
 13
2930.638053812975
 23
1433.991683520813
 33
0.0
  0
MTEXT
  5
A04
330
9FE
100
AcDbEntity
  8
cotas
100
AcDbMText
 10
3006.707404122239
 20
1484.934067422705
 30
0.0
 40
10.0
 41
0.0
 71
     5
 72
     1
  1
110,0°
  7
SANINDUSA
 73
     1
 44
1.0
1001
ACAD
1000
MTEXTBEGIN
1070
    73
1070
     1
1070
    44
1040
1.0
1070
    74
1070
     0
1000
MTEXTEND
  0
POINT
  5
A05
330
9FE
100
AcDbEntity
  8
Defpoints
 62
     0
100
AcDbPoint
 10
2977.497667498415
 20
1468.877375543768
 30
0.0
  0
POINT
  5
A06
330
9FE
100
AcDbEntity
  8
Defpoints
 62
     0
100
AcDbPoint
 10
2961.707403994956
 20
1412.236691385809
 30
0.0
  0
POINT
  5
A07
330
9FE
100
AcDbEntity
  8
Defpoints
 62
     0
100
AcDbPoint
 10
3072.707375623145
 20
1426.941031834503
 30
0.0
  0
POINT
  5
A08
330
9FE
100
AcDbEntity
  8
Defpoints
 62
     0
100
AcDbPoint
 10
3051.707403994956
 20
1412.236691385809
 30
0.0
  0
POINT
  5
A09
330
9FE
100
AcDbEntity
  8
Defpoints
 62
     0
100
AcDbPoint
 10
2940.280040837683
 20
1427.24029185476
 30
0.0
  0
ENDBLK
  5
A0B
330
9FE
100
AcDbEntity
  8
0
100
AcDbBlockEnd
  0
BLOCK
  5
A23
330
A17
100
AcDbEntity
  8
0
100
AcDbBlockBegin
  2
*D100
 70
     1
 10
0.0
 20
0.0
 30
0.0
  3
*D100
  1

  0
LINE
  5
A18
330
A17
100
AcDbEntity
  8
cotas
100
AcDbLine
 10
3571.707403994956
 20
1400.80867882671
 30
0.0
 11
3621.707403995105
 21
1400.80867882671
 31
0.0
  0
LINE
  5
A19
330
A17
100
AcDbEntity
  8
cotas
100
AcDbLine
 10
3591.707403994956
 20
1396.808678528679
 30
0.0
 11
3621.707403995105
 21
1396.808678528679
 31
0.0
  0
LINE
  5
A1A
330
A17
100
AcDbEntity
  8
cotas
100
AcDbLine
 10
3616.707403995105
 20
1410.808678826709
 30
0.0
 11
3616.707403995105
 21
1420.808678826709
 31
0.0
  0
LINE
  5
A1B
330
A17
100
AcDbEntity
  8
cotas
100
AcDbLine
 10
3616.707403995105
 20
1386.808678528679
 30
0.0
 11
3616.707403995105
 21
1359.246556298995
 31
0.0
  0
LINE
  5
A1C
330
A17
100
AcDbEntity
  8
cotas
100
AcDbLine
 10
3616.707403995105
 20
1400.80867882671
 30
0.0
 11
3616.707403995105
 21
1396.808678528679
 31
0.0
  0
SOLID
  5
A1D
330
A17
100
AcDbEntity
  8
cotas
100
AcDbTrace
 10
3615.040737328439
 20
1410.808678826709
 30
0.0
 11
3618.374070661771
 21
1410.808678826709
 31
0.0
 12
3616.707403995105
 22
1400.80867882671
 32
0.0
 13
3616.707403995105
 23
1400.80867882671
 33
0.0
  0
SOLID
  5
A1E
330
A17
100
AcDbEntity
  8
cotas
100
AcDbTrace
 10
3615.040737328439
 20
1386.808678528679
 30
0.0
 11
3618.374070661771
 21
1386.808678528679
 31
0.0
 12
3616.707403995105
 22
1396.808678528679
 32
0.0
 13
3616.707403995105
 23
1396.808678528679
 33
0.0
  0
MTEXT
  5
A1F
330
A17
100
AcDbEntity
  8
cotas
100
AcDbMText
 10
3606.707403995105
 20
1368.027617413838
 30
0.0
 40
10.0
 41
0.0
 71
     5
 72
     1
  1
4
  7
SANINDUSA
 11
0.0000000000000001
 21
1.0
 31
0.0
 73
     1
 44
1.0
1001
ACAD
1000
MTEXTBEGIN
1070
    73
1070
     1
1070
    44
1040
1.0
1070
    74
1070
     0
1000
MTEXTEND
  0
POINT
  5
A20
330
A17
100
AcDbEntity
  8
Defpoints
 62
     0
100
AcDbPoint
 10
3566.707403994956
 20
1400.80867882671
 30
0.0
  0
POINT
  5
A21
330
A17
100
AcDbEntity
  8
Defpoints
 62
     0
100
AcDbPoint
 10
3586.707403994956
 20
1396.808678528679
 30
0.0
  0
POINT
  5
A22
330
A17
100
AcDbEntity
  8
Defpoints
 62
     0
100
AcDbPoint
 10
3616.707403995105
 20
1396.808678528679
 30
0.0
  0
ENDBLK
  5
A24
330
A17
100
AcDbEntity
  8
0
100
AcDbBlockEnd
  0
BLOCK
  5
A2B
330
A25
100
AcDbEntity
  8
0
100
AcDbBlockBegin
  2
*D101
 70
     1
 10
0.0
 20
0.0
 30
0.0
  3
*D101
  1

  0
LINE
  5
A77
330
A25
100
AcDbEntity
  8
cotas
100
AcDbLine
 10
468.0320784065285
 20
918.0790874409185
 30
0.0
 11
435.8709243224297
 21
949.2699300142399
 31
0.0
  0
MTEXT
  5
A78
330
A25
100
AcDbEntity
  8
cotas
100
AcDbMText
 10
462.6616846135842
 20
937.535977079287
 30
0.0
 40
10.0
 41
0.0
 71
     5
 72
     1
  1
R80
  7
SANINDUSA
 11
0.7178527721664361
 21
-0.6961949421627271
 31
0.0
 73
     1
 44
1.0
1001
ACAD
1000
MTEXTBEGIN
1070
    73
1070
     1
1070
    44
1040
1.0
1070
    74
1070
     0
1000
MTEXTEND
  0
SOLID
  5
A79
330
A25
100
AcDbEntity
  8
cotas
100
AcDbTrace
 10
437.0312492260343
 20
950.4663513011838
 30
0.0
 11
434.7105994188253
 21
948.0735087272957
 31
0.0
 12
428.6923966007655
 22
956.231879435867
 32
0.0
 13
428.6923966007655
 23
956.231879435867
 33
0.0
  0
POINT
  5
A7A
330
A25
100
AcDbEntity
  8
Defpoints
 62
     0
100
AcDbPoint
 10
428.6923966007655
 20
956.231879435867
 30
0.0
  0
POINT
  5
A7B
330
A25
100
AcDbEntity
  8
Defpoints
 62
     0
100
AcDbPoint
 10
486.1206183740795
 20
900.5362840628494
 30
0.0
  0
ENDBLK
  5
A2C
330
A25
100
AcDbEntity
  8
0
100
AcDbBlockEnd
  0
BLOCK
  5
A33
330
A2D
100
AcDbEntity
  8
0
100
AcDbBlockBegin
  2
*D102
 70
     1
 10
0.0
 20
0.0
 30
0.0
  3
*D102
  1

  0
LINE
  5
A81
330
A2D
100
AcDbEntity
  8
cotas
100
AcDbLine
 10
1258.792968123939
 20
374.4017717963977
 30
0.0
 11
1289.394852693445
 21
341.6797126733905
 31
0.0
  0
MTEXT
  5
A82
330
A2D
100
AcDbEntity
  8
cotas
100
AcDbMText
 10
1278.149163441572
 20
368.6790638083368
 30
0.0
 40
10.0
 41
0.0
 71
     5
 72
     1
  1
R80
  7
SANINDUSA
 11
0.6830491099384347
 21
-0.730372448420881
 31
0.0
 73
     1
 44
1.0
1001
ACAD
1000
MTEXTBEGIN
1070
    73
1070
     1
1070
    44
1040
1.0
1070
    74
1070
     0
1000
MTEXTEND
  0
SOLID
  5
A83
330
A2D
100
AcDbEntity
  8
cotas
100
AcDbTrace
 10
1290.612140107479
 20
342.8181278566213
 30
0.0
 11
1288.17756527941
 21
340.5412974901597
 31
0.0
 12
1296.225343792829
 22
334.3759881891817
 32
0.0
 13
1296.225343792829
 23
334.3759881891817
 33
0.0
  0
POINT
  5
A84
330
A2D
100
AcDbEntity
  8
Defpoints
 62
     0
100
AcDbPoint
 10
1296.225343792829
 20
334.3759881891817
 30
0.0
  0
POINT
  5
A85
330
A2D
100
AcDbEntity
  8
Defpoints
 62
     0
100
AcDbPoint
 10
1241.581414997753
 20
392.8057840628537
 30
0.0
  0
ENDBLK
  5
A34
330
A2D
100
AcDbEntity
  8
0
100
AcDbBlockEnd
  0
BLOCK
  5
A3B
330
A35
100
AcDbEntity
  8
0
100
AcDbBlockBegin
  2
*D103
 70
     1
 10
0.0
 20
0.0
 30
0.0
  3
*D103
  1

  0
LINE
  5
A7C
330
A35
100
AcDbEntity
  8
cotas
100
AcDbLine
 10
1328.491615949349
 20
985.6834401349541
 30
0.0
 11
1353.155043998894
 21
1011.894858273661
 31
0.0
  0
MTEXT
  5
A7D
330
A35
100
AcDbEntity
  8
cotas
100
AcDbMText
 10
1330.038295308592
 20
1002.071800201933
 30
0.0
 40
10.0
 41
0.0
 71
     5
 72
     1
  1
R5
  7
SANINDUSA
 11
0.6852741997718553
 21
0.728285157837947
 31
0.0
 73
     1
 44
1.0
1001
ACAD
1000
MTEXTBEGIN
1070
    73
1070
     1
1070
    44
1040
1.0
1070
    74
1070
     0
1000
MTEXTEND
  0
SOLID
  5
A7E
330
A35
100
AcDbEntity
  8
cotas
100
AcDbTrace
 10
1351.941235402498
 20
1013.036981939948
 30
0.0
 11
1354.368852595291
 21
1010.752734607375
 31
0.0
 12
1360.007785996613
 22
1019.177709852041
 32
0.0
 13
1360.007785996613
 23
1019.177709852041
 33
0.0
  0
POINT
  5
A7F
330
A35
100
AcDbEntity
  8
Defpoints
 62
     0
100
AcDbPoint
 10
1360.007785996613
 20
1019.177709852041
 30
0.0
  0
POINT
  5
A80
330
A35
100
AcDbEntity
  8
Defpoints
 62
     0
100
AcDbPoint
 10
1356.581414997752
 20
1015.536284062849
 30
0.0
  0
ENDBLK
  5
A3C
330
A35
100
AcDbEntity
  8
0
100
AcDbBlockEnd
  0
ENDSEC
  0
SECTION
  2
ENTITIES
  0
ARC
  5
522
330
23
100
AcDbEntity
  8
SANINDUSA
100
AcDbCircle
 10
1603.624032345095
 20
1393.361616360981
 30
0.0
 40
0.0050000009939816
100
AcDbArc
 50
2.000040491783456
 51
90.04440068946705
  0
LWPOLYLINE
  5
525
330
23
100
AcDbEntity
  8
SANINDUSA
100
AcDbPolyline
 90
        7
 70
   128
 43
0.0
 10
1602.638232316858
 20
1393.366616360474
 10
1602.648232307321
 20
1393.366608603954
 10
1602.688232298977
 20
1393.366577806979
 10
1602.848232235796
 20
1393.36646229178
 10
1603.008232202417
 20
1393.366377910695
 10
1603.246308278329
 20
1393.366375188439
 10
1603.624028470403
 20
1393.366616360474
  0
LINE
  5
52A
330
23
100
AcDbEntity
  8
SANINDUSA
100
AcDbLine
 10
1602.636133428699
 20
1393.301623472108
 30
0.0
 11
1603.626127358562
 21
1393.301623472108
 31
0.0
  0
ARC
  5
52C
330
23
100
AcDbEntity
  8
SANINDUSA
100
AcDbCircle
 10
1602.638228442166
 20
1393.361616360981
 30
0.0
 40
0.0050000009939814
100
AcDbArc
 50
89.95559931053294
 51
177.9999595082165
  0
LINE
  5
52D
330
23
100
AcDbEntity
  8
SANINDUSA
100
AcDbLine
 10
1603.629029302084
 20
1393.3617908621
 30
0.0
 11
1603.631130393631
 21
1393.301623472108
 31
0.0
  0
LINE
  5
52E
330
23
100
AcDbEntity
  8
SANINDUSA
100
AcDbLine
 10
1603.631130393631
 20
1393.301623472108
 30
0.0
 11
1603.626127358562
 21
1393.301623472108
 31
0.0
  0
LINE
  5
52F
330
23
100
AcDbEntity
  8
SANINDUSA
100
AcDbLine
 10
1602.631130393631
 20
1393.301623472108
 30
0.0
 11
1602.633231485177
 21
1393.3617908621
 31
0.0
  0
LINE
  5
530
330
23
100
AcDbEntity
  8
SANINDUSA
100
AcDbLine
 10
1602.636133428699
 20
1393.301623472108
 30
0.0
 11
1602.631130393631
 21
1393.301623472108
 31
0.0
  0
ARC
  5
531
330
23
100
AcDbEntity
  8
SANINDUSA
100
AcDbCircle
 10
1601.601018171984
 20
1393.027865334698
 30
0.0
 40
0.0786396085718213
100
AcDbArc
 50
180.0145767234749
 51
269.9858793841623
  0
ARC
  5
535
330
23
100
AcDbEntity
  8
SANINDUSA
100
AcDbCircle
 10
1601.601135665324
 20
1393.027975863576
 30
0.0
 40
0.0371851907934718
100
AcDbArc
 50
180.1080983392089
 51
269.8999063100087
  0
ARC
  5
53A
330
23
100
AcDbEntity
  8
SANINDUSA
100
AcDbCircle
 10
1602.356440563215
 20
1393.027865338156
 30
0.0
 40
0.0786396120536685
100
AcDbArc
 50
270.014188280947
 51
359.9853773283475
  0
ARC
  5
53C
330
23
100
AcDbEntity
  8
SANINDUSA
100
AcDbCircle
 10
1602.356323291878
 20
1393.027975615149
 30
0.0
 40
0.0371858978058435
100
AcDbArc
 50
270.1016377569348
 51
359.8905415558391
  0
ARC
  5
53F
330
23
100
AcDbEntity
  8
SANINDUSA
100
AcDbCircle
 10
1601.601019144856
 20
1393.535556900215
 30
0.0
 40
0.0786416557230742
100
AcDbArc
 50
90.02590269550031
 51
179.9818626900942
  0
ARC
  5
543
330
23
100
AcDbEntity
  8
SANINDUSA
100
AcDbCircle
 10
1601.601075757586
 20
1393.535487376354
 30
0.0
 40
0.0372663146899896
100
AcDbArc
 50
90.3595329739063
 51
179.8470222910094
  0
ARC
  5
546
330
23
100
AcDbEntity
  8
SANINDUSA
100
AcDbCircle
 10
1602.356439430102
 20
1393.535556789394
 30
0.0
 40
0.0786422965275461
100
AcDbArc
 50
0.0187281485027678
 51
89.97254520178586
  0
ARC
  5
54A
330
23
100
AcDbEntity
  8
SANINDUSA
100
AcDbCircle
 10
1602.356389156022
 20
1393.535501260493
 30
0.0
 40
0.0372774490250087
100
AcDbArc
 50
0.1495366254861495
 51
89.60086836606549
  0
LWPOLYLINE
  5
54D
330
23
100
AcDbEntity
  8
SANINDUSA
100
AcDbPolyline
 90
        6
 70
   128
 43
0.0
 10
1602.356477113654
 20
1393.614199076893
 10
1602.257713260343
 20
1393.614224796297
 10
1602.060185538818
 20
1393.614327904882
 10
1601.96141912437
 20
1393.614350673856
 10
1601.862652788152
 20
1393.614303332867
 10
1601.600983591964
 20
1393.614198547902
  0
LWPOLYLINE
  5
550
330
23
100
AcDbEntity
  8
SANINDUSA
100
AcDbPolyline
 90
        5
 70
   128
 43
0.0
 10
1601.600998791148
 20
1392.949225728514
 10
1601.6998645386
 20
1392.949214165213
 10
1601.897596763661
 20
1392.949196820261
 10
1602.095330717256
 20
1392.949198787214
 10
1602.356460036924
 20
1392.949225728514
  0
LWPOLYLINE
  5
551
330
23
100
AcDbEntity
  8
SANINDUSA
100
AcDbPolyline
 90
        4
 70
   128
 43
0.0
 10
1601.485827328851
 20
1393.655744365065
 10
1601.86581908374
 20
1393.655755149082
 10
1602.250912131955
 20
1393.655751578391
 10
1602.471631409814
 20
1393.655744365065
  0
LINE
  5
557
330
23
100
AcDbEntity
  8
SANINDUSA
100
AcDbLine
 10
1602.47163132366
 20
1392.907845382693
 30
0.0
 11
1601.485827415004
 21
1392.907845382693
 31
0.0
  0
LWPOLYLINE
  5
55C
330
23
100
AcDbEntity
  8
SANINDUSA
100
AcDbPolyline
 90
        5
 70
   128
 43
0.0
 10
1602.476628365209
 20
1393.650747411067
 10
1602.476633729627
 20
1393.463300933244
 10
1602.476635666778
 20
1393.270754461291
 10
1602.476633222987
 20
1393.078207974436
 10
1602.476628275802
 20
1392.912845377924
  0
LWPOLYLINE
  5
55E
330
23
100
AcDbEntity
  8
SANINDUSA
100
AcDbPolyline
 90
        5
 70
   128
 43
0.0
 10
1601.480830462863
 20
1392.912845377924
 10
1601.480825515677
 20
1393.078207974436
 10
1601.480823071887
 20
1393.270754461291
 10
1601.480825009038
 20
1393.463300933244
 10
1601.480830373456
 20
1393.650747411067
  0
ARC
  5
564
330
23
100
AcDbEntity
  8
SANINDUSA
100
AcDbCircle
 10
1602.471629835933
 20
1392.912843822583
 30
0.0
 40
0.0049984401108705
100
AcDbArc
 50
270.0170161326765
 51
0.0178284657176602
  0
ARC
  5
565
330
23
100
AcDbEntity
  8
SANINDUSA
100
AcDbCircle
 10
1601.485828902732
 20
1392.912843822583
 30
0.0
 40
0.0049984401108705
100
AcDbArc
 50
179.9821715342823
 51
269.9829838673235
  0
ARC
  5
566
330
23
100
AcDbEntity
  8
SANINDUSA
100
AcDbCircle
 10
1602.471624253196
 20
1393.65074025305
 30
0.0
 40
0.00500411713192
100
AcDbArc
 50
0.0819573735679242
 51
89.91805865032326
  0
ARC
  5
567
330
23
100
AcDbEntity
  8
SANINDUSA
100
AcDbCircle
 10
1601.485834485468
 20
1393.65074025305
 30
0.0
 40
0.0050041171319204
100
AcDbArc
 50
90.08194134967673
 51
179.9180426264321
  0
LWPOLYLINE
  5
568
330
23
100
AcDbEntity
  8
SANINDUSA
100
AcDbPolyline
 90
        4
 70
   128
 43
0.0
 10
1601.522377493074
 20
1393.535581794681
 10
1601.522366585423
 20
1393.436876346471
 10
1601.52236178725
 20
1393.232361470463
 10
1601.522378565957
 20
1393.027845327856
  0
LWPOLYLINE
  5
569
330
23
100
AcDbEntity
  8
SANINDUSA
100
AcDbPolyline
 90
        4
 70
   128
 43
0.0
 10
1602.435080172708
 20
1393.027845268252
 10
1602.435090365102
 20
1393.126734619143
 10
1602.435098024299
 20
1393.33115786791
 10
1602.435081722428
 20
1393.535582495036
  0
LWPOLYLINE
  5
56A
330
23
100
AcDbEntity
  8
SANINDUSA
100
AcDbPolyline
 90
       13
 70
   128
 43
0.0
 10
1602.356648834636
 20
1393.572777805032
 10
1602.287702413489
 20
1393.573140722813
 10
1602.218762429645
 20
1393.573581245842
 10
1602.08088714837
 20
1393.57486128539
 10
1602.030212773224
 20
1393.575445246997
 10
1602.004868971398
 20
1393.575773258807
 10
1601.979520509582
 20
1393.575943243804
 10
1601.932177251418
 20
1393.575728227498
 10
1601.884842971553
 20
1393.575180736484
 10
1601.837512510111
 20
1393.574523490967
 10
1601.790180685212
 20
1393.573979233506
 10
1601.695518227508
 20
1393.573288810553
 10
1601.600841911723
 20
1393.572752957346
  0
LWPOLYLINE
  5
56B
330
23
100
AcDbEntity
  8
SANINDUSA
100
AcDbPolyline
 90
        4
 70
   128
 43
0.0
 10
1601.563809575727
 20
1393.535586875977
 10
1601.563422413757
 20
1393.381732081177
 10
1601.56341591685
 20
1393.281671588423
 10
1601.563950540711
 20
1393.027905707361
  0
LWPOLYLINE
  5
56C
330
23
100
AcDbEntity
  8
SANINDUSA
100
AcDbPolyline
 90
        5
 70
   128
 43
0.0
 10
1602.393509121825
 20
1393.027904574873
 10
1602.393900098492
 20
1393.181771163942
 10
1602.394045504024
 20
1393.281798009875
 10
1602.394066961696
 20
1393.336375211479
 10
1602.393666478088
 20
1393.535598551037
  0
LWPOLYLINE
  5
56D
330
23
100
AcDbEntity
  8
SANINDUSA
100
AcDbPolyline
 90
        5
 70
   128
 43
0.0
 10
1601.601070704152
 20
1392.990790729525
 10
1601.878687428524
 20
1392.990034346582
 10
1601.97872910675
 20
1392.989952867033
 10
1602.16755917876
 20
1392.990222041609
 10
1602.356389256408
 20
1392.99078977585
  0
LINE
  5
56F
330
23
100
AcDbEntity
  8
SANINDUSA
100
AcDbLine
 10
1602.473732413938
 20
1393.657845382692
 30
0.0
 11
1601.483726324727
 21
1393.657845382692
 31
0.0
  0
ELLIPSE
  5
576
330
23
100
AcDbEntity
  8
SANINDUSA
100
AcDbEllipse
 10
1602.473726321611
 20
1393.652842334971
 30
0.0
 11
-0.0035398427229958
 21
-0.0035398427229958
 31
-0.0000000000000003
210
-0.0000000000000401
220
-0.0000000000000401
230
1.0
 40
0.9987827659587569
 41
2.356803477778005
 42
3.92638182940165
  0
ELLIPSE
  5
578
330
23
100
AcDbEntity
  8
SANINDUSA
100
AcDbEllipse
 10
1601.483732417054
 20
1393.652842334971
 30
0.0
 11
0.0035398427229958
 21
-0.0035398427229958
 31
-0.0000000000000003
210
0.0000000000000401
220
-0.0000000000000401
230
1.0
 40
0.9987827659587772
 41
2.356803477778016
 42
3.926381829401583
  0
LINE
  5
57A
330
23
100
AcDbEntity
  8
SANINDUSA
100
AcDbLine
 10
1602.478729369332
 20
1392.912845377924
 30
0.0
 11
1602.478729369332
 21
1393.652848428695
 31
0.0
  0
LINE
  5
57C
330
23
100
AcDbEntity
  8
SANINDUSA
100
AcDbLine
 10
1601.478729369332
 20
1393.652848428695
 30
0.0
 11
1601.478729369332
 21
1392.912845377924
 31
0.0
  0
ELLIPSE
  5
57D
330
23
100
AcDbEntity
  8
SANINDUSA
100
AcDbEllipse
 10
1602.473726321611
 20
1392.912845382692
 30
0.0
 11
-0.0050030477214941
 21
0.0
 31
0.0
210
0.0
220
0.0
230
1.0
 40
0.9993908270191061
 41
1.570796326794953
 42
3.141592653589793
  0
LINE
  5
57E
330
23
100
AcDbEntity
  8
SANINDUSA
100
AcDbLine
 10
1602.473726334264
 20
1392.907845382693
 30
0.0
 11
1602.47163132366
 21
1392.907845382693
 31
0.0
  0
ELLIPSE
  5
57F
330
23
100
AcDbEntity
  8
SANINDUSA
100
AcDbEllipse
 10
1601.483732417054
 20
1392.912845382692
 30
0.0
 11
0.0050030477214941
 21
0.0
 31
0.0
210
0.0
220
0.0
230
1.0
 40
0.9993908270191061
 41
3.141592653589793
 42
4.712388980384703
  0
LINE
  5
580
330
23
100
AcDbEntity
  8
SANINDUSA
100
AcDbLine
 10
1601.485827415004
 20
1392.907845382693
 30
0.0
 11
1601.483732404401
 21
1392.907845382693
 31
0.0
  0
CIRCLE
  5
582
330
23
100
AcDbEntity
  8
SANINDUSA
100
AcDbCircle
 10
1601.653738258677
 20
1393.077846966167
 30
0.0
 40
0.0398264699702024
  0
CIRCLE
  5
584
330
23
100
AcDbEntity
  8
SANINDUSA
100
AcDbCircle
 10
1602.303735939535
 20
1393.077847237381
 30
0.0
 40
0.0398267427491989
  0
CIRCLE
  5
586
330
23
100
AcDbEntity
  8
SANINDUSA
100
AcDbCircle
 10
1601.783738860504
 20
1393.077851700673
 30
0.0
 40
0.0398260784576379
  0
CIRCLE
  5
588
330
23
100
AcDbEntity
  8
SANINDUSA
100
AcDbCircle
 10
1602.173735961346
 20
1393.077852012406
 30
0.0
 40
0.039826392026073
  0
CIRCLE
  5
58A
330
23
100
AcDbEntity
  8
SANINDUSA
100
AcDbCircle
 10
1601.653742696201
 20
1393.212849077832
 30
0.0
 40
0.0398265645782292
  0
CIRCLE
  5
58C
330
23
100
AcDbEntity
  8
SANINDUSA
100
AcDbCircle
 10
1602.30373047417
 20
1393.212849548331
 30
0.0
 40
0.0398270095273603
  0
CIRCLE
  5
58E
330
23
100
AcDbEntity
  8
SANINDUSA
100
AcDbCircle
 10
1601.913738107384
 20
1393.077857639683
 30
0.0
 40
0.0398280838723879
  0
CIRCLE
  5
590
330
23
100
AcDbEntity
  8
SANINDUSA
100
AcDbCircle
 10
1602.043736879937
 20
1393.077855500731
 30
0.0
 40
0.0398259457364223
  0
CIRCLE
  5
592
330
23
100
AcDbEntity
  8
SANINDUSA
100
AcDbCircle
 10
1601.653751523284
 20
1393.34784787366
 30
0.0
 40
0.0398272788072285
  0
CIRCLE
  5
594
330
23
100
AcDbEntity
  8
SANINDUSA
100
AcDbCircle
 10
1602.303722050665
 20
1393.347848480715
 30
0.0
 40
0.0398276542651352
  0
CIRCLE
  5
598
330
23
100
AcDbEntity
  8
SANINDUSA
100
AcDbCircle
 10
1601.7837450126
 20
1393.212858615789
 30
0.0
 40
0.0398276685209118
  0
CIRCLE
  5
59A
330
23
100
AcDbEntity
  8
SANINDUSA
100
AcDbCircle
 10
1602.173729611248
 20
1393.212856658736
 30
0.0
 40
0.0398256864063428
  0
CIRCLE
  5
5A4
330
23
100
AcDbEntity
  8
SANINDUSA
100
AcDbCircle
 10
1601.91374099085
 20
1393.212864524802
 30
0.0
 40
0.0398264248902875
  0
CIRCLE
  5
5A6
330
23
100
AcDbEntity
  8
SANINDUSA
100
AcDbCircle
 10
1602.043734075422
 20
1393.212862431732
 30
0.0
 40
0.039824304196635
  0
CIRCLE
  5
5A8
330
23
100
AcDbEntity
  8
SANINDUSA
100
AcDbCircle
 10
1601.78375472779
 20
1393.347855453757
 30
0.0
 40
0.0398240127192006
  0
CIRCLE
  5
5AA
330
23
100
AcDbEntity
  8
SANINDUSA
100
AcDbCircle
 10
1602.1737190415
 20
1393.347856282032
 30
0.0
 40
0.0398247013236041
  0
LWPOLYLINE
  5
5B1
330
23
100
AcDbEntity
  8
SANINDUSA
100
AcDbPolyline
 90
       56
 70
   128
 43
0.0
 10
1601.978729369333
 20
1393.421845411064
 10
1601.969571129632
 20
1393.422486548426
 10
1601.960589038422
 20
1393.424385597112
 10
1601.953587260311
 20
1393.426824172141
 10
1601.946879977574
 20
1393.430038993361
 10
1601.940593300601
 20
1393.433969562056
 10
1601.934793343981
 20
1393.438588191869
 10
1601.929528063377
 20
1393.443841670754
 10
1601.924896346619
 20
1393.44963118911
 10
1601.920950329145
 20
1393.45591070235
 10
1601.917719098022
 20
1393.462612469794
 10
1601.915263215294
 20
1393.469610487225
 10
1601.913616264453
 20
1393.476844613554
 10
1601.912783252289
 20
1393.484240700604
 10
1601.912779467394
 20
1393.491659973862
 10
1601.913617665162
 20
1393.499040682914
 10
1601.915278131356
 20
1393.506305118205
 10
1601.917728936513
 20
1393.513317425849
 10
1601.920964071741
 20
1393.520020757916
 10
1601.924937607934
 20
1393.526342456343
 10
1601.929574931254
 20
1393.532164518835
 10
1601.934857355644
 20
1393.537439254226
 10
1601.940713698258
 20
1393.542106759848
 10
1601.947033936371
 20
1393.546079290213
 10
1601.953770209317
 20
1393.549309660794
 10
1601.960849797567
 20
1393.551769730749
 10
1601.968138214414
 20
1393.553407383265
 10
1601.975486707156
 20
1393.554186915161
 10
1601.982900247191
 20
1393.554134150149
 10
1601.990236906548
 20
1393.553250146212
 10
1601.997359022712
 20
1393.551552218499
 10
1602.004270756831
 20
1393.549067084791
 10
1602.010846099098
 20
1393.545845118465
 10
1602.017073134174
 20
1393.541872923376
 10
1602.022841660519
 20
1393.537223261895
 10
1602.028045604219
 20
1393.531981726291
 10
1602.032675830861
 20
1393.526121904256
 10
1602.036635870328
 20
1393.519761820438
 10
1602.039850825657
 20
1393.513020907642
 10
1602.042278127958
 20
1393.505959753992
 10
1602.043905461421
 20
1393.498648022415
 10
1602.04470120578
 20
1393.491223936083
 10
1602.04464679419
 20
1393.483780493142
 10
1602.043757932474
 20
1393.476366107466
 10
1602.042051071515
 20
1393.469120849969
 10
1602.039536176463
 20
1393.462129970195
 10
1602.036245519509
 20
1393.455442507865
 10
1602.032241029878
 20
1393.449184631111
 10
1602.027557911565
 20
1393.443430100681
 10
1602.02224488764
 20
1393.438217614891
 10
1602.016401874115
 20
1393.433645387294
 10
1602.010079780807
 20
1393.429767613413
 10
1602.003342963969
 20
1393.426609640123
 10
1601.99631818219
 20
1393.424230908157
 10
1601.987603923519
 20
1393.42244720936
 10
1601.978729369333
 20
1393.421845411064
  0
CIRCLE
  5
5B5
330
23
100
AcDbEntity
  8
SANINDUSA
100
AcDbCircle
 10
1601.913746608217
 20
1393.347866891938
 30
0.0
 40
0.0398223047967939
  0
CIRCLE
  5
5B7
330
23
100
AcDbEntity
  8
SANINDUSA
100
AcDbCircle
 10
1602.043728620568
 20
1393.347864924572
 30
0.0
 40
0.0398203126531903
  0
CIRCLE
  5
5B8
330
23
100
AcDbEntity
  8
SANINDUSA
100
AcDbCircle
 10
1601.978729369333
 20
1393.487845382693
 30
0.0
 40
0.045
  0
LINE
  5
5BB
330
23
100
AcDbEntity
  8
SANINDUSA
100
AcDbLine
 10
1603.767879941036
 20
1393.301623472108
 30
0.0
 11
1603.769980991784
 21
1393.361789693803
 31
0.0
  0
LINE
  5
5BE
330
23
100
AcDbEntity
  8
SANINDUSA
100
AcDbLine
 10
1603.772876895034
 20
1393.301623472108
 30
0.0
 11
1603.767879941036
 21
1393.301623472108
 31
0.0
  0
LINE
  5
5C1
330
23
100
AcDbEntity
  8
SANINDUSA
100
AcDbLine
 10
1603.772876895034
 20
1393.301623472108
 30
0.0
 11
1604.512879945804
 21
1393.301623472108
 31
0.0
  0
LINE
  5
5C2
330
23
100
AcDbEntity
  8
SANINDUSA
100
AcDbLine
 10
1604.517879941036
 20
1393.361616364776
 30
0.0
 11
1604.517879941036
 21
1393.301623472108
 31
0.0
  0
LINE
  5
5C4
330
23
100
AcDbEntity
  8
SANINDUSA
100
AcDbLine
 10
1604.517879941036
 20
1393.301623472108
 30
0.0
 11
1604.512879945804
 21
1393.301623472108
 31
0.0
  0
LWPOLYLINE
  5
5C6
330
23
100
AcDbEntity
  8
SANINDUSA
100
AcDbPolyline
 90
        5
 70
   128
 43
0.0
 10
1604.51287487941
 20
1393.366616360474
 10
1604.347514011433
 20
1393.36647444973
 10
1604.154970653822
 20
1393.366403752568
 10
1603.962427370717
 20
1393.366459020975
 10
1603.774982942269
 20
1393.366614244974
  0
ARC
  5
5C9
330
23
100
AcDbEntity
  8
SANINDUSA
100
AcDbCircle
 10
1603.774977911854
 20
1393.361614248377
 30
0.0
 40
0.004999999127506
100
AcDbArc
 50
89.94235566526441
 51
177.999975945957
  0
ARC
  5
5CA
330
23
100
AcDbEntity
  8
SANINDUSA
100
AcDbCircle
 10
1604.51287990308
 20
1393.361616325041
 30
0.0
 40
0.0050000379560715
100
AcDbArc
 50
0.000455325969089
 51
90.05756659929364
  0
ARC
  5
5CB
330
23
100
AcDbEntity
  8
SANINDUSA
100
AcDbCircle
 10
1605.098918434689
 20
1393.339492807376
 30
0.0
 40
0.0028689859919525
100
AcDbArc
 50
280.3901268376367
 51
344.3134684600001
  0
LWPOLYLINE
  5
5CC
330
23
100
AcDbEntity
  8
SANINDUSA
100
AcDbPolyline
 90
       10
 70
   128
 43
0.0
 10
1605.183902908734
 20
1393.338575095966
 10
1605.183914442233
 20
1393.338574779316
 10
1605.183786232642
 20
1393.338586167528
 10
1605.183590163163
 20
1393.338615940048
 10
1605.183338184527
 20
1393.338674799635
 10
1605.182884354762
 20
1393.338842843755
 10
1605.182338197402
 20
1393.339172047659
 10
1605.18177982109
 20
1393.339725052103
 10
1605.181361634902
 20
1393.340459934532
 10
1605.181355525426
 20
1393.340486957788
  0
LWPOLYLINE
  5
5CD
330
23
100
AcDbEntity
  8
SANINDUSA
100
AcDbPolyline
 90
        9
 70
   128
 43
0.0
 10
1604.966691215209
 20
1393.335227658137
 10
1604.966478009395
 20
1393.334669047131
 10
1604.96606846588
 20
1393.334098537549
 10
1604.965635914973
 20
1393.333710392102
 10
1604.965261001758
 20
1393.333477110698
 10
1604.964978505543
 20
1393.333349418922
 10
1604.964780022077
 20
1393.333282188608
 10
1604.96467163103
 20
1393.333254096194
 10
1604.964675624541
 20
1393.33325461401
  0
ARC
  5
5CE
330
23
100
AcDbEntity
  8
SANINDUSA
100
AcDbCircle
 10
1605.049066710082
 20
1393.338219776439
 30
0.0
 40
0.0028843842044448
100
AcDbArc
 50
200.1537429783775
 51
261.9717645939041
  0
ARC
  5
5CF
330
23
100
AcDbEntity
  8
SANINDUSA
100
AcDbCircle
 10
1605.233903820568
 20
1393.342416527396
 30
0.0
 40
0.0029113188191331
100
AcDbArc
 50
279.6419735079625
 51
343.1787312900061
  0
ARC
  5
5D0
330
23
100
AcDbEntity
  8
SANINDUSA
100
AcDbCircle
 10
1605.319140270785
 20
1393.343666647808
 30
0.0
 40
0.0029110935976337
100
AcDbArc
 50
198.7852844532302
 51
268.2993736500371
  0
ARC
  5
5D1
330
23
100
AcDbEntity
  8
SANINDUSA
100
AcDbCircle
 10
1605.043182409906
 20
1393.335782163022
 30
0.0
 40
0.0034618300749158
100
AcDbArc
 50
25.10259169784011
 51
95.85251516031211
  0
ARC
  5
5D2
330
23
100
AcDbEntity
  8
SANINDUSA
100
AcDbCircle
 10
1604.969890257795
 20
1393.333987169515
 30
0.0
 40
0.0033811692344038
100
AcDbArc
 50
89.61419298527422
 51
158.7315723383126
  0
ARC
  5
5D3
330
23
100
AcDbEntity
  8
SANINDUSA
100
AcDbCircle
 10
1605.178248749482
 20
1393.339175482528
 30
0.0
 40
0.0033279625006757
100
AcDbArc
 50
23.2777676463762
 51
98.80170927016287
  0
ARC
  5
5D4
330
23
100
AcDbEntity
  8
SANINDUSA
100
AcDbCircle
 10
1605.104568283875
 20
1393.337750283691
 30
0.0
 40
0.0030051400547412
100
AcDbArc
 50
97.79067531711254
 51
161.2593682977357
  0
ARC
  5
5D5
330
23
100
AcDbEntity
  8
SANINDUSA
100
AcDbCircle
 10
1605.313250668691
 20
1393.341346796463
 30
0.0
 40
0.0033810760493269
100
AcDbArc
 50
24.3066217460083
 51
99.17241560702445
  0
ARC
  5
5D6
330
23
100
AcDbEntity
  8
SANINDUSA
100
AcDbCircle
 10
1605.239532131473
 20
1393.340673194628
 30
0.0
 40
0.0029211872186235
100
AcDbArc
 50
95.54949959054495
 51
162.2505738016074
  0
ARC
  5
5D7
330
23
100
AcDbEntity
  8
SANINDUSA
100
AcDbCircle
 10
1605.233933094037
 20
1393.343064473947
 30
0.0
 40
0.0028807471791079
100
AcDbArc
 50
279.5551418730013
 51
343.4630457617266
  0
LWPOLYLINE
  5
5D8
330
23
100
AcDbEntity
  8
SANINDUSA
100
AcDbPolyline
 90
       10
 70
   128
 43
0.0
 10
1605.318980385236
 20
1393.341051706209
 10
1605.318981696538
 20
1393.341051672681
 10
1605.318886448316
 20
1393.341058439671
 10
1605.318743218354
 20
1393.34107530406
 10
1605.318554808072
 20
1393.341108671485
 10
1605.318234373501
 20
1393.341195135473
 10
1605.317654301099
 20
1393.341458174496
 10
1605.316967119149
 20
1393.342014084666
 10
1605.316496957711
 20
1393.342695080771
 10
1605.316387881211
 20
1393.343029000893
  0
LWPOLYLINE
  5
5D9
330
23
100
AcDbEntity
  8
SANINDUSA
100
AcDbPolyline
 90
       10
 70
   128
 43
0.0
 10
1605.101696778707
 20
1393.340353609159
 10
1605.101663578919
 20
1393.340201073422
 10
1605.101294477156
 20
1393.339524083867
 10
1605.100853969029
 20
1393.339040652945
 10
1605.100429017715
 20
1393.338729535325
 10
1605.100084592274
 20
1393.338552427574
 10
1605.099837143592
 20
1393.338459641769
 10
1605.099670220784
 20
1393.338412937804
 10
1605.099598337583
 20
1393.338397597059
 10
1605.099604059628
 20
1393.338398412897
  0
ARC
  5
5DA
330
23
100
AcDbEntity
  8
SANINDUSA
100
AcDbCircle
 10
1605.184088425376
 20
1393.342415479321
 30
0.0
 40
0.0028610584823243
100
AcDbArc
 50
198.8749569568882
 51
262.0752557225821
  0
LWPOLYLINE
  5
5DC
330
23
100
AcDbEntity
  8
SANINDUSA
100
AcDbPolyline
 90
        9
 70
   128
 43
0.0
 10
1604.966720391682
 20
1393.338560321464
 10
1604.966717739276
 20
1393.338544757201
 10
1604.966368187836
 20
1393.337844451054
 10
1604.965951521567
 20
1393.337356203332
 10
1604.965562571458
 20
1393.33705011858
 10
1604.965251524619
 20
1393.336875096991
 10
1604.965037305525
 20
1393.336785693749
 10
1604.964927752188
 20
1393.336750817581
 10
1604.964936782292
 20
1393.336752657875
  0
ARC
  5
5DD
330
23
100
AcDbEntity
  8
SANINDUSA
100
AcDbCircle
 10
1605.048895560177
 20
1393.340289789527
 30
0.0
 40
0.0026572991044439
100
AcDbArc
 50
195.9649709450025
 51
259.0374552364135
  0
ARC
  5
5DE
330
23
100
AcDbEntity
  8
SANINDUSA
100
AcDbCircle
 10
1605.043155536803
 20
1393.338170589194
 30
0.0
 40
0.003434172729114
100
AcDbArc
 50
22.8675909099685
 51
92.39426497165872
  0
ARC
  5
5DF
330
23
100
AcDbEntity
  8
SANINDUSA
100
AcDbCircle
 10
1604.970089316633
 20
1393.337170780573
 30
0.0
 40
0.0036074819565344
100
AcDbArc
 50
89.39760541194095
 51
157.2190462784559
  0
ARC
  5
5E0
330
23
100
AcDbEntity
  8
SANINDUSA
100
AcDbCircle
 10
1605.178200024068
 20
1393.340121390495
 30
0.0
 40
0.0034159387150868
100
AcDbArc
 50
23.77461178888135
 51
96.04267696231223
  0
ARC
  5
5E1
330
23
100
AcDbEntity
  8
SANINDUSA
100
AcDbCircle
 10
1605.104760673754
 20
1393.339251831698
 30
0.0
 40
0.00321231999172
100
AcDbArc
 50
88.30580214127765
 51
159.8360119718865
  0
ARC
  5
5E2
330
23
100
AcDbEntity
  8
SANINDUSA
100
AcDbCircle
 10
1605.313260504763
 20
1393.341742363687
 30
0.0
 40
0.003308370254597
100
AcDbArc
 50
22.44460361101497
 51
98.87502118481862
  0
ARC
  5
5E3
330
23
100
AcDbEntity
  8
SANINDUSA
100
AcDbCircle
 10
1605.23955172747
 20
1393.341300478181
 30
0.0
 40
0.0029422907118923
100
AcDbArc
 50
95.92223889074189
 51
161.7790421080013
  0
ARC
  5
5E4
330
23
100
AcDbEntity
  8
SANINDUSA
100
AcDbCircle
 10
1605.233947310732
 20
1393.343934545518
 30
0.0
 40
0.0028747090185005
100
AcDbArc
 50
279.0378707945842
 51
343.0775714612923
  0
ARC
  5
5E5
330
23
100
AcDbEntity
  8
SANINDUSA
100
AcDbCircle
 10
1605.319150919793
 20
1393.3443241097
 30
0.0
 40
0.0029021153277437
100
AcDbArc
 50
198.1792252668957
 51
266.87757402671
  0
ARC
  5
5E6
330
23
100
AcDbEntity
  8
SANINDUSA
100
AcDbCircle
 10
1605.098977942776
 20
1393.343220688832
 30
0.0
 40
0.0028722147362114
100
AcDbArc
 50
280.9186605092913
 51
342.841328738278
  0
ARC
  5
5E7
330
23
100
AcDbEntity
  8
SANINDUSA
100
AcDbCircle
 10
1605.18410878375
 20
1393.343660260233
 30
0.0
 40
0.0028589763800063
100
AcDbArc
 50
198.1848141118581
 51
262.2454248102133
  0
ARC
  5
5E8
330
23
100
AcDbEntity
  8
SANINDUSA
100
AcDbCircle
 10
1604.964061083814
 20
1393.342712528093
 30
0.0
 40
0.0027589497369799
100
AcDbArc
 50
283.3099929524788
 51
343.4213761720071
  0
ARC
  5
5E9
330
23
100
AcDbEntity
  8
SANINDUSA
100
AcDbCircle
 10
1605.049045169911
 20
1393.342939993565
 30
0.0
 40
0.0027994430061148
100
AcDbArc
 50
193.6640264404812
 51
259.0268582207973
  0
ARC
  5
5EA
330
23
100
AcDbEntity
  8
SANINDUSA
100
AcDbCircle
 10
1605.043164723744
 20
1393.340757575203
 30
0.0
 40
0.0034292927272005
100
AcDbArc
 50
22.61692508452056
 51
93.42587748103758
  0
ARC
  5
5EB
330
23
100
AcDbEntity
  8
SANINDUSA
100
AcDbCircle
 10
1604.969898537614
 20
1393.340646596406
 30
0.0
 40
0.0033756185436915
100
AcDbArc
 50
88.0844456346956
 51
157.9212500462276
  0
ARC
  5
5EC
330
23
100
AcDbEntity
  8
SANINDUSA
100
AcDbCircle
 10
1605.178215315286
 20
1393.341448041176
 30
0.0
 40
0.0033838442441735
100
AcDbArc
 50
22.92224390208165
 51
96.3037937488287
  0
ARC
  5
5ED
330
23
100
AcDbEntity
  8
SANINDUSA
100
AcDbCircle
 10
1605.104698755674
 20
1393.341259578723
 30
0.0
 40
0.0031427334736305
100
AcDbArc
 50
89.29453746101826
 51
159.7545245875537
  0
ARC
  5
5EE
330
23
100
AcDbEntity
  8
SANINDUSA
100
AcDbCircle
 10
1605.313261253336
 20
1393.342146369556
 30
0.0
 40
0.0033074334926472
100
AcDbArc
 50
22.16994422338196
 51
98.75693085141804
  0
ARC
  5
5EF
330
23
100
AcDbEntity
  8
SANINDUSA
100
AcDbCircle
 10
1605.239501551021
 20
1393.342200733854
 30
0.0
 40
0.0028749902876526
100
AcDbArc
 50
94.60248985966895
 51
162.1693462428772
  0
LINE
  5
5F1
330
23
100
AcDbEntity
  8
SANINDUSA
100
AcDbLine
 10
1604.795850817732
 20
1393.320357469006
 30
0.0
 11
1604.789616909496
 21
1393.32093324615
 31
0.0
  0
LWPOLYLINE
  5
5F3
330
23
100
AcDbEntity
  8
SANINDUSA
100
AcDbPolyline
 90
        6
 70
   128
 43
0.0
 10
1605.364560355119
 20
1393.32923531635
 10
1605.275659371785
 20
1393.328098734005
 10
1605.186763425044
 20
1393.326471445247
 10
1605.086603005103
 20
1393.324013975545
 10
1604.98645128744
 20
1393.321145412608
 10
1604.93809244471
 20
1393.319880084231
  0
LWPOLYLINE
  5
5F4
330
23
100
AcDbEntity
  8
SANINDUSA
100
AcDbPolyline
 90
       37
 70
   128
 43
0.0
 10
1604.800116677455
 20
1393.332055085435
 10
1604.800370652846
 20
1393.332052071675
 10
1604.801139277092
 20
1393.332042493953
 10
1604.802316416673
 20
1393.33202801375
 10
1604.803926308326
 20
1393.332009413376
 10
1604.80602167236
 20
1393.331987575724
 10
1604.808544304839
 20
1393.331964654013
 10
1604.811416071526
 20
1393.331942563041
 10
1604.814659897856
 20
1393.331921671613
 10
1604.818361845485
 20
1393.331901834442
 10
1604.822407697014
 20
1393.331883554443
 10
1604.826692734531
 20
1393.331867155715
 10
1604.831252579264
 20
1393.331852537676
 10
1604.836199690274
 20
1393.33183943583
 10
1604.841368515662
 20
1393.331828137024
 10
1604.846567053965
 20
1393.331818685963
 10
1604.851903517417
 20
1393.331810482874
 10
1604.857501555852
 20
1393.331803114249
 10
1604.863165487222
 20
1393.331796658321
 10
1604.868675221375
 20
1393.331791167243
 10
1604.87416956263
 20
1393.331786357894
 10
1604.879767899088
 20
1393.33178207381
 10
1604.885268573336
 20
1393.331778363421
 10
1604.890471224359
 20
1393.331775193199
 10
1604.895507995657
 20
1393.331772328451
 10
1604.900480900577
 20
1393.331769649967
 10
1604.905204792193
 20
1393.331767254605
 10
1604.909516905121
 20
1393.331765198245
 10
1604.913532142214
 20
1393.331763395204
 10
1604.917323832086
 20
1393.331761778428
 10
1604.92074403601
 20
1393.331760388895
 10
1604.923685540131
 20
1393.33175923033
 10
1604.926232550911
 20
1393.331758246853
 10
1604.928421725205
 20
1393.331757408663
 10
1604.930158515147
 20
1393.331756734385
 10
1604.931933928899
 20
1393.331756041481
 10
1604.93254401224
 20
1393.331755825414
  0
LINE
  5
5F5
330
23
100
AcDbEntity
  8
SANINDUSA
100
AcDbLine
 10
1604.93254401224
 20
1393.331755825414
 30
0.0
 11
1604.911544040612
 21
1393.317051484966
 31
0.0
  0
LINE
  5
5F6
330
23
100
AcDbEntity
  8
SANINDUSA
100
AcDbLine
 10
1604.911544040612
 20
1393.317051484966
 30
0.0
 11
1604.821544040612
 21
1393.317051484966
 31
0.0
  0
LINE
  5
5F7
330
23
100
AcDbEntity
  8
SANINDUSA
100
AcDbLine
 10
1604.821544040612
 20
1393.317051484966
 30
0.0
 11
1604.800116677455
 21
1393.332055085435
 31
0.0
  0
LINE
  5
5FB
330
23
100
AcDbEntity
  8
SANINDUSA
100
AcDbLine
 10
1604.735691452497
 20
1393.365122963851
 30
0.0
 11
1604.703815621905
 21
1393.366277441637
 31
0.0
  0
LINE
  5
5FC
330
23
100
AcDbEntity
  8
SANINDUSA
100
AcDbLine
 10
1604.731824230317
 20
1393.355256470221
 30
0.0
 11
1604.709453241418
 21
1393.356066701962
 31
0.0
  0
ARC
  5
5FD
330
23
100
AcDbEntity
  8
SANINDUSA
100
AcDbCircle
 10
1604.709417047182
 20
1393.355067357188
 30
0.0
 40
0.001
100
AcDbArc
 50
87.92576997676631
 51
178.000000009266
  0
LWPOLYLINE
  5
5FE
330
23
100
AcDbEntity
  8
SANINDUSA
100
AcDbPolyline
 90
        5
 70
   128
 43
0.0
 10
1605.441544003927
 20
1393.366616364786
 10
1605.276178111008
 20
1393.36647444973
 10
1605.083634753398
 20
1393.366403752568
 10
1604.891091470293
 20
1393.366459020975
 10
1604.70364526204
 20
1393.366614246448
  0
LINE
  5
5FF
330
23
100
AcDbEntity
  8
SANINDUSA
100
AcDbLine
 10
1605.441358219376
 20
1393.3663548607
 30
0.0
 11
1605.409136034765
 21
1393.365184384989
 31
0.0
  0
LINE
  5
600
330
23
100
AcDbEntity
  8
SANINDUSA
100
AcDbLine
 10
1605.435507739403
 20
1393.356135745725
 30
0.0
 11
1605.412432348223
 21
1393.355297528664
 31
0.0
  0
LWPOLYLINE
  5
601
330
23
100
AcDbEntity
  8
SANINDUSA
100
AcDbPolyline
 90
       21
 70
   128
 43
0.0
 10
1605.319192518166
 20
1393.340753392412
 10
1605.318927217892
 20
1393.34074457465
 10
1605.318060149125
 20
1393.340728259741
 10
1605.315858711175
 20
1393.340693594052
 10
1605.312462915353
 20
1393.340644016027
 10
1605.308157612256
 20
1393.340582800194
 10
1605.302818943433
 20
1393.34050720474
 10
1605.296894420556
 20
1393.340422623887
 10
1605.290213991574
 20
1393.340325747713
 10
1605.283337344102
 20
1393.340224017485
 10
1605.276067544393
 20
1393.340114110245
 10
1605.269013871125
 20
1393.340005197658
 10
1605.261974443368
 20
1393.339894556536
 10
1605.255539823941
 20
1393.33979226379
 10
1605.249525476865
 20
1393.339696598335
 10
1605.244436909131
 20
1393.339617014959
 10
1605.240127016477
 20
1393.339552749976
 10
1605.23695843356
 20
1393.339510527535
 10
1605.234838653974
 20
1393.339490098044
 10
1605.233968247346
 20
1393.339492657318
 10
1605.233990956715
 20
1393.339495715781
  0
LINE
  5
602
330
23
100
AcDbEntity
  8
SANINDUSA
100
AcDbLine
 10
1605.318980504445
 20
1393.340756985455
 30
0.0
 11
1605.319212366513
 21
1393.340754051789
 31
0.0
  0
LWPOLYLINE
  5
603
330
23
100
AcDbEntity
  8
SANINDUSA
100
AcDbPolyline
 90
       21
 70
   128
 43
0.0
 10
1605.184118468932
 20
1393.338551846429
 10
1605.183934469394
 20
1393.338534892633
 10
1605.183067549638
 20
1393.338497975006
 10
1605.180866618327
 20
1393.338428200318
 10
1605.177471925191
 20
1393.338335686459
 10
1605.173167665175
 20
1393.338226677015
 10
1605.167830426864
 20
1393.338096388712
 10
1605.161906500033
 20
1393.337954168304
 10
1605.155226726703
 20
1393.337794535889
 10
1605.148349423579
 20
1393.337629822179
 10
1605.141078789405
 20
1393.337454796865
 10
1605.134023327998
 20
1393.337284223273
 10
1605.12698196309
 20
1393.337114089265
 10
1605.120545734338
 20
1393.336960193797
 10
1605.114529926947
 20
1393.336820294245
 10
1605.109441389016
 20
1393.336708602592
 10
1605.105131794385
 20
1393.336624399855
 10
1605.101964820794
 20
1393.336576835348
 10
1605.099846322707
 20
1393.336565868094
 10
1605.098977048568
 20
1393.336589870139
 10
1605.099088747672
 20
1393.336626918151
  0
LINE
  5
604
330
23
100
AcDbEntity
  8
SANINDUSA
100
AcDbLine
 10
1605.1839884414
 20
1393.338576168849
 30
0.0
 11
1605.184219767026
 21
1393.338561174556
 31
0.0
  0
LWPOLYLINE
  5
605
330
23
100
AcDbEntity
  8
SANINDUSA
100
AcDbPolyline
 90
       20
 70
   128
 43
0.0
 10
1605.049001861981
 20
1393.335267008378
 10
1605.048940111569
 20
1393.335254591986
 10
1605.048074324302
 20
1393.335184828474
 10
1605.045874227456
 20
1393.335066505804
 10
1605.042480577401
 20
1393.334922437652
 10
1605.038176585606
 20
1393.334762648775
 10
1605.032839466504
 20
1393.334580534234
 10
1605.026914407185
 20
1393.334389549776
 10
1605.020233054332
 20
1393.334182874396
 10
1605.013353218011
 20
1393.333976999953
 10
1605.006079663209
 20
1393.333766059115
 10
1604.999021340779
 20
1393.333568585201
 10
1604.991977025441
 20
1393.333380845471
 10
1604.985539544992
 20
1393.333221295013
 10
1604.979522634915
 20
1393.333088652327
 10
1604.974435289077
 20
1393.332997468396
 10
1604.970126797131
 20
1393.332948074772
 10
1604.966961552075
 20
1393.33294663681
 10
1604.964843858651
 20
1393.332993761732
 10
1604.964622308186
 20
1393.333015066668
  0
LINE
  5
606
330
23
100
AcDbEntity
  8
SANINDUSA
100
AcDbLine
 10
1604.964415271453
 20
1393.333234136089
 30
0.0
 11
1604.964762438706
 21
1393.33327867566
 31
0.0
  0
LWPOLYLINE
  5
607
330
23
100
AcDbEntity
  8
SANINDUSA
100
AcDbPolyline
 90
        3
 70
   128
 43
0.0
 10
1605.04830618637
 20
1393.33537757872
 10
1605.048993547133
 20
1393.335353815093
 10
1605.048994411401
 20
1393.335353658631
  0
LWPOLYLINE
  5
608
330
23
100
AcDbEntity
  8
SANINDUSA
100
AcDbPolyline
 90
        3
 70
   128
 43
0.0
 10
1605.048385818175
 20
1393.337361109539
 10
1605.048072208337
 20
1393.337319095715
 10
1605.046370018891
 20
1393.337183860227
  0
LWPOLYLINE
  5
609
330
23
100
AcDbEntity
  8
SANINDUSA
100
AcDbPolyline
 90
        3
 70
   128
 43
0.0
 10
1604.967191536597
 20
1393.336058103576
 10
1604.966930706672
 20
1393.336070519968
 10
1604.964839447907
 20
1393.336252820774
  0
ARC
  5
60B
330
23
100
AcDbEntity
  8
SANINDUSA
100
AcDbCircle
 10
1605.181976904429
 20
1393.357526133985
 30
0.0
 40
0.018146234503157
100
AcDbArc
 50
270.4761459210971
 51
276.3789833892721
  0
LWPOLYLINE
  5
60C
330
23
100
AcDbEntity
  8
SANINDUSA
100
AcDbPolyline
 90
        3
 70
   128
 43
0.0
 10
1605.101421584062
 20
1393.338099417373
 10
1605.099840243033
 20
1393.338155471816
 10
1605.099634934834
 20
1393.338177246137
  0
LINE
  5
60D
330
23
100
AcDbEntity
  8
SANINDUSA
100
AcDbLine
 10
1605.099306245021
 20
1393.338377137764
 30
0.0
 11
1605.099599946908
 21
1393.338408109828
 31
0.0
  0
LWPOLYLINE
  5
60E
330
23
100
AcDbEntity
  8
SANINDUSA
100
AcDbPolyline
 90
        3
 70
   128
 43
0.0
 10
1605.183688510827
 20
1393.33958251132
 10
1605.183980305366
 20
1393.339571458384
 10
1605.183981080226
 20
1393.339571327998
  0
ARC
  5
60F
330
23
100
AcDbEntity
  8
SANINDUSA
100
AcDbCircle
 10
1605.317684483934
 20
1393.369527672746
 30
0.0
 40
0.0285263495696798
100
AcDbArc
 50
270.6690686523996
 51
272.9351469733377
  0
LWPOLYLINE
  5
610
330
23
100
AcDbEntity
  8
SANINDUSA
100
AcDbPolyline
 90
        3
 70
   128
 43
0.0
 10
1605.23566399949
 20
1393.340114710017
 10
1605.234834720067
 20
1393.340121907278
 10
1605.233961452416
 20
1393.340155200198
  0
LWPOLYLINE
  5
611
330
23
100
AcDbEntity
  8
SANINDUSA
100
AcDbPolyline
 90
        3
 70
   128
 43
0.0
 10
1605.234063733987
 20
1393.340182972237
 10
1605.234134782723
 20
1393.340202258064
 10
1605.23443489211
 20
1393.340217062368
  0
ARC
  5
612
330
23
100
AcDbEntity
  8
SANINDUSA
100
AcDbCircle
 10
1605.317625479495
 20
1393.379513775503
 30
0.0
 40
0.0381292889784808
100
AcDbArc
 50
270.2859453484481
 51
272.2923005778839
  0
LWPOLYLINE
  5
613
330
23
100
AcDbEntity
  8
SANINDUSA
100
AcDbPolyline
 90
        3
 70
   128
 43
0.0
 10
1605.235899795464
 20
1393.340981018825
 10
1605.234828401975
 20
1393.340996897875
 10
1605.233954240254
 20
1393.34103327906
  0
LWPOLYLINE
  5
614
330
23
100
AcDbEntity
  8
SANINDUSA
100
AcDbPolyline
 90
        3
 70
   128
 43
0.0
 10
1605.234051217011
 20
1393.341056489482
 10
1605.234127689771
 20
1393.341074797421
 10
1605.234430540971
 20
1393.341086226612
  0
ARC
  5
615
330
23
100
AcDbEntity
  8
SANINDUSA
100
AcDbCircle
 10
1605.18186431836
 20
1393.362940114134
 30
0.0
 40
0.0222938761337098
100
AcDbArc
 50
269.9588499852878
 51
275.4955776139311
  0
LWPOLYLINE
  5
616
330
23
100
AcDbEntity
  8
SANINDUSA
100
AcDbPolyline
 90
        3
 70
   128
 43
0.0
 10
1605.101648528746
 20
1393.340122935458
 10
1605.099831183127
 20
1393.34019636093
 10
1605.0995908572
 20
1393.340220348074
  0
LINE
  5
617
330
23
100
AcDbEntity
  8
SANINDUSA
100
AcDbLine
 10
1605.099199016265
 20
1393.340381513446
 30
0.0
 11
1605.099713255337
 21
1393.34042202039
 31
0.0
  0
LWPOLYLINE
  5
619
330
23
100
AcDbEntity
  8
SANINDUSA
100
AcDbPolyline
 90
        3
 70
   128
 43
0.0
 10
1605.183721084765
 20
1393.340827765971
 10
1605.183972079925
 20
1393.340817964732
 10
1605.183972735576
 20
1393.340817858561
  0
ARC
  5
61B
330
23
100
AcDbEntity
  8
SANINDUSA
100
AcDbCircle
 10
1604.967972872782
 20
1393.367939078729
 30
0.0
 40
0.0284057591784549
100
AcDbArc
 50
263.4630998556229
 51
268.6785878532259
  0
LINE
  5
61C
330
23
100
AcDbEntity
  8
SANINDUSA
100
AcDbLine
 10
1604.964434374742
 20
1393.340011757894
 30
0.0
 11
1604.964700449876
 21
1393.340040852412
 31
0.0
  0
LINE
  5
61E
330
23
100
AcDbEntity
  8
SANINDUSA
100
AcDbLine
 10
1604.800116677455
 20
1393.332055085435
 30
0.0
 11
1604.778445941082
 21
1393.334328183069
 31
0.0
  0
LWPOLYLINE
  5
622
330
23
100
AcDbEntity
  8
SANINDUSA
100
AcDbPolyline
 90
        6
 70
   128
 43
0.0
 10
1605.364436556271
 20
1393.341234677567
 10
1605.278389502934
 20
1393.34014194934
 10
1605.192347158364
 20
1393.338591870948
 10
1605.104559500388
 20
1393.336503309294
 10
1605.016780038051
 20
1393.33402214302
 10
1604.93254401224
 20
1393.331755825414
  0
LINE
  5
623
330
23
100
AcDbEntity
  8
SANINDUSA
100
AcDbLine
 10
1604.821544040612
 20
1393.306623472407
 30
0.0
 11
1604.821544040612
 21
1393.317051484966
 31
0.0
  0
LINE
  5
624
330
23
100
AcDbEntity
  8
SANINDUSA
100
AcDbLine
 10
1604.809544038645
 20
1393.306623474791
 30
0.0
 11
1604.821544040612
 21
1393.306623472407
 31
0.0
  0
LINE
  5
625
330
23
100
AcDbEntity
  8
SANINDUSA
100
AcDbLine
 10
1604.809544038645
 20
1393.306623474791
 30
0.0
 11
1604.809535798303
 21
1393.306717642679
 31
0.0
  0
ARC
  5
626
330
23
100
AcDbEntity
  8
SANINDUSA
100
AcDbCircle
 10
1604.79458836852
 20
1393.305405785181
 30
0.0
 40
0.015004886777771
100
AcDbArc
 50
5.015698284422984
 51
85.1736641018307
  0
LWPOLYLINE
  5
627
330
23
100
AcDbEntity
  8
SANINDUSA
100
AcDbPolyline
 90
        3
 70
   128
 43
0.0
 10
1604.789616909496
 20
1393.32093324615
 10
1604.787941974274
 20
1393.320818499758
 10
1604.787003238372
 20
1393.320489906802
  0
LINE
  5
628
330
23
100
AcDbEntity
  8
SANINDUSA
100
AcDbLine
 10
1604.747548658608
 20
1393.302091933471
 30
0.0
 11
1604.787003238372
 21
1393.320489906802
 31
0.0
  0
LINE
  5
629
330
23
100
AcDbEntity
  8
SANINDUSA
100
AcDbLine
 10
1604.744528017555
 20
1393.311717164625
 30
0.0
 11
1604.770540470928
 21
1393.32384697126
 31
0.0
  0
ARC
  5
62A
330
23
100
AcDbEntity
  8
SANINDUSA
100
AcDbCircle
 10
1604.745435567299
 20
1393.306623472407
 30
0.0
 40
0.005
100
AcDbArc
 50
270.0
 51
295.0000000036829
  0
LINE
  5
62B
330
23
100
AcDbEntity
  8
SANINDUSA
100
AcDbLine
 10
1604.745435567299
 20
1393.301623472407
 30
0.0
 11
1604.724044040612
 21
1393.301623472407
 31
0.0
  0
LINE
  5
62C
330
23
100
AcDbEntity
  8
SANINDUSA
100
AcDbLine
 10
1604.744105399281
 20
1393.311623472406
 30
0.0
 11
1604.728554452762
 21
1393.311623472406
 31
0.0
  0
ARC
  5
62D
330
23
100
AcDbEntity
  8
SANINDUSA
100
AcDbCircle
 10
1604.744105399281
 20
1393.312623472407
 30
0.0
 40
0.001
100
AcDbArc
 50
270.0
 51
295.0000007552875
  0
ARC
  5
62E
330
23
100
AcDbEntity
  8
SANINDUSA
100
AcDbCircle
 10
1604.716544040612
 20
1393.296592222407
 30
0.0
 40
0.00903125
100
AcDbArc
 50
33.85502613172002
 51
146.14497386828
  0
ARC
  5
62F
330
23
100
AcDbEntity
  8
SANINDUSA
100
AcDbCircle
 10
1604.716544040612
 20
1393.296592222407
 30
0.0
 40
0.01903125
100
AcDbArc
 50
53.15990769041877
 51
115.2230343008034
  0
ARC
  5
630
330
23
100
AcDbEntity
  8
SANINDUSA
100
AcDbCircle
 10
1604.708007863251
 20
1393.314713609015
 30
0.0
 40
0.001
100
AcDbArc
 50
178.000000009266
 51
295.2230343008034
  0
ARC
  5
631
330
23
100
AcDbEntity
  8
SANINDUSA
100
AcDbCircle
 10
1604.728554452762
 20
1393.312623472407
 30
0.0
 40
0.001
100
AcDbArc
 50
233.1599076904188
 51
270.0
  0
LINE
  5
632
330
23
100
AcDbEntity
  8
SANINDUSA
100
AcDbLine
 10
1604.709044040612
 20
1393.301623472407
 30
0.0
 11
1604.696544040612
 21
1393.301623472108
 31
0.0
  0
LINE
  5
633
330
23
100
AcDbEntity
  8
SANINDUSA
100
AcDbLine
 10
1604.698645091351
 20
1393.361789693542
 30
0.0
 11
1604.696544040612
 21
1393.301623472108
 31
0.0
  0
LINE
  5
634
330
23
100
AcDbEntity
  8
SANINDUSA
100
AcDbLine
 10
1604.708417656355
 20
1393.355102256685
 30
0.0
 11
1604.707008472423
 21
1393.314748508512
 31
0.0
  0
ARC
  5
635
330
23
100
AcDbEntity
  8
SANINDUSA
100
AcDbCircle
 10
1604.703630370725
 20
1393.361280874615
 30
0.0
 40
0.0050000000000007
100
AcDbArc
 50
87.87669186270928
 51
177.9999999962464
  0
ARC
  5
636
330
23
100
AcDbEntity
  8
SANINDUSA
100
AcDbCircle
 10
1604.73550611563
 20
1393.360126400007
 30
0.0
 40
0.0050000000000011
100
AcDbArc
 50
25.58938003581584
 51
87.97583059311858
  0
ARC
  5
637
330
23
100
AcDbEntity
  8
SANINDUSA
100
AcDbCircle
 10
1604.785111314007
 20
1393.383881926038
 30
0.0
 40
0.0500000063846884
100
AcDbArc
 50
205.5893812304889
 51
262.3392411944703
  0
ARC
  5
638
330
23
100
AcDbEntity
  8
SANINDUSA
100
AcDbCircle
 10
1604.785111314007
 20
1393.383881926038
 30
0.0
 40
0.0600000063846884
100
AcDbArc
 50
209.0552258947356
 51
255.7712135113004
  0
ARC
  5
639
330
23
100
AcDbEntity
  8
SANINDUSA
100
AcDbCircle
 10
1604.731788036081
 20
1393.354257125447
 30
0.0
 40
0.001
100
AcDbArc
 50
29.05522589473564
 51
87.92576997676631
  0
ARC
  5
63A
330
23
100
AcDbEntity
  8
SANINDUSA
100
AcDbCircle
 10
1604.770117852654
 20
1393.324753279042
 30
0.0
 40
0.001
100
AcDbArc
 50
295.0000007552875
 51
75.77121351130035
  0
ARC
  5
63B
330
23
100
AcDbEntity
  8
SANINDUSA
100
AcDbCircle
 10
1605.40932193825
 20
1393.360187842195
 30
0.0
 40
0.0050000000000014
100
AcDbArc
 50
92.02993811245219
 51
145.6366169295211
  0
ARC
  5
63C
330
23
100
AcDbEntity
  8
SANINDUSA
100
AcDbCircle
 10
1605.441544040612
 20
1393.361358314846
 30
0.0
 40
0.0050000000000006
100
AcDbArc
 50
0.0
 51
92.1298449924007
  0
LINE
  5
63D
330
23
100
AcDbEntity
  8
SANINDUSA
100
AcDbLine
 10
1605.446544040612
 20
1393.301623472108
 30
0.0
 11
1605.446544040612
 21
1393.361358314846
 31
0.0
  0
LINE
  5
63E
330
23
100
AcDbEntity
  8
SANINDUSA
100
AcDbLine
 10
1605.436544040612
 20
1393.31448777986
 30
0.0
 11
1605.436544040612
 21
1393.355136404831
 31
0.0
  0
ARC
  5
63F
330
23
100
AcDbEntity
  8
SANINDUSA
100
AcDbCircle
 10
1605.435544040612
 20
1393.355136404831
 30
0.0
 40
0.001
100
AcDbArc
 50
0.0
 51
92.08036312622324
  0
LINE
  5
640
330
23
100
AcDbEntity
  8
SANINDUSA
100
AcDbLine
 10
1605.446544040612
 20
1393.301623472108
 30
0.0
 11
1605.434044040612
 21
1393.301623472407
 31
0.0
  0
ARC
  5
641
330
23
100
AcDbEntity
  8
SANINDUSA
100
AcDbCircle
 10
1605.426544040612
 20
1393.296592222407
 30
0.0
 40
0.0090312499999999
100
AcDbArc
 50
33.85502613172002
 51
146.14497386828
  0
ARC
  5
642
330
23
100
AcDbEntity
  8
SANINDUSA
100
AcDbCircle
 10
1605.426544040612
 20
1393.296592222407
 30
0.0
 40
0.0190312499999999
100
AcDbArc
 50
63.30134852359162
 51
126.8400923095812
  0
ARC
  5
643
330
23
100
AcDbEntity
  8
SANINDUSA
100
AcDbCircle
 10
1605.414533628463
 20
1393.312623472407
 30
0.0
 40
0.001
100
AcDbArc
 50
270.0
 51
306.8400923095813
  0
ARC
  5
644
330
23
100
AcDbEntity
  8
SANINDUSA
100
AcDbCircle
 10
1605.435544040612
 20
1393.31448777986
 30
0.0
 40
0.001
100
AcDbArc
 50
243.3013485235916
 51
0.0
  0
LINE
  5
645
330
23
100
AcDbEntity
  8
SANINDUSA
100
AcDbLine
 10
1605.419044040612
 20
1393.301623472407
 30
0.0
 11
1605.389430791958
 21
1393.301623472407
 31
0.0
  0
LINE
  5
646
330
23
100
AcDbEntity
  8
SANINDUSA
100
AcDbLine
 10
1605.414533628463
 20
1393.311623472406
 30
0.0
 11
1605.392894890346
 21
1393.311623472406
 31
0.0
  0
ARC
  5
647
330
23
100
AcDbEntity
  8
SANINDUSA
100
AcDbCircle
 10
1605.389430791958
 20
1393.306623472407
 30
0.0
 40
0.005
100
AcDbArc
 50
210.0000000027197
 51
270.0
  0
LINE
  5
648
330
23
100
AcDbEntity
  8
SANINDUSA
100
AcDbLine
 10
1605.371987391881
 20
1393.326836285277
 30
0.0
 11
1605.385100664939
 21
1393.304123472407
 31
0.0
  0
LINE
  5
649
330
23
100
AcDbEntity
  8
SANINDUSA
100
AcDbLine
 10
1605.380647641885
 20
1393.331836292264
 30
0.0
 11
1605.392028865345
 21
1393.312123471708
 31
0.0
  0
ARC
  5
64A
330
23
100
AcDbEntity
  8
SANINDUSA
100
AcDbCircle
 10
1605.392894890346
 20
1393.312623472407
 30
0.0
 40
0.001
100
AcDbArc
 50
210.000046234845
 51
270.0
  0
ARC
  5
64B
330
23
100
AcDbEntity
  8
SANINDUSA
100
AcDbCircle
 10
1605.367657336798
 20
1393.324336414954
 30
0.0
 40
0.0049998728642199
100
AcDbArc
 50
29.99912523374985
 51
93.19740205888113
  0
ARC
  5
64C
330
23
100
AcDbEntity
  8
SANINDUSA
100
AcDbCircle
 10
1605.367657336798
 20
1393.324336414954
 30
0.0
 40
0.0149998728642199
100
AcDbArc
 50
29.99912523374985
 51
31.72660761032727
  0
ARC
  5
64D
330
23
100
AcDbEntity
  8
SANINDUSA
100
AcDbCircle
 10
1605.38126630056
 20
1393.332750215342
 30
0.0
 40
0.001
100
AcDbArc
 50
106.5203648042714
 51
211.7266076103273
  0
LINE
  5
64E
330
23
100
AcDbEntity
  8
SANINDUSA
100
AcDbLine
 10
1605.364560355119
 20
1393.32923531635
 30
0.0
 11
1605.367378462724
 21
1393.329328504487
 31
0.0
  0
LINE
  5
64F
330
23
100
AcDbEntity
  8
SANINDUSA
100
AcDbLine
 10
1604.911544040612
 20
1393.306623472407
 30
0.0
 11
1604.923544038705
 21
1393.306623474791
 31
0.0
  0
LINE
  5
650
330
23
100
AcDbEntity
  8
SANINDUSA
100
AcDbLine
 10
1604.911544040612
 20
1393.317051484966
 30
0.0
 11
1604.911544040612
 21
1393.306623472407
 31
0.0
  0
ARC
  5
651
330
23
100
AcDbEntity
  8
SANINDUSA
100
AcDbCircle
 10
1605.363920262551
 20
1393.391233118041
 30
0.0
 40
0.0500011060778725
100
AcDbArc
 50
270.5916264452428
 51
325.6359567210121
  0
ARC
  5
652
330
23
100
AcDbEntity
  8
SANINDUSA
100
AcDbCircle
 10
1605.363920262551
 20
1393.391233118041
 30
0.0
 40
0.0600011060778725
100
AcDbArc
 50
286.5203648042715
 51
322.7366327157041
  0
ARC
  5
653
330
23
100
AcDbEntity
  8
SANINDUSA
100
AcDbCircle
 10
1605.412468649431
 20
1393.35429818777
 30
0.0
 40
0.001
100
AcDbArc
 50
92.08036312622324
 51
142.736632715704
  0
ARC
  5
654
330
23
100
AcDbEntity
  8
SANINDUSA
100
AcDbCircle
 10
1604.938446744057
 20
1393.304879914148
 30
0.0
 40
0.0150043537191411
100
AcDbArc
 50
91.35305689871568
 51
173.3269454991615
  0
ARC
  5
655
330
23
100
AcDbEntity
  8
SANINDUSA
100
AcDbCircle
 10
1605.441544002656
 20
1393.361616325041
 30
0.0
 40
0.0050000379560717
100
AcDbArc
 50
0.000455325969089
 51
90.05756659929364
  0
LINE
  5
656
330
23
100
AcDbEntity
  8
SANINDUSA
100
AcDbLine
 10
1604.821544040612
 20
1393.306623472407
 30
0.0
 11
1604.911544040612
 21
1393.306623472407
 31
0.0
  0
ARC
  5
65B
330
23
100
AcDbEntity
  8
SANINDUSA
100
AcDbCircle
 10
1604.70364201143
 20
1393.361614248377
 30
0.0
 40
0.0049999991275067
100
AcDbArc
 50
89.94235566526441
 51
177.999975945957
  0
LINE
  5
65C
330
23
100
AcDbEntity
  8
SANINDUSA
100
AcDbLine
 10
1604.69863341659
 20
1393.361455372099
 30
0.0
 11
1604.698645058316
 21
1393.36178874754
 31
0.0
  0
ARC
  5
660
330
23
100
AcDbEntity
  8
SANINDUSA
100
AcDbCircle
 10
1605.036437885214
 20
1392.156971605929
 30
0.0
 40
1.182270860220577
100
AcDbArc
 50
89.69847021158633
 51
93.20889913100474
  0
LWPOLYLINE
  5
661
330
23
100
AcDbEntity
  8
SANINDUSA
100
AcDbPolyline
 90
       20
 70
   128
 43
0.0
 10
1604.969811190537
 20
1393.337178179159
 10
1604.970272619895
 20
1393.337144342347
 10
1604.971281368903
 20
1393.337114785894
 10
1604.973656554393
 20
1393.337099933162
 10
1604.977044184378
 20
1393.337125168278
 10
1604.981162597112
 20
1393.337187354549
 10
1604.986127872638
 20
1393.337286324336
 10
1604.991526146106
 20
1393.337411501541
 10
1604.997509379558
 20
1393.337563888266
 10
1605.003577072791
 20
1393.337728538647
 10
1605.00990187066
 20
1393.337908403113
 10
1605.015952874593
 20
1393.338087347432
 10
1605.021904636792
 20
1393.33827018468
 10
1605.027256388835
 20
1393.338441816255
 10
1605.03216390746
 20
1393.338608087137
 10
1605.036213894061
 20
1393.338756189778
 10
1605.039524753264
 20
1393.338891980334
 10
1605.04181762474
 20
1393.339005590513
 10
1605.043159563712
 20
1393.339101948871
 10
1605.043282647303
 20
1393.339125421926
  0
LWPOLYLINE
  5
662
330
23
100
AcDbEntity
  8
SANINDUSA
100
AcDbPolyline
 90
       20
 70
   128
 43
0.0
 10
1605.177669216565
 20
1393.342463594957
 10
1605.175894488267
 20
1393.342457844972
 10
1605.17307840722
 20
1393.342432350948
 10
1605.169457603864
 20
1393.34238887681
 10
1605.164927919082
 20
1393.342325442566
 10
1605.159869749717
 20
1393.342246380731
 10
1605.154137749843
 20
1393.342148161589
 10
1605.154120375089
 20
1393.34214785239
 10
1605.148188014201
 20
1393.34203722617
 10
1605.141892124585
 20
1393.341909791439
 10
1605.13576011794
 20
1393.341775055139
 10
1605.129616697005
 20
1393.341628265663
 10
1605.123977829389
 20
1393.34148132345
 10
1605.118680555991
 20
1393.341330089702
 10
1605.114171017579
 20
1393.341187990366
 10
1605.110317160062
 20
1393.341052145793
 10
1605.107443560532
 20
1393.340935646652
 10
1605.105465938023
 20
1393.340837017729
 10
1605.104550827912
 20
1393.340766376912
 10
1605.104551155738
 20
1393.340766257703
  0
ARC
  5
663
330
23
100
AcDbEntity
  8
SANINDUSA
100
AcDbCircle
 10
1605.04148986328
 20
1397.681532098638
 30
0.0
 40
4.341254564119597
100
AcDbArc
 50
270.8334031772436
 51
271.8073057920713
  0
LWPOLYLINE
  5
664
330
23
100
AcDbEntity
  8
SANINDUSA
100
AcDbPolyline
 90
       20
 70
   128
 43
0.0
 10
1605.312690426282
 20
1393.344684445395
 10
1605.310912658147
 20
1393.344671643435
 10
1605.308093298844
 20
1393.344646380379
 10
1605.304469217233
 20
1393.344610507696
 10
1605.299936045579
 20
1393.344562492429
 10
1605.294874478749
 20
1393.344505698516
 10
1605.289138842992
 20
1393.344437674715
 10
1605.283208955697
 20
1393.344363256454
 10
1605.276915658883
 20
1393.344279480263
 10
1605.276902426652
 20
1393.344279297723
 10
1605.270771790913
 20
1393.344192463069
 10
1605.264629830293
 20
1393.344099636286
 10
1605.258992363385
 20
1393.344008454218
 10
1605.253696550301
 20
1393.343916486113
 10
1605.249187756947
 20
1393.343832011431
 10
1605.245335091523
 20
1393.343753474861
 10
1605.242462505273
 20
1393.343688550501
 10
1605.240486670903
 20
1393.343636537998
 10
1605.239573766163
 20
1393.343602859511
 10
1605.239599098138
 20
1393.343599687426
  0
LWPOLYLINE
  5
665
330
23
100
AcDbEntity
  8
SANINDUSA
100
AcDbPolyline
 90
       22
 70
   128
 43
0.0
 10
1605.239635933808
 20
1393.343595073655
 10
1605.239697386197
 20
1393.343587375342
 10
1605.240304459504
 20
1393.343587915509
 10
1605.24132113593
 20
1393.343596235945
 10
1605.243707586697
 20
1393.34362468785
 10
1605.247106899193
 20
1393.34367229706
 10
1605.251234282426
 20
1393.34373421511
 10
1605.256207753591
 20
1393.343811125591
 10
1605.261610497407
 20
1393.343895505278
 10
1605.267597068719
 20
1393.343988775372
 10
1605.273665298394
 20
1393.344082375153
 10
1605.279989589623
 20
1393.344178541659
 10
1605.286038865022
 20
1393.344269075527
 10
1605.291987706593
 20
1393.344356759547
 10
1605.297336210183
 20
1393.344434640466
 10
1605.302239049844
 20
1393.344505586757
 10
1605.30628423827
 20
1393.344564334585
 10
1605.309588719777
 20
1393.344613355681
 10
1605.311874796323
 20
1393.34464924699
 10
1605.313208509854
 20
1393.344673710971
 10
1605.313506354264
 20
1393.344683588578
 10
1605.313506354264
 20
1393.344683588578
  0
LWPOLYLINE
  5
682
330
23
100
AcDbEntity
  8
SANINDUSA
100
AcDbPolyline
 90
       19
 70
   128
 43
0.0
 10
1605.042705584935
 20
1393.341612617581
 10
1605.040944863728
 20
1393.341717380195
 10
1605.038142998389
 20
1393.341806826278
 10
1605.034534801415
 20
1393.341874729007
 10
1605.030016203097
 20
1393.341923977345
 10
1605.024967510871
 20
1393.341950890704
 10
1605.019242544345
 20
1393.341956234633
 10
1605.013323266677
 20
1393.34193905732
 10
1605.007038284711
 20
1393.341897857471
 10
1605.007017750911
 20
1393.341897684245
 10
1605.000887919835
 20
1393.341834385976
 10
1604.994744200877
 20
1393.341745535939
 10
1604.989099670819
 20
1393.341636705308
 10
1604.983795006446
 20
1393.341502917095
 10
1604.97927360671
 20
1393.34135374157
 10
1604.975407440833
 20
1393.341183708145
 10
1604.972520609073
 20
1393.341006488635
 10
1604.970529992751
 20
1393.340817120954
 10
1604.97050251501
 20
1393.340811644777
  0
LWPOLYLINE
  5
683
330
23
100
AcDbEntity
  8
SANINDUSA
100
AcDbPolyline
 90
       18
 70
   128
 43
0.0
 10
1604.97057630556
 20
1393.340316698983
 10
1604.971315820388
 20
1393.340243485852
 10
1604.97368474739
 20
1393.340105847552
 10
1604.977065910271
 20
1393.339993883952
 10
1604.981174875668
 20
1393.339918905034
 10
1604.986131121091
 20
1393.33987984164
 10
1604.991520543269
 20
1393.339880042806
 10
1604.997496385745
 20
1393.339918577208
 10
1605.003560472897
 20
1393.339990516289
 10
1605.009883184603
 20
1393.34009556575
 10
1605.015936721734
 20
1393.340222531094
 10
1605.021891881398
 20
1393.340372649118
 10
1605.027250070742
 20
1393.340531501084
 10
1605.032164324693
 20
1393.340702341034
 10
1605.036222179107
 20
1393.340870277121
 10
1605.039540965728
 20
1393.341040303095
 10
1605.041841585807
 20
1393.341198851451
 10
1605.042924542598
 20
1393.341321575551
  0
ARC
  5
684
330
23
100
AcDbEntity
  8
SANINDUSA
100
AcDbCircle
 10
1605.161708450428
 20
1391.928194559242
 30
0.0
 40
1.415415457669192
100
AcDbArc
 50
89.35277396166984
 51
92.28801429426725
  0
LWPOLYLINE
  5
685
330
23
100
AcDbEntity
  8
SANINDUSA
100
AcDbPolyline
 90
       20
 70
   128
 43
0.0
 10
1605.104824919871
 20
1393.342300665661
 10
1605.105299909286
 20
1393.342261339634
 10
1605.106310714654
 20
1393.342219525113
 10
1605.108687956504
 20
1393.34217313221
 10
1605.112077970676
 20
1393.342151996776
 10
1605.116196949652
 20
1393.342158216148
 10
1605.121162910632
 20
1393.342191572397
 10
1605.126560558251
 20
1393.342248278766
 10
1605.132543344668
 20
1393.342328439563
 10
1605.138610650472
 20
1393.342423667296
 10
1605.144935180119
 20
1393.342534937992
 10
1605.150986809901
 20
1393.342651476248
 10
1605.156938989333
 20
1393.342775500476
 10
1605.162292052678
 20
1393.34289598754
 10
1605.167200465373
 20
1393.343016277163
 10
1605.171251763276
 20
1393.34312659046
 10
1605.174563307933
 20
1393.343230866923
 10
1605.176856686048
 20
1393.343321348637
 10
1605.178198476008
 20
1393.343401891275
 10
1605.178331781796
 20
1393.343424514963
  0
LWPOLYLINE
  5
686
330
23
100
AcDbEntity
  8
SANINDUSA
100
AcDbPolyline
 90
       20
 70
   128
 43
0.0
 10
1605.312705208234
 20
1393.34501106581
 10
1605.310930181912
 20
1393.3450152698
 10
1605.308113683633
 20
1393.345011091887
 10
1605.304492105416
 20
1393.344999012633
 10
1605.299961258344
 20
1393.34497856079
 10
1605.294901718072
 20
1393.344951079323
 10
1605.28916769164
 20
1393.344915169387
 10
1605.283239592484
 20
1393.344873081058
 10
1605.276947785787
 20
1393.344822716995
 10
1605.276933540276
 20
1393.344822595923
 10
1605.270803321771
 20
1393.344767256736
 10
1605.264661301545
 20
1393.344704539611
 10
1605.259022702149
 20
1393.344639047145
 10
1605.253725518159
 20
1393.344568478971
 10
1605.249214459828
 20
1393.344498676344
 10
1605.245359410218
 20
1393.344427910729
 10
1605.242484320573
 20
1393.34436275354
 10
1605.240505863599
 20
1393.344302271589
 10
1605.23959039586
 20
1393.344252648859
 10
1605.239597309999
 20
1393.344250421136
  0
ARC
  5
687
330
23
100
AcDbEntity
  8
SANINDUSA
100
AcDbCircle
 10
1605.235066651695
 20
1397.356488753935
 30
0.0
 40
4.012264134622387
100
AcDbArc
 50
270.0657250563406
 51
271.119592572464
  0
LWPOLYLINE
  5
689
330
23
100
AcDbEntity
  8
SANINDUSA
100
AcDbPolyline
 90
       19
 70
   128
 43
0.0
 10
1605.042729337386
 20
1393.344188430442
 10
1605.040961672238
 20
1393.344277923091
 10
1605.038152356318
 20
1393.344359736054
 10
1605.034536798171
 20
1393.344428164049
 10
1605.030010868481
 20
1393.344486261814
 10
1605.024955023698
 20
1393.344529996722
 10
1605.019223202637
 20
1393.344561264946
 10
1605.013298441342
 20
1393.344577747493
 10
1605.007008571795
 20
1393.344579928651
 10
1605.000882406405
 20
1393.344567296191
 10
1604.994742859772
 20
1393.344538818209
 10
1604.989104647807
 20
1393.344495940118
 10
1604.98380609291
 20
1393.344436221852
 10
1604.983791996411
 20
1393.34443603
 10
1604.979275871686
 20
1393.344363059013
 10
1604.975415278843
 20
1393.344273437842
 10
1604.97253354328
 20
1393.344173469677
 10
1604.970548380784
 20
1393.344059349134
 10
1604.970357109479
 20
1393.344034631833
  0
LWPOLYLINE
  5
68A
330
23
100
AcDbEntity
  8
SANINDUSA
100
AcDbPolyline
 90
       19
 70
   128
 43
0.0
 10
1604.970040817431
 20
1393.343773427515
 10
1604.970341880492
 20
1393.343734090312
 10
1604.971353311709
 20
1393.343655585407
 10
1604.973730076722
 20
1393.343537352144
 10
1604.977119643859
 20
1393.343426684945
 10
1604.981235970429
 20
1393.343334808111
 10
1604.986199219397
 20
1393.343260833158
 10
1604.991592068843
 20
1393.343212287038
 10
1604.99757062333
 20
1393.343188465669
 10
1605.00363390582
 20
1393.343191324829
 10
1605.009955187014
 20
1393.343220180928
 10
1605.016005594901
 20
1393.343271323576
 10
1605.02195696967
 20
1393.343344505041
 10
1605.02731125491
 20
1393.343431863099
 10
1605.032220829896
 20
1393.343534230351
 10
1605.036274333171
 20
1393.343641760855
 10
1605.039587844781
 20
1393.343756695374
 10
1605.041883398465
 20
1393.343869065031
 10
1605.043113548926
 20
1393.343972706332
  0
ARC
  5
68B
330
23
100
AcDbEntity
  8
SANINDUSA
100
AcDbCircle
 10
1605.151106854899
 20
1391.556891791469
 30
0.0
 40
1.788119496565282
100
AcDbArc
 50
89.14722409740274
 51
91.474878111877
  0
ARC
  5
68C
330
23
100
AcDbEntity
  8
SANINDUSA
100
AcDbCircle
 10
1605.133317950675
 20
1394.72682259484
 30
0.0
 40
1.382830170597135
100
AcDbArc
 50
268.8184491311573
 51
271.8670934791251
  0
LWPOLYLINE
  5
68D
330
23
100
AcDbEntity
  8
SANINDUSA
100
AcDbPolyline
 90
       20
 70
   128
 43
0.0
 10
1605.312720347814
 20
1393.345415345489
 10
1605.310945202283
 20
1393.345425135552
 10
1605.308128465585
 20
1393.345431427567
 10
1605.304506589345
 20
1393.345434025957
 10
1605.299975265435
 20
1393.345433165415
 10
1605.294915188721
 20
1393.345428883194
 10
1605.289180447034
 20
1393.345420823529
 10
1605.283252347878
 20
1393.345409265815
 10
1605.276960421971
 20
1393.345393306672
 10
1605.270831991605
 20
1393.345373625963
 10
1605.264691461495
 20
1393.345348927288
 10
1605.259052981309
 20
1393.345320583417
 10
1605.2537555589
 20
1393.34528715825
 10
1605.253745247296
 20
1393.345287085607
 10
1605.24923436778
 20
1393.345250948428
 10
1605.245379556588
 20
1393.345210871755
 10
1605.242504347733
 20
1393.345170312657
 10
1605.240526009969
 20
1393.345128499999
 10
1605.23961054223
 20
1393.345089600517
 10
1605.239620198182
 20
1393.345086719006
  0
ARC
  5
68E
330
23
100
AcDbEntity
  8
SANINDUSA
100
AcDbCircle
 10
1605.259933391118
 20
1397.091777301923
 30
0.0
 40
3.746764785680261
100
AcDbArc
 50
269.6903640278033
 51
270.8189511362643
  0
LINE
  5
696
330
23
100
AcDbEntity
  8
SANINDUSA
100
AcDbLine
 10
1605.434044040612
 20
1393.301623472407
 30
0.0
 11
1605.419044040612
 21
1393.301623472407
 31
0.0
  0
LINE
  5
697
330
23
100
AcDbEntity
  8
SANINDUSA
100
AcDbLine
 10
1604.709044040612
 20
1393.301623472407
 30
0.0
 11
1604.724044040612
 21
1393.301623472407
 31
0.0
  0
LINE
  5
698
330
23
100
AcDbEntity
  8
SANINDUSA
100
AcDbLine
 10
1604.745435567299
 20
1393.301623472407
 30
0.0
 11
1605.389430791958
 21
1393.301623472407
 31
0.0
  0
LWPOLYLINE
  5
69F
330
23
100
AcDbEntity
  8
SANINDUSA
100
AcDbPolyline
 90
        4
 70
   128
 43
0.0
 10
1604.964622308186
 20
1393.333015066668
 10
1604.963974256686
 20
1393.333077379598
 10
1604.964144964389
 20
1393.333199457362
 10
1604.964415271453
 20
1393.333234136089
  0
LINE
  5
6A0
330
23
100
AcDbEntity
  8
SANINDUSA
100
AcDbLine
 10
1605.048994411401
 20
1393.335353658631
 30
0.0
 11
1605.049225439004
 21
1393.335311961456
 31
0.0
  0
LWPOLYLINE
  5
6A1
330
23
100
AcDbEntity
  8
SANINDUSA
100
AcDbPolyline
 90
        3
 70
   128
 43
0.0
 10
1605.049214948586
 20
1393.337540761664
 10
1605.048926342896
 20
1393.337433525457
 10
1605.048385818175
 20
1393.337361109539
  0
LWPOLYLINE
  5
6A2
330
23
100
AcDbEntity
  8
SANINDUSA
100
AcDbPolyline
 90
        5
 70
   128
 43
0.0
 10
1604.964839447907
 20
1393.336252820774
 10
1604.963958699874
 20
1393.336443004294
 10
1604.964129139355
 20
1393.336644177421
 10
1604.965194631986
 20
1393.336829253568
 10
1604.965354849271
 20
1393.336844694897
  0
LWPOLYLINE
  5
6A3
330
23
100
AcDbEntity
  8
SANINDUSA
100
AcDbPolyline
 90
        3
 70
   128
 43
0.0
 10
1605.048656542472
 20
1393.337662645712
 10
1605.048978794984
 20
1393.337631722077
 10
1605.049214948586
 20
1393.337540761664
  0
LWPOLYLINE
  5
6A4
330
23
100
AcDbEntity
  8
SANINDUSA
100
AcDbPolyline
 90
        4
 70
   128
 43
0.0
 10
1605.099634934834
 20
1393.338177246137
 10
1605.098965246848
 20
1393.338248261347
 10
1605.099137146644
 20
1393.338359308525
 10
1605.099306245021
 20
1393.338377137764
  0
LINE
  5
6A5
330
23
100
AcDbEntity
  8
SANINDUSA
100
AcDbLine
 10
1605.183981080226
 20
1393.339571327998
 30
0.0
 11
1605.184213866166
 21
1393.339531474843
 31
0.0
  0
LINE
  5
6A6
330
23
100
AcDbEntity
  8
SANINDUSA
100
AcDbLine
 10
1605.233961452416
 20
1393.340155200198
 30
0.0
 11
1605.234063733987
 21
1393.340182972237
 31
0.0
  0
LINE
  5
6A7
330
23
100
AcDbEntity
  8
SANINDUSA
100
AcDbLine
 10
1605.318976451329
 20
1393.341053457095
 30
0.0
 11
1605.319208909444
 21
1393.341042441412
 31
0.0
  0
LINE
  5
6A8
330
23
100
AcDbEntity
  8
SANINDUSA
100
AcDbLine
 10
1605.233954240254
 20
1393.34103327906
 30
0.0
 11
1605.234051217011
 21
1393.341056489482
 31
0.0
  0
LINE
  5
6A9
330
23
100
AcDbEntity
  8
SANINDUSA
100
AcDbLine
 10
1605.318971384934
 20
1393.34142781338
 30
0.0
 11
1605.319204200677
 21
1393.341417522266
 31
0.0
  0
LWPOLYLINE
  5
6AA
330
23
100
AcDbEntity
  8
SANINDUSA
100
AcDbPolyline
 90
        4
 70
   128
 43
0.0
 10
1605.0995908572
 20
1393.340220348074
 10
1605.098954607419
 20
1393.340283860548
 10
1605.099126954249
 20
1393.340375834241
 10
1605.099199016265
 20
1393.340381513446
  0
LWPOLYLINE
  5
6AD
330
23
100
AcDbEntity
  8
SANINDUSA
100
AcDbPolyline
 90
        4
 70
   128
 43
0.0
 10
1604.964739073686
 20
1393.339717992678
 10
1604.963950265817
 20
1393.339842003866
 10
1604.964121688775
 20
1393.339977570905
 10
1604.964434374742
 20
1393.340011757894
  0
LWPOLYLINE
  5
6BA
330
23
100
AcDbEntity
  8
SANINDUSA
100
AcDbPolyline
 90
        3
 70
   128
 43
0.0
 10
1605.178481747083
 20
1393.342443903073
 10
1605.178279836349
 20
1393.342457451954
 10
1605.177669216565
 20
1393.342463594957
  0
LINE
  5
6BB
330
23
100
AcDbEntity
  8
SANINDUSA
100
AcDbLine
 10
1605.104551155738
 20
1393.340766257703
 30
0.0
 11
1605.104633916787
 21
1393.340736777618
 31
0.0
  0
LINE
  5
6BC
330
23
100
AcDbEntity
  8
SANINDUSA
100
AcDbLine
 10
1605.178405244521
 20
1393.342437104418
 30
0.0
 11
1605.178481747083
 21
1393.342443903073
 31
0.0
  0
LWPOLYLINE
  5
6BD
330
23
100
AcDbEntity
  8
SANINDUSA
100
AcDbPolyline
 90
        3
 70
   128
 43
0.0
 10
1605.313506354264
 20
1393.344683588578
 10
1605.313303996495
 20
1393.344686419799
 10
1605.312690426282
 20
1393.344684445395
  0
LINE
  5
6BE
330
23
100
AcDbEntity
  8
SANINDUSA
100
AcDbLine
 10
1605.239599098138
 20
1393.343599687426
 30
0.0
 11
1605.239635933808
 21
1393.343595073655
 31
0.0
  0
LWPOLYLINE
  5
6C7
330
23
100
AcDbEntity
  8
SANINDUSA
100
AcDbPolyline
 90
        3
 70
   128
 43
0.0
 10
1605.043501247338
 20
1393.341460014789
 10
1605.043301452569
 20
1393.34153884752
 10
1605.042705584935
 20
1393.341612617581
  0
LWPOLYLINE
  5
6C8
330
23
100
AcDbEntity
  8
SANINDUSA
100
AcDbPolyline
 90
        5
 70
   128
 43
0.0
 10
1604.97050251501
 20
1393.340811644777
 10
1604.969602663687
 20
1393.340632430374
 10
1604.969711829594
 20
1393.340448808952
 10
1604.970309336356
 20
1393.340343129917
 10
1604.97057630556
 20
1393.340316698983
  0
LWPOLYLINE
  5
6C9
330
23
100
AcDbEntity
  8
SANINDUSA
100
AcDbPolyline
 90
        3
 70
   128
 43
0.0
 10
1605.042924542598
 20
1393.341321575551
 10
1605.043191213778
 20
1393.341351800694
 10
1605.043501247338
 20
1393.341460014789
  0
LWPOLYLINE
  5
6CA
330
23
100
AcDbEntity
  8
SANINDUSA
100
AcDbPolyline
 90
        3
 70
   128
 43
0.0
 10
1605.178502519301
 20
1393.343453492134
 10
1605.178301741055
 20
1393.343489137574
 10
1605.177696962527
 20
1393.343519711032
  0
LWPOLYLINE
  5
6CB
330
23
100
AcDbEntity
  8
SANINDUSA
100
AcDbPolyline
 90
        4
 70
   128
 43
0.0
 10
1605.105201144389
 20
1393.342481603011
 10
1605.104582120351
 20
1393.342408306061
 10
1605.104698140792
 20
1393.342311159804
 10
1605.104824919871
 20
1393.342300665661
  0
LINE
  5
6CC
330
23
100
AcDbEntity
  8
SANINDUSA
100
AcDbLine
 10
1605.178331781796
 20
1393.343424514963
 30
0.0
 11
1605.178502519301
 21
1393.343453492134
 31
0.0
  0
LWPOLYLINE
  5
6CD
330
23
100
AcDbEntity
  8
SANINDUSA
100
AcDbPolyline
 90
        3
 70
   128
 43
0.0
 10
1605.313517917565
 20
1393.344993728309
 10
1605.313316215447
 20
1393.345004052951
 10
1605.312705208234
 20
1393.34501106581
  0
LINE
  5
6CE
330
23
100
AcDbEntity
  8
SANINDUSA
100
AcDbLine
 10
1605.239597309999
 20
1393.344250421136
 30
0.0
 11
1605.2396691932
 21
1393.344227259143
 31
0.0
  0
LWPOLYLINE
  5
6D6
330
23
100
AcDbEntity
  8
SANINDUSA
100
AcDbPolyline
 90
        3
 70
   128
 43
0.0
 10
1605.043532688788
 20
1393.344064810409
 10
1605.043331403903
 20
1393.344127762227
 10
1605.042729337386
 20
1393.344188430442
  0
LWPOLYLINE
  5
6D7
330
23
100
AcDbEntity
  8
SANINDUSA
100
AcDbPolyline
 90
        4
 70
   128
 43
0.0
 10
1604.970357109479
 20
1393.344034631833
 10
1604.969626207522
 20
1393.343940191998
 10
1604.969740350417
 20
1393.343812684625
 10
1604.970040817431
 20
1393.343773427515
  0
LWPOLYLINE
  5
6D8
330
23
100
AcDbEntity
  8
SANINDUSA
100
AcDbPolyline
 90
        3
 70
   128
 43
0.0
 10
1605.043113548926
 20
1393.343972706332
 10
1605.043227214984
 20
1393.343982284053
 10
1605.043532688788
 20
1393.344064810409
  0
LWPOLYLINE
  5
6D9
330
23
100
AcDbEntity
  8
SANINDUSA
100
AcDbPolyline
 90
        3
 70
   128
 43
0.0
 10
1605.178527344636
 20
1393.344749434947
 10
1605.178326149157
 20
1393.34478254719
 10
1605.177719791106
 20
1393.344813234269
  0
LWPOLYLINE
  5
6DA
330
23
100
AcDbEntity
  8
SANINDUSA
100
AcDbPolyline
 90
        4
 70
   128
 43
0.0
 10
1605.10508309739
 20
1393.344418895527
 10
1605.104611535243
 20
1393.344376045375
 10
1605.104728777579
 20
1393.344292429372
 10
1605.104803313188
 20
1393.344286448418
  0
LINE
  5
6DB
330
23
100
AcDbEntity
  8
SANINDUSA
100
AcDbLine
 10
1605.178372163943
 20
1393.344726578428
 30
0.0
 11
1605.178527344636
 21
1393.344749434947
 31
0.0
  0
LWPOLYLINE
  5
6DC
330
23
100
AcDbEntity
  8
SANINDUSA
100
AcDbPolyline
 90
        3
 70
   128
 43
0.0
 10
1605.313533235959
 20
1393.345397473409
 10
1605.313331533841
 20
1393.345407151713
 10
1605.312720347814
 20
1393.345415345489
  0
LINE
  5
6DD
330
23
100
AcDbEntity
  8
SANINDUSA
100
AcDbLine
 10
1605.239620198182
 20
1393.345086719006
 30
0.0
 11
1605.239685346059
 21
1393.345067228287
 31
0.0
  0
LINE
  5
6E0
330
23
100
AcDbEntity
  8
SANINDUSA
100
AcDbLine
 10
1605.446544040612
 20
1393.361616364711
 30
0.0
 11
1605.446544040612
 21
1393.361358314846
 31
0.0
  0
ENDSEC
  0
SECTION
  2
OBJECTS
  0
DICTIONARY
  5
C
330
0
100
AcDbDictionary
281
     1
  3
ACAD_COLOR
350
1C
  3
ACAD_GROUP
350
D
  3
ACAD_LAYOUT
350
1A
  3
ACAD_MATERIAL
350
1B
  3
ACAD_MLINESTYLE
350
17
  3
ACAD_PLOTSETTINGS
350
19
  3
ACAD_PLOTSTYLENAME
350
E
  3
ACAD_TABLESTYLE
350
1D
  3
ACDBHEADERROUNDTRIPXREC
350
A9F
  3
AcDbVariableDictionary
350
A8A
  3
ASE_INDEX_DICTIONARY
350
A87
  0
DICTIONARY
  5
296
330
2
100
AcDbDictionary
280
     1
281
     1
  3
ACAD_LAYERSTATES
360
297
  0
DICTIONARY
  5
1C
102
{ACAD_REACTORS
330
C
102
}
330
C
100
AcDbDictionary
281
     1
  0
DICTIONARY
  5
D
102
{ACAD_REACTORS
330
C
102
}
330
C
100
AcDbDictionary
281
     1
  0
DICTIONARY
  5
1A
102
{ACAD_REACTORS
330
C
102
}
330
C
100
AcDbDictionary
281
     1
  3
Layout1
350
22
  3
Layout2
350
2A
  3
Model
350
26
  0
DICTIONARY
  5
1B
102
{ACAD_REACTORS
330
C
102
}
330
C
100
AcDbDictionary
281
     1
  0
DICTIONARY
  5
17
102
{ACAD_REACTORS
330
C
102
}
330
C
100
AcDbDictionary
281
     1
  3
Standard
350
18
  0
DICTIONARY
  5
19
102
{ACAD_REACTORS
330
C
102
}
330
C
100
AcDbDictionary
281
     1
  0
ACDBDICTIONARYWDFLT
  5
E
102
{ACAD_REACTORS
330
C
102
}
330
C
100
AcDbDictionary
281
     1
  3
Normal
350
F
100
AcDbDictionaryWithDefault
340
F
  0
DICTIONARY
  5
1D
102
{ACAD_REACTORS
330
C
102
}
330
C
100
AcDbDictionary
281
     1
  3
Standard
350
1E
  0
DICTIONARY
  5
A9F
102
{ACAD_REACTORS
330
C
102
}
330
C
100
AcDbDictionary
281
     1
  0
DICTIONARY
  5
A8A
102
{ACAD_REACTORS
330
C
102
}
330
C
100
AcDbDictionary
281
     1
  3
CTABLESTYLE
350
A8B
  3
DIMASSOC
350
A9C
  3
HIDETEXT
350
A9B
  3
PROJECTNAME
350
A9D
  0
DICTIONARY
  5
A87
102
{ACAD_REACTORS
330
C
102
}
330
C
100
AcDbDictionary
281
     1
  3
ASEBlockHierarchyIndexRecord
350
A88
1001
DCO15
1040
1651921728.437
  0
DICTIONARY
  5
297
102
{ACAD_REACTORS
330
296
102
}
330
296
100
AcDbDictionary
281
     1
  0
LAYOUT
  5
22
102
{ACAD_XDICTIONARY
360
AA0
102
}
102
{ACAD_REACTORS
330
1A
102
}
330
1A
100
AcDbPlotSettings
  1

  2
C:\Documents and Settings\Julio\Application Data\Autodesk\AutoCAD 2006\R16.2\enu\plotters\Default Windows System Printer.pc3
  4

  6

 40
0.0
 41
0.0
 42
0.0
 43
0.0
 44
0.0
 45
0.0
 46
0.0
 47
0.0
 48
0.0
 49
0.0
140
0.0
141
0.0
142
1.0
143
1.0
 70
   688
 72
     0
 73
     0
 74
     5
  7

 75
    16
147
1.0
148
0.0
149
0.0
100
AcDbLayout
  1
Layout1
 70
     1
 71
     1
 10
0.0
 20
0.0
 11
420.0
 21
297.0
 12
0.0
 22
0.0
 32
0.0
 14
1.000000000000000E+20
 24
1.000000000000000E+20
 34
1.000000000000000E+20
 15
-1.000000000000000E+20
 25
-1.000000000000000E+20
 35
-1.000000000000000E+20
146
0.0
 13
0.0
 23
0.0
 33
0.0
 16
1.0
 26
0.0
 36
0.0
 17
0.0
 27
1.0
 37
0.0
 76
     0
330
1F
  0
LAYOUT
  5
2A
102
{ACAD_XDICTIONARY
360
AA4
102
}
102
{ACAD_REACTORS
330
1A
102
}
330
1A
100
AcDbPlotSettings
  1

  2
C:\Documents and Settings\Julio\Application Data\Autodesk\AutoCAD 2006\R16.2\enu\plotters\Default Windows System Printer.pc3
  4

  6

 40
0.0
 41
0.0
 42
0.0
 43
0.0
 44
0.0
 45
0.0
 46
0.0
 47
0.0
 48
0.0
 49
0.0
140
0.0
141
0.0
142
1.0
143
1.0
 70
   688
 72
     0
 73
     0
 74
     5
  7

 75
    16
147
1.0
148
0.0
149
0.0
100
AcDbLayout
  1
Layout2
 70
     1
 71
     2
 10
0.0
 20
0.0
 11
12.0
 21
9.0
 12
0.0
 22
0.0
 32
0.0
 14
0.0
 24
0.0
 34
0.0
 15
0.0
 25
0.0
 35
0.0
146
0.0
 13
0.0
 23
0.0
 33
0.0
 16
1.0
 26
0.0
 36
0.0
 17
0.0
 27
1.0
 37
0.0
 76
     0
330
27
  0
LAYOUT
  5
26
102
{ACAD_XDICTIONARY
360
AA2
102
}
102
{ACAD_REACTORS
330
1A
102
}
330
1A
100
AcDbPlotSettings
  1

  2
C:\Documents and Settings\Julio\Application Data\Autodesk\AutoCAD 2006\R16.2\enu\plotters\Default Windows System Printer.pc3
  4

  6

 40
0.0
 41
0.0
 42
0.0
 43
0.0
 44
0.0
 45
0.0
 46
0.0
 47
0.0
 48
0.0
 49
0.0
140
0.0
141
0.0
142
1.0
143
1.0
 70
  1712
 72
     0
 73
     0
 74
     0
  7

 75
     0
147
1.0
148
0.0
149
0.0
100
AcDbLayout
  1
Model
 70
     1
 71
     0
 10
0.0
 20
0.0
 11
12.0
 21
9.0
 12
0.0
 22
0.0
 32
0.0
 14
0.0
 24
0.0
 34
0.0
 15
0.0
 25
0.0
 35
0.0
146
0.0
 13
0.0
 23
0.0
 33
0.0
 16
1.0
 26
0.0
 36
0.0
 17
0.0
 27
1.0
 37
0.0
 76
     0
330
23
  0
MLINESTYLE
  5
18
102
{ACAD_REACTORS
330
17
102
}
330
17
100
AcDbMlineStyle
  2
STANDARD
 70
     0
  3

 62
   256
 51
90.0
 52
90.0
 71
     2
 49
0.5
 62
   256
  6
BYLAYER
 49
-0.5
 62
   256
  6
BYLAYER
  0
ACDBPLACEHOLDER
  5
F
102
{ACAD_REACTORS
330
E
102
}
330
E
  0
TABLESTYLE
  5
1E
102
{ACAD_REACTORS
330
1D
102
}
330
1D
100
AcDbTableStyle
  3
Standard
 70
     0
 71
     0
 40
1.5
 41
1.5
280
     0
281
     0
  7
Standard
140
4.5
170
     2
 62
     0
 63
     7
283
     0
274
    -2
284
     1
 64
     0
275
    -2
285
     1
 65
     0
276
    -2
286
     1
 66
     0
277
    -2
287
     1
 67
     0
278
    -2
288
     1
 68
     0
279
    -2
289
     1
 69
     0
  7
Standard
140
6.0
170
     5
 62
     0
 63
     7
283
     0
274
    -2
284
     1
 64
     0
275
    -2
285
     1
 65
     0
276
    -2
286
     1
 66
     0
277
    -2
287
     1
 67
     0
278
    -2
288
     1
 68
     0
279
    -2
289
     1
 69
     0
  7
Standard
140
4.5
170
     5
 62
     0
 63
     7
283
     0
274
    -2
284
     1
 64
     0
275
    -2
285
     1
 65
     0
276
    -2
286
     1
 66
     0
277
    -2
287
     1
 67
     0
278
    -2
288
     1
 68
     0
279
    -2
289
     1
 69
     0
  0
DICTIONARYVAR
  5
A8B
102
{ACAD_REACTORS
330
A8A
102
}
330
A8A
100
DictionaryVariables
280
     0
  1
STANDARD
  0
DICTIONARYVAR
  5
A9C
102
{ACAD_REACTORS
330
A8A
102
}
330
A8A
100
DictionaryVariables
280
     0
  1
2
  0
DICTIONARYVAR
  5
A9B
102
{ACAD_REACTORS
330
A8A
102
}
330
A8A
100
DictionaryVariables
280
     0
  1
1
  0
DICTIONARYVAR
  5
A9D
102
{ACAD_REACTORS
330
A8A
102
}
330
A8A
100
DictionaryVariables
280
     0
  1

  0
XRECORD
  5
A88
102
{ACAD_REACTORS
330
A87
102
}
330
A87
100
AcDbXrecord
280
     1
  0
DICTIONARY
  5
AA0
330
22
100
AcDbDictionary
280
     1
281
     1
  3
ACAD_XREC_ROUNDTRIP
360
AA1
  0
DICTIONARY
  5
AA4
330
2A
100
AcDbDictionary
280
     1
281
     1
  3
ACAD_XREC_ROUNDTRIP
360
AA5
  0
DICTIONARY
  5
AA2
330
26
100
AcDbDictionary
280
     1
281
     1
  3
ACAD_XREC_ROUNDTRIP
360
AA3
  0
XRECORD
  5
AA1
102
{ACAD_REACTORS
330
AA0
102
}
330
AA0
100
AcDbXrecord
280
     1
102
SHADEPLOT
 70
     0
102
SHADEPLOTRESLEVEL
 70
     2
102
SHADEPLOTCUSTOMDPI
 70
   300
  0
XRECORD
  5
AA5
102
{ACAD_REACTORS
330
AA4
102
}
330
AA4
100
AcDbXrecord
280
     1
102
SHADEPLOT
 70
     0
102
SHADEPLOTRESLEVEL
 70
     2
102
SHADEPLOTCUSTOMDPI
 70
   300
  0
XRECORD
  5
AA3
102
{ACAD_REACTORS
330
AA2
102
}
330
AA2
100
AcDbXrecord
280
     1
102
SHADEPLOT
 70
     0
102
SHADEPLOTRESLEVEL
 70
     2
102
SHADEPLOTCUSTOMDPI
 70
   300
  0
ENDSEC
  0
EOF
