  0
SECTION
  2
HEADER
  9
$ACADVER
  1
AC1015
  9
$ACADMAINTVER
 70
    20
  9
$DWGCODEPAGE
  3
ANSI_1252
  9
$INSBASE
 10
0.0
 20
0.0
 30
0.0
  9
$EXTMIN
 10
3597.507987420407
 20
1185.01949805863
 30
0.0
  9
$EXTMAX
 10
3602.22923310103
 20
1185.919879536454
 30
0.0
  9
$LIMMIN
 10
0.0
 20
0.0
  9
$LIMMAX
 10
420.0
 20
297.0
  9
$ORTHOMODE
 70
     1
  9
$REGENMODE
 70
     1
  9
$FILLMODE
 70
     1
  9
$QTEXTMODE
 70
     0
  9
$MIRRTEXT
 70
     1
  9
$LTSCALE
 40
1.0
  9
$ATTMODE
 70
     1
  9
$TEXTSIZE
 40
2.5
  9
$TRACEWID
 40
1.0
  9
$TEXTSTYLE
  7
SANINDUSA
  9
$CLAYER
  8
cotas
  9
$CELTYPE
  6
ByLayer
  9
$CECOLOR
 62
   256
  9
$CELTSCALE
 40
1.0
  9
$DISPSILH
 70
     0
  9
$DIMSCALE
 40
1.0
  9
$DIMASZ
 40
2.0
  9
$DIMEXO
 40
1.0
  9
$DIMDLI
 40
1.0
  9
$DIMRND
 40
0.0
  9
$DIMDLE
 40
0.0
  9
$DIMEXE
 40
1.0
  9
$DIMTP
 40
0.0
  9
$DIMTM
 40
0.0
  9
$DIMTXT
 40
2.0
  9
$DIMCEN
 40
0.0
  9
$DIMTSZ
 40
0.0
  9
$DIMTOL
 70
     0
  9
$DIMLIM
 70
     0
  9
$DIMTIH
 70
     0
  9
$DIMTOH
 70
     0
  9
$DIMSE1
 70
     0
  9
$DIMSE2
 70
     0
  9
$DIMTAD
 70
     1
  9
$DIMZIN
 70
     8
  9
$DIMBLK
  1

  9
$DIMASO
 70
     1
  9
$DIMSHO
 70
     1
  9
$DIMPOST
  1

  9
$DIMAPOST
  1

  9
$DIMALT
 70
     0
  9
$DIMALTD
 70
     3
  9
$DIMALTF
 40
0.03937007874016
  9
$DIMLFAC
 40
1.0
  9
$DIMTOFL
 70
     1
  9
$DIMTVP
 40
0.0
  9
$DIMTIX
 70
     0
  9
$DIMSOXD
 70
     0
  9
$DIMSAH
 70
     0
  9
$DIMBLK1
  1

  9
$DIMBLK2
  1

  9
$DIMSTYLE
  2
SANINDUSA
  9
$DIMCLRD
 70
   256
  9
$DIMCLRE
 70
   256
  9
$DIMCLRT
 70
   256
  9
$DIMTFAC
 40
1.0
  9
$DIMGAP
 40
1.0
  9
$DIMJUST
 70
     0
  9
$DIMSD1
 70
     0
  9
$DIMSD2
 70
     0
  9
$DIMTOLJ
 70
     0
  9
$DIMTZIN
 70
     8
  9
$DIMALTZ
 70
     0
  9
$DIMALTTZ
 70
     0
  9
$DIMUPT
 70
     0
  9
$DIMDEC
 70
     1
  9
$DIMTDEC
 70
     1
  9
$DIMALTU
 70
     2
  9
$DIMALTTD
 70
     3
  9
$DIMTXSTY
  7
SANINDUSA
  9
$DIMAUNIT
 70
     0
  9
$DIMADEC
 70
     1
  9
$DIMALTRND
 40
0.0
  9
$DIMAZIN
 70
     0
  9
$DIMDSEP
 70
    44
  9
$DIMATFIT
 70
     3
  9
$DIMFRAC
 70
     0
  9
$DIMLDRBLK
  1

  9
$DIMLUNIT
 70
     2
  9
$DIMLWD
 70
    -1
  9
$DIMLWE
 70
    -1
  9
$DIMTMOVE
 70
     0
  9
$LUNITS
 70
     2
  9
$LUPREC
 70
     4
  9
$SKETCHINC
 40
1.0
  9
$FILLETRAD
 40
0.0
  9
$AUNITS
 70
     0
  9
$AUPREC
 70
     0
  9
$MENU
  1
.
  9
$ELEVATION
 40
0.0
  9
$PELEVATION
 40
0.0
  9
$THICKNESS
 40
0.0
  9
$LIMCHECK
 70
     0
  9
$CHAMFERA
 40
10.0
  9
$CHAMFERB
 40
10.0
  9
$CHAMFERC
 40
20.0
  9
$CHAMFERD
 40
0.0
  9
$SKPOLY
 70
     0
  9
$TDCREATE
 40
2453158.497124746
  9
$TDUCREATE
 40
2453158.455458078
  9
$TDUPDATE
 40
2456146.658360822
  9
$TDUUPDATE
 40
2456146.616694155
  9
$TDINDWG
 40
0.0140935995
  9
$TDUSRTIMER
 40
0.0140935995
  9
$USRTIMER
 70
     1
  9
$ANGBASE
 50
0.0
  9
$ANGDIR
 70
     0
  9
$PDMODE
 70
     0
  9
$PDSIZE
 40
0.0
  9
$PLINEWID
 40
0.0
  9
$SPLFRAME
 70
     0
  9
$SPLINETYPE
 70
     6
  9
$SPLINESEGS
 70
     8
  9
$HANDSEED
  5
1F91
  9
$SURFTAB1
 70
     6
  9
$SURFTAB2
 70
     6
  9
$SURFTYPE
 70
     6
  9
$SURFU
 70
     6
  9
$SURFV
 70
     6
  9
$UCSBASE
  2

  9
$UCSNAME
  2

  9
$UCSORG
 10
0.0
 20
0.0
 30
0.0
  9
$UCSXDIR
 10
1.0
 20
0.0
 30
0.0
  9
$UCSYDIR
 10
0.0
 20
1.0
 30
0.0
  9
$UCSORTHOREF
  2

  9
$UCSORTHOVIEW
 70
     0
  9
$UCSORGTOP
 10
0.0
 20
0.0
 30
0.0
  9
$UCSORGBOTTOM
 10
0.0
 20
0.0
 30
0.0
  9
$UCSORGLEFT
 10
0.0
 20
0.0
 30
0.0
  9
$UCSORGRIGHT
 10
0.0
 20
0.0
 30
0.0
  9
$UCSORGFRONT
 10
0.0
 20
0.0
 30
0.0
  9
$UCSORGBACK
 10
0.0
 20
0.0
 30
0.0
  9
$PUCSBASE
  2

  9
$PUCSNAME
  2

  9
$PUCSORG
 10
0.0
 20
0.0
 30
0.0
  9
$PUCSXDIR
 10
1.0
 20
0.0
 30
0.0
  9
$PUCSYDIR
 10
0.0
 20
1.0
 30
0.0
  9
$PUCSORTHOREF
  2

  9
$PUCSORTHOVIEW
 70
     0
  9
$PUCSORGTOP
 10
0.0
 20
0.0
 30
0.0
  9
$PUCSORGBOTTOM
 10
0.0
 20
0.0
 30
0.0
  9
$PUCSORGLEFT
 10
0.0
 20
0.0
 30
0.0
  9
$PUCSORGRIGHT
 10
0.0
 20
0.0
 30
0.0
  9
$PUCSORGFRONT
 10
0.0
 20
0.0
 30
0.0
  9
$PUCSORGBACK
 10
0.0
 20
0.0
 30
0.0
  9
$USERI1
 70
     0
  9
$USERI2
 70
     0
  9
$USERI3
 70
     0
  9
$USERI4
 70
     0
  9
$USERI5
 70
     0
  9
$USERR1
 40
0.0
  9
$USERR2
 40
0.0
  9
$USERR3
 40
0.0
  9
$USERR4
 40
0.0
  9
$USERR5
 40
0.0
  9
$WORLDVIEW
 70
     1
  9
$SHADEDGE
 70
     3
  9
$SHADEDIF
 70
    70
  9
$TILEMODE
 70
     1
  9
$MAXACTVP
 70
    64
  9
$PINSBASE
 10
0.0
 20
0.0
 30
0.0
  9
$PLIMCHECK
 70
     0
  9
$PEXTMIN
 10
1.000000000000000E+20
 20
1.000000000000000E+20
 30
1.000000000000000E+20
  9
$PEXTMAX
 10
-1.000000000000000E+20
 20
-1.000000000000000E+20
 30
-1.000000000000000E+20
  9
$PLIMMIN
 10
0.0
 20
0.0
  9
$PLIMMAX
 10
420.0
 20
297.0
  9
$UNITMODE
 70
     0
  9
$VISRETAIN
 70
     1
  9
$PLINEGEN
 70
     0
  9
$PSLTSCALE
 70
     1
  9
$TREEDEPTH
 70
  3020
  9
$CMLSTYLE
  2
Standard
  9
$CMLJUST
 70
     0
  9
$CMLSCALE
 40
20.0
  9
$PROXYGRAPHICS
 70
     1
  9
$MEASUREMENT
 70
     1
  9
$CELWEIGHT
370
    -1
  9
$ENDCAPS
280
     0
  9
$JOINSTYLE
280
     0
  9
$LWDISPLAY
290
     0
  9
$INSUNITS
 70
     4
  9
$HYPERLINKBASE
  1

  9
$STYLESHEET
  1
monochrome.ctb
  9
$XEDIT
290
     1
  9
$CEPSNTYPE
380
     0
  9
$PSTYLEMODE
290
     1
  9
$FINGERPRINTGUID
  2
{B98A73AA-52AA-4C10-B469-C0E7150AC31F}
  9
$VERSIONGUID
  2
{3D7031C0-A83C-4D1B-A78C-6D5E8E2EC91C}
  9
$EXTNAMES
290
     1
  9
$PSVPSCALE
 40
0.0
  9
$OLESTARTUP
290
     0
  0
ENDSEC
  0
SECTION
  2
CLASSES
  0
CLASS
  1
ACDBDICTIONARYWDFLT
  2
AcDbDictionaryWithDefault
  3
ObjectDBX Classes
 90
        0
280
     0
281
     0
  0
CLASS
  1
ACDBPLACEHOLDER
  2
AcDbPlaceHolder
  3
ObjectDBX Classes
 90
        0
280
     0
281
     0
  0
CLASS
  1
LAYOUT
  2
AcDbLayout
  3
ObjectDBX Classes
 90
        0
280
     0
281
     0
  0
CLASS
  1
DICTIONARYVAR
  2
AcDbDictionaryVar
  3
ObjectDBX Classes
 90
        0
280
     0
281
     0
  0
CLASS
  1
DIMASSOC
  2
AcDbDimAssoc
  3
"AcDbDimAssoc|Product Desc:     AcDim ARX App For Dimension|Company:          Autodesk, Inc.|WEB Address:      www.autodesk.com"
 90
    32768
280
     0
281
     0
  0
CLASS
  1
MATERIAL
  2
AcDbMaterial
  3
ObjectDBX Classes
 90
     1153
280
     0
281
     0
  0
CLASS
  1
VISUALSTYLE
  2
AcDbVisualStyle
  3
ObjectDBX Classes
 90
     4095
280
     0
281
     0
  0
CLASS
  1
TABLESTYLE
  2
AcDbTableStyle
  3
ObjectDBX Classes
 90
     4095
280
     0
281
     0
  0
CLASS
  1
SCALE
  2
AcDbScale
  3
ObjectDBX Classes
 90
     1153
280
     0
281
     0
  0
CLASS
  1
MLEADERSTYLE
  2
AcDbMLeaderStyle
  3
ACDB_MLEADERSTYLE_CLASS
 90
     4095
280
     0
281
     0
  0
CLASS
  1
CELLSTYLEMAP
  2
AcDbCellStyleMap
  3
ObjectDBX Classes
 90
     1152
280
     0
281
     0
  0
ENDSEC
  0
SECTION
  2
TABLES
  0
TABLE
  2
VPORT
  5
8
330
0
100
AcDbSymbolTable
 70
     1
  0
VPORT
  5
1EE9
330
8
100
AcDbSymbolTableRecord
100
AcDbViewportTableRecord
  2
*Active
 70
     0
 10
0.0
 20
0.0
 11
1.0
 21
1.0
 12
3600.029018733784
 22
1185.451102621958
 13
0.0
 23
0.0
 14
10.0
 24
10.0
 15
10.0
 25
10.0
 16
0.0
 26
0.0
 36
1.0
 17
0.0
 27
0.0
 37
0.0
 40
3.366049804901649
 41
1.645464025026068
 42
50.0
 43
0.0
 44
0.0
 50
0.0
 51
0.0
 71
     0
 72
   100
 73
     1
 74
     2
 75
     0
 76
     0
 77
     0
 78
     0
281
     0
 65
     1
110
0.0
120
0.0
130
0.0
111
1.0
121
0.0
131
0.0
112
0.0
122
1.0
132
0.0
 79
     0
146
0.0
  0
ENDTAB
  0
TABLE
  2
LTYPE
  5
5
330
0
100
AcDbSymbolTable
 70
     3
  0
LTYPE
  5
14
330
5
100
AcDbSymbolTableRecord
100
AcDbLinetypeTableRecord
  2
ByBlock
 70
     0
  3

 72
    65
 73
     0
 40
0.0
  0
LTYPE
  5
15
330
5
100
AcDbSymbolTableRecord
100
AcDbLinetypeTableRecord
  2
ByLayer
 70
     0
  3

 72
    65
 73
     0
 40
0.0
  0
LTYPE
  5
16
330
5
100
AcDbSymbolTableRecord
100
AcDbLinetypeTableRecord
  2
Continuous
 70
     0
  3
Solid line
 72
    65
 73
     0
 40
0.0
  0
LTYPE
  5
2D
330
5
100
AcDbSymbolTableRecord
100
AcDbLinetypeTableRecord
  2
DASHDOT
 70
     0
  3
Dash dot __ . __ . __ . __ . __ . __ . __ . __
 72
    65
 73
     4
 40
25.4
 49
12.7
 74
     0
 49
-6.349999999999999
 74
     0
 49
0.0
 74
     0
 49
-6.349999999999999
 74
     0
  0
LTYPE
  5
2E
330
5
100
AcDbSymbolTableRecord
100
AcDbLinetypeTableRecord
  2
HIDDEN
 70
     0
  3
Hidden __ __ __ __ __ __ __ __ __ __ __ __ __ _
 72
    65
 73
     2
 40
9.524999999999998
 49
6.349999999999999
 74
     0
 49
-3.174999999999999
 74
     0
  0
ENDTAB
  0
TABLE
  2
LAYER
  5
2
330
0
100
AcDbSymbolTable
 70
    16
  0
LAYER
  5
10
102
{ACAD_XDICTIONARY
360
1F34
102
}
330
2
100
AcDbSymbolTableRecord
100
AcDbLayerTableRecord
  2
0
 70
     0
 62
     7
  6
Continuous
370
    -3
390
F
  0
LAYER
  5
2F
102
{ACAD_XDICTIONARY
360
1F36
102
}
330
2
100
AcDbSymbolTableRecord
100
AcDbLayerTableRecord
  2
1
 70
     0
 62
     1
  6
Continuous
370
    -3
390
F
  0
LAYER
  5
30
102
{ACAD_XDICTIONARY
360
1F38
102
}
330
2
100
AcDbSymbolTableRecord
100
AcDbLayerTableRecord
  2
2
 70
     0
 62
     2
  6
Continuous
370
    -3
390
F
  0
LAYER
  5
31
102
{ACAD_XDICTIONARY
360
1F3A
102
}
330
2
100
AcDbSymbolTableRecord
100
AcDbLayerTableRecord
  2
3
 70
     0
 62
     3
  6
Continuous
370
    -3
390
F
  0
LAYER
  5
32
102
{ACAD_XDICTIONARY
360
1F3C
102
}
330
2
100
AcDbSymbolTableRecord
100
AcDbLayerTableRecord
  2
4
 70
     0
 62
     4
  6
Continuous
370
    -3
390
F
  0
LAYER
  5
33
102
{ACAD_XDICTIONARY
360
1F3E
102
}
330
2
100
AcDbSymbolTableRecord
100
AcDbLayerTableRecord
  2
5
 70
     0
 62
     5
  6
Continuous
370
    -3
390
F
  0
LAYER
  5
34
102
{ACAD_XDICTIONARY
360
1F40
102
}
330
2
100
AcDbSymbolTableRecord
100
AcDbLayerTableRecord
  2
6
 70
     0
 62
     6
  6
Continuous
370
    -3
390
F
  0
LAYER
  5
35
102
{ACAD_XDICTIONARY
360
1F42
102
}
330
2
100
AcDbSymbolTableRecord
100
AcDbLayerTableRecord
  2
7
 70
     0
 62
     7
  6
Continuous
370
    -3
390
F
  0
LAYER
  5
36
102
{ACAD_XDICTIONARY
360
1F44
102
}
330
2
100
AcDbSymbolTableRecord
100
AcDbLayerTableRecord
  2
cen
 70
     0
 62
     7
  6
DASHDOT
370
    -3
390
F
  0
LAYER
  5
37
102
{ACAD_XDICTIONARY
360
1F46
102
}
330
2
100
AcDbSymbolTableRecord
100
AcDbLayerTableRecord
  2
hid
 70
     0
 62
     7
  6
HIDDEN
370
    -3
390
F
  0
LAYER
  5
5D6
102
{ACAD_XDICTIONARY
360
1F48
102
}
330
2
100
AcDbSymbolTableRecord
100
AcDbLayerTableRecord
  2
hatch
 70
     0
 62
     9
  6
Continuous
370
    -3
390
F
  0
LAYER
  5
8AF
102
{ACAD_XDICTIONARY
360
1F4A
102
}
330
2
100
AcDbSymbolTableRecord
100
AcDbLayerTableRecord
  2
9
 70
     0
 62
     9
  6
Continuous
370
    -3
390
F
  0
LAYER
  5
8F8
102
{ACAD_XDICTIONARY
360
1F4C
102
}
330
2
100
AcDbSymbolTableRecord
100
AcDbLayerTableRecord
  2
leg fin
 70
     0
 62
     9
  6
Continuous
370
    -3
390
F
  0
LAYER
  5
91D
102
{ACAD_XDICTIONARY
360
1F4E
102
}
330
2
100
AcDbSymbolTableRecord
100
AcDbLayerTableRecord
  2
cotas
 70
     0
 62
     1
  6
Continuous
370
    -3
390
F
  0
LAYER
  5
92F
330
2
100
AcDbSymbolTableRecord
100
AcDbLayerTableRecord
  2
Defpoints
 70
     0
 62
     7
  6
Continuous
290
     0
370
    -3
390
F
  0
LAYER
  5
BA2
102
{ACAD_XDICTIONARY
360
1F50
102
}
330
2
100
AcDbSymbolTableRecord
100
AcDbLayerTableRecord
  2
Sanindusa
 70
     0
 62
     3
  6
Continuous
370
    -3
390
F
  0
ENDTAB
  0
TABLE
  2
STYLE
  5
3
330
0
100
AcDbSymbolTable
 70
     3
  0
STYLE
  5
11
330
3
100
AcDbSymbolTableRecord
100
AcDbTextStyleTableRecord
  2
Standard
 70
     0
 40
0.0
 41
1.0
 50
0.0
 71
     0
 42
2.5
  3
Avgardn.ttf
  4

1001
ACAD
1000
AvantGarde Bk BT
1071
       34
  0
STYLE
  5
2C
330
3
100
AcDbSymbolTableRecord
100
AcDbTextStyleTableRecord
  2

 70
     1
 40
0.0
 41
1.0
 50
0.0
 71
     0
 42
2.5
  3
ltypeshp.shx
  4

  0
STYLE
  5
91F
330
3
100
AcDbSymbolTableRecord
100
AcDbTextStyleTableRecord
  2
SANINDUSA
 70
     0
 40
0.0
 41
1.0
 50
0.0
 71
     0
 42
2.5
  3
verdana.TTF
  4

1001
ACAD
1000
Verdana
1071
       34
  0
ENDTAB
  0
TABLE
  2
VIEW
  5
6
330
0
100
AcDbSymbolTable
 70
     0
  0
ENDTAB
  0
TABLE
  2
UCS
  5
7
330
0
100
AcDbSymbolTable
 70
     0
  0
ENDTAB
  0
TABLE
  2
APPID
  5
9
330
0
100
AcDbSymbolTable
 70
     3
  0
APPID
  5
12
330
9
100
AcDbSymbolTableRecord
100
AcDbRegAppTableRecord
  2
ACAD
 70
     0
  0
APPID
  5
3A
330
9
100
AcDbSymbolTableRecord
100
AcDbRegAppTableRecord
  2
DCO15
 70
     0
  0
APPID
  5
1F90
330
9
100
AcDbSymbolTableRecord
100
AcDbRegAppTableRecord
  2
ACAD_MLEADERVER
 70
     0
  0
ENDTAB
  0
TABLE
  2
DIMSTYLE
  5
A
330
0
100
AcDbSymbolTable
 70
     2
100
AcDbDimStyleTable
 71
     1
340
921
  0
DIMSTYLE
105
45
330
A
100
AcDbSymbolTableRecord
100
AcDbDimStyleTableRecord
  2
STANDARD
 70
     0
289
     0
340
11
  0
DIMSTYLE
105
921
330
A
100
AcDbSymbolTableRecord
100
AcDbDimStyleTableRecord
  2
SANINDUSA
 70
     0
 41
2.0
 42
1.0
 43
1.0
 44
1.0
 73
     0
 74
     0
 77
     1
 78
     8
140
2.0
141
0.0
143
0.03937007874016
147
1.0
171
     3
172
     1
176
   256
177
   256
178
   256
179
     1
271
     1
272
     1
274
     3
278
    44
283
     0
284
     8
340
91F
371
    -1
372
    -1
  0
ENDTAB
  0
TABLE
  2
BLOCK_RECORD
  5
1
330
0
100
AcDbSymbolTable
 70
    26
  0
BLOCK_RECORD
  5
1F
330
1
100
AcDbSymbolTableRecord
100
AcDbBlockTableRecord
  2
*Model_Space
340
22
  0
BLOCK_RECORD
  5
1B
330
1
100
AcDbSymbolTableRecord
100
AcDbBlockTableRecord
  2
*Paper_Space
340
1E
  0
BLOCK_RECORD
  5
23
330
1
100
AcDbSymbolTableRecord
100
AcDbBlockTableRecord
  2
*Paper_Space0
340
26
  0
BLOCK_RECORD
  5
919
330
1
100
AcDbSymbolTableRecord
100
AcDbBlockTableRecord
  2
_DotSmall
340
0
  0
BLOCK_RECORD
  5
922
330
1
100
AcDbSymbolTableRecord
100
AcDbBlockTableRecord
  2
base para cotas
340
0
310
2800000020000000200000000100080000000000000400000000000000000000000000000000000000000000000080000080000000808000800000008000800080800000C0C0C000C0DCC000F0CAA6000020400000206000002080000020A0000020C0000020E00000400000004020000040400000406000004080000040A0
310
000040C0000040E00000600000006020000060400000606000006080000060A0000060C0000060E00000800000008020000080400000806000008080000080A0000080C0000080E00000A0000000A0200000A0400000A0600000A0800000A0A00000A0C00000A0E00000C0000000C0200000C0400000C0600000C0800000C0
310
A00000C0C00000C0E00000E0000000E0200000E0400000E0600000E0800000E0A00000E0C00000E0E00040000000400020004000400040006000400080004000A0004000C0004000E00040200000402020004020400040206000402080004020A0004020C0004020E000404000004040200040404000404060004040800040
310
40A0004040C0004040E00040600000406020004060400040606000406080004060A0004060C0004060E00040800000408020004080400040806000408080004080A0004080C0004080E00040A0000040A0200040A0400040A0600040A0800040A0A00040A0C00040A0E00040C0000040C0200040C0400040C0600040C08000
310
40C0A00040C0C00040C0E00040E0000040E0200040E0400040E0600040E0800040E0A00040E0C00040E0E00080000000800020008000400080006000800080008000A0008000C0008000E00080200000802020008020400080206000802080008020A0008020C0008020E00080400000804020008040400080406000804080
310
008040A0008040C0008040E00080600000806020008060400080606000806080008060A0008060C0008060E00080800000808020008080400080806000808080008080A0008080C0008080E00080A0000080A0200080A0400080A0600080A0800080A0A00080A0C00080A0E00080C0000080C0200080C0400080C0600080C0
310
800080C0A00080C0C00080C0E00080E0000080E0200080E0400080E0600080E0800080E0A00080E0C00080E0E000C0000000C0002000C0004000C0006000C0008000C000A000C000C000C000E000C0200000C0202000C0204000C0206000C0208000C020A000C020C000C020E000C0400000C0402000C0404000C0406000C0
310
408000C040A000C040C000C040E000C0600000C0602000C0604000C0606000C0608000C060A000C060C000C060E000C0800000C0802000C0804000C0806000C0808000C080A000C080C000C080E000C0A00000C0A02000C0A04000C0A06000C0A08000C0A0A000C0A0C000C0A0E000C0C00000C0C02000C0C04000C0C06000
310
C0C08000C0C0A000F0FBFF00A4A0A000808080000000FF0000FF000000FFFF00FF000000FF00FF00FFFF0000FFFFFF00A4A4A4A4A4A4A4A4A4A4A4A4A4A4A4A4A4A4A4A4A4A4A4A4A4A4A4A4A4A4A4A4A4A4A4A4A4A4A4A4A4A4A4A4A4A4A4A4A4A4A4A4A4A4A4A4A4A4A4A4A4A4A4A4A4A4A4A4A4A4A4A4A4A4A4A4A4A4A4
310
A4A4A4A4A4A4A4A4A4A4A4A4A4A4A4A4A4A4A4A4A4A4A4A4A4A4A4A4A4A4A4A4A4A4A4A4A4A4A4A4A4A4A4A4A4A4A4A4A4A4A4A4A4A4A4A4A4A4A4A4A4A4A4A4A4A4A4A4A4A4A4A4A4A4A4A4A4A4A4A4A4A4A4A4A4A4A4A4A4A4A4A4A4A4A4A4A4A4A4A4A4A4A4A4A4A4A4A4A4A4A4A4A4A4A4A4A4A4A4A4A4A4A4A4A4A4A4
310
A4A4A4A4A4A4A4A4A4A4A4A4A4A4A4A4A4A4A4A4A4A4A4A4A4A4A4A4A4A4A4A4A4A4A4A4A4A4A4A4A4A4A4A4A4A4A4A4A4A4A4A4A4A4A4A4A4A4A4A4A4A4A4A4A4A4A4A4A4A4A4A4A4A4A4A4A4A4A4A4A4A4A4A4A4A4A4A4A4A4A4A4A4A4A4A4A4A4A4A4A4A4A4A4A4A4A4A4A4A4A4A4A4A4A4A4A4A4A4A4A4A4A4A4A4A4A4
310
A4A4A4A4A4A4A4A4A4A4A4A4A4A4A4A4A4A4A4A4A4A4A4A4A4A4A4A4A4A4A4A4A4A4A4A4A4A4A4A4A4A4A4A4A4A4A4A4A4A4A4A4A4A4A4A4A4A4A4A4A4A4A4A4A4A4A4A4A4A4A4A4A4A4A4A4A4A4A4A4A4A4A4A4A4A4A4A4A4A4A4A4A4A4A4A4A4A4A4A4A4A4A4A4A4A4A4A4A4A4A4A4A4A4A4A4F9F9F9F9F9F9F9F9F9F9F9
310
F9F9F9F9F9F9F9F9F9F9F9F9F9F9F9F9F9F9F9A4A4F9F9F9F9F9F9F9F9F9F9F9F9F9F9F9F9F9F9F9F9F9F9F9F9F9F9F9F9F9F9A4A4F9F9F9F9F9F9F9F9F9F9F9F9F9F9F9F9F9F9F9F9F9F9F9F9F9F9F9F9F9F9A4A4F9A4A4A4A4A4A4A4A4A4A4A4A4A4A4A4A4A4A4A4A4A4A4A4A4A4A4A4A4F9A4A4A4A4A4A4A4A4A4A4A4A4
310
A4A4A4A4A4A4A4A4A4A4A4A4A4A4A4A4A4A4A4A4A4A4A4A4A4A4A4A4A4A4A4A4A4A4A4A4A4A4A4A4A4A4A4A4A4A4A4A4A4A4A4A4A4A4A4A4A4A4A4A4A4A4A4A4A4A4A4A4A4A4A4A4A4A4A4A4A4A4A4A4A4A4A4A4A4A4A4A4A4A4A4A4A4A4A4A4A4A4A4A4A4A4A4A4A4A4A4A4A4A4A4A4A4A4A4A4A4A4A4A4A4A4A4A4A4A4A4
310
A4A4A4A4A4A4A4A4A4A4A4A4A4A4A4A4A4A4A4A4A4A4A4A4A4A4A4A4A4A4A4A4A4A4A4A4A4A4A4A4A4A4A4A4A4A4A4A4A4A4A4A4A4A4A4A4A4A4A4A4A4A4A4A4A4A4A4A4A4A4A4A4A4A4A4A4A4A4A4A4A4A4A4A4A4A4A4A4A4A4A4A4A4A4A4A4A4A4A4A4A4A4A4A4A4A4A4A4A4A4A4A4A4A4A4A4A4A4A4A4A4A4A4A4A4A4A4
310
A4A4A4A4A4A4A4A4A4A4A4A4A4A4A4A4A4A4A4A4A4A4A4A4A4A4A4A4A4A4A4A4A4A4A4A4A4A4A4A4A4A4A4A4A4A4A4A4A4A4A4A4A4A4A4A4A4A4A4A4A4A4A4A4A4A4A4A4A4A4A4A4A4A4A4A4A4A4A4A4A4A4A4A4A4A4A4A4A4A4A4A4A4A4A4A4A4A4A4A4A4A4A4A4A4A4A4A4A4A4A4A4A4A4A4A4A4A4A4A4A4A4A4A4A4A4A4
310
A4A4A4A4A4A4A4A4A4A4A4A4A4A4A4A4A4A4A4A4A4A4A4A4A4A4A4A4A4A4A4A4A4A4A4A4A4A4A4A4A4A4A4A4A4A4A4A4A4A4A4A4A4A4A4A4
1001
ACAD
1000
DesignCenter Data
1002
{
1070
     1
1070
     4
1002
}
  0
BLOCK_RECORD
  5
AA8
330
1
100
AcDbSymbolTableRecord
100
AcDbBlockTableRecord
  2
_CLOSED
340
0
  0
ENDTAB
  0
ENDSEC
  0
SECTION
  2
BLOCKS
  0
BLOCK
  5
20
330
1F
100
AcDbEntity
  8
0
100
AcDbBlockBegin
  2
*Model_Space
 70
     0
 10
0.0
 20
0.0
 30
0.0
  3
*Model_Space
  1

  0
ENDBLK
  5
21
330
1F
100
AcDbEntity
  8
0
100
AcDbBlockEnd
  0
BLOCK
  5
1C
330
1B
100
AcDbEntity
 67
     1
  8
0
100
AcDbBlockBegin
  2
*Paper_Space
 70
     0
 10
0.0
 20
0.0
 30
0.0
  3
*Paper_Space
  1

  0
ENDBLK
  5
1D
330
1B
100
AcDbEntity
 67
     1
  8
0
100
AcDbBlockEnd
  0
BLOCK
  5
24
330
23
100
AcDbEntity
 67
     1
  8
0
100
AcDbBlockBegin
  2
*Paper_Space0
 70
     0
 10
0.0
 20
0.0
 30
0.0
  3
*Paper_Space0
  1

  0
ENDBLK
  5
25
330
23
100
AcDbEntity
 67
     1
  8
0
100
AcDbBlockEnd
  0
BLOCK
  5
91B
330
919
100
AcDbEntity
  8
0
100
AcDbBlockBegin
  2
_DotSmall
 70
     0
 10
0.0
 20
0.0
 30
0.0
  3
_DotSmall
  1

  0
LWPOLYLINE
  5
91A
330
919
100
AcDbEntity
  8
0
  6
ByBlock
 62
     0
100
AcDbPolyline
 90
        2
 70
     1
 43
0.5
 10
-0.0625
 20
0.0
 42
1.0
 10
0.0625
 20
0.0
 42
1.0
  0
ENDBLK
  5
91C
330
919
100
AcDbEntity
  8
0
100
AcDbBlockEnd
  0
BLOCK
  5
92A
330
922
100
AcDbEntity
  8
0
100
AcDbBlockBegin
  2
base para cotas
 70
     0
 10
0.0
 20
0.0
 30
0.0
  3
base para cotas
  1

  0
LINE
  5
B36
330
922
100
AcDbEntity
  8
cotas
100
AcDbLine
 10
0.0
 20
-30.0
 30
0.0
 11
327.1260136525398
 21
-30.0
 31
0.0
  0
LINE
  5
B37
330
922
100
AcDbEntity
  8
cotas
100
AcDbLine
 10
0.0
 20
-25.0
 30
0.0
 11
327.1260136525398
 21
-25.0
 31
0.0
  0
LINE
  5
B38
330
922
100
AcDbEntity
  8
cotas
100
AcDbLine
 10
0.0
 20
-20.0
 30
0.0
 11
327.1260136525398
 21
-20.0
 31
0.0
  0
LINE
  5
B39
330
922
100
AcDbEntity
  8
cotas
100
AcDbLine
 10
0.0
 20
-15.0
 30
0.0
 11
327.1260136525398
 21
-15.0
 31
0.0
  0
LINE
  5
B3A
330
922
100
AcDbEntity
  8
cotas
100
AcDbLine
 10
0.0
 20
-10.0
 30
0.0
 11
327.1260136525398
 21
-10.0
 31
0.0
  0
LINE
  5
B3B
330
922
100
AcDbEntity
  8
cotas
100
AcDbLine
 10
0.0
 20
0.0
 30
0.0
 11
0.0
 21
-30.0
 31
0.0
  0
LINE
  5
B3C
330
922
100
AcDbEntity
  8
cotas
100
AcDbLine
 10
327.1260136525398
 20
-30.0
 30
0.0
 11
327.1260136525398
 21
0.0
 31
0.0
  0
ENDBLK
  5
92B
330
922
100
AcDbEntity
  8
0
100
AcDbBlockEnd
  0
BLOCK
  5
AAD
330
AA8
100
AcDbEntity
  8
0
100
AcDbBlockBegin
  2
_CLOSED
 70
     0
 10
0.0
 20
0.0
 30
0.0
  3
_CLOSED
  1

  0
LINE
  5
AA9
330
AA8
100
AcDbEntity
  8
0
100
AcDbLine
 10
-1.0
 20
0.166667
 30
0.0
 11
0.0
 21
0.0
 31
0.0
  0
LINE
  5
AAA
330
AA8
100
AcDbEntity
  8
0
100
AcDbLine
 10
0.0
 20
0.0
 30
0.0
 11
-1.0
 21
-0.166667
 31
0.0
  0
LINE
  5
AAB
330
AA8
100
AcDbEntity
  8
0
100
AcDbLine
 10
-1.0
 20
0.166667
 30
0.0
 11
-1.0
 21
-0.166667
 31
0.0
  0
LINE
  5
AAC
330
AA8
100
AcDbEntity
  8
0
100
AcDbLine
 10
0.0
 20
0.0
 30
0.0
 11
-1.0
 21
0.0
 31
0.0
  0
ENDBLK
  5
AAE
330
AA8
100
AcDbEntity
  8
0
100
AcDbBlockEnd
  0
ENDSEC
  0
SECTION
  2
ENTITIES
  0
LINE
  5
14FD
330
1F
100
AcDbEntity
  8
Sanindusa
100
AcDbLine
 10
3598.343740444386
 20
1185.831102936951
 30
0.0
 11
3598.343740444386
 21
1185.108274658132
 31
0.0
  0
LINE
  5
14FF
330
1F
100
AcDbEntity
  8
Sanindusa
100
AcDbLine
 10
3598.408368898231
 20
1185.909882521556
 30
0.0
 11
3598.408368898231
 21
1185.029495073528
 31
0.0
  0
LINE
  5
1501
330
1F
100
AcDbEntity
  8
Sanindusa
100
AcDbLine
 10
3598.356192170936
 20
1185.095822931582
 30
0.0
 11
3598.356192170936
 21
1185.843554663501
 31
0.0
  0
LINE
  5
1505
330
1F
100
AcDbEntity
  8
Sanindusa
100
AcDbLine
 10
3597.572615874252
 20
1185.108274658132
 30
0.0
 11
3597.572615874252
 21
1185.831102936951
 31
0.0
  0
LINE
  5
1506
330
1F
100
AcDbEntity
  8
Sanindusa
100
AcDbLine
 10
3597.507987420407
 20
1185.029495073528
 30
0.0
 11
3597.507987420407
 21
1185.909882521556
 31
0.0
  0
LINE
  5
1508
330
1F
100
AcDbEntity
  8
Sanindusa
100
AcDbLine
 10
3597.560164147702
 20
1185.843554663501
 30
0.0
 11
3597.560164147702
 21
1185.095822931582
 31
0.0
  0
LINE
  5
1519
330
1F
100
AcDbEntity
  8
Sanindusa
100
AcDbLine
 10
3598.398371883334
 20
1185.01949805863
 30
0.0
 11
3597.517984435305
 21
1185.01949805863
 31
0.0
  0
ARC
  5
151F
330
1F
100
AcDbEntity
  8
Sanindusa
100
AcDbCircle
 10
3597.517989952041
 20
1185.029500590264
 30
0.0
 40
0.0100025331555421
100
AcDbArc
 50
180.0316005679113
 51
269.9683994306035
  0
ARC
  5
1524
330
1F
100
AcDbEntity
  8
Sanindusa
100
AcDbCircle
 10
3598.398366366597
 20
1185.029500590264
 30
0.0
 40
0.010002533155542
100
AcDbArc
 50
270.0316005678853
 51
359.9683994320886
  0
LINE
  5
1531
330
1F
100
AcDbEntity
  8
Sanindusa
100
AcDbLine
 10
3598.257251556991
 20
1185.574688797542
 30
0.0
 11
3597.98017815932
 21
1185.574688797542
 31
0.0
  0
LINE
  5
1533
330
1F
100
AcDbEntity
  8
Sanindusa
100
AcDbLine
 10
3598.257251556991
 20
1185.544688797542
 30
0.0
 11
3597.98017815932
 21
1185.544688797542
 31
0.0
  0
LINE
  5
1536
330
1F
100
AcDbEntity
  8
Sanindusa
100
AcDbLine
 10
3597.98017815932
 20
1185.584688797542
 30
0.0
 11
3598.257251556991
 21
1185.584688797542
 31
0.0
  0
LINE
  5
1538
330
1F
100
AcDbEntity
  8
Sanindusa
100
AcDbLine
 10
3597.98017815932
 20
1185.554688797542
 30
0.0
 11
3598.257251556991
 21
1185.554688797542
 31
0.0
  0
LINE
  5
153E
330
1F
100
AcDbEntity
  8
Sanindusa
100
AcDbLine
 10
3598.257251556991
 20
1185.604688797542
 30
0.0
 11
3598.042550980141
 21
1185.604688797542
 31
0.0
  0
LINE
  5
1540
330
1F
100
AcDbEntity
  8
Sanindusa
100
AcDbLine
 10
3598.257251556991
 20
1185.634688797542
 30
0.0
 11
3598.042550980141
 21
1185.634688797542
 31
0.0
  0
LINE
  5
1541
330
1F
100
AcDbEntity
  8
Sanindusa
100
AcDbLine
 10
3598.257251556991
 20
1185.664688797542
 30
0.0
 11
3598.042550980141
 21
1185.664688797542
 31
0.0
  0
LINE
  5
1545
330
1F
100
AcDbEntity
  8
Sanindusa
100
AcDbLine
 10
3598.042550980141
 20
1185.614688797542
 30
0.0
 11
3598.257251556991
 21
1185.614688797542
 31
0.0
  0
LINE
  5
1547
330
1F
100
AcDbEntity
  8
Sanindusa
100
AcDbLine
 10
3598.042550980141
 20
1185.644688797542
 30
0.0
 11
3598.257251556991
 21
1185.644688797542
 31
0.0
  0
LINE
  5
154F
330
1F
100
AcDbEntity
  8
Sanindusa
100
AcDbLine
 10
3598.257251556991
 20
1185.754688797542
 30
0.0
 11
3598.042550980141
 21
1185.754688797542
 31
0.0
  0
LINE
  5
1550
330
1F
100
AcDbEntity
  8
Sanindusa
100
AcDbLine
 10
3598.257251556991
 20
1185.724688797542
 30
0.0
 11
3598.042550980141
 21
1185.724688797542
 31
0.0
  0
LINE
  5
1551
330
1F
100
AcDbEntity
  8
Sanindusa
100
AcDbLine
 10
3598.257251556991
 20
1185.694688797542
 30
0.0
 11
3598.042550980141
 21
1185.694688797542
 31
0.0
  0
LINE
  5
1556
330
1F
100
AcDbEntity
  8
Sanindusa
100
AcDbLine
 10
3598.042550980141
 20
1185.764762195214
 30
0.0
 11
3598.257251556991
 21
1185.764762195214
 31
0.0
  0
LINE
  5
1558
330
1F
100
AcDbEntity
  8
Sanindusa
100
AcDbLine
 10
3598.042550980141
 20
1185.674688797542
 30
0.0
 11
3598.257251556991
 21
1185.674688797542
 31
0.0
  0
LINE
  5
155A
330
1F
100
AcDbEntity
  8
Sanindusa
100
AcDbLine
 10
3598.042550980141
 20
1185.704688797541
 30
0.0
 11
3598.257251556991
 21
1185.704688797541
 31
0.0
  0
LINE
  5
155C
330
1F
100
AcDbEntity
  8
Sanindusa
100
AcDbLine
 10
3598.042550980141
 20
1185.734688797542
 30
0.0
 11
3598.257251556991
 21
1185.734688797542
 31
0.0
  0
LINE
  5
155E
330
1F
100
AcDbEntity
  8
Sanindusa
100
AcDbLine
 10
3598.319592298729
 20
1185.084126512475
 30
0.0
 11
3597.59676401991
 21
1185.084126512475
 31
0.0
  0
LINE
  5
155F
330
1F
100
AcDbEntity
  8
Sanindusa
100
AcDbLine
 10
3597.58431229336
 20
1185.071674785925
 30
0.0
 11
3598.332044025279
 21
1185.071674785925
 31
0.0
  0
LINE
  5
1565
330
1F
100
AcDbEntity
  8
Sanindusa
100
AcDbLine
 10
3598.257251556991
 20
1185.484688797542
 30
0.0
 11
3597.98017815932
 21
1185.484688797542
 31
0.0
  0
LINE
  5
1567
330
1F
100
AcDbEntity
  8
Sanindusa
100
AcDbLine
 10
3598.257251556991
 20
1185.514688797542
 30
0.0
 11
3597.98017815932
 21
1185.514688797542
 31
0.0
  0
LINE
  5
156A
330
1F
100
AcDbEntity
  8
Sanindusa
100
AcDbLine
 10
3597.98017815932
 20
1185.494688797541
 30
0.0
 11
3598.257251556991
 21
1185.494688797541
 31
0.0
  0
LINE
  5
156C
330
1F
100
AcDbEntity
  8
Sanindusa
100
AcDbLine
 10
3597.98017815932
 20
1185.524688797542
 30
0.0
 11
3598.257251556991
 21
1185.524688797542
 31
0.0
  0
LINE
  5
1571
330
1F
100
AcDbEntity
  8
Sanindusa
100
AcDbLine
 10
3597.687104761647
 20
1185.17061539987
 30
0.0
 11
3597.687104761647
 21
1185.451615399869
 31
0.0
  0
LINE
  5
1572
330
1F
100
AcDbEntity
  8
Sanindusa
100
AcDbLine
 10
3597.717104761647
 20
1185.17061539987
 30
0.0
 11
3597.717104761647
 21
1185.451615399869
 31
0.0
  0
LINE
  5
1576
330
1F
100
AcDbEntity
  8
Sanindusa
100
AcDbLine
 10
3597.697104761647
 20
1185.451615399869
 30
0.0
 11
3597.697104761647
 21
1185.17061539987
 31
0.0
  0
LINE
  5
1578
330
1F
100
AcDbEntity
  8
Sanindusa
100
AcDbLine
 10
3597.667104761647
 20
1185.451615399869
 30
0.0
 11
3597.667104761647
 21
1185.17061539987
 31
0.0
  0
LINE
  5
157A
330
1F
100
AcDbEntity
  8
Sanindusa
100
AcDbLine
 10
3597.657104761647
 20
1185.17061539987
 30
0.0
 11
3597.657104761647
 21
1185.451615399869
 31
0.0
  0
LINE
  5
1599
330
1F
100
AcDbEntity
  8
Sanindusa
100
AcDbLine
 10
3598.099251556992
 20
1185.17061539987
 30
0.0
 11
3598.099251556992
 21
1185.451615399869
 31
0.0
  0
LINE
  5
159A
330
1F
100
AcDbEntity
  8
Sanindusa
100
AcDbLine
 10
3597.837104761647
 20
1185.17061539987
 30
0.0
 11
3597.837104761647
 21
1185.451615399869
 31
0.0
  0
LINE
  5
159B
330
1F
100
AcDbEntity
  8
Sanindusa
100
AcDbLine
 10
3598.159251556992
 20
1185.17061539987
 30
0.0
 11
3598.159251556992
 21
1185.451615399869
 31
0.0
  0
LINE
  5
159D
330
1F
100
AcDbEntity
  8
Sanindusa
100
AcDbLine
 10
3597.927104761647
 20
1185.17061539987
 30
0.0
 11
3597.927104761647
 21
1185.451615399869
 31
0.0
  0
LINE
  5
159E
330
1F
100
AcDbEntity
  8
Sanindusa
100
AcDbLine
 10
3597.777104761647
 20
1185.17061539987
 30
0.0
 11
3597.777104761647
 21
1185.451615399869
 31
0.0
  0
LINE
  5
15A0
330
1F
100
AcDbEntity
  8
Sanindusa
100
AcDbLine
 10
3597.897104761647
 20
1185.17061539987
 30
0.0
 11
3597.897104761647
 21
1185.451615399869
 31
0.0
  0
LINE
  5
15A2
330
1F
100
AcDbEntity
  8
Sanindusa
100
AcDbLine
 10
3597.978178159319
 20
1185.17061539987
 30
0.0
 11
3597.978178159319
 21
1185.451615399869
 31
0.0
  0
LINE
  5
15A4
330
1F
100
AcDbEntity
  8
Sanindusa
100
AcDbLine
 10
3598.069251556991
 20
1185.17061539987
 30
0.0
 11
3598.069251556991
 21
1185.451615399869
 31
0.0
  0
LINE
  5
15A6
330
1F
100
AcDbEntity
  8
Sanindusa
100
AcDbLine
 10
3597.747104761647
 20
1185.17061539987
 30
0.0
 11
3597.747104761647
 21
1185.451615399869
 31
0.0
  0
LINE
  5
15A8
330
1F
100
AcDbEntity
  8
Sanindusa
100
AcDbLine
 10
3598.039251556991
 20
1185.17061539987
 30
0.0
 11
3598.039251556991
 21
1185.451615399869
 31
0.0
  0
LINE
  5
15A9
330
1F
100
AcDbEntity
  8
Sanindusa
100
AcDbLine
 10
3597.807104761647
 20
1185.17061539987
 30
0.0
 11
3597.807104761647
 21
1185.451615399869
 31
0.0
  0
LINE
  5
15AD
330
1F
100
AcDbEntity
  8
Sanindusa
100
AcDbLine
 10
3598.009251556991
 20
1185.17061539987
 30
0.0
 11
3598.009251556991
 21
1185.451615399869
 31
0.0
  0
LINE
  5
15B0
330
1F
100
AcDbEntity
  8
Sanindusa
100
AcDbLine
 10
3597.867104761647
 20
1185.17061539987
 30
0.0
 11
3597.867104761647
 21
1185.451615399869
 31
0.0
  0
LINE
  5
15B2
330
1F
100
AcDbEntity
  8
Sanindusa
100
AcDbLine
 10
3598.129251556991
 20
1185.17061539987
 30
0.0
 11
3598.129251556991
 21
1185.451615399869
 31
0.0
  0
LINE
  5
15B6
330
1F
100
AcDbEntity
  8
Sanindusa
100
AcDbLine
 10
3597.847104761647
 20
1185.451615399869
 30
0.0
 11
3597.847104761647
 21
1185.17061539987
 31
0.0
  0
LINE
  5
15B8
330
1F
100
AcDbEntity
  8
Sanindusa
100
AcDbLine
 10
3597.727104761647
 20
1185.451615399869
 30
0.0
 11
3597.727104761647
 21
1185.17061539987
 31
0.0
  0
LINE
  5
15BA
330
1F
100
AcDbEntity
  8
Sanindusa
100
AcDbLine
 10
3597.938178159319
 20
1185.451615399869
 30
0.0
 11
3597.938178159319
 21
1185.17061539987
 31
0.0
  0
LINE
  5
15BC
330
1F
100
AcDbEntity
  8
Sanindusa
100
AcDbLine
 10
3597.787104761647
 20
1185.451615399869
 30
0.0
 11
3597.787104761647
 21
1185.17061539987
 31
0.0
  0
LINE
  5
15BE
330
1F
100
AcDbEntity
  8
Sanindusa
100
AcDbLine
 10
3597.877104761647
 20
1185.451615399869
 30
0.0
 11
3597.877104761647
 21
1185.17061539987
 31
0.0
  0
LINE
  5
15C0
330
1F
100
AcDbEntity
  8
Sanindusa
100
AcDbLine
 10
3597.907104761647
 20
1185.451615399869
 30
0.0
 11
3597.907104761647
 21
1185.17061539987
 31
0.0
  0
LINE
  5
15C2
330
1F
100
AcDbEntity
  8
Sanindusa
100
AcDbLine
 10
3597.817104761646
 20
1185.451615399869
 30
0.0
 11
3597.817104761646
 21
1185.17061539987
 31
0.0
  0
LINE
  5
15C4
330
1F
100
AcDbEntity
  8
Sanindusa
100
AcDbLine
 10
3597.757104761647
 20
1185.451615399869
 30
0.0
 11
3597.757104761647
 21
1185.17061539987
 31
0.0
  0
LINE
  5
15C6
330
1F
100
AcDbEntity
  8
Sanindusa
100
AcDbLine
 10
3598.019251556991
 20
1185.451615399869
 30
0.0
 11
3598.019251556991
 21
1185.17061539987
 31
0.0
  0
LINE
  5
15C8
330
1F
100
AcDbEntity
  8
Sanindusa
100
AcDbLine
 10
3598.139251556992
 20
1185.451615399869
 30
0.0
 11
3598.139251556992
 21
1185.17061539987
 31
0.0
  0
LINE
  5
15CA
330
1F
100
AcDbEntity
  8
Sanindusa
100
AcDbLine
 10
3598.109251556991
 20
1185.451615399869
 30
0.0
 11
3598.109251556991
 21
1185.17061539987
 31
0.0
  0
LINE
  5
15CC
330
1F
100
AcDbEntity
  8
Sanindusa
100
AcDbLine
 10
3598.079251556991
 20
1185.451615399869
 30
0.0
 11
3598.079251556991
 21
1185.17061539987
 31
0.0
  0
LINE
  5
15CE
330
1F
100
AcDbEntity
  8
Sanindusa
100
AcDbLine
 10
3597.989251556992
 20
1185.451615399869
 30
0.0
 11
3597.989251556992
 21
1185.17061539987
 31
0.0
  0
LINE
  5
15D0
330
1F
100
AcDbEntity
  8
Sanindusa
100
AcDbLine
 10
3598.169251556991
 20
1185.451615399869
 30
0.0
 11
3598.169251556991
 21
1185.17061539987
 31
0.0
  0
LINE
  5
15D2
330
1F
100
AcDbEntity
  8
Sanindusa
100
AcDbLine
 10
3598.049251556992
 20
1185.451615399869
 30
0.0
 11
3598.049251556992
 21
1185.17061539987
 31
0.0
  0
LWPOLYLINE
  5
15D3
330
1F
100
AcDbEntity
  8
Sanindusa
100
AcDbPolyline
 90
       14
 70
   128
 43
0.0
 10
3597.560164147703
 20
1185.095822931582
 10
3597.560266896828
 20
1185.092783829295
 10
3597.560723466405
 20
1185.089817787732
 10
3597.56152775415
 20
1185.086964449535
 10
3597.562669010352
 20
1185.08426195101
 10
3597.564131981545
 20
1185.081746412415
 10
3597.565897114382
 20
1185.079451455193
 10
3597.56794081697
 20
1185.077407752605
 10
3597.570235774192
 20
1185.075642619768
 10
3597.572751312788
 20
1185.074179648574
 10
3597.575453811312
 20
1185.073038392372
 10
3597.578307149509
 20
1185.072234104627
 10
3597.581273191072
 20
1185.07177753505
 10
3597.58431229336
 20
1185.071674785925
  0
ARC
  5
15D9
330
1F
100
AcDbEntity
  8
Sanindusa
100
AcDbCircle
 10
3597.875104761647
 20
1185.17061539987
 30
0.0
 40
0.0020000000000002
100
AcDbArc
 50
270.0
 51
0.0
  0
LWPOLYLINE
  5
15DF
330
1F
100
AcDbEntity
  8
Sanindusa
100
AcDbPolyline
 90
       13
 70
   128
 43
0.0
 10
3597.59676401991
 20
1185.084126512475
 10
3597.593663441225
 20
1185.084442887091
 10
3597.590622364632
 20
1185.085143888353
 10
3597.587688482933
 20
1185.086218522549
 10
3597.584907807806
 20
1185.087649936335
 10
3597.582323948215
 20
1185.089415681034
 10
3597.579977426486
 20
1185.091488064708
 10
3597.577905042812
 20
1185.093834586437
 10
3597.576139298112
 20
1185.096418446028
 10
3597.574707884327
 20
1185.099199121155
 10
3597.573633250131
 20
1185.102133002854
 10
3597.572932248869
 20
1185.105174079448
 10
3597.572615874252
 20
1185.108274658132
  0
LINE
  5
15E1
330
1F
100
AcDbEntity
  8
Sanindusa
100
AcDbLine
 10
3597.725104761647
 20
1185.168615399869
 30
0.0
 11
3597.719104761647
 21
1185.168615399869
 31
0.0
  0
ARC
  5
15E6
330
1F
100
AcDbEntity
  8
Sanindusa
100
AcDbCircle
 10
3597.659104761647
 20
1185.17061539987
 30
0.0
 40
0.002
100
AcDbArc
 50
180.0
 51
270.0
  0
ARC
  5
15EB
330
1F
100
AcDbEntity
  8
Sanindusa
100
AcDbCircle
 10
3597.665104761647
 20
1185.17061539987
 30
0.0
 40
0.002
100
AcDbArc
 50
270.0
 51
0.0
  0
ARC
  5
15F0
330
1F
100
AcDbEntity
  8
Sanindusa
100
AcDbCircle
 10
3597.719104761647
 20
1185.17061539987
 30
0.0
 40
0.002
100
AcDbArc
 50
180.0
 51
270.0
  0
ARC
  5
15FD
330
1F
100
AcDbEntity
  8
Sanindusa
100
AcDbCircle
 10
3597.689104761647
 20
1185.17061539987
 30
0.0
 40
0.0020000000000002
100
AcDbArc
 50
180.0
 51
270.0
  0
LINE
  5
15FF
330
1F
100
AcDbEntity
  8
Sanindusa
100
AcDbLine
 10
3597.695104761647
 20
1185.168615399869
 30
0.0
 11
3597.689104761647
 21
1185.168615399869
 31
0.0
  0
ARC
  5
1603
330
1F
100
AcDbEntity
  8
Sanindusa
100
AcDbCircle
 10
3597.695104761647
 20
1185.17061539987
 30
0.0
 40
0.002
100
AcDbArc
 50
270.0
 51
0.0
  0
LINE
  5
160A
330
1F
100
AcDbEntity
  8
Sanindusa
100
AcDbLine
 10
3597.665104761647
 20
1185.168615399869
 30
0.0
 11
3597.659104761647
 21
1185.168615399869
 31
0.0
  0
ARC
  5
160E
330
1F
100
AcDbEntity
  8
Sanindusa
100
AcDbCircle
 10
3597.749104761647
 20
1185.17061539987
 30
0.0
 40
0.002
100
AcDbArc
 50
180.0
 51
270.0
  0
ARC
  5
1616
330
1F
100
AcDbEntity
  8
Sanindusa
100
AcDbCircle
 10
3597.755104761647
 20
1185.17061539987
 30
0.0
 40
0.002
100
AcDbArc
 50
270.0
 51
0.0
  0
LINE
  5
1619
330
1F
100
AcDbEntity
  8
Sanindusa
100
AcDbLine
 10
3597.755104761647
 20
1185.168615399869
 30
0.0
 11
3597.749104761647
 21
1185.168615399869
 31
0.0
  0
ARC
  5
1623
330
1F
100
AcDbEntity
  8
Sanindusa
100
AcDbCircle
 10
3597.725104761647
 20
1185.17061539987
 30
0.0
 40
0.002
100
AcDbArc
 50
270.0
 51
0.0
  0
ARC
  5
162D
330
1F
100
AcDbEntity
  8
Sanindusa
100
AcDbCircle
 10
3597.815104761647
 20
1185.17061539987
 30
0.0
 40
0.002
100
AcDbArc
 50
270.0
 51
0.0
  0
LINE
  5
162F
330
1F
100
AcDbEntity
  8
Sanindusa
100
AcDbLine
 10
3597.815104761647
 20
1185.168615399869
 30
0.0
 11
3597.809104761647
 21
1185.168615399869
 31
0.0
  0
ARC
  5
1632
330
1F
100
AcDbEntity
  8
Sanindusa
100
AcDbCircle
 10
3597.809104761647
 20
1185.17061539987
 30
0.0
 40
0.002
100
AcDbArc
 50
180.0
 51
270.0
  0
LINE
  5
163E
330
1F
100
AcDbEntity
  8
Sanindusa
100
AcDbLine
 10
3597.785104761647
 20
1185.168615399869
 30
0.0
 11
3597.779104761646
 21
1185.168615399869
 31
0.0
  0
ARC
  5
1642
330
1F
100
AcDbEntity
  8
Sanindusa
100
AcDbCircle
 10
3597.785104761647
 20
1185.17061539987
 30
0.0
 40
0.002
100
AcDbArc
 50
270.0
 51
0.0
  0
ARC
  5
1644
330
1F
100
AcDbEntity
  8
Sanindusa
100
AcDbCircle
 10
3597.779104761646
 20
1185.17061539987
 30
0.0
 40
0.002
100
AcDbArc
 50
180.0
 51
270.0
  0
LINE
  5
1648
330
1F
100
AcDbEntity
  8
Sanindusa
100
AcDbLine
 10
3597.875104761647
 20
1185.168615399869
 30
0.0
 11
3597.869104761647
 21
1185.168615399869
 31
0.0
  0
ARC
  5
1657
330
1F
100
AcDbEntity
  8
Sanindusa
100
AcDbCircle
 10
3597.839104761646
 20
1185.17061539987
 30
0.0
 40
0.0020000000000002
100
AcDbArc
 50
180.0
 51
270.0
  0
ARC
  5
165A
330
1F
100
AcDbEntity
  8
Sanindusa
100
AcDbCircle
 10
3597.869104761647
 20
1185.17061539987
 30
0.0
 40
0.002
100
AcDbArc
 50
180.0
 51
270.0
  0
ARC
  5
165E
330
1F
100
AcDbEntity
  8
Sanindusa
100
AcDbCircle
 10
3597.845104761647
 20
1185.17061539987
 30
0.0
 40
0.002
100
AcDbArc
 50
270.0
 51
0.0
  0
LINE
  5
1663
330
1F
100
AcDbEntity
  8
Sanindusa
100
AcDbLine
 10
3597.845104761647
 20
1185.168615399869
 30
0.0
 11
3597.839104761646
 21
1185.168615399869
 31
0.0
  0
ARC
  5
166C
330
1F
100
AcDbEntity
  8
Sanindusa
100
AcDbCircle
 10
3597.936178159319
 20
1185.17061539987
 30
0.0
 40
0.002
100
AcDbArc
 50
270.0
 51
0.0
  0
LINE
  5
166D
330
1F
100
AcDbEntity
  8
Sanindusa
100
AcDbLine
 10
3597.936178159319
 20
1185.168615399869
 30
0.0
 11
3597.929104761647
 21
1185.168615399869
 31
0.0
  0
ARC
  5
166F
330
1F
100
AcDbEntity
  8
Sanindusa
100
AcDbCircle
 10
3597.929104761647
 20
1185.17061539987
 30
0.0
 40
0.002
100
AcDbArc
 50
180.0
 51
270.0
  0
ARC
  5
167D
330
1F
100
AcDbEntity
  8
Sanindusa
100
AcDbCircle
 10
3597.905104761647
 20
1185.17061539987
 30
0.0
 40
0.002
100
AcDbArc
 50
270.0
 51
0.0
  0
LINE
  5
167F
330
1F
100
AcDbEntity
  8
Sanindusa
100
AcDbLine
 10
3597.905104761647
 20
1185.168615399869
 30
0.0
 11
3597.899104761647
 21
1185.168615399869
 31
0.0
  0
ARC
  5
1683
330
1F
100
AcDbEntity
  8
Sanindusa
100
AcDbCircle
 10
3597.899104761647
 20
1185.17061539987
 30
0.0
 40
0.002
100
AcDbArc
 50
180.0
 51
270.0
  0
LINE
  5
168F
330
1F
100
AcDbEntity
  8
Sanindusa
100
AcDbLine
 10
3597.987251556992
 20
1185.168615399869
 30
0.0
 11
3597.98017815932
 21
1185.168615399869
 31
0.0
  0
ARC
  5
1691
330
1F
100
AcDbEntity
  8
Sanindusa
100
AcDbCircle
 10
3597.98017815932
 20
1185.17061539987
 30
0.0
 40
0.0020000000000002
100
AcDbArc
 50
180.0
 51
270.0
  0
ARC
  5
1696
330
1F
100
AcDbEntity
  8
Sanindusa
100
AcDbCircle
 10
3597.987251556992
 20
1185.17061539987
 30
0.0
 40
0.002
100
AcDbArc
 50
270.0
 51
0.0
  0
ARC
  5
169E
330
1F
100
AcDbEntity
  8
Sanindusa
100
AcDbCircle
 10
3598.011251556992
 20
1185.17061539987
 30
0.0
 40
0.002
100
AcDbArc
 50
180.0
 51
270.0
  0
LINE
  5
16A1
330
1F
100
AcDbEntity
  8
Sanindusa
100
AcDbLine
 10
3598.017251556991
 20
1185.168615399869
 30
0.0
 11
3598.011251556992
 21
1185.168615399869
 31
0.0
  0
ARC
  5
16A5
330
1F
100
AcDbEntity
  8
Sanindusa
100
AcDbCircle
 10
3598.017251556991
 20
1185.17061539987
 30
0.0
 40
0.0020000000000002
100
AcDbArc
 50
270.0
 51
0.0
  0
ARC
  5
16B0
330
1F
100
AcDbEntity
  8
Sanindusa
100
AcDbCircle
 10
3598.041251556992
 20
1185.17061539987
 30
0.0
 40
0.002
100
AcDbArc
 50
180.0
 51
270.0
  0
LINE
  5
16B2
330
1F
100
AcDbEntity
  8
Sanindusa
100
AcDbLine
 10
3598.047251556991
 20
1185.168615399869
 30
0.0
 11
3598.041251556992
 21
1185.168615399869
 31
0.0
  0
ARC
  5
16B8
330
1F
100
AcDbEntity
  8
Sanindusa
100
AcDbCircle
 10
3598.047251556991
 20
1185.17061539987
 30
0.0
 40
0.002
100
AcDbArc
 50
270.0
 51
0.0
  0
LINE
  5
16BB
330
1F
100
AcDbEntity
  8
Sanindusa
100
AcDbLine
 10
3598.077251556991
 20
1185.168615399869
 30
0.0
 11
3598.071251556991
 21
1185.168615399869
 31
0.0
  0
LINE
  5
16C7
330
1F
100
AcDbEntity
  8
Sanindusa
100
AcDbLine
 10
3598.107251556991
 20
1185.168615399869
 30
0.0
 11
3598.101251556992
 21
1185.168615399869
 31
0.0
  0
ARC
  5
16C9
330
1F
100
AcDbEntity
  8
Sanindusa
100
AcDbCircle
 10
3598.101251556992
 20
1185.17061539987
 30
0.0
 40
0.0020000000000001
100
AcDbArc
 50
180.0
 51
270.0
  0
ARC
  5
16CE
330
1F
100
AcDbEntity
  8
Sanindusa
100
AcDbCircle
 10
3598.077251556991
 20
1185.17061539987
 30
0.0
 40
0.002
100
AcDbArc
 50
270.0
 51
0.0
  0
ARC
  5
16D1
330
1F
100
AcDbEntity
  8
Sanindusa
100
AcDbCircle
 10
3598.107251556991
 20
1185.17061539987
 30
0.0
 40
0.002
100
AcDbArc
 50
270.0
 51
0.0
  0
ARC
  5
16D8
330
1F
100
AcDbEntity
  8
Sanindusa
100
AcDbCircle
 10
3598.071251556991
 20
1185.17061539987
 30
0.0
 40
0.002
100
AcDbArc
 50
180.0
 51
270.0
  0
ARC
  5
16E4
330
1F
100
AcDbEntity
  8
Sanindusa
100
AcDbCircle
 10
3598.167251556991
 20
1185.17061539987
 30
0.0
 40
0.002
100
AcDbArc
 50
270.0
 51
0.0
  0
ARC
  5
16E7
330
1F
100
AcDbEntity
  8
Sanindusa
100
AcDbCircle
 10
3598.161251556991
 20
1185.17061539987
 30
0.0
 40
0.0020000000000001
100
AcDbArc
 50
180.0
 51
270.0
  0
LINE
  5
16EB
330
1F
100
AcDbEntity
  8
Sanindusa
100
AcDbLine
 10
3598.167251556991
 20
1185.168615399869
 30
0.0
 11
3598.161251556991
 21
1185.168615399869
 31
0.0
  0
LINE
  5
16F4
330
1F
100
AcDbEntity
  8
Sanindusa
100
AcDbLine
 10
3598.137251556992
 20
1185.168615399869
 30
0.0
 11
3598.131251556991
 21
1185.168615399869
 31
0.0
  0
ARC
  5
16F5
330
1F
100
AcDbEntity
  8
Sanindusa
100
AcDbCircle
 10
3598.131251556991
 20
1185.17061539987
 30
0.0
 40
0.002
100
AcDbArc
 50
180.0
 51
270.0
  0
ARC
  5
16FB
330
1F
100
AcDbEntity
  8
Sanindusa
100
AcDbCircle
 10
3598.137251556992
 20
1185.17061539987
 30
0.0
 40
0.002
100
AcDbArc
 50
270.0
 51
0.0
  0
LINE
  5
1702
330
1F
100
AcDbEntity
  8
Sanindusa
100
AcDbLine
 10
3597.936178159319
 20
1185.544688797542
 30
0.0
 11
3597.659104761647
 21
1185.544688797542
 31
0.0
  0
LINE
  5
1703
330
1F
100
AcDbEntity
  8
Sanindusa
100
AcDbLine
 10
3597.936178159319
 20
1185.574688797542
 30
0.0
 11
3597.659104761647
 21
1185.574688797542
 31
0.0
  0
LINE
  5
1707
330
1F
100
AcDbEntity
  8
Sanindusa
100
AcDbLine
 10
3597.659104761647
 20
1185.584688797542
 30
0.0
 11
3597.936178159319
 21
1185.584688797542
 31
0.0
  0
LINE
  5
1709
330
1F
100
AcDbEntity
  8
Sanindusa
100
AcDbLine
 10
3597.659104761647
 20
1185.554688797542
 30
0.0
 11
3597.936178159319
 21
1185.554688797542
 31
0.0
  0
ARC
  5
170C
330
1F
100
AcDbEntity
  8
Sanindusa
100
AcDbCircle
 10
3597.875104761647
 20
1185.451615399869
 30
0.0
 40
0.002
100
AcDbArc
 50
0.0
 51
90.0
  0
LINE
  5
1711
330
1F
100
AcDbEntity
  8
Sanindusa
100
AcDbLine
 10
3597.936178159319
 20
1185.484688797542
 30
0.0
 11
3597.659104761647
 21
1185.484688797542
 31
0.0
  0
LINE
  5
1712
330
1F
100
AcDbEntity
  8
Sanindusa
100
AcDbLine
 10
3597.936178159319
 20
1185.514688797542
 30
0.0
 11
3597.659104761647
 21
1185.514688797542
 31
0.0
  0
LINE
  5
1716
330
1F
100
AcDbEntity
  8
Sanindusa
100
AcDbLine
 10
3597.659104761647
 20
1185.524688797542
 30
0.0
 11
3597.936178159319
 21
1185.524688797542
 31
0.0
  0
LINE
  5
1718
330
1F
100
AcDbEntity
  8
Sanindusa
100
AcDbLine
 10
3597.659104761647
 20
1185.494688797541
 30
0.0
 11
3597.936178159319
 21
1185.494688797541
 31
0.0
  0
ARC
  5
171A
330
1F
100
AcDbEntity
  8
Sanindusa
100
AcDbCircle
 10
3597.659104761647
 20
1185.522688797542
 30
0.0
 40
0.002
100
AcDbArc
 50
90.0
 51
180.0
  0
LINE
  5
171E
330
1F
100
AcDbEntity
  8
Sanindusa
100
AcDbLine
 10
3597.719104761647
 20
1185.45361539987
 30
0.0
 11
3597.725104761647
 21
1185.45361539987
 31
0.0
  0
LINE
  5
1725
330
1F
100
AcDbEntity
  8
Sanindusa
100
AcDbLine
 10
3597.657104761647
 20
1185.516688797542
 30
0.0
 11
3597.657104761647
 21
1185.522688797542
 31
0.0
  0
ARC
  5
1727
330
1F
100
AcDbEntity
  8
Sanindusa
100
AcDbCircle
 10
3597.659104761647
 20
1185.516688797542
 30
0.0
 40
0.002
100
AcDbArc
 50
180.0
 51
270.0
  0
LINE
  5
1733
330
1F
100
AcDbEntity
  8
Sanindusa
100
AcDbLine
 10
3597.657104761647
 20
1185.486688797542
 30
0.0
 11
3597.657104761647
 21
1185.492688797542
 31
0.0
  0
ARC
  5
1735
330
1F
100
AcDbEntity
  8
Sanindusa
100
AcDbCircle
 10
3597.659104761647
 20
1185.486688797542
 30
0.0
 40
0.002
100
AcDbArc
 50
180.0
 51
270.0
  0
ARC
  5
173A
330
1F
100
AcDbEntity
  8
Sanindusa
100
AcDbCircle
 10
3597.659104761647
 20
1185.492688797542
 30
0.0
 40
0.0020000000000002
100
AcDbArc
 50
90.0
 51
180.0
  0
ARC
  5
173F
330
1F
100
AcDbEntity
  8
Sanindusa
100
AcDbCircle
 10
3597.659104761647
 20
1185.451615399869
 30
0.0
 40
0.002
100
AcDbArc
 50
90.0
 51
180.0
  0
ARC
  5
1745
330
1F
100
AcDbEntity
  8
Sanindusa
100
AcDbCircle
 10
3597.665104761647
 20
1185.451615399869
 30
0.0
 40
0.002
100
AcDbArc
 50
0.0
 51
90.0
  0
ARC
  5
174A
330
1F
100
AcDbEntity
  8
Sanindusa
100
AcDbCircle
 10
3597.719104761647
 20
1185.451615399869
 30
0.0
 40
0.002
100
AcDbArc
 50
90.0
 51
180.0
  0
LINE
  5
1756
330
1F
100
AcDbEntity
  8
Sanindusa
100
AcDbLine
 10
3597.689104761647
 20
1185.45361539987
 30
0.0
 11
3597.695104761647
 21
1185.45361539987
 31
0.0
  0
ARC
  5
175A
330
1F
100
AcDbEntity
  8
Sanindusa
100
AcDbCircle
 10
3597.695104761647
 20
1185.451615399869
 30
0.0
 40
0.002
100
AcDbArc
 50
0.0
 51
90.0
  0
ARC
  5
175C
330
1F
100
AcDbEntity
  8
Sanindusa
100
AcDbCircle
 10
3597.689104761647
 20
1185.451615399869
 30
0.0
 40
0.0020000000000002
100
AcDbArc
 50
90.0
 51
180.0
  0
LINE
  5
1764
330
1F
100
AcDbEntity
  8
Sanindusa
100
AcDbLine
 10
3597.659104761647
 20
1185.45361539987
 30
0.0
 11
3597.665104761647
 21
1185.45361539987
 31
0.0
  0
ARC
  5
1766
330
1F
100
AcDbEntity
  8
Sanindusa
100
AcDbCircle
 10
3597.749104761647
 20
1185.451615399869
 30
0.0
 40
0.002
100
AcDbArc
 50
90.0
 51
180.0
  0
LINE
  5
1771
330
1F
100
AcDbEntity
  8
Sanindusa
100
AcDbLine
 10
3597.749104761647
 20
1185.45361539987
 30
0.0
 11
3597.755104761647
 21
1185.45361539987
 31
0.0
  0
ARC
  5
1775
330
1F
100
AcDbEntity
  8
Sanindusa
100
AcDbCircle
 10
3597.755104761647
 20
1185.451615399869
 30
0.0
 40
0.002
100
AcDbArc
 50
0.0
 51
90.0
  0
ARC
  5
177D
330
1F
100
AcDbEntity
  8
Sanindusa
100
AcDbCircle
 10
3597.725104761647
 20
1185.451615399869
 30
0.0
 40
0.0020000000000002
100
AcDbArc
 50
0.0
 51
90.0
  0
LINE
  5
1787
330
1F
100
AcDbEntity
  8
Sanindusa
100
AcDbLine
 10
3597.809104761647
 20
1185.45361539987
 30
0.0
 11
3597.815104761647
 21
1185.45361539987
 31
0.0
  0
ARC
  5
178A
330
1F
100
AcDbEntity
  8
Sanindusa
100
AcDbCircle
 10
3597.815104761647
 20
1185.451615399869
 30
0.0
 40
0.002
100
AcDbArc
 50
0.0
 51
90.0
  0
ARC
  5
178D
330
1F
100
AcDbEntity
  8
Sanindusa
100
AcDbCircle
 10
3597.809104761647
 20
1185.451615399869
 30
0.0
 40
0.002
100
AcDbArc
 50
90.0
 51
180.0
  0
LINE
  5
1795
330
1F
100
AcDbEntity
  8
Sanindusa
100
AcDbLine
 10
3597.779104761646
 20
1185.45361539987
 30
0.0
 11
3597.785104761647
 21
1185.45361539987
 31
0.0
  0
ARC
  5
179B
330
1F
100
AcDbEntity
  8
Sanindusa
100
AcDbCircle
 10
3597.785104761647
 20
1185.451615399869
 30
0.0
 40
0.002
100
AcDbArc
 50
0.0
 51
90.0
  0
ARC
  5
179D
330
1F
100
AcDbEntity
  8
Sanindusa
100
AcDbCircle
 10
3597.779104761646
 20
1185.451615399869
 30
0.0
 40
0.002
100
AcDbArc
 50
90.0
 51
180.0
  0
LINE
  5
17A0
330
1F
100
AcDbEntity
  8
Sanindusa
100
AcDbLine
 10
3597.869104761647
 20
1185.45361539987
 30
0.0
 11
3597.875104761647
 21
1185.45361539987
 31
0.0
  0
ARC
  5
17AF
330
1F
100
AcDbEntity
  8
Sanindusa
100
AcDbCircle
 10
3597.839104761646
 20
1185.451615399869
 30
0.0
 40
0.002
100
AcDbArc
 50
90.0
 51
180.0
  0
LINE
  5
17B4
330
1F
100
AcDbEntity
  8
Sanindusa
100
AcDbLine
 10
3597.839104761646
 20
1185.45361539987
 30
0.0
 11
3597.845104761647
 21
1185.45361539987
 31
0.0
  0
ARC
  5
17B6
330
1F
100
AcDbEntity
  8
Sanindusa
100
AcDbCircle
 10
3597.869104761647
 20
1185.451615399869
 30
0.0
 40
0.002
100
AcDbArc
 50
90.0
 51
180.0
  0
ARC
  5
17BC
330
1F
100
AcDbEntity
  8
Sanindusa
100
AcDbCircle
 10
3597.845104761647
 20
1185.451615399869
 30
0.0
 40
0.002
100
AcDbArc
 50
0.0
 51
90.0
  0
LINE
  5
17C0
330
1F
100
AcDbEntity
  8
Sanindusa
100
AcDbLine
 10
3597.873805338498
 20
1185.604688797542
 30
0.0
 11
3597.659104761647
 21
1185.604688797542
 31
0.0
  0
LINE
  5
17C3
330
1F
100
AcDbEntity
  8
Sanindusa
100
AcDbLine
 10
3597.659104761647
 20
1185.614688797542
 30
0.0
 11
3597.873805338498
 21
1185.614688797542
 31
0.0
  0
LINE
  5
17C6
330
1F
100
AcDbEntity
  8
Sanindusa
100
AcDbLine
 10
3597.657104761647
 20
1185.606688797542
 30
0.0
 11
3597.657104761647
 21
1185.612688797542
 31
0.0
  0
ARC
  5
17CC
330
1F
100
AcDbEntity
  8
Sanindusa
100
AcDbCircle
 10
3597.659104761647
 20
1185.606688797542
 30
0.0
 40
0.002
100
AcDbArc
 50
180.0
 51
270.0
  0
ARC
  5
17D6
330
1F
100
AcDbEntity
  8
Sanindusa
100
AcDbCircle
 10
3597.659104761647
 20
1185.612688797542
 30
0.0
 40
0.002
100
AcDbArc
 50
90.0
 51
180.0
  0
ARC
  5
17D9
330
1F
100
AcDbEntity
  8
Sanindusa
100
AcDbCircle
 10
3597.659104761647
 20
1185.552688797542
 30
0.0
 40
0.0019999999999999
100
AcDbArc
 50
90.0
 51
180.0
  0
LINE
  5
17E0
330
1F
100
AcDbEntity
  8
Sanindusa
100
AcDbLine
 10
3597.657104761647
 20
1185.546688797542
 30
0.0
 11
3597.657104761647
 21
1185.552688797542
 31
0.0
  0
ARC
  5
17E2
330
1F
100
AcDbEntity
  8
Sanindusa
100
AcDbCircle
 10
3597.659104761647
 20
1185.546688797542
 30
0.0
 40
0.002
100
AcDbArc
 50
180.0
 51
270.0
  0
LINE
  5
17E8
330
1F
100
AcDbEntity
  8
Sanindusa
100
AcDbLine
 10
3597.657104761647
 20
1185.576688797542
 30
0.0
 11
3597.657104761647
 21
1185.582688797542
 31
0.0
  0
ARC
  5
17EF
330
1F
100
AcDbEntity
  8
Sanindusa
100
AcDbCircle
 10
3597.659104761647
 20
1185.576688797542
 30
0.0
 40
0.002
100
AcDbArc
 50
180.0
 51
270.0
  0
ARC
  5
17F6
330
1F
100
AcDbEntity
  8
Sanindusa
100
AcDbCircle
 10
3597.659104761647
 20
1185.582688797542
 30
0.0
 40
0.0019999999999999
100
AcDbArc
 50
90.0
 51
180.0
  0
LINE
  5
17FA
330
1F
100
AcDbEntity
  8
Sanindusa
100
AcDbLine
 10
3597.875805338498
 20
1185.612688797542
 30
0.0
 11
3597.875805338498
 21
1185.606688797542
 31
0.0
  0
ARC
  5
17FF
330
1F
100
AcDbEntity
  8
Sanindusa
100
AcDbCircle
 10
3597.873805338498
 20
1185.606688797542
 30
0.0
 40
0.0020000000000002
100
AcDbArc
 50
270.0
 51
0.0
  0
ARC
  5
1806
330
1F
100
AcDbEntity
  8
Sanindusa
100
AcDbCircle
 10
3597.873805338498
 20
1185.612688797542
 30
0.0
 40
0.0019999999999999
100
AcDbArc
 50
0.0
 51
90.0
  0
ARC
  5
180B
330
1F
100
AcDbEntity
  8
Sanindusa
100
AcDbCircle
 10
3597.936178159319
 20
1185.522688797542
 30
0.0
 40
0.002
100
AcDbArc
 50
0.0
 51
90.0
  0
ARC
  5
180E
330
1F
100
AcDbEntity
  8
Sanindusa
100
AcDbCircle
 10
3597.98017815932
 20
1185.522688797542
 30
0.0
 40
0.0020000000000002
100
AcDbArc
 50
90.0
 51
180.0
  0
ARC
  5
1815
330
1F
100
AcDbEntity
  8
Sanindusa
100
AcDbCircle
 10
3597.936178159319
 20
1185.516688797542
 30
0.0
 40
0.002
100
AcDbArc
 50
270.0
 51
0.0
  0
LINE
  5
1818
330
1F
100
AcDbEntity
  8
Sanindusa
100
AcDbLine
 10
3597.938178159319
 20
1185.522688797542
 30
0.0
 11
3597.938178159319
 21
1185.516688797542
 31
0.0
  0
ARC
  5
1823
330
1F
100
AcDbEntity
  8
Sanindusa
100
AcDbCircle
 10
3597.936178159319
 20
1185.486688797542
 30
0.0
 40
0.002
100
AcDbArc
 50
270.0
 51
0.0
  0
LINE
  5
1825
330
1F
100
AcDbEntity
  8
Sanindusa
100
AcDbLine
 10
3597.938178159319
 20
1185.492688797542
 30
0.0
 11
3597.938178159319
 21
1185.486688797542
 31
0.0
  0
ARC
  5
1828
330
1F
100
AcDbEntity
  8
Sanindusa
100
AcDbCircle
 10
3597.936178159319
 20
1185.492688797542
 30
0.0
 40
0.002
100
AcDbArc
 50
0.0
 51
90.0
  0
ARC
  5
1836
330
1F
100
AcDbEntity
  8
Sanindusa
100
AcDbCircle
 10
3597.936178159319
 20
1185.451615399869
 30
0.0
 40
0.002
100
AcDbArc
 50
0.0
 51
90.0
  0
LINE
  5
1839
330
1F
100
AcDbEntity
  8
Sanindusa
100
AcDbLine
 10
3597.929104761647
 20
1185.45361539987
 30
0.0
 11
3597.936178159319
 21
1185.45361539987
 31
0.0
  0
ARC
  5
183B
330
1F
100
AcDbEntity
  8
Sanindusa
100
AcDbCircle
 10
3597.929104761647
 20
1185.451615399869
 30
0.0
 40
0.002
100
AcDbArc
 50
90.0
 51
180.0
  0
LINE
  5
1846
330
1F
100
AcDbEntity
  8
Sanindusa
100
AcDbLine
 10
3597.899104761647
 20
1185.45361539987
 30
0.0
 11
3597.905104761647
 21
1185.45361539987
 31
0.0
  0
ARC
  5
184A
330
1F
100
AcDbEntity
  8
Sanindusa
100
AcDbCircle
 10
3597.905104761647
 20
1185.451615399869
 30
0.0
 40
0.0019999999999999
100
AcDbArc
 50
0.0
 51
90.0
  0
ARC
  5
184C
330
1F
100
AcDbEntity
  8
Sanindusa
100
AcDbCircle
 10
3597.899104761647
 20
1185.451615399869
 30
0.0
 40
0.002
100
AcDbArc
 50
90.0
 51
180.0
  0
LINE
  5
1856
330
1F
100
AcDbEntity
  8
Sanindusa
100
AcDbLine
 10
3597.978178159319
 20
1185.516688797542
 30
0.0
 11
3597.978178159319
 21
1185.522688797542
 31
0.0
  0
ARC
  5
1858
330
1F
100
AcDbEntity
  8
Sanindusa
100
AcDbCircle
 10
3597.98017815932
 20
1185.516688797542
 30
0.0
 40
0.0020000000000002
100
AcDbArc
 50
180.0
 51
270.0
  0
ARC
  5
1864
330
1F
100
AcDbEntity
  8
Sanindusa
100
AcDbCircle
 10
3597.98017815932
 20
1185.492688797542
 30
0.0
 40
0.0020000000000002
100
AcDbArc
 50
90.0
 51
180.0
  0
LINE
  5
1867
330
1F
100
AcDbEntity
  8
Sanindusa
100
AcDbLine
 10
3597.978178159319
 20
1185.486688797542
 30
0.0
 11
3597.978178159319
 21
1185.492688797542
 31
0.0
  0
ARC
  5
1869
330
1F
100
AcDbEntity
  8
Sanindusa
100
AcDbCircle
 10
3597.98017815932
 20
1185.486688797542
 30
0.0
 40
0.0020000000000002
100
AcDbArc
 50
180.0
 51
270.0
  0
ARC
  5
1873
330
1F
100
AcDbEntity
  8
Sanindusa
100
AcDbCircle
 10
3597.98017815932
 20
1185.451615399869
 30
0.0
 40
0.002
100
AcDbArc
 50
90.0
 51
180.0
  0
LINE
  5
1878
330
1F
100
AcDbEntity
  8
Sanindusa
100
AcDbLine
 10
3597.98017815932
 20
1185.45361539987
 30
0.0
 11
3597.987251556992
 21
1185.45361539987
 31
0.0
  0
ARC
  5
187B
330
1F
100
AcDbEntity
  8
Sanindusa
100
AcDbCircle
 10
3597.987251556992
 20
1185.451615399869
 30
0.0
 40
0.002
100
AcDbArc
 50
0.0
 51
90.0
  0
ARC
  5
1883
330
1F
100
AcDbEntity
  8
Sanindusa
100
AcDbCircle
 10
3598.011251556992
 20
1185.451615399869
 30
0.0
 40
0.002
100
AcDbArc
 50
90.0
 51
180.0
  0
ARC
  5
1887
330
1F
100
AcDbEntity
  8
Sanindusa
100
AcDbCircle
 10
3598.017251556991
 20
1185.451615399869
 30
0.0
 40
0.002
100
AcDbArc
 50
0.0
 51
90.0
  0
LINE
  5
188C
330
1F
100
AcDbEntity
  8
Sanindusa
100
AcDbLine
 10
3598.011251556992
 20
1185.45361539987
 30
0.0
 11
3598.017251556991
 21
1185.45361539987
 31
0.0
  0
ARC
  5
1895
330
1F
100
AcDbEntity
  8
Sanindusa
100
AcDbCircle
 10
3598.041251556992
 20
1185.451615399869
 30
0.0
 40
0.002
100
AcDbArc
 50
90.0
 51
180.0
  0
ARC
  5
1899
330
1F
100
AcDbEntity
  8
Sanindusa
100
AcDbCircle
 10
3598.047251556991
 20
1185.451615399869
 30
0.0
 40
0.002
100
AcDbArc
 50
0.0
 51
90.0
  0
LINE
  5
189D
330
1F
100
AcDbEntity
  8
Sanindusa
100
AcDbLine
 10
3598.041251556992
 20
1185.45361539987
 30
0.0
 11
3598.047251556991
 21
1185.45361539987
 31
0.0
  0
LINE
  5
18A1
330
1F
100
AcDbEntity
  8
Sanindusa
100
AcDbLine
 10
3598.071251556991
 20
1185.45361539987
 30
0.0
 11
3598.077251556991
 21
1185.45361539987
 31
0.0
  0
ARC
  5
18AC
330
1F
100
AcDbEntity
  8
Sanindusa
100
AcDbCircle
 10
3598.101251556992
 20
1185.451615399869
 30
0.0
 40
0.002
100
AcDbArc
 50
90.0
 51
180.0
  0
ARC
  5
18B1
330
1F
100
AcDbEntity
  8
Sanindusa
100
AcDbCircle
 10
3598.077251556991
 20
1185.451615399869
 30
0.0
 40
0.002
100
AcDbArc
 50
0.0
 51
90.0
  0
ARC
  5
18B3
330
1F
100
AcDbEntity
  8
Sanindusa
100
AcDbCircle
 10
3598.107251556991
 20
1185.451615399869
 30
0.0
 40
0.002
100
AcDbArc
 50
0.0
 51
90.0
  0
LINE
  5
18B7
330
1F
100
AcDbEntity
  8
Sanindusa
100
AcDbLine
 10
3598.101251556992
 20
1185.45361539987
 30
0.0
 11
3598.107251556991
 21
1185.45361539987
 31
0.0
  0
ARC
  5
18BD
330
1F
100
AcDbEntity
  8
Sanindusa
100
AcDbCircle
 10
3598.071251556991
 20
1185.451615399869
 30
0.0
 40
0.0019999999999999
100
AcDbArc
 50
90.0
 51
180.0
  0
ARC
  5
18C8
330
1F
100
AcDbEntity
  8
Sanindusa
100
AcDbCircle
 10
3598.161251556991
 20
1185.451615399869
 30
0.0
 40
0.002
100
AcDbArc
 50
90.0
 51
180.0
  0
LINE
  5
18CA
330
1F
100
AcDbEntity
  8
Sanindusa
100
AcDbLine
 10
3598.161251556991
 20
1185.45361539987
 30
0.0
 11
3598.167251556991
 21
1185.45361539987
 31
0.0
  0
ARC
  5
18CC
330
1F
100
AcDbEntity
  8
Sanindusa
100
AcDbCircle
 10
3598.167251556991
 20
1185.451615399869
 30
0.0
 40
0.002
100
AcDbArc
 50
0.0
 51
90.0
  0
ARC
  5
18D9
330
1F
100
AcDbEntity
  8
Sanindusa
100
AcDbCircle
 10
3598.131251556991
 20
1185.451615399869
 30
0.0
 40
0.0019999999999999
100
AcDbArc
 50
90.0
 51
180.0
  0
ARC
  5
18DE
330
1F
100
AcDbEntity
  8
Sanindusa
100
AcDbCircle
 10
3598.137251556992
 20
1185.451615399869
 30
0.0
 40
0.002
100
AcDbArc
 50
0.0
 51
90.0
  0
LINE
  5
18E2
330
1F
100
AcDbEntity
  8
Sanindusa
100
AcDbLine
 10
3598.131251556991
 20
1185.45361539987
 30
0.0
 11
3598.137251556992
 21
1185.45361539987
 31
0.0
  0
ARC
  5
18E6
330
1F
100
AcDbEntity
  8
Sanindusa
100
AcDbCircle
 10
3597.936178159319
 20
1185.552688797542
 30
0.0
 40
0.002
100
AcDbArc
 50
0.0
 51
90.0
  0
ARC
  5
18ED
330
1F
100
AcDbEntity
  8
Sanindusa
100
AcDbCircle
 10
3597.936178159319
 20
1185.546688797542
 30
0.0
 40
0.002
100
AcDbArc
 50
270.0
 51
0.0
  0
LINE
  5
18EF
330
1F
100
AcDbEntity
  8
Sanindusa
100
AcDbLine
 10
3597.938178159319
 20
1185.552688797542
 30
0.0
 11
3597.938178159319
 21
1185.546688797542
 31
0.0
  0
LINE
  5
18F5
330
1F
100
AcDbEntity
  8
Sanindusa
100
AcDbLine
 10
3597.938178159319
 20
1185.582688797542
 30
0.0
 11
3597.938178159319
 21
1185.576688797542
 31
0.0
  0
ARC
  5
18FB
330
1F
100
AcDbEntity
  8
Sanindusa
100
AcDbCircle
 10
3597.936178159319
 20
1185.576688797542
 30
0.0
 40
0.002
100
AcDbArc
 50
270.0
 51
0.0
  0
ARC
  5
1903
330
1F
100
AcDbEntity
  8
Sanindusa
100
AcDbCircle
 10
3597.936178159319
 20
1185.582688797542
 30
0.0
 40
0.002
100
AcDbArc
 50
0.0
 51
90.0
  0
ARC
  5
1909
330
1F
100
AcDbEntity
  8
Sanindusa
100
AcDbCircle
 10
3597.98017815932
 20
1185.552688797542
 30
0.0
 40
0.0020000000000002
100
AcDbArc
 50
90.0
 51
180.0
  0
ARC
  5
190F
330
1F
100
AcDbEntity
  8
Sanindusa
100
AcDbCircle
 10
3597.98017815932
 20
1185.546688797542
 30
0.0
 40
0.0020000000000002
100
AcDbArc
 50
180.0
 51
270.0
  0
LINE
  5
1914
330
1F
100
AcDbEntity
  8
Sanindusa
100
AcDbLine
 10
3597.978178159319
 20
1185.546688797542
 30
0.0
 11
3597.978178159319
 21
1185.552688797542
 31
0.0
  0
LINE
  5
1918
330
1F
100
AcDbEntity
  8
Sanindusa
100
AcDbLine
 10
3597.978178159319
 20
1185.576688797542
 30
0.0
 11
3597.978178159319
 21
1185.582688797542
 31
0.0
  0
ARC
  5
191D
330
1F
100
AcDbEntity
  8
Sanindusa
100
AcDbCircle
 10
3597.98017815932
 20
1185.576688797542
 30
0.0
 40
0.0020000000000002
100
AcDbArc
 50
180.0
 51
270.0
  0
ARC
  5
1926
330
1F
100
AcDbEntity
  8
Sanindusa
100
AcDbCircle
 10
3597.98017815932
 20
1185.582688797542
 30
0.0
 40
0.0020000000000002
100
AcDbArc
 50
90.0
 51
180.0
  0
LINE
  5
192D
330
1F
100
AcDbEntity
  8
Sanindusa
100
AcDbLine
 10
3598.040550980141
 20
1185.606688797542
 30
0.0
 11
3598.040550980141
 21
1185.612688797542
 31
0.0
  0
ARC
  5
1931
330
1F
100
AcDbEntity
  8
Sanindusa
100
AcDbCircle
 10
3598.042550980141
 20
1185.606688797542
 30
0.0
 40
0.002
100
AcDbArc
 50
180.0
 51
270.0
  0
ARC
  5
193B
330
1F
100
AcDbEntity
  8
Sanindusa
100
AcDbCircle
 10
3598.042550980141
 20
1185.612688797542
 30
0.0
 40
0.002
100
AcDbArc
 50
90.0
 51
180.0
  0
LINE
  5
1942
330
1F
100
AcDbEntity
  8
Sanindusa
100
AcDbLine
 10
3597.873805338498
 20
1185.694688797542
 30
0.0
 11
3597.659104761647
 21
1185.694688797542
 31
0.0
  0
LINE
  5
1943
330
1F
100
AcDbEntity
  8
Sanindusa
100
AcDbLine
 10
3597.873805338498
 20
1185.664688797542
 30
0.0
 11
3597.659104761647
 21
1185.664688797542
 31
0.0
  0
LINE
  5
1944
330
1F
100
AcDbEntity
  8
Sanindusa
100
AcDbLine
 10
3597.873805338498
 20
1185.634688797542
 30
0.0
 11
3597.659104761647
 21
1185.634688797542
 31
0.0
  0
LINE
  5
1949
330
1F
100
AcDbEntity
  8
Sanindusa
100
AcDbLine
 10
3597.659104761647
 20
1185.674688797542
 30
0.0
 11
3597.873805338498
 21
1185.674688797542
 31
0.0
  0
LINE
  5
194B
330
1F
100
AcDbEntity
  8
Sanindusa
100
AcDbLine
 10
3597.659104761647
 20
1185.704688797541
 30
0.0
 11
3597.873805338498
 21
1185.704688797541
 31
0.0
  0
LINE
  5
194D
330
1F
100
AcDbEntity
  8
Sanindusa
100
AcDbLine
 10
3597.659104761647
 20
1185.644688797542
 30
0.0
 11
3597.873805338498
 21
1185.644688797542
 31
0.0
  0
LINE
  5
1950
330
1F
100
AcDbEntity
  8
Sanindusa
100
AcDbLine
 10
3597.657104761647
 20
1185.666688797542
 30
0.0
 11
3597.657104761647
 21
1185.672688797542
 31
0.0
  0
LINE
  5
1956
330
1F
100
AcDbEntity
  8
Sanindusa
100
AcDbLine
 10
3597.657104761647
 20
1185.696688797541
 30
0.0
 11
3597.657104761647
 21
1185.702688797542
 31
0.0
  0
ARC
  5
195F
330
1F
100
AcDbEntity
  8
Sanindusa
100
AcDbCircle
 10
3597.659104761647
 20
1185.672688797542
 30
0.0
 40
0.0019999999999999
100
AcDbArc
 50
90.0
 51
180.0
  0
ARC
  5
1962
330
1F
100
AcDbEntity
  8
Sanindusa
100
AcDbCircle
 10
3597.659104761647
 20
1185.696688797541
 30
0.0
 40
0.0019999999999999
100
AcDbArc
 50
180.0
 51
270.0
  0
ARC
  5
1969
330
1F
100
AcDbEntity
  8
Sanindusa
100
AcDbCircle
 10
3597.659104761647
 20
1185.702688797542
 30
0.0
 40
0.002
100
AcDbArc
 50
90.0
 51
180.0
  0
LINE
  5
196B
330
1F
100
AcDbEntity
  8
Sanindusa
100
AcDbLine
 10
3597.657104761647
 20
1185.636688797542
 30
0.0
 11
3597.657104761647
 21
1185.642688797542
 31
0.0
  0
ARC
  5
1970
330
1F
100
AcDbEntity
  8
Sanindusa
100
AcDbCircle
 10
3597.659104761647
 20
1185.636688797542
 30
0.0
 40
0.002
100
AcDbArc
 50
180.0
 51
270.0
  0
ARC
  5
197B
330
1F
100
AcDbEntity
  8
Sanindusa
100
AcDbCircle
 10
3597.659104761647
 20
1185.642688797542
 30
0.0
 40
0.0020000000000002
100
AcDbArc
 50
90.0
 51
180.0
  0
ARC
  5
197D
330
1F
100
AcDbEntity
  8
Sanindusa
100
AcDbCircle
 10
3597.659104761647
 20
1185.666688797542
 30
0.0
 40
0.0019999999999999
100
AcDbArc
 50
180.0
 51
270.0
  0
LINE
  5
1982
330
1F
100
AcDbEntity
  8
Sanindusa
100
AcDbLine
 10
3597.875805338498
 20
1185.672688797542
 30
0.0
 11
3597.875805338498
 21
1185.666688797542
 31
0.0
  0
LINE
  5
1988
330
1F
100
AcDbEntity
  8
Sanindusa
100
AcDbLine
 10
3597.875805338498
 20
1185.702688797542
 30
0.0
 11
3597.875805338498
 21
1185.696688797541
 31
0.0
  0
ARC
  5
1990
330
1F
100
AcDbEntity
  8
Sanindusa
100
AcDbCircle
 10
3597.873805338498
 20
1185.672688797542
 30
0.0
 40
0.002
100
AcDbArc
 50
0.0
 51
90.0
  0
ARC
  5
1992
330
1F
100
AcDbEntity
  8
Sanindusa
100
AcDbCircle
 10
3597.873805338498
 20
1185.696688797541
 30
0.0
 40
0.002
100
AcDbArc
 50
270.0
 51
0.0
  0
ARC
  5
199A
330
1F
100
AcDbEntity
  8
Sanindusa
100
AcDbCircle
 10
3597.873805338498
 20
1185.702688797542
 30
0.0
 40
0.0019999999999999
100
AcDbArc
 50
0.0
 51
90.0
  0
LINE
  5
199F
330
1F
100
AcDbEntity
  8
Sanindusa
100
AcDbLine
 10
3597.875805338498
 20
1185.642688797542
 30
0.0
 11
3597.875805338498
 21
1185.636688797542
 31
0.0
  0
ARC
  5
19A3
330
1F
100
AcDbEntity
  8
Sanindusa
100
AcDbCircle
 10
3597.873805338498
 20
1185.636688797542
 30
0.0
 40
0.002
100
AcDbArc
 50
270.0
 51
0.0
  0
ARC
  5
19AC
330
1F
100
AcDbEntity
  8
Sanindusa
100
AcDbCircle
 10
3597.873805338498
 20
1185.642688797542
 30
0.0
 40
0.002
100
AcDbArc
 50
0.0
 51
90.0
  0
ARC
  5
19B0
330
1F
100
AcDbEntity
  8
Sanindusa
100
AcDbCircle
 10
3597.873805338498
 20
1185.666688797542
 30
0.0
 40
0.002
100
AcDbArc
 50
270.0
 51
0.0
  0
LINE
  5
19B5
330
1F
100
AcDbEntity
  8
Sanindusa
100
AcDbLine
 10
3597.659104761647
 20
1185.764762195214
 30
0.0
 11
3597.873805338498
 21
1185.764762195214
 31
0.0
  0
LINE
  5
19B8
330
1F
100
AcDbEntity
  8
Sanindusa
100
AcDbLine
 10
3597.873805338498
 20
1185.754688797542
 30
0.0
 11
3597.659104761647
 21
1185.754688797542
 31
0.0
  0
LINE
  5
19BC
330
1F
100
AcDbEntity
  8
Sanindusa
100
AcDbLine
 10
3597.873805338498
 20
1185.724688797542
 30
0.0
 11
3597.659104761647
 21
1185.724688797542
 31
0.0
  0
LINE
  5
19BF
330
1F
100
AcDbEntity
  8
Sanindusa
100
AcDbLine
 10
3597.659104761647
 20
1185.734688797542
 30
0.0
 11
3597.873805338498
 21
1185.734688797542
 31
0.0
  0
ARC
  5
19C1
330
1F
100
AcDbEntity
  8
Sanindusa
100
AcDbCircle
 10
3597.659104761647
 20
1185.756688797542
 30
0.0
 40
0.0019999999999999
100
AcDbArc
 50
180.0
 51
270.0
  0
LINE
  5
19C6
330
1F
100
AcDbEntity
  8
Sanindusa
100
AcDbLine
 10
3597.657104761647
 20
1185.756688797542
 30
0.0
 11
3597.657104761647
 21
1185.762762195214
 31
0.0
  0
ARC
  5
19CE
330
1F
100
AcDbEntity
  8
Sanindusa
100
AcDbCircle
 10
3597.659104761647
 20
1185.762762195214
 30
0.0
 40
0.002
100
AcDbArc
 50
90.0
 51
180.0
  0
LINE
  5
19D3
330
1F
100
AcDbEntity
  8
Sanindusa
100
AcDbLine
 10
3597.657104761647
 20
1185.726688797542
 30
0.0
 11
3597.657104761647
 21
1185.732688797542
 31
0.0
  0
ARC
  5
19D8
330
1F
100
AcDbEntity
  8
Sanindusa
100
AcDbCircle
 10
3597.659104761647
 20
1185.726688797542
 30
0.0
 40
0.0019999999999999
100
AcDbArc
 50
180.0
 51
270.0
  0
ARC
  5
19E0
330
1F
100
AcDbEntity
  8
Sanindusa
100
AcDbCircle
 10
3597.659104761647
 20
1185.732688797542
 30
0.0
 40
0.002
100
AcDbArc
 50
90.0
 51
180.0
  0
ARC
  5
19E3
330
1F
100
AcDbEntity
  8
Sanindusa
100
AcDbCircle
 10
3597.873805338498
 20
1185.756688797542
 30
0.0
 40
0.0020000000000002
100
AcDbArc
 50
270.0
 51
0.0
  0
LINE
  5
19EC
330
1F
100
AcDbEntity
  8
Sanindusa
100
AcDbLine
 10
3597.875805338498
 20
1185.762762195214
 30
0.0
 11
3597.875805338498
 21
1185.756688797542
 31
0.0
  0
ARC
  5
19EE
330
1F
100
AcDbEntity
  8
Sanindusa
100
AcDbCircle
 10
3597.873805338498
 20
1185.762762195214
 30
0.0
 40
0.0019999999999999
100
AcDbArc
 50
0.0
 51
90.0
  0
LINE
  5
19F4
330
1F
100
AcDbEntity
  8
Sanindusa
100
AcDbLine
 10
3597.875805338498
 20
1185.732688797542
 30
0.0
 11
3597.875805338498
 21
1185.726688797542
 31
0.0
  0
ARC
  5
19F9
330
1F
100
AcDbEntity
  8
Sanindusa
100
AcDbCircle
 10
3597.873805338498
 20
1185.726688797542
 30
0.0
 40
0.002
100
AcDbArc
 50
270.0
 51
0.0
  0
ARC
  5
1A00
330
1F
100
AcDbEntity
  8
Sanindusa
100
AcDbCircle
 10
3597.873805338498
 20
1185.732688797542
 30
0.0
 40
0.002
100
AcDbArc
 50
0.0
 51
90.0
  0
CIRCLE
  5
1A05
330
1F
100
AcDbEntity
  8
Sanindusa
100
AcDbCircle
 10
3597.958178159319
 20
1185.669688797542
 30
0.0
 40
0.0299999999999999
  0
CIRCLE
  5
1A08
330
1F
100
AcDbEntity
  8
Sanindusa
100
AcDbCircle
 10
3597.958178159319
 20
1185.669688797542
 30
0.0
 40
0.0408284271247463
  0
LINE
  5
1A0C
330
1F
100
AcDbEntity
  8
Sanindusa
100
AcDbLine
 10
3598.040550980141
 20
1185.666688797542
 30
0.0
 11
3598.040550980141
 21
1185.672688797542
 31
0.0
  0
LINE
  5
1A12
330
1F
100
AcDbEntity
  8
Sanindusa
100
AcDbLine
 10
3598.040550980141
 20
1185.696688797541
 30
0.0
 11
3598.040550980141
 21
1185.702688797542
 31
0.0
  0
ARC
  5
1A1A
330
1F
100
AcDbEntity
  8
Sanindusa
100
AcDbCircle
 10
3598.042550980141
 20
1185.672688797542
 30
0.0
 40
0.0019999999999999
100
AcDbArc
 50
90.0
 51
180.0
  0
ARC
  5
1A1E
330
1F
100
AcDbEntity
  8
Sanindusa
100
AcDbCircle
 10
3598.042550980141
 20
1185.696688797541
 30
0.0
 40
0.002
100
AcDbArc
 50
180.0
 51
270.0
  0
ARC
  5
1A23
330
1F
100
AcDbEntity
  8
Sanindusa
100
AcDbCircle
 10
3598.042550980141
 20
1185.702688797542
 30
0.0
 40
0.002
100
AcDbArc
 50
90.0
 51
180.0
  0
LINE
  5
1A28
330
1F
100
AcDbEntity
  8
Sanindusa
100
AcDbLine
 10
3598.040550980141
 20
1185.636688797542
 30
0.0
 11
3598.040550980141
 21
1185.642688797542
 31
0.0
  0
ARC
  5
1A2D
330
1F
100
AcDbEntity
  8
Sanindusa
100
AcDbCircle
 10
3598.042550980141
 20
1185.636688797542
 30
0.0
 40
0.0019999999999999
100
AcDbArc
 50
180.0
 51
270.0
  0
ARC
  5
1A35
330
1F
100
AcDbEntity
  8
Sanindusa
100
AcDbCircle
 10
3598.042550980141
 20
1185.642688797542
 30
0.0
 40
0.002
100
AcDbArc
 50
90.0
 51
180.0
  0
ARC
  5
1A39
330
1F
100
AcDbEntity
  8
Sanindusa
100
AcDbCircle
 10
3598.042550980141
 20
1185.666688797542
 30
0.0
 40
0.002
100
AcDbArc
 50
180.0
 51
270.0
  0
ARC
  5
1A3E
330
1F
100
AcDbEntity
  8
Sanindusa
100
AcDbCircle
 10
3598.042550980141
 20
1185.756688797542
 30
0.0
 40
0.0020000000000002
100
AcDbArc
 50
180.0
 51
270.0
  0
LINE
  5
1A48
330
1F
100
AcDbEntity
  8
Sanindusa
100
AcDbLine
 10
3598.040550980141
 20
1185.756688797542
 30
0.0
 11
3598.040550980141
 21
1185.762762195214
 31
0.0
  0
ARC
  5
1A4C
330
1F
100
AcDbEntity
  8
Sanindusa
100
AcDbCircle
 10
3598.042550980141
 20
1185.762762195214
 30
0.0
 40
0.002
100
AcDbArc
 50
90.0
 51
180.0
  0
LINE
  5
1A50
330
1F
100
AcDbEntity
  8
Sanindusa
100
AcDbLine
 10
3598.040550980141
 20
1185.726688797542
 30
0.0
 11
3598.040550980141
 21
1185.732688797542
 31
0.0
  0
ARC
  5
1A54
330
1F
100
AcDbEntity
  8
Sanindusa
100
AcDbCircle
 10
3598.042550980141
 20
1185.726688797542
 30
0.0
 40
0.002
100
AcDbArc
 50
180.0
 51
270.0
  0
ARC
  5
1A5D
330
1F
100
AcDbEntity
  8
Sanindusa
100
AcDbCircle
 10
3598.042550980141
 20
1185.732688797542
 30
0.0
 40
0.002
100
AcDbArc
 50
90.0
 51
180.0
  0
LINE
  5
1A65
330
1F
100
AcDbEntity
  8
Sanindusa
100
AcDbLine
 10
3598.219251556991
 20
1185.17061539987
 30
0.0
 11
3598.219251556991
 21
1185.451615399869
 31
0.0
  0
LINE
  5
1A66
330
1F
100
AcDbEntity
  8
Sanindusa
100
AcDbLine
 10
3598.249251556991
 20
1185.17061539987
 30
0.0
 11
3598.249251556991
 21
1185.451615399869
 31
0.0
  0
LINE
  5
1A67
330
1F
100
AcDbEntity
  8
Sanindusa
100
AcDbLine
 10
3598.189251556991
 20
1185.17061539987
 30
0.0
 11
3598.189251556991
 21
1185.451615399869
 31
0.0
  0
LINE
  5
1A6C
330
1F
100
AcDbEntity
  8
Sanindusa
100
AcDbLine
 10
3598.199251556991
 20
1185.451615399869
 30
0.0
 11
3598.199251556991
 21
1185.17061539987
 31
0.0
  0
LINE
  5
1A6E
330
1F
100
AcDbEntity
  8
Sanindusa
100
AcDbLine
 10
3598.259251556991
 20
1185.451615399869
 30
0.0
 11
3598.259251556991
 21
1185.17061539987
 31
0.0
  0
LINE
  5
1A70
330
1F
100
AcDbEntity
  8
Sanindusa
100
AcDbLine
 10
3598.229251556991
 20
1185.451615399869
 30
0.0
 11
3598.229251556991
 21
1185.17061539987
 31
0.0
  0
LWPOLYLINE
  5
1A72
330
1F
100
AcDbEntity
  8
Sanindusa
100
AcDbPolyline
 90
       13
 70
   128
 43
0.0
 10
3598.343740444386
 20
1185.108274658132
 10
3598.34342406977
 20
1185.105174079448
 10
3598.342723068508
 20
1185.102133002854
 10
3598.341648434312
 20
1185.099199121155
 10
3598.340217020527
 20
1185.096418446028
 10
3598.338451275826
 20
1185.093834586437
 10
3598.336378892152
 20
1185.091488064708
 10
3598.334032370424
 20
1185.089415681034
 10
3598.331448510833
 20
1185.087649936335
 10
3598.328667835706
 20
1185.086218522549
 10
3598.325733954007
 20
1185.085143888353
 10
3598.322692877413
 20
1185.084442887091
 10
3598.319592298729
 20
1185.084126512475
  0
LWPOLYLINE
  5
1A73
330
1F
100
AcDbEntity
  8
Sanindusa
100
AcDbPolyline
 90
       14
 70
   128
 43
0.0
 10
3598.332044025279
 20
1185.071674785925
 10
3598.335083127566
 20
1185.07177753505
 10
3598.338049169129
 20
1185.072234104627
 10
3598.340902507326
 20
1185.073038392372
 10
3598.343605005851
 20
1185.074179648574
 10
3598.346120544446
 20
1185.075642619768
 10
3598.348415501668
 20
1185.077407752605
 10
3598.350459204257
 20
1185.079451455193
 10
3598.352224337094
 20
1185.081746412415
 10
3598.353687308287
 20
1185.08426195101
 10
3598.354828564489
 20
1185.086964449535
 10
3598.355632852234
 20
1185.089817787732
 10
3598.356089421811
 20
1185.092783829295
 10
3598.356192170936
 20
1185.095822931582
  0
ARC
  5
1A7C
330
1F
100
AcDbEntity
  8
Sanindusa
100
AcDbCircle
 10
3598.197251556991
 20
1185.17061539987
 30
0.0
 40
0.002
100
AcDbArc
 50
270.0
 51
0.0
  0
LINE
  5
1A86
330
1F
100
AcDbEntity
  8
Sanindusa
100
AcDbLine
 10
3598.227251556991
 20
1185.168615399869
 30
0.0
 11
3598.221251556991
 21
1185.168615399869
 31
0.0
  0
ARC
  5
1A87
330
1F
100
AcDbEntity
  8
Sanindusa
100
AcDbCircle
 10
3598.221251556991
 20
1185.17061539987
 30
0.0
 40
0.002
100
AcDbArc
 50
180.0
 51
270.0
  0
ARC
  5
1A8D
330
1F
100
AcDbEntity
  8
Sanindusa
100
AcDbCircle
 10
3598.227251556991
 20
1185.17061539987
 30
0.0
 40
0.002
100
AcDbArc
 50
270.0
 51
0.0
  0
ARC
  5
1A95
330
1F
100
AcDbEntity
  8
Sanindusa
100
AcDbCircle
 10
3598.191251556991
 20
1185.17061539987
 30
0.0
 40
0.002
100
AcDbArc
 50
180.0
 51
270.0
  0
LINE
  5
1A97
330
1F
100
AcDbEntity
  8
Sanindusa
100
AcDbLine
 10
3598.197251556991
 20
1185.168615399869
 30
0.0
 11
3598.191251556991
 21
1185.168615399869
 31
0.0
  0
ARC
  5
1AA4
330
1F
100
AcDbEntity
  8
Sanindusa
100
AcDbCircle
 10
3598.251251556991
 20
1185.17061539987
 30
0.0
 40
0.002
100
AcDbArc
 50
180.0
 51
270.0
  0
LINE
  5
1AA7
330
1F
100
AcDbEntity
  8
Sanindusa
100
AcDbLine
 10
3598.257251556991
 20
1185.168615399869
 30
0.0
 11
3598.251251556991
 21
1185.168615399869
 31
0.0
  0
ARC
  5
1AAB
330
1F
100
AcDbEntity
  8
Sanindusa
100
AcDbCircle
 10
3598.257251556991
 20
1185.17061539987
 30
0.0
 40
0.002
100
AcDbArc
 50
270.0
 51
0.0
  0
ARC
  5
1AAF
330
1F
100
AcDbEntity
  8
Sanindusa
100
AcDbCircle
 10
3598.257251556991
 20
1185.522688797542
 30
0.0
 40
0.002
100
AcDbArc
 50
0.0
 51
90.0
  0
ARC
  5
1AB6
330
1F
100
AcDbEntity
  8
Sanindusa
100
AcDbCircle
 10
3598.257251556991
 20
1185.516688797542
 30
0.0
 40
0.002
100
AcDbArc
 50
270.0
 51
0.0
  0
LINE
  5
1ABA
330
1F
100
AcDbEntity
  8
Sanindusa
100
AcDbLine
 10
3598.259251556991
 20
1185.522688797542
 30
0.0
 11
3598.259251556991
 21
1185.516688797542
 31
0.0
  0
ARC
  5
1AC4
330
1F
100
AcDbEntity
  8
Sanindusa
100
AcDbCircle
 10
3598.257251556991
 20
1185.492688797542
 30
0.0
 40
0.002
100
AcDbArc
 50
0.0
 51
90.0
  0
LINE
  5
1AC5
330
1F
100
AcDbEntity
  8
Sanindusa
100
AcDbLine
 10
3598.259251556991
 20
1185.492688797542
 30
0.0
 11
3598.259251556991
 21
1185.486688797542
 31
0.0
  0
ARC
  5
1AC7
330
1F
100
AcDbEntity
  8
Sanindusa
100
AcDbCircle
 10
3598.257251556991
 20
1185.486688797542
 30
0.0
 40
0.002
100
AcDbArc
 50
270.0
 51
0.0
  0
ARC
  5
1ACF
330
1F
100
AcDbEntity
  8
Sanindusa
100
AcDbCircle
 10
3598.197251556991
 20
1185.451615399869
 30
0.0
 40
0.002
100
AcDbArc
 50
0.0
 51
90.0
  0
ARC
  5
1AD9
330
1F
100
AcDbEntity
  8
Sanindusa
100
AcDbCircle
 10
3598.221251556991
 20
1185.451615399869
 30
0.0
 40
0.002
100
AcDbArc
 50
90.0
 51
180.0
  0
ARC
  5
1ADD
330
1F
100
AcDbEntity
  8
Sanindusa
100
AcDbCircle
 10
3598.227251556991
 20
1185.451615399869
 30
0.0
 40
0.002
100
AcDbArc
 50
0.0
 51
90.0
  0
LINE
  5
1AE2
330
1F
100
AcDbEntity
  8
Sanindusa
100
AcDbLine
 10
3598.221251556991
 20
1185.45361539987
 30
0.0
 11
3598.227251556991
 21
1185.45361539987
 31
0.0
  0
ARC
  5
1AE8
330
1F
100
AcDbEntity
  8
Sanindusa
100
AcDbCircle
 10
3598.191251556991
 20
1185.451615399869
 30
0.0
 40
0.002
100
AcDbArc
 50
90.0
 51
180.0
  0
LINE
  5
1AEF
330
1F
100
AcDbEntity
  8
Sanindusa
100
AcDbLine
 10
3598.191251556991
 20
1185.45361539987
 30
0.0
 11
3598.197251556991
 21
1185.45361539987
 31
0.0
  0
ARC
  5
1AF7
330
1F
100
AcDbEntity
  8
Sanindusa
100
AcDbCircle
 10
3598.251251556991
 20
1185.451615399869
 30
0.0
 40
0.002
100
AcDbArc
 50
90.0
 51
180.0
  0
ARC
  5
1AFB
330
1F
100
AcDbEntity
  8
Sanindusa
100
AcDbCircle
 10
3598.257251556991
 20
1185.451615399869
 30
0.0
 40
0.002
100
AcDbArc
 50
0.0
 51
90.0
  0
LINE
  5
1B00
330
1F
100
AcDbEntity
  8
Sanindusa
100
AcDbLine
 10
3598.251251556991
 20
1185.45361539987
 30
0.0
 11
3598.257251556991
 21
1185.45361539987
 31
0.0
  0
LINE
  5
1B02
330
1F
100
AcDbEntity
  8
Sanindusa
100
AcDbLine
 10
3598.259251556991
 20
1185.612688797542
 30
0.0
 11
3598.259251556991
 21
1185.606688797542
 31
0.0
  0
ARC
  5
1B09
330
1F
100
AcDbEntity
  8
Sanindusa
100
AcDbCircle
 10
3598.257251556991
 20
1185.606688797542
 30
0.0
 40
0.0020000000000002
100
AcDbArc
 50
270.0
 51
0.0
  0
ARC
  5
1B10
330
1F
100
AcDbEntity
  8
Sanindusa
100
AcDbCircle
 10
3598.257251556991
 20
1185.612688797542
 30
0.0
 40
0.002
100
AcDbArc
 50
0.0
 51
90.0
  0
ARC
  5
1B15
330
1F
100
AcDbEntity
  8
Sanindusa
100
AcDbCircle
 10
3598.257251556991
 20
1185.552688797542
 30
0.0
 40
0.002
100
AcDbArc
 50
0.0
 51
90.0
  0
LINE
  5
1B1C
330
1F
100
AcDbEntity
  8
Sanindusa
100
AcDbLine
 10
3598.259251556991
 20
1185.552688797542
 30
0.0
 11
3598.259251556991
 21
1185.546688797542
 31
0.0
  0
ARC
  5
1B20
330
1F
100
AcDbEntity
  8
Sanindusa
100
AcDbCircle
 10
3598.257251556991
 20
1185.546688797542
 30
0.0
 40
0.002
100
AcDbArc
 50
270.0
 51
0.0
  0
LINE
  5
1B24
330
1F
100
AcDbEntity
  8
Sanindusa
100
AcDbLine
 10
3598.259251556991
 20
1185.582688797542
 30
0.0
 11
3598.259251556991
 21
1185.576688797542
 31
0.0
  0
ARC
  5
1B2A
330
1F
100
AcDbEntity
  8
Sanindusa
100
AcDbCircle
 10
3598.257251556991
 20
1185.576688797542
 30
0.0
 40
0.002
100
AcDbArc
 50
270.0
 51
0.0
  0
ARC
  5
1B32
330
1F
100
AcDbEntity
  8
Sanindusa
100
AcDbCircle
 10
3598.257251556991
 20
1185.582688797542
 30
0.0
 40
0.002
100
AcDbArc
 50
0.0
 51
90.0
  0
LINE
  5
1B37
330
1F
100
AcDbEntity
  8
Sanindusa
100
AcDbLine
 10
3598.259251556991
 20
1185.672688797542
 30
0.0
 11
3598.259251556991
 21
1185.666688797542
 31
0.0
  0
LINE
  5
1B3D
330
1F
100
AcDbEntity
  8
Sanindusa
100
AcDbLine
 10
3598.259251556991
 20
1185.702688797542
 30
0.0
 11
3598.259251556991
 21
1185.696688797541
 31
0.0
  0
ARC
  5
1B45
330
1F
100
AcDbEntity
  8
Sanindusa
100
AcDbCircle
 10
3598.257251556991
 20
1185.672688797542
 30
0.0
 40
0.002
100
AcDbArc
 50
0.0
 51
90.0
  0
ARC
  5
1B48
330
1F
100
AcDbEntity
  8
Sanindusa
100
AcDbCircle
 10
3598.257251556991
 20
1185.696688797541
 30
0.0
 40
0.002
100
AcDbArc
 50
270.0
 51
0.0
  0
ARC
  5
1B4F
330
1F
100
AcDbEntity
  8
Sanindusa
100
AcDbCircle
 10
3598.257251556991
 20
1185.702688797542
 30
0.0
 40
0.002
100
AcDbArc
 50
0.0
 51
90.0
  0
LINE
  5
1B53
330
1F
100
AcDbEntity
  8
Sanindusa
100
AcDbLine
 10
3598.259251556991
 20
1185.642688797542
 30
0.0
 11
3598.259251556991
 21
1185.636688797542
 31
0.0
  0
ARC
  5
1B58
330
1F
100
AcDbEntity
  8
Sanindusa
100
AcDbCircle
 10
3598.257251556991
 20
1185.636688797542
 30
0.0
 40
0.002
100
AcDbArc
 50
270.0
 51
0.0
  0
ARC
  5
1B60
330
1F
100
AcDbEntity
  8
Sanindusa
100
AcDbCircle
 10
3598.257251556991
 20
1185.642688797542
 30
0.0
 40
0.002
100
AcDbArc
 50
0.0
 51
90.0
  0
ARC
  5
1B65
330
1F
100
AcDbEntity
  8
Sanindusa
100
AcDbCircle
 10
3598.257251556991
 20
1185.666688797542
 30
0.0
 40
0.002
100
AcDbArc
 50
270.0
 51
0.0
  0
ARC
  5
1B6A
330
1F
100
AcDbEntity
  8
Sanindusa
100
AcDbCircle
 10
3598.257251556991
 20
1185.756688797542
 30
0.0
 40
0.0020000000000002
100
AcDbArc
 50
270.0
 51
0.0
  0
ARC
  5
1B74
330
1F
100
AcDbEntity
  8
Sanindusa
100
AcDbCircle
 10
3598.257251556991
 20
1185.762762195214
 30
0.0
 40
0.002
100
AcDbArc
 50
0.0
 51
90.0
  0
LINE
  5
1B79
330
1F
100
AcDbEntity
  8
Sanindusa
100
AcDbLine
 10
3598.259251556991
 20
1185.762762195214
 30
0.0
 11
3598.259251556991
 21
1185.756688797542
 31
0.0
  0
LINE
  5
1B7B
330
1F
100
AcDbEntity
  8
Sanindusa
100
AcDbLine
 10
3598.259251556991
 20
1185.732688797542
 30
0.0
 11
3598.259251556991
 21
1185.726688797542
 31
0.0
  0
ARC
  5
1B80
330
1F
100
AcDbEntity
  8
Sanindusa
100
AcDbCircle
 10
3598.257251556991
 20
1185.726688797542
 30
0.0
 40
0.002
100
AcDbArc
 50
270.0
 51
0.0
  0
ARC
  5
1B88
330
1F
100
AcDbEntity
  8
Sanindusa
100
AcDbCircle
 10
3598.257251556991
 20
1185.732688797542
 30
0.0
 40
0.002
100
AcDbArc
 50
0.0
 51
90.0
  0
LINE
  5
1B90
330
1F
100
AcDbEntity
  8
Sanindusa
100
AcDbLine
 10
3597.59676401991
 20
1185.855251082608
 30
0.0
 11
3598.319592298729
 21
1185.855251082608
 31
0.0
  0
LINE
  5
1B91
330
1F
100
AcDbEntity
  8
Sanindusa
100
AcDbLine
 10
3597.517984435305
 20
1185.919879536454
 30
0.0
 11
3598.398371883334
 21
1185.919879536454
 31
0.0
  0
LINE
  5
1B94
330
1F
100
AcDbEntity
  8
Sanindusa
100
AcDbLine
 10
3598.332044025279
 20
1185.867702809159
 30
0.0
 11
3597.58431229336
 21
1185.867702809159
 31
0.0
  0
LINE
  5
1B97
330
1F
100
AcDbEntity
  8
Sanindusa
100
AcDbLine
 10
3599.797268078054
 20
1185.505410524829
 30
0.0
 11
3598.917226144377
 21
1185.505410524829
 31
0.0
  0
LINE
  5
1B98
330
1F
100
AcDbEntity
  8
Sanindusa
100
AcDbLine
 10
3599.799545295224
 20
1185.410410524202
 30
0.0
 11
3598.914948927074
 21
1185.410410524202
 31
0.0
  0
LWPOLYLINE
  5
1B9A
330
1F
100
AcDbEntity
  8
Sanindusa
100
AcDbPolyline
 90
       14
 70
   128
 43
0.0
 10
3597.58431229336
 20
1185.867702809159
 10
3597.581273191072
 20
1185.867600060034
 10
3597.578307149509
 20
1185.867143490457
 10
3597.575453811312
 20
1185.866339202711
 10
3597.572751312788
 20
1185.865197946509
 10
3597.570235774192
 20
1185.863734975316
 10
3597.56794081697
 20
1185.861969842479
 10
3597.565897114382
 20
1185.859926139891
 10
3597.564131981545
 20
1185.857631182668
 10
3597.562669010352
 20
1185.855115644073
 10
3597.56152775415
 20
1185.852413145549
 10
3597.560723466405
 20
1185.849559807352
 10
3597.560266896828
 20
1185.846593765788
 10
3597.560164147703
 20
1185.843554663501
  0
ARC
  5
1BA2
330
1F
100
AcDbEntity
  8
Sanindusa
100
AcDbCircle
 10
3597.517989952041
 20
1185.909877004819
 30
0.0
 40
0.0100025331555423
100
AcDbArc
 50
90.03160056793744
 51
179.9683994320886
  0
LWPOLYLINE
  5
1BA8
330
1F
100
AcDbEntity
  8
Sanindusa
100
AcDbPolyline
 90
       13
 70
   128
 43
0.0
 10
3597.572615874252
 20
1185.831102936951
 10
3597.572932248869
 20
1185.834203515636
 10
3597.573633250131
 20
1185.837244592229
 10
3597.574707884327
 20
1185.840178473929
 10
3597.576139298112
 20
1185.842959149055
 10
3597.577905042812
 20
1185.845543008647
 10
3597.579977426486
 20
1185.847889530375
 10
3597.582323948215
 20
1185.849961914049
 10
3597.584907807806
 20
1185.851727658749
 10
3597.587688482933
 20
1185.853159072534
 10
3597.590622364632
 20
1185.85423370673
 10
3597.593663441225
 20
1185.854934707992
 10
3597.59676401991
 20
1185.855251082609
  0
LINE
  5
1BAD
330
1F
100
AcDbEntity
  8
Sanindusa
100
AcDbLine
 10
3598.907232403961
 20
1185.497619940374
 30
0.0
 11
3598.904949705249
 21
1185.410410524202
 31
0.0
  0
LINE
  5
1BAE
330
1F
100
AcDbEntity
  8
Sanindusa
100
AcDbLine
 10
3598.914948927074
 20
1185.410410524202
 30
0.0
 11
3598.904949705249
 21
1185.410410524202
 31
0.0
  0
LWPOLYLINE
  5
1BAF
330
1F
100
AcDbEntity
  8
Sanindusa
100
AcDbPolyline
 90
        5
 70
   128
 43
0.0
 10
3598.912325724775
 20
1185.504865696454
 10
3598.910264250666
 20
1185.503677351456
 10
3598.908649404192
 20
1185.501900079927
 10
3598.907693046296
 20
1185.499779102588
 10
3598.907232403961
 20
1185.497619940374
  0
LINE
  5
1BB2
330
1F
100
AcDbEntity
  8
Sanindusa
100
AcDbLine
 10
3598.915226299968
 20
1185.505410524829
 30
0.0
 11
3598.912325593488
 21
1185.504865645329
 31
0.0
  0
LINE
  5
1BB3
330
1F
100
AcDbEntity
  8
Sanindusa
100
AcDbLine
 10
3598.917226144329
 20
1185.505410524829
 30
0.0
 11
3598.915226299968
 21
1185.505410524829
 31
0.0
  0
LWPOLYLINE
  5
1BB7
330
1F
100
AcDbEntity
  8
Sanindusa
100
AcDbPolyline
 90
       13
 70
   128
 43
0.0
 10
3598.319592298729
 20
1185.855251082609
 10
3598.322692877413
 20
1185.854934707992
 10
3598.325733954007
 20
1185.85423370673
 10
3598.328667835706
 20
1185.853159072534
 10
3598.331448510833
 20
1185.851727658749
 10
3598.334032370424
 20
1185.849961914049
 10
3598.336378892152
 20
1185.847889530375
 10
3598.338451275826
 20
1185.845543008647
 10
3598.340217020527
 20
1185.842959149055
 10
3598.341648434312
 20
1185.840178473929
 10
3598.342723068508
 20
1185.837244592229
 10
3598.34342406977
 20
1185.834203515636
 10
3598.343740444386
 20
1185.831102936951
  0
LWPOLYLINE
  5
1BBA
330
1F
100
AcDbEntity
  8
Sanindusa
100
AcDbPolyline
 90
       14
 70
   128
 43
0.0
 10
3598.356192170936
 20
1185.843554663501
 10
3598.356089421811
 20
1185.846593765788
 10
3598.355632852234
 20
1185.849559807352
 10
3598.354828564489
 20
1185.852413145549
 10
3598.353687308287
 20
1185.855115644073
 10
3598.352224337094
 20
1185.857631182668
 10
3598.350459204257
 20
1185.859926139891
 10
3598.348415501668
 20
1185.861969842479
 10
3598.346120544446
 20
1185.863734975316
 10
3598.343605005851
 20
1185.865197946509
 10
3598.340902507326
 20
1185.866339202711
 10
3598.338049169129
 20
1185.867143490457
 10
3598.335083127566
 20
1185.867600060034
 10
3598.332044025279
 20
1185.867702809159
  0
ARC
  5
1BC2
330
1F
100
AcDbEntity
  8
Sanindusa
100
AcDbCircle
 10
3598.398366366597
 20
1185.909877004819
 30
0.0
 40
0.0100025331555421
100
AcDbArc
 50
0.0316005679113692
 51
89.9683994313591
  0
LINE
  5
1BCD
330
1F
100
AcDbEntity
  8
Sanindusa
100
AcDbLine
 10
3599.809544517182
 20
1185.410410524202
 30
0.0
 11
3599.80726181847
 21
1185.497619940374
 31
0.0
  0
LINE
  5
1BCF
330
1F
100
AcDbEntity
  8
Sanindusa
100
AcDbLine
 10
3599.809544517182
 20
1185.410410524202
 30
0.0
 11
3599.799545295224
 21
1185.410410524202
 31
0.0
  0
LWPOLYLINE
  5
1BD0
330
1F
100
AcDbEntity
  8
Sanindusa
100
AcDbPolyline
 90
        5
 70
   128
 43
0.0
 10
3599.807261818471
 20
1185.497619940364
 10
3599.806801176135
 20
1185.499779102588
 10
3599.805844818238
 20
1185.501900079927
 10
3599.804229971765
 20
1185.503677351456
 10
3599.802168497655
 20
1185.504865696454
  0
LINE
  5
1BD3
330
1F
100
AcDbEntity
  8
Sanindusa
100
AcDbLine
 10
3599.799267922462
 20
1185.505410524829
 30
0.0
 11
3599.797268078102
 21
1185.505410524829
 31
0.0
  0
LWPOLYLINE
  5
1BD4
330
1F
100
AcDbEntity
  8
Sanindusa
100
AcDbPolyline
 90
        3
 70
   128
 43
0.0
 10
3599.802195243633
 20
1185.504850278628
 10
3599.80181818136
 20
1185.504992787471
 10
3599.799267922462
 20
1185.505410524829
  0
LWPOLYLINE
  5
1BD5
330
1F
100
AcDbEntity
  8
Sanindusa
100
AcDbPolyline
 90
        5
 70
   128
 43
0.0
 10
3602.151786680385
 20
1185.440009792469
 10
3601.667119797514
 20
1185.43255104962
 10
3601.668836725352
 20
1185.428552410379
 10
3601.669137232944
 20
1185.42711225378
 10
3601.670318559659
 20
1185.420410524202
  0
LINE
  5
1BD6
330
1F
100
AcDbEntity
  8
Sanindusa
100
AcDbLine
 10
3602.154862260027
 20
1185.420410524202
 30
0.0
 11
3601.670318559659
 21
1185.420410524202
 31
0.0
  0
LINE
  5
1BD7
330
1F
100
AcDbEntity
  8
Sanindusa
100
AcDbLine
 10
3601.795710741455
 20
1185.449813914428
 30
0.0
 11
3602.008631691616
 21
1185.449813914428
 31
0.0
  0
LINE
  5
1BD9
330
1F
100
AcDbEntity
  8
Sanindusa
100
AcDbLine
 10
3602.078639700131
 20
1185.45088552356
 30
0.0
 11
3601.795761550183
 21
1185.446532192536
 31
0.0
  0
LINE
  5
1BDA
330
1F
100
AcDbEntity
  8
Sanindusa
100
AcDbLine
 10
3602.024924129923
 20
1185.450064855459
 30
0.0
 11
3601.795706875482
 21
1185.450064855459
 31
0.0
  0
LINE
  5
1BDB
330
1F
100
AcDbEntity
  8
Sanindusa
100
AcDbLine
 10
3602.159059523394
 20
1185.410410524202
 30
0.0
 11
3601.666121296295
 21
1185.410410524202
 31
0.0
  0
LINE
  5
1BDC
330
1F
100
AcDbEntity
  8
Sanindusa
100
AcDbLine
 10
3602.151632804392
 20
1185.450008608508
 30
0.0
 11
3601.622985845491
 21
1185.44187303774
 31
0.0
  0
LINE
  5
1BDD
330
1F
100
AcDbEntity
  8
Sanindusa
100
AcDbLine
 10
3601.429191959621
 20
1185.460869886557
 30
0.0
 11
3602.093067731882
 21
1185.460869886557
 31
0.0
  0
LINE
  5
1BDE
330
1F
100
AcDbEntity
  8
Sanindusa
100
AcDbLine
 10
3602.151623210413
 20
1185.49799871523
 30
0.0
 11
3601.407124043409
 21
1185.49799871523
 31
0.0
  0
LINE
  5
1BDF
330
1F
100
AcDbEntity
  8
Sanindusa
100
AcDbLine
 10
3602.151623210656
 20
1185.505410524829
 30
0.0
 11
3601.407124043259
 21
1185.505410524829
 31
0.0
  0
LINE
  5
1BE7
330
1F
100
AcDbEntity
  8
Sanindusa
100
AcDbLine
 10
3601.373327196809
 20
1185.495410524829
 30
0.0
 11
3601.339255801244
 21
1185.495410524829
 31
0.0
  0
LINE
  5
1BE8
330
1F
100
AcDbEntity
  8
Sanindusa
100
AcDbLine
 10
3601.382967339027
 20
1185.459410524459
 30
0.0
 11
3601.352362435434
 21
1185.459410524459
 31
0.0
  0
LINE
  5
1BE9
330
1F
100
AcDbEntity
  8
Sanindusa
100
AcDbLine
 10
3601.382544151949
 20
1185.449410524459
 30
0.0
 11
3601.352362435434
 21
1185.449410524459
 31
0.0
  0
LINE
  5
1BEB
330
1F
100
AcDbEntity
  8
Sanindusa
100
AcDbLine
 10
3601.344862786792
 20
1185.410410524202
 30
0.0
 11
3601.461049465167
 21
1185.410410524202
 31
0.0
  0
LINE
  5
1BEC
330
1F
100
AcDbEntity
  8
Sanindusa
100
AcDbLine
 10
3601.373327196809
 20
1185.505410524829
 30
0.0
 11
3601.337304974189
 21
1185.505410524829
 31
0.0
  0
LINE
  5
1BED
330
1F
100
AcDbEntity
  8
Sanindusa
100
AcDbLine
 10
3601.338037049269
 20
1185.448853725551
 30
0.0
 11
3601.339255801244
 21
1185.495410524829
 31
0.0
  0
LINE
  5
1BEE
330
1F
100
AcDbEntity
  8
Sanindusa
100
AcDbLine
 10
3601.327027267198
 20
1185.410410524202
 30
0.0
 11
3601.329310212974
 21
1185.497619940364
 31
0.0
  0
ARC
  5
1BEF
330
1F
100
AcDbEntity
  8
Sanindusa
100
AcDbCircle
 10
3601.352363000458
 20
1185.444411712676
 30
0.0
 40
0.0149988118147563
100
AcDbArc
 50
90.00647623244656
 51
162.7730318259528
  0
ARC
  5
1BF0
330
1F
100
AcDbEntity
  8
Sanindusa
100
AcDbCircle
 10
3601.352363000458
 20
1185.444411712676
 30
0.0
 40
0.0049988118147563
100
AcDbArc
 50
90.00647623244656
 51
168.0110287597081
  0
LINE
  5
1BF4
330
1F
100
AcDbEntity
  8
Sanindusa
100
AcDbLine
 10
3601.340027662469
 20
1185.410410524202
 30
0.0
 11
3601.327027267198
 21
1185.410410524202
 31
0.0
  0
LINE
  5
1BF5
330
1F
100
AcDbEntity
  8
Sanindusa
100
AcDbLine
 10
3601.34747322471
 20
1185.445450082888
 30
0.0
 11
3601.340027662469
 21
1185.410410524202
 31
0.0
  0
LINE
  5
1BF6
330
1F
100
AcDbEntity
  8
Sanindusa
100
AcDbLine
 10
3601.344862786792
 20
1185.410410524202
 30
0.0
 11
3601.340027662469
 21
1185.410410524202
 31
0.0
  0
ARC
  5
1BF7
330
1F
100
AcDbEntity
  8
Sanindusa
100
AcDbCircle
 10
3601.337306347151
 20
1185.497411679122
 30
0.0
 40
0.0079988458250377
100
AcDbArc
 50
90.00983453074349
 51
178.5080549046715
  0
LINE
  5
1BF8
330
1F
100
AcDbEntity
  8
Sanindusa
100
AcDbLine
 10
3601.691913284998
 20
1185.449756892785
 30
0.0
 11
3601.67168231901
 21
1185.449756892785
 31
0.0
  0
LINE
  5
1BF9
330
1F
100
AcDbEntity
  8
Sanindusa
100
AcDbLine
 10
3601.373323978377
 20
1185.495411278917
 30
0.0
 11
3601.382967339027
 21
1185.459410524459
 31
0.0
  0
LINE
  5
1BFA
330
1F
100
AcDbEntity
  8
Sanindusa
100
AcDbLine
 10
3601.382983438679
 20
1185.49799871523
 30
0.0
 11
3601.393230321409
 21
1185.459744882101
 31
0.0
  0
LINE
  5
1BFB
330
1F
100
AcDbEntity
  8
Sanindusa
100
AcDbLine
 10
3601.407124043529
 20
1185.497998715262
 30
0.0
 11
3601.417051819759
 21
1185.460936176486
 31
0.0
  0
LINE
  5
1BFC
330
1F
100
AcDbEntity
  8
Sanindusa
100
AcDbLine
 10
3601.542341956938
 20
1185.449756892785
 30
0.0
 11
3601.521584542656
 21
1185.449756892785
 31
0.0
  0
ARC
  5
1BFD
330
1F
100
AcDbEntity
  8
Sanindusa
100
AcDbCircle
 10
3601.566176428975
 20
1186.563284153892
 30
0.0
 40
1.135877920478097
100
AcDbArc
 50
266.1070533984545
 51
268.4071706905911
  0
LWPOLYLINE
  5
1BFE
330
1F
100
AcDbEntity
  8
Sanindusa
100
AcDbPolyline
 90
        3
 70
   128
 43
0.0
 10
3601.537382836548
 20
1185.441075408113
 10
3601.511869234791
 20
1185.441831599674
 10
3601.486383143388
 20
1185.443239232389
  0
LINE
  5
1C01
330
1F
100
AcDbEntity
  8
Sanindusa
100
AcDbLine
 10
3601.46675494918
 20
1185.410410524202
 30
0.0
 11
3601.582121455798
 21
1185.410410524202
 31
0.0
  0
LINE
  5
1C04
330
1F
100
AcDbEntity
  8
Sanindusa
100
AcDbLine
 10
3601.510969807679
 20
1185.44419203603
 30
0.0
 11
3601.510947670101
 21
1185.442760739875
 31
0.0
  0
LINE
  5
1C05
330
1F
100
AcDbEntity
  8
Sanindusa
100
AcDbLine
 10
3601.510947670407
 20
1185.442760739874
 30
0.0
 11
3601.522954493484
 21
1185.442558373454
 31
0.0
  0
LINE
  5
1C06
330
1F
100
AcDbEntity
  8
Sanindusa
100
AcDbLine
 10
3601.522954493493
 20
1185.442558373456
 30
0.0
 11
3601.522966060318
 21
1185.443375709492
 31
0.0
  0
LINE
  5
1C07
330
1F
100
AcDbEntity
  8
Sanindusa
100
AcDbLine
 10
3601.522966060099
 20
1185.448026512694
 30
0.0
 11
3601.522966060099
 21
1185.443375709491
 31
0.0
  0
LINE
  5
1C08
330
1F
100
AcDbEntity
  8
Sanindusa
100
AcDbLine
 10
3601.51096980764
 20
1185.444192036029
 30
0.0
 11
3601.51096980764
 21
1185.448026512694
 31
0.0
  0
LWPOLYLINE
  5
1C09
330
1F
100
AcDbEntity
  8
Sanindusa
100
AcDbPolyline
 90
        7
 70
   128
 43
0.0
 10
3601.510947670101
 20
1185.442760739875
 10
3601.511064125472
 20
1185.442766935612
 10
3601.511261998311
 20
1185.44280946615
 10
3601.511559954391
 20
1185.442963615493
 10
3601.51181298834
 20
1185.443237724242
 10
3601.511908592625
 20
1185.443432761733
 10
3601.511959382938
 20
1185.443635354679
  0
LWPOLYLINE
  5
1C0C
330
1F
100
AcDbEntity
  8
Sanindusa
100
AcDbPolyline
 90
        7
 70
   128
 43
0.0
 10
3601.522954493595
 20
1185.442558373457
 10
3601.522837540156
 20
1185.4425689208
 10
3601.522629385048
 20
1185.442623418324
 10
3601.522326574139
 20
1185.442802771501
 10
3601.522081050843
 20
1185.443111504053
 10
3601.521999353991
 20
1185.443324798195
 10
3601.521967016238
 20
1185.443543069876
  0
LWPOLYLINE
  5
1C10
330
1F
100
AcDbEntity
  8
Sanindusa
100
AcDbPolyline
 90
        3
 70
   128
 43
0.0
 10
3601.512951913825
 20
1185.444531653545
 10
3601.512964862669
 20
1185.445150812842
 10
3601.512969183119
 20
1185.446191406624
  0
ARC
  5
1C11
330
1F
100
AcDbEntity
  8
Sanindusa
100
AcDbCircle
 10
3601.512982685853
 20
1185.443499909846
 30
0.0
 40
0.001032202475782
100
AcDbArc
 50
91.70834282688451
 51
172.0808308953709
  0
ARC
  5
1C12
330
1F
100
AcDbEntity
  8
Sanindusa
100
AcDbCircle
 10
3601.520936952539
 20
1185.443501463454
 30
0.0
 40
0.0010309394608415
100
AcDbArc
 50
2.764065526923779
 51
88.28368488989651
  0
LINE
  5
1C13
330
1F
100
AcDbEntity
  8
Sanindusa
100
AcDbLine
 10
3601.520966684879
 20
1185.445375080097
 30
0.0
 11
3601.52096782859
 21
1185.44453194041
 31
0.0
  0
LINE
  5
1C14
330
1F
100
AcDbEntity
  8
Sanindusa
100
AcDbLine
 10
3601.520967829894
 20
1185.444531940412
 30
0.0
 11
3601.512951914049
 21
1185.444531653548
 31
0.0
  0
LINE
  5
1C15
330
1F
100
AcDbEntity
  8
Sanindusa
100
AcDbLine
 10
3601.512969183119
 20
1185.446191406631
 30
0.0
 11
3601.512969183119
 21
1185.449975710879
 31
0.0
  0
LINE
  5
1C16
330
1F
100
AcDbEntity
  8
Sanindusa
100
AcDbLine
 10
3601.512969183119
 20
1185.44997571088
 30
0.0
 11
3601.520966684879
 21
1185.44997571088
 31
0.0
  0
LINE
  5
1C17
330
1F
100
AcDbEntity
  8
Sanindusa
100
AcDbLine
 10
3601.520966684879
 20
1185.449975710881
 30
0.0
 11
3601.520966684879
 21
1185.445375080097
 31
0.0
  0
LWPOLYLINE
  5
1C18
330
1F
100
AcDbEntity
  8
Sanindusa
100
AcDbPolyline
 90
        7
 70
   128
 43
0.0
 10
3601.521966372599
 20
1185.449001111786
 10
3601.52194968318
 20
1185.449182598775
 10
3601.521896182827
 20
1185.449367329309
 10
3601.521803419011
 20
1185.44954406017
 10
3601.521673570842
 20
1185.449700648462
 10
3601.521334664638
 20
1185.449914755376
 10
3601.520966684879
 20
1185.449975710882
  0
LWPOLYLINE
  5
1C1A
330
1F
100
AcDbEntity
  8
Sanindusa
100
AcDbPolyline
 90
        7
 70
   128
 43
0.0
 10
3601.521966372596
 20
1185.449001111789
 10
3601.521983062019
 20
1185.448819624804
 10
3601.522036562372
 20
1185.448634894266
 10
3601.522129326184
 20
1185.448458163409
 10
3601.52225917435
 20
1185.448301575111
 10
3601.522598080557
 20
1185.448087468198
 10
3601.522966060315
 20
1185.448026512695
  0
LWPOLYLINE
  5
1C1C
330
1F
100
AcDbEntity
  8
Sanindusa
100
AcDbPolyline
 90
        7
 70
   128
 43
0.0
 10
3601.511969495401
 20
1185.449001111785
 10
3601.511986184818
 20
1185.449182598771
 10
3601.512039685175
 20
1185.449367329309
 10
3601.512132448988
 20
1185.449544060166
 10
3601.512262297148
 20
1185.449700648463
 10
3601.512601203358
 20
1185.449914755377
 10
3601.512969183119
 20
1185.44997571088
  0
LWPOLYLINE
  5
1C1D
330
1F
100
AcDbEntity
  8
Sanindusa
100
AcDbPolyline
 90
        7
 70
   128
 43
0.0
 10
3601.511969495398
 20
1185.449001111789
 10
3601.51195280598
 20
1185.448819624801
 10
3601.511899305626
 20
1185.448634894266
 10
3601.511806541811
 20
1185.448458163406
 10
3601.511676693642
 20
1185.448301575111
 10
3601.511337787438
 20
1185.448087468199
 10
3601.510969807679
 20
1185.448026512694
  0
LWPOLYLINE
  5
1C1F
330
1F
100
AcDbEntity
  8
Sanindusa
100
AcDbPolyline
 90
        3
 70
   128
 43
0.0
 10
3601.492937435013
 20
1185.443302613034
 10
3601.492956427966
 20
1185.444154170673
 10
3601.492975428718
 20
1185.445416525834
  0
LINE
  5
1C21
330
1F
100
AcDbEntity
  8
Sanindusa
100
AcDbLine
 10
3601.480930610994
 20
1185.443822945439
 30
0.0
 11
3601.492937432767
 21
1185.443302613115
 31
0.0
  0
LINE
  5
1C22
330
1F
100
AcDbEntity
  8
Sanindusa
100
AcDbLine
 10
3601.49297542895
 20
1185.448026512694
 30
0.0
 11
3601.49297542895
 21
1185.445416525834
 31
0.0
  0
LINE
  5
1C23
330
1F
100
AcDbEntity
  8
Sanindusa
100
AcDbLine
 10
3601.480979175827
 20
1185.446232852373
 30
0.0
 11
3601.480979175827
 21
1185.448026512694
 31
0.0
  0
LWPOLYLINE
  5
1C24
330
1F
100
AcDbEntity
  8
Sanindusa
100
AcDbPolyline
 90
        3
 70
   128
 43
0.0
 10
3601.480979176081
 20
1185.446232852374
 10
3601.480955051185
 20
1185.444700338771
 10
3601.480930942249
 20
1185.443830273095
  0
LWPOLYLINE
  5
1C29
330
1F
100
AcDbEntity
  8
Sanindusa
100
AcDbPolyline
 90
        8
 70
   128
 43
0.0
 10
3601.480930611621
 20
1185.443822945416
 10
3601.481048920276
 20
1185.443825054843
 10
3601.481269858076
 20
1185.443867392002
 10
3601.481591663991
 20
1185.444036109037
 10
3601.481745457043
 20
1185.444185276211
 10
3601.481856777644
 20
1185.44434935558
 10
3601.481944883839
 20
1185.444570290975
 10
3601.481978404866
 20
1185.444798659938
  0
LWPOLYLINE
  5
1C2A
330
1F
100
AcDbEntity
  8
Sanindusa
100
AcDbPolyline
 90
        8
 70
   128
 43
0.0
 10
3601.49293743419
 20
1185.443302613075
 10
3601.492820068559
 20
1185.443315227217
 10
3601.49261260289
 20
1185.443373602194
 10
3601.492312841998
 20
1185.443560103297
 10
3601.492164531097
 20
1185.443729115871
 10
3601.492059314575
 20
1185.44392115579
 10
3601.491996569478
 20
1185.444120439435
 10
3601.491975740634
 20
1185.444312938011
  0
LINE
  5
1C2B
330
1F
100
AcDbEntity
  8
Sanindusa
100
AcDbLine
 10
3601.481978405323
 20
1185.444798659918
 30
0.0
 11
3601.49197574081
 21
1185.444365381999
 31
0.0
  0
LINE
  5
1C2D
330
1F
100
AcDbEntity
  8
Sanindusa
100
AcDbLine
 10
3601.491975740998
 20
1185.444365381995
 30
0.0
 11
3601.491975740998
 21
1185.444863287098
 31
0.0
  0
LINE
  5
1C2E
330
1F
100
AcDbEntity
  8
Sanindusa
100
AcDbLine
 10
3601.481978863795
 20
1185.445543559211
 30
0.0
 11
3601.481978863795
 21
1185.444828952539
 31
0.0
  0
LINE
  5
1C31
330
1F
100
AcDbEntity
  8
Sanindusa
100
AcDbLine
 10
3601.491975740998
 20
1185.450000797086
 30
0.0
 11
3601.481978863799
 21
1185.450000797086
 31
0.0
  0
LINE
  5
1C32
330
1F
100
AcDbEntity
  8
Sanindusa
100
AcDbLine
 10
3601.491975740997
 20
1185.44486855267
 30
0.0
 11
3601.491975740998
 21
1185.450000797086
 31
0.0
  0
LINE
  5
1C33
330
1F
100
AcDbEntity
  8
Sanindusa
100
AcDbLine
 10
3601.481978863799
 20
1185.445548824783
 30
0.0
 11
3601.481978863799
 21
1185.450000797086
 31
0.0
  0
LINE
  5
1C39
330
1F
100
AcDbEntity
  8
Sanindusa
100
AcDbLine
 10
3601.461224475166
 20
1185.410410524202
 30
0.0
 11
3601.466754949079
 21
1185.410410524202
 31
0.0
  0
LWPOLYLINE
  5
1C3A
330
1F
100
AcDbEntity
  8
Sanindusa
100
AcDbPolyline
 90
        7
 70
   128
 43
0.0
 10
3601.491975740996
 20
1185.449001111789
 10
3601.491992430419
 20
1185.448819624804
 10
3601.492045930772
 20
1185.448634894266
 10
3601.492138694585
 20
1185.448458163409
 10
3601.492268542749
 20
1185.448301575111
 10
3601.492607448957
 20
1185.448087468198
 10
3601.492975428715
 20
1185.448026512695
  0
LWPOLYLINE
  5
1C3B
330
1F
100
AcDbEntity
  8
Sanindusa
100
AcDbPolyline
 90
        7
 70
   128
 43
0.0
 10
3601.481978863799
 20
1185.449001111789
 10
3601.48196217438
 20
1185.448819624801
 10
3601.481908674026
 20
1185.448634894267
 10
3601.481815910211
 20
1185.448458163404
 10
3601.481686062042
 20
1185.448301575111
 10
3601.481347155838
 20
1185.448087468198
 10
3601.480979176078
 20
1185.448026512694
  0
LINE
  5
1C3C
330
1F
100
AcDbEntity
  8
Sanindusa
100
AcDbLine
 10
3601.512351325333
 20
1185.449756892785
 30
0.0
 11
3601.491975740998
 21
1185.449756892785
 31
0.0
  0
LWPOLYLINE
  5
1C3E
330
1F
100
AcDbEntity
  8
Sanindusa
100
AcDbPolyline
 90
        9
 70
   128
 43
0.0
 10
3601.407061435572
 20
1185.449803403595
 10
3601.407244718814
 20
1185.44983149661
 10
3601.407788295765
 20
1185.449851469311
 10
3601.408687841611
 20
1185.449863292914
 10
3601.409907639328
 20
1185.449867387895
 10
3601.411411161751
 20
1185.449864514944
 10
3601.413116541505
 20
1185.449855603786
 10
3601.414972023708
 20
1185.449841402277
 10
3601.41688917157
 20
1185.449822679598
  0
LINE
  5
1C3F
330
1F
100
AcDbEntity
  8
Sanindusa
100
AcDbLine
 10
3601.416889171936
 20
1185.449822679594
 30
0.0
 11
3601.429191959257
 21
1185.449756892785
 31
0.0
  0
LWPOLYLINE
  5
1C40
330
1F
100
AcDbEntity
  8
Sanindusa
100
AcDbPolyline
 90
        9
 70
   128
 43
0.0
 10
3601.416889171226
 20
1185.449822679606
 10
3601.416898322318
 20
1185.450047657776
 10
3601.416911670137
 20
1185.450650546313
 10
3601.416929096323
 20
1185.451645513954
 10
3601.416950128958
 20
1185.453015582549
 10
3601.416973971126
 20
1185.454711745518
 10
3601.416999597769
 20
1185.456658516601
 10
3601.417025897344
 20
1185.458764678241
 10
3601.417051819077
 20
1185.46093617642
  0
LINE
  5
1C42
330
1F
100
AcDbEntity
  8
Sanindusa
100
AcDbLine
 10
3601.417051819416
 20
1185.460936176419
 30
0.0
 11
3601.429191959576
 21
1185.460869886557
 31
0.0
  0
LINE
  5
1C43
330
1F
100
AcDbEntity
  8
Sanindusa
100
AcDbLine
 10
3601.382544151949
 20
1185.449410524459
 30
0.0
 11
3601.383081237916
 21
1185.447405466192
 31
0.0
  0
ARC
  5
1C44
330
1F
100
AcDbEntity
  8
Sanindusa
100
AcDbCircle
 10
3601.397572454311
 20
1185.451290194431
 30
0.0
 40
0.0150028819266159
100
AcDbArc
 50
195.0067082132826
 51
266.084054741601
  0
ARC
  5
1C45
330
1F
100
AcDbEntity
  8
Sanindusa
100
AcDbCircle
 10
3601.407721537805
 20
1185.463629610339
 30
0.0
 40
0.0150028819274017
100
AcDbArc
 50
195.0067082109379
 51
266.0840547433766
  0
ARC
  5
1C46
330
1F
100
AcDbEntity
  8
Sanindusa
100
AcDbCircle
 10
3601.407400748699
 20
1185.46479380974
 30
0.0
 40
0.0149942458963922
100
AcDbArc
 50
194.9914757235764
 51
268.7033088664203
  0
LWPOLYLINE
  5
1C47
330
1F
100
AcDbEntity
  8
Sanindusa
100
AcDbPolyline
 90
        9
 70
   128
 43
0.0
 10
3601.392916842135
 20
1185.460915168143
 10
3601.393518687443
 20
1185.460340412699
 10
3601.394966879777
 20
1185.45990746308
 10
3601.39724575167
 20
1185.459637820019
 10
3601.400264203431
 20
1185.459547181124
 10
3601.403931704283
 20
1185.459641208981
 10
3601.408049258234
 20
1185.45991383613
 10
3601.412492918532
 20
1185.460353724086
 10
3601.417051819416
 20
1185.460936176419
  0
LINE
  5
1C48
330
1F
100
AcDbEntity
  8
Sanindusa
100
AcDbLine
 10
3601.396547863384
 20
1185.436322339556
 30
0.0
 11
3601.489058871107
 21
1185.430027107808
 31
0.0
  0
LINE
  5
1C49
330
1F
100
AcDbEntity
  8
Sanindusa
100
AcDbLine
 10
3601.406696946878
 20
1185.448661755464
 30
0.0
 11
3601.486383139139
 21
1185.443239232678
 31
0.0
  0
LINE
  5
1C4A
330
1F
100
AcDbEntity
  8
Sanindusa
100
AcDbLine
 10
3601.481978863799
 20
1185.449756892785
 30
0.0
 11
3601.429191959257
 21
1185.449756892785
 31
0.0
  0
LWPOLYLINE
  5
1C4B
330
1F
100
AcDbEntity
  8
Sanindusa
100
AcDbPolyline
 90
        7
 70
   128
 43
0.0
 10
3601.671919343121
 20
1185.449124620254
 10
3601.671902653702
 20
1185.449306107239
 10
3601.671849153347
 20
1185.449490837783
 10
3601.671756389535
 20
1185.449667568637
 10
3601.671626541368
 20
1185.449824156927
 10
3601.67128763516
 20
1185.450038263848
 10
3601.670919655403
 20
1185.45009921935
  0
LINE
  5
1C4C
330
1F
100
AcDbEntity
  8
Sanindusa
100
AcDbLine
 10
3601.670919655402
 20
1185.450099219349
 30
0.0
 11
3601.662922150695
 21
1185.450099219349
 31
0.0
  0
LWPOLYLINE
  5
1C4D
330
1F
100
AcDbEntity
  8
Sanindusa
100
AcDbPolyline
 90
        7
 70
   128
 43
0.0
 10
3601.662922152146
 20
1185.450099219385
 10
3601.662554173881
 20
1185.450038263843
 10
3601.662215267677
 20
1185.44982415693
 10
3601.662085419508
 20
1185.449667568637
 10
3601.661992655692
 20
1185.449490837775
 10
3601.661939155339
 20
1185.449306107244
 10
3601.66192246592
 20
1185.449124620255
  0
LINE
  5
1C4F
330
1F
100
AcDbEntity
  8
Sanindusa
100
AcDbLine
 10
3601.66292215364
 20
1185.450099219348
 30
0.0
 11
3601.66292215364
 21
1185.444767775529
 31
0.0
  0
LINE
  5
1C50
330
1F
100
AcDbEntity
  8
Sanindusa
100
AcDbLine
 10
3601.662922153327
 20
1185.444655511407
 30
0.0
 11
3601.662922153327
 21
1185.444767775529
 31
0.0
  0
ARC
  5
1C51
330
1F
100
AcDbEntity
  8
Sanindusa
100
AcDbCircle
 10
3601.662961231622
 20
1185.443606475134
 30
0.0
 40
0.0010497640939086
100
AcDbArc
 50
92.13366904615446
 51
188.3009004716828
  0
LINE
  5
1C52
330
1F
100
AcDbEntity
  8
Sanindusa
100
AcDbLine
 10
3601.670919655402
 20
1185.450099219349
 30
0.0
 11
3601.670919942373
 21
1185.444655503394
 31
0.0
  0
LINE
  5
1C53
330
1F
100
AcDbEntity
  8
Sanindusa
100
AcDbLine
 10
3601.670919942373
 20
1185.444655503394
 30
0.0
 11
3601.662922150729
 21
1185.444655511409
 31
0.0
  0
ARC
  5
1C56
330
1F
100
AcDbEntity
  8
Sanindusa
100
AcDbCircle
 10
3601.670889118525
 20
1185.443625219935
 30
0.0
 40
0.0010307444278214
100
AcDbArc
 50
1.484012362559889
 51
88.28636700773561
  0
LINE
  5
1C57
330
1F
100
AcDbEntity
  8
Sanindusa
100
AcDbLine
 10
3601.671919530598
 20
1185.443651303384
 30
0.0
 11
3601.671919530598
 21
1185.443641601794
 31
0.0
  0
LWPOLYLINE
  5
1C58
330
1F
100
AcDbEntity
  8
Sanindusa
100
AcDbPolyline
 90
        7
 70
   128
 43
0.0
 10
3601.672934596307
 20
1185.44264172011
 10
3601.672562434686
 20
1185.442707457315
 10
3601.672217790367
 20
1185.442929077126
 10
3601.672085483168
 20
1185.443089830684
 10
3601.671990964386
 20
1185.443270379176
 10
3601.671936498404
 20
1185.443458140315
 10
3601.671919530593
 20
1185.443641601794
  0
LINE
  5
1C59
330
1F
100
AcDbEntity
  8
Sanindusa
100
AcDbLine
 10
3601.672919218496
 20
1185.448026512694
 30
0.0
 11
3601.672919218496
 21
1185.44329105029
 31
0.0
  0
LINE
  5
1C5A
330
1F
100
AcDbEntity
  8
Sanindusa
100
AcDbLine
 10
3601.672934596308
 20
1185.44264172011
 30
0.0
 11
3601.672919218319
 21
1185.443291050291
 31
0.0
  0
LWPOLYLINE
  5
1C5B
330
1F
100
AcDbEntity
  8
Sanindusa
100
AcDbPolyline
 90
        7
 70
   128
 43
0.0
 10
3601.671919530596
 20
1185.449001111789
 10
3601.671936220018
 20
1185.448819624804
 10
3601.671989720372
 20
1185.448634894266
 10
3601.672082484184
 20
1185.448458163409
 10
3601.67221233235
 20
1185.448301575111
 10
3601.672551238556
 20
1185.448087468198
 10
3601.672919218316
 20
1185.448026512695
  0
LWPOLYLINE
  5
1C61
330
1F
100
AcDbEntity
  8
Sanindusa
100
AcDbPolyline
 90
        6
 70
   128
 43
0.0
 10
3601.65431678248
 20
1185.429353664274
 10
3601.655975034277
 20
1185.429097433315
 10
3601.657454997643
 20
1185.428306778116
 10
3601.658590068913
 20
1185.427070733942
 10
3601.659252370744
 20
1185.425528266033
 10
3601.659316173523
 20
1185.425222496745
  0
LINE
  5
1C62
330
1F
100
AcDbEntity
  8
Sanindusa
100
AcDbLine
 10
3601.61357168105
 20
1185.441728159198
 30
0.0
 11
3601.622985845513
 21
1185.441873037741
 31
0.0
  0
ARC
  5
1C63
330
1F
100
AcDbEntity
  8
Sanindusa
100
AcDbCircle
 10
3601.623001230775
 20
1185.44087371559
 30
0.0
 40
0.0009994405781093
100
AcDbArc
 50
90.88203916837901
 51
118.0805163397971
  0
LINE
  5
1C67
330
1F
100
AcDbEntity
  8
Sanindusa
100
AcDbLine
 10
3601.659316173523
 20
1185.425222496742
 30
0.0
 11
3601.661198795206
 21
1185.414542283341
 31
0.0
  0
LINE
  5
1C68
330
1F
100
AcDbEntity
  8
Sanindusa
100
AcDbLine
 10
3601.65431678247
 20
1185.429353664273
 30
0.0
 11
3601.626086626946
 21
1185.428919218516
 31
0.0
  0
LINE
  5
1C69
330
1F
100
AcDbEntity
  8
Sanindusa
100
AcDbLine
 10
3601.626086626946
 20
1185.428919218516
 30
0.0
 11
3601.625068887055
 21
1185.428376254346
 31
0.0
  0
LWPOLYLINE
  5
1C6A
330
1F
100
AcDbEntity
  8
Sanindusa
100
AcDbPolyline
 90
        5
 70
   128
 43
0.0
 10
3601.622422654854
 20
1185.423964489611
 10
3601.622581301338
 20
1185.42521419998
 10
3601.623267878919
 20
1185.426746580718
 10
3601.624423017173
 20
1185.427965229838
 10
3601.625068887055
 20
1185.428376254347
  0
LINE
  5
1C6B
330
1F
100
AcDbEntity
  8
Sanindusa
100
AcDbLine
 10
3601.622422654854
 20
1185.423964489611
 30
0.0
 11
3601.622422654854
 21
1185.423410524288
 31
0.0
  0
ARC
  5
1C6F
330
1F
100
AcDbEntity
  8
Sanindusa
100
AcDbCircle
 10
3601.666121900086
 20
1185.415409411294
 30
0.0
 40
0.0049988871287116
100
AcDbArc
 50
189.9892963518392
 51
269.9930795148442
  0
ARC
  5
1C70
330
1F
100
AcDbEntity
  8
Sanindusa
100
AcDbCircle
 10
3601.619423170054
 20
1185.423410009088
 30
0.0
 40
0.0029994848496952
100
AcDbArc
 50
270.0080542179595
 51
0.0098412802140433
  0
LWPOLYLINE
  5
1C74
330
1F
100
AcDbEntity
  8
Sanindusa
100
AcDbPolyline
 90
        7
 70
   128
 43
0.0
 10
3601.66093834367
 20
1185.442457104725
 10
3601.661302079269
 20
1185.442531684789
 10
3601.661635267836
 20
1185.442755339341
 10
3601.661762677429
 20
1185.442914359847
 10
3601.661853700716
 20
1185.443092032985
 10
3601.661906241492
 20
1185.443276529915
 10
3601.661922653399
 20
1185.443456986408
  0
LINE
  5
1C75
330
1F
100
AcDbEntity
  8
Sanindusa
100
AcDbLine
 10
3601.661922653399
 20
1185.443456986409
 30
0.0
 11
3601.661922653399
 21
1185.44349745723
 31
0.0
  0
LINE
  5
1C76
330
1F
100
AcDbEntity
  8
Sanindusa
100
AcDbLine
 10
3601.642932698425
 20
1185.44252870109
 30
0.0
 11
3601.642928586719
 21
1185.442829511833
 31
0.0
  0
LINE
  5
1C77
330
1F
100
AcDbEntity
  8
Sanindusa
100
AcDbLine
 10
3601.660922965679
 20
1185.443106434913
 30
0.0
 11
3601.660938343669
 21
1185.442457104725
 31
0.0
  0
LINE
  5
1C79
330
1F
100
AcDbEntity
  8
Sanindusa
100
AcDbLine
 10
3601.630934259016
 20
1185.442492548772
 30
0.0
 11
3601.642932696755
 21
1185.442528701093
 31
0.0
  0
LINE
  5
1C7A
330
1F
100
AcDbEntity
  8
Sanindusa
100
AcDbLine
 10
3601.660922965372
 20
1185.443106434912
 30
0.0
 11
3601.660922965372
 21
1185.448026512694
 31
0.0
  0
LINE
  5
1C7B
330
1F
100
AcDbEntity
  8
Sanindusa
100
AcDbLine
 10
3601.642928586684
 20
1185.448026512694
 30
0.0
 11
3601.642928586684
 21
1185.442829511833
 31
0.0
  0
LINE
  5
1C7C
330
1F
100
AcDbEntity
  8
Sanindusa
100
AcDbLine
 10
3601.630932334224
 20
1185.442644896447
 30
0.0
 11
3601.630932334224
 21
1185.448026512694
 31
0.0
  0
LINE
  5
1C7D
330
1F
100
AcDbEntity
  8
Sanindusa
100
AcDbLine
 10
3601.661922653399
 20
1185.449756892785
 30
0.0
 11
3601.641547069056
 21
1185.449756892785
 31
0.0
  0
ARC
  5
1C7F
330
1F
100
AcDbEntity
  8
Sanindusa
100
AcDbCircle
 10
3601.64295133975
 20
1185.443551050931
 30
0.0
 40
0.0010225197707223
100
AcDbArc
 50
181.3374677611085
 51
268.9553636822594
  0
ARC
  5
1C81
330
1F
100
AcDbEntity
  8
Sanindusa
100
AcDbCircle
 10
3601.630905157826
 20
1185.443519026187
 30
0.0
 40
0.0010268898154896
100
AcDbArc
 50
271.6239201528784
 51
359.5445693974189
  0
ARC
  5
1C86
330
1F
100
AcDbEntity
  8
Sanindusa
100
AcDbCircle
 10
3601.640898674403
 20
1185.443501711467
 30
0.0
 40
0.0010307444278214
100
AcDbArc
 50
1.484012362559889
 51
88.28636700773561
  0
ARC
  5
1C88
330
1F
100
AcDbEntity
  8
Sanindusa
100
AcDbCircle
 10
3601.632962493433
 20
1185.443501927833
 30
0.0
 40
0.0010305351708287
100
AcDbArc
 50
91.71209972225945
 51
179.3665691947888
  0
LINE
  5
1C8A
330
1F
100
AcDbEntity
  8
Sanindusa
100
AcDbLine
 10
3601.640929498252
 20
1185.444531994925
 30
0.0
 11
3601.632931706607
 21
1185.44453200294
 31
0.0
  0
LINE
  5
1C8B
330
1F
100
AcDbEntity
  8
Sanindusa
100
AcDbLine
 10
3601.632931709519
 20
1185.44997571088
 30
0.0
 11
3601.632931709519
 21
1185.44464426706
 31
0.0
  0
LINE
  5
1C8C
330
1F
100
AcDbEntity
  8
Sanindusa
100
AcDbLine
 10
3601.64092921128
 20
1185.44997571088
 30
0.0
 11
3601.632931706574
 21
1185.44997571088
 31
0.0
  0
LINE
  5
1C8D
330
1F
100
AcDbEntity
  8
Sanindusa
100
AcDbLine
 10
3601.64092921128
 20
1185.44997571088
 30
0.0
 11
3601.64092921128
 21
1185.444828882441
 31
0.0
  0
LWPOLYLINE
  5
1C8F
330
1F
100
AcDbEntity
  8
Sanindusa
100
AcDbPolyline
 90
        7
 70
   128
 43
0.0
 10
3601.632931708024
 20
1185.449975710916
 10
3601.632563729759
 20
1185.449914755374
 10
3601.632224823555
 20
1185.449700648462
 10
3601.632094975386
 20
1185.449544060169
 10
3601.63200221157
 20
1185.449367329306
 10
3601.631948711217
 20
1185.449182598775
 10
3601.631932021798
 20
1185.449001111786
  0
LWPOLYLINE
  5
1C90
330
1F
100
AcDbEntity
  8
Sanindusa
100
AcDbPolyline
 90
        7
 70
   128
 43
0.0
 10
3601.630932334082
 20
1185.448026512695
 10
3601.63130031384
 20
1185.448087468198
 10
3601.631639220047
 20
1185.448301575111
 10
3601.631769068212
 20
1185.448458163409
 10
3601.631861832025
 20
1185.448634894266
 10
3601.631915332378
 20
1185.448819624804
 10
3601.631932021801
 20
1185.449001111789
  0
LWPOLYLINE
  5
1C91
330
1F
100
AcDbEntity
  8
Sanindusa
100
AcDbPolyline
 90
        7
 70
   128
 43
0.0
 10
3601.641928898999
 20
1185.449001111786
 10
3601.64191220958
 20
1185.44918259877
 10
3601.641858709225
 20
1185.449367329314
 10
3601.641765945413
 20
1185.449544060169
 10
3601.641636097246
 20
1185.449700648458
 10
3601.641297191039
 20
1185.449914755379
 10
3601.64092921128
 20
1185.449975710881
  0
LWPOLYLINE
  5
1C93
330
1F
100
AcDbEntity
  8
Sanindusa
100
AcDbPolyline
 90
        7
 70
   128
 43
0.0
 10
3601.641928898996
 20
1185.449001111789
 10
3601.641945588418
 20
1185.448819624804
 10
3601.641999088772
 20
1185.448634894266
 10
3601.642091852585
 20
1185.448458163409
 10
3601.64222170075
 20
1185.448301575111
 10
3601.642560606957
 20
1185.448087468198
 10
3601.642928586715
 20
1185.448026512695
  0
LWPOLYLINE
  5
1C94
330
1F
100
AcDbEntity
  8
Sanindusa
100
AcDbPolyline
 90
        7
 70
   128
 43
0.0
 10
3601.661922653399
 20
1185.449001111789
 10
3601.66190596398
 20
1185.448819624804
 10
3601.661852463627
 20
1185.448634894268
 10
3601.661759699811
 20
1185.448458163402
 10
3601.661629851643
 20
1185.448301575114
 10
3601.661290945438
 20
1185.448087468197
 10
3601.660922965679
 20
1185.448026512694
  0
LINE
  5
1C99
330
1F
100
AcDbEntity
  8
Sanindusa
100
AcDbLine
 10
3601.609426714491
 20
1185.434764489682
 30
0.0
 11
3601.609426714491
 21
1185.420410524268
 31
0.0
  0
LINE
  5
1C9A
330
1F
100
AcDbEntity
  8
Sanindusa
100
AcDbLine
 10
3601.602323220133
 20
1185.449756892785
 30
0.0
 11
3601.581565805857
 21
1185.449756892785
 31
0.0
  0
LINE
  5
1C9B
330
1F
100
AcDbEntity
  8
Sanindusa
100
AcDbLine
 10
3601.600941702412
 20
1185.442482461227
 30
0.0
 11
3601.600941702412
 21
1185.448026512694
 31
0.0
  0
LINE
  5
1C9C
330
1F
100
AcDbEntity
  8
Sanindusa
100
AcDbLine
 10
3601.612937954994
 20
1185.442482461225
 30
0.0
 11
3601.600941702446
 21
1185.442482461225
 31
0.0
  0
LINE
  5
1C9D
330
1F
100
AcDbEntity
  8
Sanindusa
100
AcDbLine
 10
3601.612937954871
 20
1185.448026512694
 30
0.0
 11
3601.612937954871
 21
1185.442482461227
 31
0.0
  0
LINE
  5
1C9E
330
1F
100
AcDbEntity
  8
Sanindusa
100
AcDbLine
 10
3601.582947323723
 20
1185.448026512694
 30
0.0
 11
3601.582947323723
 21
1185.442482461227
 31
0.0
  0
LINE
  5
1C9F
330
1F
100
AcDbEntity
  8
Sanindusa
100
AcDbLine
 10
3601.5709510706
 20
1185.442482461227
 30
0.0
 11
3601.5709510706
 21
1185.448026512694
 31
0.0
  0
LINE
  5
1CA0
330
1F
100
AcDbEntity
  8
Sanindusa
100
AcDbLine
 10
3601.58294732362
 20
1185.442482461225
 30
0.0
 11
3601.57095107074
 21
1185.442482461225
 31
0.0
  0
LWPOLYLINE
  5
1CA1
330
1F
100
AcDbEntity
  8
Sanindusa
100
AcDbPolyline
 90
        7
 70
   128
 43
0.0
 10
3601.571950758601
 20
1185.443507232731
 10
3601.571934069178
 20
1185.443324908137
 10
3601.571880568825
 20
1185.44313749252
 10
3601.571787805013
 20
1185.442956106026
 10
3601.571657956848
 20
1185.442793000901
 10
3601.57131905064
 20
1185.442561884932
 10
3601.570951070881
 20
1185.442482461229
  0
LWPOLYLINE
  5
1CA3
330
1F
100
AcDbEntity
  8
Sanindusa
100
AcDbPolyline
 90
        7
 70
   128
 43
0.0
 10
3601.581947635799
 20
1185.443507232734
 10
3601.581964325216
 20
1185.443324908136
 10
3601.582017825573
 20
1185.443137492516
 10
3601.582110589384
 20
1185.442956106024
 10
3601.582240437551
 20
1185.442793000899
 10
3601.582579343759
 20
1185.442561884934
 10
3601.582947323517
 20
1185.442482461231
  0
LWPOLYLINE
  5
1CA5
330
1F
100
AcDbEntity
  8
Sanindusa
100
AcDbPolyline
 90
        7
 70
   128
 43
0.0
 10
3601.581947635795
 20
1185.449001111789
 10
3601.581964325219
 20
1185.448819624804
 10
3601.582017825572
 20
1185.448634894266
 10
3601.582110589384
 20
1185.448458163409
 10
3601.582240437549
 20
1185.448301575111
 10
3601.582579343757
 20
1185.448087468198
 10
3601.582947323515
 20
1185.448026512695
  0
LWPOLYLINE
  5
1CA6
330
1F
100
AcDbEntity
  8
Sanindusa
100
AcDbPolyline
 90
        7
 70
   128
 43
0.0
 10
3601.570951070881
 20
1185.448026512695
 10
3601.57131905064
 20
1185.448087468198
 10
3601.571657956848
 20
1185.448301575111
 10
3601.571787805013
 20
1185.448458163409
 10
3601.571880568825
 20
1185.448634894266
 10
3601.571934069178
 20
1185.448819624804
 10
3601.571950758601
 20
1185.449001111789
  0
LWPOLYLINE
  5
1CA8
330
1F
100
AcDbEntity
  8
Sanindusa
100
AcDbPolyline
 90
        7
 70
   128
 43
0.0
 10
3601.612937955116
 20
1185.442482461229
 10
3601.612569975357
 20
1185.442561884932
 10
3601.612231069149
 20
1185.442793000901
 10
3601.612101220985
 20
1185.442956106026
 10
3601.612008457172
 20
1185.44313749252
 10
3601.611954956819
 20
1185.443324908137
 10
3601.611938267396
 20
1185.443507232731
  0
LWPOLYLINE
  5
1CA9
330
1F
100
AcDbEntity
  8
Sanindusa
100
AcDbPolyline
 90
        7
 70
   128
 43
0.0
 10
3601.601941390201
 20
1185.443507232731
 10
3601.601924700779
 20
1185.443324908137
 10
3601.601871200425
 20
1185.44313749252
 10
3601.601778436612
 20
1185.442956106026
 10
3601.601648588448
 20
1185.442793000901
 10
3601.60130968224
 20
1185.442561884932
 10
3601.600941702481
 20
1185.442482461229
  0
LWPOLYLINE
  5
1CAB
330
1F
100
AcDbEntity
  8
Sanindusa
100
AcDbPolyline
 90
        7
 70
   128
 43
0.0
 10
3601.611938267396
 20
1185.449001111789
 10
3601.611954956819
 20
1185.448819624804
 10
3601.612008457172
 20
1185.448634894266
 10
3601.612101220985
 20
1185.448458163409
 10
3601.612231069149
 20
1185.448301575111
 10
3601.612569975357
 20
1185.448087468198
 10
3601.61293795504
 20
1185.448026512693
  0
LWPOLYLINE
  5
1CAD
330
1F
100
AcDbEntity
  8
Sanindusa
100
AcDbPolyline
 90
        7
 70
   128
 43
0.0
 10
3601.601941390198
 20
1185.449001111786
 10
3601.60192470078
 20
1185.448819624802
 10
3601.601871200426
 20
1185.448634894266
 10
3601.601778436612
 20
1185.448458163404
 10
3601.601648588442
 20
1185.448301575113
 10
3601.601309682239
 20
1185.448087468196
 10
3601.600941702479
 20
1185.448026512694
  0
LWPOLYLINE
  5
1CAF
330
1F
100
AcDbEntity
  8
Sanindusa
100
AcDbPolyline
 90
        7
 70
   128
 43
0.0
 10
3601.572950446319
 20
1185.44997571088
 10
3601.572582466559
 20
1185.449914755375
 10
3601.572243560354
 20
1185.449700648464
 10
3601.572113712186
 20
1185.449544060169
 10
3601.572020948371
 20
1185.449367329306
 10
3601.571967448017
 20
1185.449182598774
 10
3601.571950758599
 20
1185.449001111786
  0
LINE
  5
1CB0
330
1F
100
AcDbEntity
  8
Sanindusa
100
AcDbLine
 10
3601.572950446318
 20
1185.444532004237
 30
0.0
 11
3601.572950446318
 21
1185.44997571088
 31
0.0
  0
LWPOLYLINE
  5
1CB1
330
1F
100
AcDbEntity
  8
Sanindusa
100
AcDbPolyline
 90
        7
 70
   128
 43
0.0
 10
3601.571950758599
 20
1185.443507232734
 10
3601.571967448017
 20
1185.443689557329
 10
3601.572020948371
 20
1185.443876972947
 10
3601.572113712186
 20
1185.444058359447
 10
3601.572243560354
 20
1185.444221464567
 10
3601.572582466559
 20
1185.444452580536
 10
3601.572950446319
 20
1185.444532004237
  0
LINE
  5
1CB2
330
1F
100
AcDbEntity
  8
Sanindusa
100
AcDbLine
 10
3601.580947948079
 20
1185.444532004237
 30
0.0
 11
3601.572950446318
 21
1185.444532004237
 31
0.0
  0
LWPOLYLINE
  5
1CB3
330
1F
100
AcDbEntity
  8
Sanindusa
100
AcDbPolyline
 90
        7
 70
   128
 43
0.0
 10
3601.581947635795
 20
1185.443507232735
 10
3601.581930946379
 20
1185.44368955733
 10
3601.581877446022
 20
1185.443876972946
 10
3601.58178468221
 20
1185.44405835944
 10
3601.581654834049
 20
1185.444221464565
 10
3601.58131592784
 20
1185.444452580534
 10
3601.580947948078
 20
1185.444532004237
  0
LINE
  5
1CB4
330
1F
100
AcDbEntity
  8
Sanindusa
100
AcDbLine
 10
3601.610938579677
 20
1185.444532004237
 30
0.0
 11
3601.602941077918
 21
1185.444532004237
 31
0.0
  0
LWPOLYLINE
  5
1CB5
330
1F
100
AcDbEntity
  8
Sanindusa
100
AcDbPolyline
 90
        7
 70
   128
 43
0.0
 10
3601.610938579676
 20
1185.444532004237
 10
3601.611306559437
 20
1185.444452580536
 10
3601.611645465644
 20
1185.444221464566
 10
3601.611775313813
 20
1185.444058359443
 10
3601.611868077625
 20
1185.443876972949
 10
3601.611921577981
 20
1185.443689557322
 10
3601.611938267399
 20
1185.443507232734
  0
LWPOLYLINE
  5
1CB6
330
1F
100
AcDbEntity
  8
Sanindusa
100
AcDbPolyline
 90
        7
 70
   128
 43
0.0
 10
3601.601941390198
 20
1185.443507232734
 10
3601.601958079617
 20
1185.443689557329
 10
3601.60201157997
 20
1185.443876972947
 10
3601.602104343785
 20
1185.444058359447
 10
3601.602234191954
 20
1185.444221464567
 10
3601.602573098159
 20
1185.444452580536
 10
3601.602941077918
 20
1185.444532004237
  0
LINE
  5
1CB7
330
1F
100
AcDbEntity
  8
Sanindusa
100
AcDbLine
 10
3601.610938579676
 20
1185.44997571088
 30
0.0
 11
3601.610938579676
 21
1185.444532004237
 31
0.0
  0
LWPOLYLINE
  5
1CB8
330
1F
100
AcDbEntity
  8
Sanindusa
100
AcDbPolyline
 90
        7
 70
   128
 43
0.0
 10
3601.611938267399
 20
1185.449001111786
 10
3601.611921577981
 20
1185.449182598767
 10
3601.611868077625
 20
1185.449367329308
 10
3601.611775313813
 20
1185.449544060166
 10
3601.611645465644
 20
1185.449700648462
 10
3601.611306559437
 20
1185.449914755375
 10
3601.610938579676
 20
1185.44997571088
  0
LWPOLYLINE
  5
1CB9
330
1F
100
AcDbEntity
  8
Sanindusa
100
AcDbPolyline
 90
        7
 70
   128
 43
0.0
 10
3601.601941390201
 20
1185.449001111785
 10
3601.601958079618
 20
1185.449182598771
 10
3601.602011579975
 20
1185.449367329309
 10
3601.602104343788
 20
1185.449544060166
 10
3601.602234191948
 20
1185.449700648463
 10
3601.602573098158
 20
1185.449914755377
 10
3601.602941077918
 20
1185.44997571088
  0
LINE
  5
1CBA
330
1F
100
AcDbEntity
  8
Sanindusa
100
AcDbLine
 10
3601.602941077918
 20
1185.444532004237
 30
0.0
 11
3601.602941077918
 21
1185.44997571088
 31
0.0
  0
LINE
  5
1CBB
330
1F
100
AcDbEntity
  8
Sanindusa
100
AcDbLine
 10
3601.58094794808
 20
1185.44997571088
 30
0.0
 11
3601.58094794808
 21
1185.444532004237
 31
0.0
  0
LWPOLYLINE
  5
1CBC
330
1F
100
AcDbEntity
  8
Sanindusa
100
AcDbPolyline
 90
        7
 70
   128
 43
0.0
 10
3601.581947635799
 20
1185.449001111786
 10
3601.581930946379
 20
1185.449182598772
 10
3601.581877446025
 20
1185.449367329311
 10
3601.581784682213
 20
1185.449544060166
 10
3601.581654834046
 20
1185.449700648461
 10
3601.581315927838
 20
1185.449914755375
 10
3601.58094794808
 20
1185.44997571088
  0
LINE
  5
1CBD
330
1F
100
AcDbEntity
  8
Sanindusa
100
AcDbLine
 10
3601.602941077918
 20
1185.44997571088
 30
0.0
 11
3601.610938579677
 21
1185.44997571088
 31
0.0
  0
LINE
  5
1CBE
330
1F
100
AcDbEntity
  8
Sanindusa
100
AcDbLine
 10
3601.572950446318
 20
1185.44997571088
 30
0.0
 11
3601.580947948079
 21
1185.44997571088
 31
0.0
  0
LINE
  5
1CBF
330
1F
100
AcDbEntity
  8
Sanindusa
100
AcDbLine
 10
3601.622530782137
 20
1185.44175550896
 30
0.0
 11
3601.609426714491
 21
1185.434764489682
 31
0.0
  0
LINE
  5
1CC0
330
1F
100
AcDbEntity
  8
Sanindusa
100
AcDbLine
 10
3601.61942359171
 20
1185.420410524268
 30
0.0
 11
3601.609426714491
 21
1185.420410524268
 31
0.0
  0
LINE
  5
1CC2
330
1F
100
AcDbEntity
  8
Sanindusa
100
AcDbLine
 10
3601.582121455813
 20
1185.410410524202
 30
0.0
 11
3601.666121296295
 21
1185.410410524202
 31
0.0
  0
LINE
  5
1CC3
330
1F
100
AcDbEntity
  8
Sanindusa
100
AcDbLine
 10
3601.632313851741
 20
1185.449756892785
 30
0.0
 11
3601.611556437458
 21
1185.449756892785
 31
0.0
  0
LWPOLYLINE
  5
1CC8
330
1F
100
AcDbEntity
  8
Sanindusa
100
AcDbPolyline
 90
        9
 70
   128
 43
0.0
 10
3601.554668400894
 20
1185.441290826273
 10
3601.550859140967
 20
1185.441224491614
 10
3601.547446518714
 20
1185.441172940197
 10
3601.544463128933
 20
1185.441134815315
 10
3601.541976894453
 20
1185.441108644603
 10
3601.539991781295
 20
1185.441091859146
 10
3601.53854667208
 20
1185.441082161583
 10
3601.537675203613
 20
1185.44107727268
 10
3601.537382827951
 20
1185.441075407754
  0
LWPOLYLINE
  5
1CCA
330
1F
100
AcDbEntity
  8
Sanindusa
100
AcDbPolyline
 90
        3
 70
   128
 43
0.0
 10
3601.537382836268
 20
1185.44107540823
 10
3601.537616711168
 20
1185.441044000358
 10
3601.537836427397
 20
1185.440957903221
  0
LINE
  5
1CCB
330
1F
100
AcDbEntity
  8
Sanindusa
100
AcDbLine
 10
3601.549445451308
 20
1185.434764489682
 30
0.0
 11
3601.537836427397
 21
1185.440957903221
 31
0.0
  0
LINE
  5
1CCC
330
1F
100
AcDbEntity
  8
Sanindusa
100
AcDbLine
 10
3601.549445451308
 20
1185.420410524268
 30
0.0
 11
3601.549445451308
 21
1185.434764489682
 31
0.0
  0
ARC
  5
1CCD
330
1F
100
AcDbEntity
  8
Sanindusa
100
AcDbCircle
 10
3601.539448969315
 20
1185.42340998266
 30
0.0
 40
0.0029994584186321
100
AcDbArc
 50
179.9896538145288
 51
269.9924506956452
  0
LINE
  5
1CCE
330
1F
100
AcDbEntity
  8
Sanindusa
100
AcDbLine
 10
3601.536449510945
 20
1185.423410524288
 30
0.0
 11
3601.536449510945
 21
1185.423964489611
 31
0.0
  0
LINE
  5
1CCF
330
1F
100
AcDbEntity
  8
Sanindusa
100
AcDbLine
 10
3601.549445451308
 20
1185.420410524268
 30
0.0
 11
3601.539448574108
 21
1185.420410524268
 31
0.0
  0
ARC
  5
1CD2
330
1F
100
AcDbEntity
  8
Sanindusa
100
AcDbCircle
 10
3601.531448898617
 20
1185.423964666961
 30
0.0
 40
0.0050006123254568
100
AcDbArc
 50
0.0
 51
50.8954337705391
  0
LINE
  5
1CD3
330
1F
100
AcDbEntity
  8
Sanindusa
100
AcDbLine
 10
3601.552956691911
 20
1185.448026512694
 30
0.0
 11
3601.552956691911
 21
1185.442482461227
 31
0.0
  0
LINE
  5
1CD4
330
1F
100
AcDbEntity
  8
Sanindusa
100
AcDbLine
 10
3601.540960439452
 20
1185.442482461227
 30
0.0
 11
3601.540960439452
 21
1185.448026512694
 31
0.0
  0
LINE
  5
1CD5
330
1F
100
AcDbEntity
  8
Sanindusa
100
AcDbLine
 10
3601.552956691913
 20
1185.442482461225
 30
0.0
 11
3601.540960439366
 21
1185.442482461225
 31
0.0
  0
LWPOLYLINE
  5
1CD6
330
1F
100
AcDbEntity
  8
Sanindusa
100
AcDbPolyline
 90
        7
 70
   128
 43
0.0
 10
3601.541960127001
 20
1185.443507232731
 10
3601.541943437578
 20
1185.443324908137
 10
3601.541889937225
 20
1185.44313749252
 10
3601.541797173413
 20
1185.442956106026
 10
3601.541667325248
 20
1185.442793000901
 10
3601.54132841904
 20
1185.442561884932
 10
3601.540960439282
 20
1185.442482461229
  0
LWPOLYLINE
  5
1CD8
330
1F
100
AcDbEntity
  8
Sanindusa
100
AcDbPolyline
 90
        7
 70
   128
 43
0.0
 10
3601.551957004198
 20
1185.443507232734
 10
3601.551973693617
 20
1185.443324908136
 10
3601.552027193972
 20
1185.443137492516
 10
3601.552119957784
 20
1185.442956106024
 10
3601.552249805951
 20
1185.442793000899
 10
3601.552588712158
 20
1185.442561884934
 10
3601.552956691917
 20
1185.442482461231
  0
LWPOLYLINE
  5
1CDA
330
1F
100
AcDbEntity
  8
Sanindusa
100
AcDbPolyline
 90
        7
 70
   128
 43
0.0
 10
3601.551957004196
 20
1185.449001111789
 10
3601.551973693619
 20
1185.448819624804
 10
3601.552027193972
 20
1185.448634894266
 10
3601.552119957784
 20
1185.448458163409
 10
3601.552249805949
 20
1185.448301575111
 10
3601.552588712157
 20
1185.448087468198
 10
3601.552956691916
 20
1185.448026512695
  0
LWPOLYLINE
  5
1CDB
330
1F
100
AcDbEntity
  8
Sanindusa
100
AcDbPolyline
 90
        7
 70
   128
 43
0.0
 10
3601.540960439282
 20
1185.448026512695
 10
3601.54132841904
 20
1185.448087468198
 10
3601.541667325248
 20
1185.448301575111
 10
3601.541797173413
 20
1185.448458163409
 10
3601.541889937225
 20
1185.448634894266
 10
3601.541943437578
 20
1185.448819624804
 10
3601.541960127001
 20
1185.449001111789
  0
LINE
  5
1CDD
330
1F
100
AcDbEntity
  8
Sanindusa
100
AcDbLine
 10
3601.550957316479
 20
1185.444532004237
 30
0.0
 11
3601.542959814718
 21
1185.444532004237
 31
0.0
  0
LWPOLYLINE
  5
1CDE
330
1F
100
AcDbEntity
  8
Sanindusa
100
AcDbPolyline
 90
        7
 70
   128
 43
0.0
 10
3601.551957004196
 20
1185.443507232735
 10
3601.551940314779
 20
1185.44368955733
 10
3601.551886814422
 20
1185.443876972946
 10
3601.551794050609
 20
1185.44405835944
 10
3601.551664202449
 20
1185.444221464565
 10
3601.551325296239
 20
1185.444452580534
 10
3601.550957316479
 20
1185.444532004237
  0
LWPOLYLINE
  5
1CDF
330
1F
100
AcDbEntity
  8
Sanindusa
100
AcDbPolyline
 90
        7
 70
   128
 43
0.0
 10
3601.541960126998
 20
1185.443507232734
 10
3601.541976816417
 20
1185.443689557329
 10
3601.54203031677
 20
1185.443876972947
 10
3601.542123080586
 20
1185.444058359447
 10
3601.542252928754
 20
1185.444221464567
 10
3601.542591834959
 20
1185.444452580536
 10
3601.542959814719
 20
1185.444532004237
  0
LWPOLYLINE
  5
1CE0
330
1F
100
AcDbEntity
  8
Sanindusa
100
AcDbPolyline
 90
        7
 70
   128
 43
0.0
 10
3601.542959814719
 20
1185.44997571088
 10
3601.542591834959
 20
1185.449914755375
 10
3601.542252928754
 20
1185.449700648464
 10
3601.542123080586
 20
1185.449544060169
 10
3601.54203031677
 20
1185.449367329306
 10
3601.541976816417
 20
1185.449182598774
 10
3601.541960126998
 20
1185.449001111786
  0
LINE
  5
1CE1
330
1F
100
AcDbEntity
  8
Sanindusa
100
AcDbLine
 10
3601.542959814718
 20
1185.444532004237
 30
0.0
 11
3601.542959814718
 21
1185.44997571088
 31
0.0
  0
LINE
  5
1CE2
330
1F
100
AcDbEntity
  8
Sanindusa
100
AcDbLine
 10
3601.55095731648
 20
1185.44997571088
 30
0.0
 11
3601.55095731648
 21
1185.444532004237
 31
0.0
  0
LWPOLYLINE
  5
1CE3
330
1F
100
AcDbEntity
  8
Sanindusa
100
AcDbPolyline
 90
        7
 70
   128
 43
0.0
 10
3601.551957004198
 20
1185.449001111786
 10
3601.55194031478
 20
1185.449182598772
 10
3601.551886814425
 20
1185.449367329311
 10
3601.551794050613
 20
1185.449544060166
 10
3601.551664202445
 20
1185.449700648461
 10
3601.551325296238
 20
1185.449914755375
 10
3601.55095731648
 20
1185.44997571088
  0
LINE
  5
1CE4
330
1F
100
AcDbEntity
  8
Sanindusa
100
AcDbLine
 10
3601.542959814718
 20
1185.44997571088
 30
0.0
 11
3601.550957316479
 21
1185.44997571088
 31
0.0
  0
LINE
  5
1CE5
330
1F
100
AcDbEntity
  8
Sanindusa
100
AcDbLine
 10
3601.549445451308
 20
1185.434764489682
 30
0.0
 11
3601.609426714491
 21
1185.434764489682
 31
0.0
  0
LINE
  5
1CE6
330
1F
100
AcDbEntity
  8
Sanindusa
100
AcDbLine
 10
3601.609426714491
 20
1185.420410524268
 30
0.0
 11
3601.549445451308
 21
1185.420410524268
 31
0.0
  0
LWPOLYLINE
  5
1CE8
330
1F
100
AcDbEntity
  8
Sanindusa
100
AcDbPolyline
 90
       13
 70
   128
 43
0.0
 10
3601.613571679727
 20
1185.441728159178
 10
3601.609866908976
 20
1185.4416808154
 10
3601.605696967878
 20
1185.441644424425
 10
3601.60111342319
 20
1185.441617179372
 10
3601.59622412181
 20
1185.441596802842
 10
3601.591035319418
 20
1185.441579845648
 10
3601.585681146506
 20
1185.441562987955
 10
3601.580237936045
 20
1185.441542575142
 10
3601.574752489219
 20
1185.441514979653
 10
3601.569395652283
 20
1185.441477745223
 10
3601.564188197868
 20
1185.441428342064
 10
3601.559248553666
 20
1185.441365931953
 10
3601.554668401943
 20
1185.441290826292
  0
LINE
  5
1CE9
330
1F
100
AcDbEntity
  8
Sanindusa
100
AcDbLine
 10
3601.572332588538
 20
1185.449756892785
 30
0.0
 11
3601.551575174258
 21
1185.449756892785
 31
0.0
  0
LINE
  5
1CEA
330
1F
100
AcDbEntity
  8
Sanindusa
100
AcDbLine
 10
3601.407124043352
 20
1185.505410524829
 30
0.0
 11
3601.407124043352
 21
1185.497998715231
 31
0.0
  0
ARC
  5
1CEB
330
1F
100
AcDbEntity
  8
Sanindusa
100
AcDbCircle
 10
3601.373326143534
 20
1185.495413083045
 30
0.0
 40
0.0099974418390076
100
AcDbArc
 50
14.98874994250378
 51
89.99396363268704
  0
LWPOLYLINE
  5
1CEC
330
1F
100
AcDbEntity
  8
Sanindusa
100
AcDbPolyline
 90
        9
 70
   128
 43
0.0
 10
3601.382983438679
 20
1185.49799871523
 10
3601.383331609911
 20
1185.498405259121
 10
3601.384600783391
 20
1185.498706551128
 10
3601.386751442193
 20
1185.498891420911
 10
3601.389702960384
 20
1185.498954017986
 10
3601.393355708033
 20
1185.498891420911
 10
3601.397577328415
 20
1185.498706551128
 10
3601.402221656894
 20
1185.498405259121
 10
3601.407124043353
 20
1185.49799871523
  0
LINE
  5
1CED
330
1F
100
AcDbEntity
  8
Sanindusa
100
AcDbLine
 10
3601.407124043352
 20
1185.505410524829
 30
0.0
 11
3601.373327196809
 21
1185.505410524829
 31
0.0
  0
LINE
  5
1CEE
330
1F
100
AcDbEntity
  8
Sanindusa
100
AcDbLine
 10
3601.795722532675
 20
1185.449048544284
 30
0.0
 11
3601.95893975461
 21
1185.449048544284
 31
0.0
  0
LINE
  5
1CEF
330
1F
100
AcDbEntity
  8
Sanindusa
100
AcDbLine
 10
3601.795734323895
 20
1185.448283174142
 30
0.0
 11
3601.909247817622
 21
1185.448283174142
 31
0.0
  0
LINE
  5
1CF0
330
1F
100
AcDbEntity
  8
Sanindusa
100
AcDbLine
 10
3601.795746115114
 20
1185.447517803998
 30
0.0
 11
3601.859555880625
 21
1185.447517803998
 31
0.0
  0
LINE
  5
1CF1
330
1F
100
AcDbEntity
  8
Sanindusa
100
AcDbLine
 10
3601.875848318964
 20
1185.447768745029
 30
0.0
 11
3601.795742249141
 21
1185.447768745029
 31
0.0
  0
LINE
  5
1CF2
330
1F
100
AcDbEntity
  8
Sanindusa
100
AcDbLine
 10
3601.925540255951
 20
1185.448534115173
 30
0.0
 11
3601.795730457921
 21
1185.448534115173
 31
0.0
  0
LINE
  5
1CF3
330
1F
100
AcDbEntity
  8
Sanindusa
100
AcDbLine
 10
3601.975232192937
 20
1185.449299485316
 30
0.0
 11
3601.795718666701
 21
1185.449299485316
 31
0.0
  0
LINE
  5
1CF4
330
1F
100
AcDbEntity
  8
Sanindusa
100
AcDbLine
 10
3601.795757906334
 20
1185.446752433855
 30
0.0
 11
3601.809863943616
 21
1185.446752433855
 31
0.0
  0
LWPOLYLINE
  5
1CF5
330
1F
100
AcDbEntity
  8
Sanindusa
100
AcDbPolyline
 90
        7
 70
   128
 43
0.0
 10
3601.795707126298
 20
1185.450064859319
 10
3601.795344249825
 20
1185.449990630999
 10
3601.795011108393
 20
1185.449767544121
 10
3601.79488344319
 20
1185.449608610479
 10
3601.794792108961
 20
1185.449430796944
 10
3601.794739321661
 20
1185.449245942427
 10
3601.794722560481
 20
1185.449079924624
  0
LWPOLYLINE
  5
1CF6
330
1F
100
AcDbEntity
  8
Sanindusa
100
AcDbPolyline
 90
        7
 70
   128
 43
0.0
 10
3601.795710992272
 20
1185.449813918289
 10
3601.795348115798
 20
1185.449739689969
 10
3601.795014974366
 20
1185.449516603091
 10
3601.794887309164
 20
1185.449357669449
 10
3601.794795974934
 20
1185.449179855915
 10
3601.794743187634
 20
1185.448995001397
 10
3601.794726223917
 20
1185.448788505512
  0
LWPOLYLINE
  5
1CF7
330
1F
100
AcDbEntity
  8
Sanindusa
100
AcDbPolyline
 90
        7
 70
   128
 43
0.0
 10
3601.795718917518
 20
1185.449299489176
 10
3601.795356041044
 20
1185.449225260856
 10
3601.795022899612
 20
1185.449002173978
 10
3601.79489523441
 20
1185.448843240336
 10
3601.79480390018
 20
1185.448665426802
 10
3601.79475111288
 20
1185.448480572284
 10
3601.79473433173
 20
1185.44831455448
  0
LWPOLYLINE
  5
1CF8
330
1F
100
AcDbEntity
  8
Sanindusa
100
AcDbPolyline
 90
        7
 70
   128
 43
0.0
 10
3601.795722783491
 20
1185.449048548145
 10
3601.795359907018
 20
1185.448974319824
 10
3601.795026765586
 20
1185.448751232946
 10
3601.794899100383
 20
1185.448592299304
 10
3601.794807766154
 20
1185.44841448577
 10
3601.794754978854
 20
1185.448229631253
 10
3601.794738473675
 20
1185.448048666457
  0
LWPOLYLINE
  5
1CF9
330
1F
100
AcDbEntity
  8
Sanindusa
100
AcDbPolyline
 90
        7
 70
   128
 43
0.0
 10
3601.795730708737
 20
1185.448534119033
 10
3601.795367832263
 20
1185.448459890714
 10
3601.795034690832
 20
1185.448236803835
 10
3601.79490702563
 20
1185.448077870193
 10
3601.794815691401
 20
1185.447900056659
 10
3601.7947629041
 20
1185.447715202142
 10
3601.794746102977
 20
1185.447549184337
  0
LWPOLYLINE
  5
1CFA
330
1F
100
AcDbEntity
  8
Sanindusa
100
AcDbPolyline
 90
        7
 70
   128
 43
0.0
 10
3601.795734574711
 20
1185.448283178003
 10
3601.795371698237
 20
1185.448208949683
 10
3601.795038556805
 20
1185.447985862805
 10
3601.794910891603
 20
1185.447826929163
 10
3601.794819557374
 20
1185.447649115629
 10
3601.794766770073
 20
1185.447464261111
 10
3601.79474976643
 20
1185.447257765225
  0
LWPOLYLINE
  5
1CFB
330
1F
100
AcDbEntity
  8
Sanindusa
100
AcDbPolyline
 90
        7
 70
   128
 43
0.0
 10
3601.795742499957
 20
1185.447768748889
 10
3601.795379623484
 20
1185.447694520569
 10
3601.795046482051
 20
1185.447471433691
 10
3601.794918816849
 20
1185.447312500049
 10
3601.79482748262
 20
1185.447134686515
 10
3601.794774695319
 20
1185.446949831997
 10
3601.794757874225
 20
1185.446783814194
  0
LWPOLYLINE
  5
1CFC
330
1F
100
AcDbEntity
  8
Sanindusa
100
AcDbPolyline
 90
        7
 70
   128
 43
0.0
 10
3601.795746365931
 20
1185.447517807858
 10
3601.795383489456
 20
1185.447443579538
 10
3601.795050348025
 20
1185.44722049266
 10
3601.794922682822
 20
1185.447061559018
 10
3601.794831348593
 20
1185.446883745484
 10
3601.794778561293
 20
1185.446698890966
 10
3601.794761537663
 20
1185.446492395081
  0
LWPOLYLINE
  5
1CFD
330
1F
100
AcDbEntity
  8
Sanindusa
100
AcDbPolyline
 90
        7
 70
   128
 43
0.0
 10
3601.795754291177
 20
1185.447003378746
 10
3601.795391414703
 20
1185.446929150426
 10
3601.795058273271
 20
1185.446706063547
 10
3601.794930608068
 20
1185.446547129905
 10
3601.794839273839
 20
1185.446369316371
 10
3601.794786486538
 20
1185.446184461854
 10
3601.794769516462
 20
1185.446026825345
  0
LWPOLYLINE
  5
1CFE
330
1F
100
AcDbEntity
  8
Sanindusa
100
AcDbPolyline
 90
        7
 70
   128
 43
0.0
 10
3601.79575815715
 20
1185.446752437715
 10
3601.795395280677
 20
1185.446678209395
 10
3601.795062139244
 20
1185.446455122517
 10
3601.794934474042
 20
1185.446296188875
 10
3601.794843139813
 20
1185.446118375341
 10
3601.794790352513
 20
1185.445933520823
 10
3601.794772609211
 20
1185.44580125177
  0
LWPOLYLINE
  5
1CFF
330
1F
100
AcDbEntity
  8
Sanindusa
100
AcDbPolyline
 90
        7
 70
   128
 43
0.0
 10
3601.761891251288
 20
1185.450513475666
 10
3601.761874561869
 20
1185.45069496265
 10
3601.761821061514
 20
1185.450879693194
 10
3601.761728297703
 20
1185.451056424049
 10
3601.761598449535
 20
1185.451213012338
 10
3601.761259543328
 20
1185.451427119259
 10
3601.76089156357
 20
1185.451488074761
  0
LINE
  5
1D00
330
1F
100
AcDbEntity
  8
Sanindusa
100
AcDbLine
 10
3601.760891563569
 20
1185.45148807476
 30
0.0
 11
3601.752894058863
 21
1185.45148807476
 31
0.0
  0
LWPOLYLINE
  5
1D01
330
1F
100
AcDbEntity
  8
Sanindusa
100
AcDbPolyline
 90
        7
 70
   128
 43
0.0
 10
3601.752894060313
 20
1185.451488074795
 10
3601.752526082048
 20
1185.451427119254
 10
3601.752187175844
 20
1185.451213012341
 10
3601.752057327676
 20
1185.451056424049
 10
3601.75196456386
 20
1185.450879693186
 10
3601.751911063507
 20
1185.450694962655
 10
3601.751894374088
 20
1185.450513475666
  0
LINE
  5
1D03
330
1F
100
AcDbEntity
  8
Sanindusa
100
AcDbLine
 10
3601.752894061808
 20
1185.451488074759
 30
0.0
 11
3601.752894061808
 21
1185.44615663094
 31
0.0
  0
ARC
  5
1D05
330
1F
100
AcDbEntity
  8
Sanindusa
100
AcDbCircle
 10
3601.752924845722
 20
1185.445014291713
 30
0.0
 40
0.0010305351708287
100
AcDbArc
 50
91.71209972225945
 51
179.3665691947888
  0
LINE
  5
1D07
330
1F
100
AcDbEntity
  8
Sanindusa
100
AcDbLine
 10
3601.76089156357
 20
1185.45148807476
 30
0.0
 11
3601.76089156357
 21
1185.446341246321
 31
0.0
  0
LINE
  5
1D08
330
1F
100
AcDbEntity
  8
Sanindusa
100
AcDbLine
 10
3601.760891563568
 20
1185.446341246321
 30
0.0
 11
3601.760891849247
 21
1185.446044358807
 31
0.0
  0
ARC
  5
1D09
330
1F
100
AcDbEntity
  8
Sanindusa
100
AcDbCircle
 10
3601.760861026692
 20
1185.445014075346
 30
0.0
 40
0.0010307444278214
100
AcDbArc
 50
1.484012362559889
 51
88.28636700773561
  0
LINE
  5
1D0A
330
1F
100
AcDbEntity
  8
Sanindusa
100
AcDbLine
 10
3601.760891850541
 20
1185.446044358805
 30
0.0
 11
3601.752894058896
 21
1185.44604436682
 31
0.0
  0
ARC
  5
1D0F
330
1F
100
AcDbEntity
  8
Sanindusa
100
AcDbCircle
 10
3601.730870395092
 20
1185.444542835292
 30
0.0
 40
0.0010307444278214
100
AcDbArc
 50
1.484012362559889
 51
88.28636700773561
  0
LINE
  5
1D10
330
1F
100
AcDbEntity
  8
Sanindusa
100
AcDbLine
 10
3601.730900931968
 20
1185.445870006267
 30
0.0
 11
3601.730901217647
 21
1185.445573118753
 31
0.0
  0
LINE
  5
1D11
330
1F
100
AcDbEntity
  8
Sanindusa
100
AcDbLine
 10
3601.73090093197
 20
1185.451016834706
 30
0.0
 11
3601.73090093197
 21
1185.445870006267
 31
0.0
  0
LWPOLYLINE
  5
1D12
330
1F
100
AcDbEntity
  8
Sanindusa
100
AcDbPolyline
 90
        7
 70
   128
 43
0.0
 10
3601.731900619688
 20
1185.450042235612
 10
3601.73188393027
 20
1185.450223722596
 10
3601.731830429914
 20
1185.45040845314
 10
3601.731737666103
 20
1185.450585183994
 10
3601.731607817935
 20
1185.450741772284
 10
3601.731268911728
 20
1185.450955879205
 10
3601.73090093197
 20
1185.451016834707
  0
LWPOLYLINE
  5
1D13
330
1F
100
AcDbEntity
  8
Sanindusa
100
AcDbPolyline
 90
        7
 70
   128
 43
0.0
 10
3601.722903428714
 20
1185.451016834741
 10
3601.722535450448
 20
1185.4509558792
 10
3601.722196544244
 20
1185.450741772287
 10
3601.722066696075
 20
1185.450585183994
 10
3601.72197393226
 20
1185.450408453132
 10
3601.721920431907
 20
1185.450223722601
 10
3601.721903742488
 20
1185.450042235612
  0
LINE
  5
1D14
330
1F
100
AcDbEntity
  8
Sanindusa
100
AcDbLine
 10
3601.73090093197
 20
1185.451016834706
 30
0.0
 11
3601.722903427263
 21
1185.451016834706
 31
0.0
  0
LINE
  5
1D15
330
1F
100
AcDbEntity
  8
Sanindusa
100
AcDbLine
 10
3601.730901218941
 20
1185.445573118751
 30
0.0
 11
3601.722903427296
 21
1185.445573126766
 31
0.0
  0
ARC
  5
1D16
330
1F
100
AcDbEntity
  8
Sanindusa
100
AcDbCircle
 10
3601.722934214122
 20
1185.444543051659
 30
0.0
 40
0.0010305351708287
100
AcDbArc
 50
91.71209972225945
 51
179.3665691947888
  0
LINE
  5
1D18
330
1F
100
AcDbEntity
  8
Sanindusa
100
AcDbLine
 10
3601.722903430208
 20
1185.451016834705
 30
0.0
 11
3601.722903430208
 21
1185.445685390886
 31
0.0
  0
LWPOLYLINE
  5
1D19
330
1F
100
AcDbEntity
  8
Sanindusa
100
AcDbPolyline
 90
        7
 70
   128
 43
0.0
 10
3601.701909988088
 20
1185.44958069715
 10
3601.701893298669
 20
1185.449762184134
 10
3601.701839798314
 20
1185.449946914678
 10
3601.701747034502
 20
1185.450123645533
 10
3601.701617186335
 20
1185.450280233822
 10
3601.701278280128
 20
1185.450494340743
 10
3601.70091030037
 20
1185.450555296245
  0
LINE
  5
1D1A
330
1F
100
AcDbEntity
  8
Sanindusa
100
AcDbLine
 10
3601.700910300369
 20
1185.450555296244
 30
0.0
 11
3601.692912795663
 21
1185.450555296244
 31
0.0
  0
LWPOLYLINE
  5
1D1B
330
1F
100
AcDbEntity
  8
Sanindusa
100
AcDbPolyline
 90
        7
 70
   128
 43
0.0
 10
3601.692912797113
 20
1185.450555296279
 10
3601.692544818848
 20
1185.450494340738
 10
3601.692205912645
 20
1185.450280233825
 10
3601.692076064475
 20
1185.450123645533
 10
3601.69198330066
 20
1185.44994691467
 10
3601.691929800307
 20
1185.449762184139
 10
3601.691913110888
 20
1185.44958069715
  0
LINE
  5
1D1D
330
1F
100
AcDbEntity
  8
Sanindusa
100
AcDbLine
 10
3601.692912798608
 20
1185.450555296243
 30
0.0
 11
3601.692912798608
 21
1185.445223852424
 31
0.0
  0
ARC
  5
1D1F
330
1F
100
AcDbEntity
  8
Sanindusa
100
AcDbCircle
 10
3601.692943582523
 20
1185.444081513197
 30
0.0
 40
0.0010305351708287
100
AcDbArc
 50
91.71209972225945
 51
179.3665691947888
  0
LINE
  5
1D22
330
1F
100
AcDbEntity
  8
Sanindusa
100
AcDbLine
 10
3601.70091030037
 20
1185.450555296244
 30
0.0
 11
3601.70091030037
 21
1185.445408467805
 31
0.0
  0
LINE
  5
1D23
330
1F
100
AcDbEntity
  8
Sanindusa
100
AcDbLine
 10
3601.700910300368
 20
1185.445408467805
 30
0.0
 11
3601.700910586048
 21
1185.445111580291
 31
0.0
  0
ARC
  5
1D24
330
1F
100
AcDbEntity
  8
Sanindusa
100
AcDbCircle
 10
3601.700879763491
 20
1185.44408129683
 30
0.0
 40
0.0010307444278214
100
AcDbArc
 50
1.484012362559889
 51
88.28636700773561
  0
LINE
  5
1D25
330
1F
100
AcDbEntity
  8
Sanindusa
100
AcDbLine
 10
3601.700910587341
 20
1185.445111580289
 30
0.0
 11
3601.692912795697
 21
1185.445111588304
 31
0.0
  0
LWPOLYLINE
  5
1D27
330
1F
100
AcDbEntity
  8
Sanindusa
100
AcDbPolyline
 90
        7
 70
   128
 43
0.0
 10
3601.793793167257
 20
1185.444501663575
 10
3601.794160023756
 20
1185.444577529292
 10
3601.794495465468
 20
1185.44480539942
 10
3601.794622839376
 20
1185.444967275579
 10
3601.794712837783
 20
1185.445147796842
 10
3601.794763469478
 20
1185.445334729724
 10
3601.794777358695
 20
1185.445516928054
  0
LWPOLYLINE
  5
1D28
330
1F
100
AcDbEntity
  8
Sanindusa
100
AcDbPolyline
 90
        7
 70
   128
 43
0.0
 10
3601.795761550226
 20
1185.446532192536
 10
3601.795398673753
 20
1185.446457964216
 10
3601.79506553232
 20
1185.446234877338
 10
3601.794937867119
 20
1185.446075943696
 10
3601.794846532889
 20
1185.445898130162
 10
3601.794793745589
 20
1185.445713275644
 10
3601.79477724041
 20
1185.445532310849
  0
LINE
  5
1D2A
330
1F
100
AcDbEntity
  8
Sanindusa
100
AcDbLine
 10
3601.793739007865
 20
1185.447023450067
 30
0.0
 11
3601.793734376667
 21
1185.447324579306
 31
0.0
  0
LINE
  5
1D2B
330
1F
100
AcDbEntity
  8
Sanindusa
100
AcDbLine
 10
3601.794601057076
 20
1185.447023450065
 30
0.0
 11
3601.793739007782
 21
1185.447023450065
 31
0.0
  0
LINE
  5
1D2C
330
1F
100
AcDbEntity
  8
Sanindusa
100
AcDbLine
 10
3601.793750779046
 20
1185.446258079928
 30
0.0
 11
3601.793746147849
 21
1185.446559209162
 31
0.0
  0
LINE
  5
1D2D
330
1F
100
AcDbEntity
  8
Sanindusa
100
AcDbLine
 10
3601.794612828327
 20
1185.44625807993
 30
0.0
 11
3601.793750778993
 21
1185.44625807993
 31
0.0
  0
LINE
  5
1D2E
330
1F
100
AcDbEntity
  8
Sanindusa
100
AcDbLine
 10
3601.793762550227
 20
1185.445492709784
 30
0.0
 11
3601.79375791903
 21
1185.445793839019
 31
0.0
  0
LINE
  5
1D2F
330
1F
100
AcDbEntity
  8
Sanindusa
100
AcDbLine
 10
3601.79461653651
 20
1185.445492709786
 30
0.0
 11
3601.793762550204
 21
1185.445492709786
 31
0.0
  0
LINE
  5
1D30
330
1F
100
AcDbEntity
  8
Sanindusa
100
AcDbLine
 10
3601.793727236683
 20
1185.447788820211
 30
0.0
 11
3601.793722604822
 21
1185.448089949449
 31
0.0
  0
LINE
  5
1D31
330
1F
100
AcDbEntity
  8
Sanindusa
100
AcDbLine
 10
3601.794589285827
 20
1185.447788820209
 30
0.0
 11
3601.793727236571
 21
1185.447788820209
 31
0.0
  0
LINE
  5
1D32
330
1F
100
AcDbEntity
  8
Sanindusa
100
AcDbLine
 10
3601.79377105143
 20
1185.445034185247
 30
0.0
 11
3601.793778276348
 21
1185.444796297542
 31
0.0
  0
LINE
  5
1D33
330
1F
100
AcDbEntity
  8
Sanindusa
100
AcDbLine
 10
3601.79377827801
 20
1185.444796297559
 30
0.0
 11
3601.794492798882
 21
1185.444803587971
 31
0.0
  0
LWPOLYLINE
  5
1D37
330
1F
100
AcDbEntity
  8
Sanindusa
100
AcDbPolyline
 90
        8
 70
   128
 43
0.0
 10
3601.794772609211
 20
1185.44580125177
 10
3601.794744227372
 20
1185.445577400408
 10
3601.79466444993
 20
1185.445358815565
 10
3601.794560844196
 20
1185.445194370516
 10
3601.794416716776
 20
1185.445041998668
 10
3601.7941086973
 20
1185.44485980722
 10
3601.793893587123
 20
1185.44480538268
 10
3601.793778276826
 20
1185.444796297566
  0
LWPOLYLINE
  5
1D38
330
1F
100
AcDbEntity
  8
Sanindusa
100
AcDbPolyline
 90
        8
 70
   128
 43
0.0
 10
3601.793771052128
 20
1185.445034185243
 10
3601.793887666602
 20
1185.445038433472
 10
3601.794107362902
 20
1185.445085230506
 10
3601.794419787267
 20
1185.445259680752
 10
3601.794565572246
 20
1185.445411164229
 10
3601.794669076158
 20
1185.445576776041
 10
3601.794746170571
 20
1185.44579844985
 10
3601.794769516462
 20
1185.446026825345
  0
LINE
  5
1D3B
330
1F
100
AcDbEntity
  8
Sanindusa
100
AcDbLine
 10
3601.826156381977
 20
1185.447003374886
 30
0.0
 11
3601.79575404036
 21
1185.447003374885
 31
0.0
  0
LWPOLYLINE
  5
1D3F
330
1F
100
AcDbEntity
  8
Sanindusa
100
AcDbPolyline
 90
        7
 70
   128
 43
0.0
 10
3601.794761537663
 20
1185.446492395081
 10
3601.794740811855
 20
1185.446312893223
 10
3601.794684310526
 20
1185.446129430344
 10
3601.794590009755
 20
1185.445952671243
 10
3601.79446024397
 20
1185.445794213944
 10
3601.794125261559
 20
1185.445569990851
 10
3601.793762550183
 20
1185.445492709783
  0
LWPOLYLINE
  5
1D40
330
1F
100
AcDbEntity
  8
Sanindusa
100
AcDbPolyline
 90
        7
 70
   128
 43
0.0
 10
3601.794757874225
 20
1185.446783814194
 10
3601.794743723433
 20
1185.446600526639
 10
3601.794692130756
 20
1185.446413303904
 10
3601.794600363885
 20
1185.446233682438
 10
3601.794470494286
 20
1185.446074221842
 10
3601.794129167822
 20
1185.445855959698
 10
3601.793757918868
 20
1185.445793839019
  0
LWPOLYLINE
  5
1D44
330
1F
100
AcDbEntity
  8
Sanindusa
100
AcDbPolyline
 90
        7
 70
   128
 43
0.0
 10
3601.79474976643
 20
1185.447257765225
 10
3601.794729040638
 20
1185.447078263367
 10
3601.794672539324
 20
1185.446894800487
 10
3601.794578238487
 20
1185.446718041386
 10
3601.794448472712
 20
1185.446559584087
 10
3601.794113490313
 20
1185.446335360994
 10
3601.793750778949
 20
1185.446258079926
  0
LWPOLYLINE
  5
1D46
330
1F
100
AcDbEntity
  8
Sanindusa
100
AcDbPolyline
 90
        7
 70
   128
 43
0.0
 10
3601.794746102977
 20
1185.447549184337
 10
3601.794731952185
 20
1185.447365896782
 10
3601.794680359507
 20
1185.447178674047
 10
3601.794588592637
 20
1185.446999052581
 10
3601.794458723038
 20
1185.446839591985
 10
3601.794117396575
 20
1185.446621329841
 10
3601.79374614762
 20
1185.446559209163
  0
LWPOLYLINE
  5
1D4A
330
1F
100
AcDbEntity
  8
Sanindusa
100
AcDbPolyline
 90
        7
 70
   128
 43
0.0
 10
3601.794738473675
 20
1185.448048666457
 10
3601.794717269321
 20
1185.44784363351
 10
3601.794660768082
 20
1185.44766017063
 10
3601.79456646732
 20
1185.44748341153
 10
3601.794436701488
 20
1185.44732495423
 10
3601.794101719052
 20
1185.447100731137
 10
3601.793739007716
 20
1185.44702345007
  0
LWPOLYLINE
  5
1D4B
330
1F
100
AcDbEntity
  8
Sanindusa
100
AcDbPolyline
 90
        7
 70
   128
 43
0.0
 10
3601.79473433173
 20
1185.44831455448
 10
3601.794720180937
 20
1185.448131266925
 10
3601.794668588259
 20
1185.447944044191
 10
3601.794576821389
 20
1185.447764422724
 10
3601.794446951789
 20
1185.447604962128
 10
3601.794105625326
 20
1185.447386699984
 10
3601.793734376449
 20
1185.447324579304
  0
LWPOLYLINE
  5
1D4E
330
1F
100
AcDbEntity
  8
Sanindusa
100
AcDbPolyline
 90
        7
 70
   128
 43
0.0
 10
3601.793727236435
 20
1185.447788820213
 10
3601.794089947807
 20
1185.447866101281
 10
3601.794424930221
 20
1185.448090324372
 10
3601.794554696018
 20
1185.448248781671
 10
3601.794648996794
 20
1185.448425540777
 10
3601.794705498121
 20
1185.448609003656
 10
3601.794726223917
 20
1185.448788505512
  0
LWPOLYLINE
  5
1D4F
330
1F
100
AcDbEntity
  8
Sanindusa
100
AcDbPolyline
 90
        7
 70
   128
 43
0.0
 10
3601.794722560481
 20
1185.449079924624
 10
3601.794708409688
 20
1185.448896637068
 10
3601.794656817011
 20
1185.448709414334
 10
3601.794565050141
 20
1185.448529792868
 10
3601.794435180541
 20
1185.448370332271
 10
3601.794093854078
 20
1185.448152070127
 10
3601.793722605124
 20
1185.448089949449
  0
LWPOLYLINE
  5
1D52
330
1F
100
AcDbEntity
  8
Sanindusa
100
AcDbPolyline
 90
        7
 70
   128
 43
0.0
 10
3601.761891425398
 20
1185.445026217188
 10
3601.761908019291
 20
1185.444844771259
 10
3601.761961266668
 20
1185.444659004276
 10
3601.762053710298
 20
1185.444480031921
 10
3601.762183294897
 20
1185.444320044181
 10
3601.762522250584
 20
1185.444096778957
 10
3601.762891113118
 20
1185.444026217182
  0
LWPOLYLINE
  5
1D54
330
1F
100
AcDbEntity
  8
Sanindusa
100
AcDbPolyline
 90
        7
 70
   128
 43
0.0
 10
3601.75091023847
 20
1185.443841720118
 10
3601.751273974069
 20
1185.443916300182
 10
3601.751607162636
 20
1185.444139954734
 10
3601.751734572229
 20
1185.444298975241
 10
3601.751825595516
 20
1185.444476648379
 10
3601.751878136293
 20
1185.444661145309
 10
3601.751894548198
 20
1185.444841601803
  0
LINE
  5
1D55
330
1F
100
AcDbEntity
  8
Sanindusa
100
AcDbLine
 10
3601.751894548198
 20
1185.444841601803
 30
0.0
 11
3601.751894373528
 21
1185.445025684514
 31
0.0
  0
LWPOLYLINE
  5
1D57
330
1F
100
AcDbEntity
  8
Sanindusa
100
AcDbPolyline
 90
        7
 70
   128
 43
0.0
 10
3601.731900793799
 20
1185.444564678724
 10
3601.731917387692
 20
1185.444383232796
 10
3601.731970635068
 20
1185.444197465812
 10
3601.732063078698
 20
1185.444018493457
 10
3601.732192663297
 20
1185.443858505717
 10
3601.732531618984
 20
1185.443635240494
 10
3601.732900481518
 20
1185.443564678718
  0
LINE
  5
1D59
330
1F
100
AcDbEntity
  8
Sanindusa
100
AcDbLine
 10
3601.762891113268
 20
1185.448026512694
 30
0.0
 11
3601.762891113268
 21
1185.444675665685
 31
0.0
  0
LINE
  5
1D5A
330
1F
100
AcDbEntity
  8
Sanindusa
100
AcDbLine
 10
3601.750894860809
 20
1185.444491050305
 30
0.0
 11
3601.750894860809
 21
1185.448026512694
 31
0.0
  0
LINE
  5
1D5B
330
1F
100
AcDbEntity
  8
Sanindusa
100
AcDbLine
 10
3601.732900481457
 20
1185.448026512694
 30
0.0
 11
3601.732900481457
 21
1185.44421412722
 31
0.0
  0
LINE
  5
1D5C
330
1F
100
AcDbEntity
  8
Sanindusa
100
AcDbLine
 10
3601.751894548198
 20
1185.449756892785
 30
0.0
 11
3601.731900793799
 21
1185.449756892785
 31
0.0
  0
LINE
  5
1D5D
330
1F
100
AcDbEntity
  8
Sanindusa
100
AcDbLine
 10
3601.732915859509
 20
1185.443564797039
 30
0.0
 11
3601.732900481518
 21
1185.44421412722
 31
0.0
  0
LINE
  5
1D5E
330
1F
100
AcDbEntity
  8
Sanindusa
100
AcDbLine
 10
3601.750894860479
 20
1185.444491050306
 30
0.0
 11
3601.750910238469
 21
1185.443841720118
 31
0.0
  0
LINE
  5
1D5F
330
1F
100
AcDbEntity
  8
Sanindusa
100
AcDbLine
 10
3601.762906491109
 20
1185.444026335504
 30
0.0
 11
3601.762891113118
 21
1185.444675665685
 31
0.0
  0
LWPOLYLINE
  5
1D60
330
1F
100
AcDbEntity
  8
Sanindusa
100
AcDbPolyline
 90
        7
 70
   128
 43
0.0
 10
3601.731900793796
 20
1185.449001111789
 10
3601.731917483219
 20
1185.448819624804
 10
3601.731970983572
 20
1185.448634894266
 10
3601.732063747384
 20
1185.448458163409
 10
3601.732193595549
 20
1185.448301575111
 10
3601.732532501757
 20
1185.448087468198
 10
3601.732900481515
 20
1185.448026512695
  0
LWPOLYLINE
  5
1D61
330
1F
100
AcDbEntity
  8
Sanindusa
100
AcDbPolyline
 90
        7
 70
   128
 43
0.0
 10
3601.751894548198
 20
1185.449001111788
 10
3601.75187785878
 20
1185.448819624802
 10
3601.751824358427
 20
1185.448634894265
 10
3601.751731594612
 20
1185.448458163403
 10
3601.751601746443
 20
1185.448301575111
 10
3601.751262840238
 20
1185.448087468197
 10
3601.750894860553
 20
1185.448026512692
  0
LWPOLYLINE
  5
1D62
330
1F
100
AcDbEntity
  8
Sanindusa
100
AcDbPolyline
 90
        7
 70
   128
 43
0.0
 10
3601.761891425396
 20
1185.449001111789
 10
3601.761908114819
 20
1185.448819624804
 10
3601.761961615172
 20
1185.448634894266
 10
3601.762054378985
 20
1185.448458163409
 10
3601.76218422715
 20
1185.448301575111
 10
3601.762523133356
 20
1185.448087468198
 10
3601.762891113116
 20
1185.448026512695
  0
LWPOLYLINE
  5
1D63
330
1F
100
AcDbEntity
  8
Sanindusa
100
AcDbPolyline
 90
        7
 70
   128
 43
0.0
 10
3601.720919606871
 20
1185.443380181654
 10
3601.721283342469
 20
1185.443454761718
 10
3601.721616531036
 20
1185.44367841627
 10
3601.721743940629
 20
1185.443837436776
 10
3601.721834963916
 20
1185.444015109914
 10
3601.721887504693
 20
1185.444199606845
 10
3601.721903916599
 20
1185.444380063338
  0
LWPOLYLINE
  5
1D65
330
1F
100
AcDbEntity
  8
Sanindusa
100
AcDbPolyline
 90
        7
 70
   128
 43
0.0
 10
3601.69092897527
 20
1185.44291864319
 10
3601.691292710869
 20
1185.442993223253
 10
3601.691625899436
 20
1185.443216877805
 10
3601.69175330903
 20
1185.443375898312
 10
3601.691844332317
 20
1185.44355357145
 10
3601.691896873093
 20
1185.44373806838
 10
3601.691913284998
 20
1185.443918524873
  0
LINE
  5
1D66
330
1F
100
AcDbEntity
  8
Sanindusa
100
AcDbLine
 10
3601.691913284998
 20
1185.443918524874
 30
0.0
 11
3601.691913284998
 21
1185.443958995694
 31
0.0
  0
LWPOLYLINE
  5
1D68
330
1F
100
AcDbEntity
  8
Sanindusa
100
AcDbPolyline
 90
        7
 70
   128
 43
0.0
 10
3601.702925227907
 20
1185.443103258575
 10
3601.702553066285
 20
1185.44316899578
 10
3601.702208421967
 20
1185.44339061559
 10
3601.702076114769
 20
1185.443551369149
 10
3601.701981595986
 20
1185.443731917641
 10
3601.701927130004
 20
1185.44391967878
 10
3601.701910162193
 20
1185.444103140258
  0
LINE
  5
1D6B
330
1F
100
AcDbEntity
  8
Sanindusa
100
AcDbLine
 10
3601.720904228996
 20
1185.444029511841
 30
0.0
 11
3601.720904228996
 21
1185.448026512694
 31
0.0
  0
LINE
  5
1D6C
330
1F
100
AcDbEntity
  8
Sanindusa
100
AcDbLine
 10
3601.702909849644
 20
1185.448026512694
 30
0.0
 11
3601.702909849644
 21
1185.443752588755
 31
0.0
  0
LINE
  5
1D6D
330
1F
100
AcDbEntity
  8
Sanindusa
100
AcDbLine
 10
3601.690913597185
 20
1185.443567973376
 30
0.0
 11
3601.690913597185
 21
1185.448026512694
 31
0.0
  0
LINE
  5
1D6E
330
1F
100
AcDbEntity
  8
Sanindusa
100
AcDbLine
 10
3601.721903916598
 20
1185.449756892785
 30
0.0
 11
3601.70191016201
 21
1185.449756892785
 31
0.0
  0
LINE
  5
1D6F
330
1F
100
AcDbEntity
  8
Sanindusa
100
AcDbLine
 10
3601.690913597278
 20
1185.443567973377
 30
0.0
 11
3601.690928975269
 21
1185.442918643189
 31
0.0
  0
LINE
  5
1D70
330
1F
100
AcDbEntity
  8
Sanindusa
100
AcDbLine
 10
3601.702925227909
 20
1185.443103258575
 30
0.0
 11
3601.702909849919
 21
1185.443752588755
 31
0.0
  0
LINE
  5
1D71
330
1F
100
AcDbEntity
  8
Sanindusa
100
AcDbLine
 10
3601.720904228879
 20
1185.444029511842
 30
0.0
 11
3601.720919606869
 21
1185.443380181654
 31
0.0
  0
LWPOLYLINE
  5
1D74
330
1F
100
AcDbEntity
  8
Sanindusa
100
AcDbPolyline
 90
        7
 70
   128
 43
0.0
 10
3601.691913284998
 20
1185.449001111789
 10
3601.69189659558
 20
1185.448819624802
 10
3601.691843095227
 20
1185.448634894265
 10
3601.691750331411
 20
1185.448458163404
 10
3601.691620483243
 20
1185.448301575112
 10
3601.691281577038
 20
1185.4480874682
 10
3601.690913597278
 20
1185.448026512694
  0
LWPOLYLINE
  5
1D75
330
1F
100
AcDbEntity
  8
Sanindusa
100
AcDbPolyline
 90
        7
 70
   128
 43
0.0
 10
3601.701910162196
 20
1185.449001111789
 10
3601.701926851619
 20
1185.448819624804
 10
3601.701980351972
 20
1185.448634894266
 10
3601.702073115785
 20
1185.448458163409
 10
3601.702202963949
 20
1185.448301575111
 10
3601.702541870157
 20
1185.448087468198
 10
3601.702909849834
 20
1185.448026512693
  0
LWPOLYLINE
  5
1D76
330
1F
100
AcDbEntity
  8
Sanindusa
100
AcDbPolyline
 90
        7
 70
   128
 43
0.0
 10
3601.721903916599
 20
1185.449001111788
 10
3601.72188722718
 20
1185.448819624802
 10
3601.721833726827
 20
1185.448634894265
 10
3601.721740963011
 20
1185.448458163403
 10
3601.721611114842
 20
1185.44830157511
 10
3601.721272208638
 20
1185.448087468198
 10
3601.720904228879
 20
1185.448026512694
  0
LINE
  5
1D77
330
1F
100
AcDbEntity
  8
Sanindusa
100
AcDbLine
 10
3601.794712148807
 20
1185.449756892785
 30
0.0
 11
3601.761891425398
 21
1185.449756892785
 31
0.0
  0
LINE
  5
1D84
330
1F
100
AcDbEntity
  8
Sanindusa
100
AcDbLine
 10
3602.175545957641
 20
1185.458537111803
 30
0.0
 11
3602.185423275423
 21
1185.495411278917
 31
0.0
  0
LINE
  5
1D85
330
1F
100
AcDbEntity
  8
Sanindusa
100
AcDbLine
 10
3602.2192331009
 20
1185.437593441715
 30
0.0
 11
3602.2192331009
 21
1185.495410524829
 31
0.0
  0
LINE
  5
1D86
330
1F
100
AcDbEntity
  8
Sanindusa
100
AcDbLine
 10
3602.229233100899
 20
1185.410410524202
 30
0.0
 11
3602.229233100899
 21
1185.497410524776
 31
0.0
  0
LINE
  5
1D87
330
1F
100
AcDbEntity
  8
Sanindusa
100
AcDbLine
 10
3602.165886497338
 20
1185.461124548116
 30
0.0
 11
3602.175763815121
 21
1185.49799871523
 31
0.0
  0
LINE
  5
1D88
330
1F
100
AcDbEntity
  8
Sanindusa
100
AcDbLine
 10
3602.14173626633
 20
1185.4610886109
 30
0.0
 11
3602.15162321045
 21
1185.497998715222
 31
0.0
  0
LINE
  5
1D89
330
1F
100
AcDbEntity
  8
Sanindusa
100
AcDbLine
 10
3602.093067732108
 20
1185.449756892785
 30
0.0
 11
3602.141870336862
 21
1185.449972324263
 31
0.0
  0
LINE
  5
1D8A
330
1F
100
AcDbEntity
  8
Sanindusa
100
AcDbLine
 10
3602.093067731882
 20
1185.460869886557
 30
0.0
 11
3602.141736266321
 21
1185.46108861089
 31
0.0
  0
LWPOLYLINE
  5
1D8B
330
1F
100
AcDbEntity
  8
Sanindusa
100
AcDbPolyline
 90
        7
 70
   128
 43
0.0
 10
3602.079654647601
 20
1185.449901024673
 10
3602.07967373197
 20
1185.449721347643
 10
3602.079728852743
 20
1185.449538034812
 10
3602.079822284828
 20
1185.449361920011
 10
3602.079951869954
 20
1185.449204789346
 10
3602.080288511967
 20
1185.448985721565
 10
3602.080654217035
 20
1185.44891640746
  0
LWPOLYLINE
  5
1D8C
330
1F
100
AcDbEntity
  8
Sanindusa
100
AcDbPolyline
 90
        7
 70
   128
 43
0.0
 10
3602.079654647531
 20
1185.44990102467
 10
3602.079635161877
 20
1185.450082709387
 10
3602.079578805681
 20
1185.450267995776
 10
3602.079483298415
 20
1185.45044566222
 10
3602.079351006652
 20
1185.450603542277
 10
3602.079008716184
 20
1185.450820982496
 10
3602.078639700086
 20
1185.450885523559
  0
LINE
  5
1D8D
330
1F
100
AcDbEntity
  8
Sanindusa
100
AcDbLine
 10
3602.093067732105
 20
1185.449756892785
 30
0.0
 11
3602.079669956548
 21
1185.449756892785
 31
0.0
  0
ARC
  5
1D93
330
1F
100
AcDbEntity
  8
Sanindusa
100
AcDbCircle
 10
3602.172192508446
 20
1185.432323909007
 30
0.0
 40
0.0149990127389835
100
AcDbArc
 50
141.1836877928168
 51
170.0101057834569
  0
ARC
  5
1D94
330
1F
100
AcDbEntity
  8
Sanindusa
100
AcDbCircle
 10
3602.151395297936
 20
1185.465009704947
 30
0.0
 40
0.0250029764948722
100
AcDbArc
 50
270.9070657387911
 51
291.3694369887801
  0
ARC
  5
1D95
330
1F
100
AcDbEntity
  8
Sanindusa
100
AcDbCircle
 10
3602.205196924604
 20
1185.432306913155
 30
0.0
 40
0.0149987209191845
100
AcDbArc
 50
20.63817777195573
 51
89.99396363894026
  0
LINE
  5
1D96
330
1F
100
AcDbEntity
  8
Sanindusa
100
AcDbLine
 10
3602.172912437608
 20
1185.447305634046
 30
0.0
 11
3602.205197451241
 21
1185.447305634046
 31
0.0
  0
ARC
  5
1D97
330
1F
100
AcDbEntity
  8
Sanindusa
100
AcDbCircle
 10
3602.151395297936
 20
1185.465009704947
 30
0.0
 40
0.0250029764948722
100
AcDbArc
 50
313.5658569207576
 51
344.9916940261598
  0
ARC
  5
1D98
330
1F
100
AcDbEntity
  8
Sanindusa
100
AcDbCircle
 10
3602.172192508446
 20
1185.432323909007
 30
0.0
 40
0.0149990127389835
100
AcDbArc
 50
87.24883509672308
 51
103.7516061167367
  0
LINE
  5
1D99
330
1F
100
AcDbEntity
  8
Sanindusa
100
AcDbLine
 10
3602.157421118657
 20
1185.434927065954
 30
0.0
 11
3602.154862260027
 21
1185.420410524202
 31
0.0
  0
LINE
  5
1D9A
330
1F
100
AcDbEntity
  8
Sanindusa
100
AcDbLine
 10
3602.229233100899
 20
1185.410410524202
 30
0.0
 11
3602.216237160563
 21
1185.410410524202
 31
0.0
  0
LINE
  5
1D9B
330
1F
100
AcDbEntity
  8
Sanindusa
100
AcDbLine
 10
3602.167269288909
 20
1185.433191110113
 30
0.0
 11
3602.163982024482
 21
1185.414542283345
 31
0.0
  0
LWPOLYLINE
  5
1D9C
330
1F
100
AcDbEntity
  8
Sanindusa
100
AcDbPolyline
 90
        6
 70
   128
 43
0.0
 10
3602.163982024482
 20
1185.414542283345
 10
3602.163417093807
 20
1185.412961092625
 10
3602.162360592402
 20
1185.411656042308
 10
3602.160931864699
 20
1185.410774561789
 10
3602.159292365746
 20
1185.410415952092
 10
3602.159059523394
 20
1185.410410524202
  0
ARC
  5
1D9D
330
1F
100
AcDbEntity
  8
Sanindusa
100
AcDbCircle
 10
3602.205196924604
 20
1185.432306913155
 30
0.0
 40
0.0049987209191845
100
AcDbArc
 50
14.98874992849201
 51
89.99396363894026
  0
LINE
  5
1D9E
330
1F
100
AcDbEntity
  8
Sanindusa
100
AcDbLine
 10
3602.171777124289
 20
1185.437305634046
 30
0.0
 11
3602.205197451241
 21
1185.437305634046
 31
0.0
  0
ARC
  5
1D9F
330
1F
100
AcDbEntity
  8
Sanindusa
100
AcDbCircle
 10
3602.172192508446
 20
1185.432323909007
 30
0.0
 40
0.0049990127389835
100
AcDbArc
 50
94.76638755413837
 51
170.0101057834569
  0
LINE
  5
1DA4
330
1F
100
AcDbEntity
  8
Sanindusa
100
AcDbLine
 10
3602.159069877931
 20
1185.410410524202
 30
0.0
 11
3602.211409039425
 21
1185.410410524202
 31
0.0
  0
LWPOLYLINE
  5
1DA5
330
1F
100
AcDbEntity
  8
Sanindusa
100
AcDbPolyline
 90
        9
 70
   128
 43
0.0
 10
3602.141870337576
 20
1185.44997232427
 10
3602.143769417729
 20
1185.44998783214
 10
3602.145607136373
 20
1185.45000032036
 10
3602.147296825433
 20
1185.450009791551
 10
3602.148784011449
 20
1185.450016499415
 10
3602.149993131494
 20
1185.450020527613
 10
3602.150882721492
 20
1185.450021971743
 10
3602.151424921651
 20
1185.450020780756
 10
3602.15160857831
 20
1185.450016821431
  0
LWPOLYLINE
  5
1DA6
330
1F
100
AcDbEntity
  8
Sanindusa
100
AcDbPolyline
 90
        6
 70
   128
 43
0.0
 10
3602.141870337054
 20
1185.449972326259
 10
3602.141858032676
 20
1185.450415950167
 10
3602.141837979559
 20
1185.45173389168
 10
3602.141811210308
 20
1185.453898966625
 10
3602.141774294331
 20
1185.457278272628
 10
3602.141736266825
 20
1185.461088610316
  0
ARC
  5
1DA7
330
1F
100
AcDbEntity
  8
Sanindusa
100
AcDbCircle
 10
3602.151395297936
 20
1185.465009704947
 30
0.0
 40
0.0150029764948722
100
AcDbArc
 50
270.9070657387911
 51
344.9916940261598
  0
LWPOLYLINE
  5
1DA8
330
1F
100
AcDbEntity
  8
Sanindusa
100
AcDbPolyline
 90
        9
 70
   128
 43
0.0
 10
3602.141736266321
 20
1185.46108861089
 10
3602.146301484537
 20
1185.460502256202
 10
3602.150750474572
 20
1185.460060595667
 10
3602.154874114694
 20
1185.459788973077
 10
3602.15854001861
 20
1185.459699970058
 10
3602.161562165067
 20
1185.459800252433
 10
3602.163836194011
 20
1185.460083942462
 10
3602.165289628768
 20
1185.460536807773
 10
3602.165888783579
 20
1185.461133083147
  0
LINE
  5
1DA9
330
1F
100
AcDbEntity
  8
Sanindusa
100
AcDbLine
 10
3602.216237160563
 20
1185.410410524202
 30
0.0
 11
3602.210025572179
 21
1185.43359972924
 31
0.0
  0
LINE
  5
1DAA
330
1F
100
AcDbEntity
  8
Sanindusa
100
AcDbLine
 10
3602.216062150552
 20
1185.410410524201
 30
0.0
 11
3602.211409039425
 21
1185.410410524202
 31
0.0
  0
LINE
  5
1DAB
330
1F
100
AcDbEntity
  8
Sanindusa
100
AcDbLine
 10
3602.2192331009
 20
1185.495410524829
 30
0.0
 11
3602.185420056991
 21
1185.495410524829
 31
0.0
  0
ARC
  5
1DAC
330
1F
100
AcDbEntity
  8
Sanindusa
100
AcDbCircle
 10
3602.221234545248
 20
1185.497411969116
 30
0.0
 40
0.007998555782036
100
AcDbArc
 50
359.9896538074809
 51
89.99245069431635
  0
ARC
  5
1DAD
330
1F
100
AcDbEntity
  8
Sanindusa
100
AcDbCircle
 10
3602.185421036055
 20
1185.495413179729
 30
0.0
 40
0.0099973451478187
100
AcDbArc
 50
90.00561111424689
 51
165.0116753105685
  0
LINE
  5
1DAE
330
1F
100
AcDbEntity
  8
Sanindusa
100
AcDbLine
 10
3602.15162321045
 20
1185.505410524828
 30
0.0
 11
3602.151623210449
 21
1185.497998715244
 31
0.0
  0
LWPOLYLINE
  5
1DAF
330
1F
100
AcDbEntity
  8
Sanindusa
100
AcDbPolyline
 90
        9
 70
   128
 43
0.0
 10
3602.151623210447
 20
1185.49799871523
 10
3602.156525596905
 20
1185.498405259121
 10
3602.161169925385
 20
1185.498706551128
 10
3602.165391545766
 20
1185.498891420911
 10
3602.169044293416
 20
1185.498954017986
 10
3602.171995811607
 20
1185.498891420911
 10
3602.174146470409
 20
1185.498706551128
 10
3602.175415643888
 20
1185.498405259121
 10
3602.175763815122
 20
1185.49799871523
  0
LINE
  5
1DB0
330
1F
100
AcDbEntity
  8
Sanindusa
100
AcDbLine
 10
3602.185420056991
 20
1185.505410524829
 30
0.0
 11
3602.151623210656
 21
1185.505410524829
 31
0.0
  0
LINE
  5
1DB1
330
1F
100
AcDbEntity
  8
Sanindusa
100
AcDbLine
 10
3602.221235599139
 20
1185.505410524829
 30
0.0
 11
3602.185420056991
 21
1185.505410524829
 31
0.0
  0
LINE
  5
1EC7
330
1F
100
AcDbEntity
  8
Sanindusa
100
AcDbLine
 10
3600.97036339692
 20
1185.410410524202
 30
0.0
 11
3600.08576702877
 21
1185.410410524202
 31
0.0
  0
LINE
  5
1EC8
330
1F
100
AcDbEntity
  8
Sanindusa
100
AcDbLine
 10
3600.96808617975
 20
1185.505410524829
 30
0.0
 11
3600.088044246073
 21
1185.505410524829
 31
0.0
  0
LINE
  5
1ECA
330
1F
100
AcDbEntity
  8
Sanindusa
100
AcDbLine
 10
3600.078050505657
 20
1185.497619940374
 30
0.0
 11
3600.075767806945
 21
1185.410410524202
 31
0.0
  0
LINE
  5
1ECC
330
1F
100
AcDbEntity
  8
Sanindusa
100
AcDbLine
 10
3600.08576702877
 20
1185.410410524202
 30
0.0
 11
3600.075767806945
 21
1185.410410524202
 31
0.0
  0
LINE
  5
1ECD
330
1F
100
AcDbEntity
  8
Sanindusa
100
AcDbLine
 10
3600.088044246025
 20
1185.505410524829
 30
0.0
 11
3600.086044401665
 21
1185.505410524829
 31
0.0
  0
LINE
  5
1ECE
330
1F
100
AcDbEntity
  8
Sanindusa
100
AcDbLine
 10
3600.086044401665
 20
1185.505410524829
 30
0.0
 11
3600.083143695183
 21
1185.504865645329
 31
0.0
  0
LWPOLYLINE
  5
1ED1
330
1F
100
AcDbEntity
  8
Sanindusa
100
AcDbPolyline
 90
        5
 70
   128
 43
0.0
 10
3600.083143826471
 20
1185.504865696454
 10
3600.081082352363
 20
1185.503677351456
 10
3600.079467505889
 20
1185.501900079927
 10
3600.078511147992
 20
1185.499779102588
 10
3600.078050505657
 20
1185.497619940374
  0
LINE
  5
1ED3
330
1F
100
AcDbEntity
  8
Sanindusa
100
AcDbLine
 10
3600.980362618878
 20
1185.410410524202
 30
0.0
 11
3600.978079920166
 21
1185.497619940374
 31
0.0
  0
LINE
  5
1ED4
330
1F
100
AcDbEntity
  8
Sanindusa
100
AcDbLine
 10
3600.980362618878
 20
1185.410410524202
 30
0.0
 11
3600.97036339692
 21
1185.410410524202
 31
0.0
  0
LWPOLYLINE
  5
1ED5
330
1F
100
AcDbEntity
  8
Sanindusa
100
AcDbPolyline
 90
        5
 70
   128
 43
0.0
 10
3600.978079920167
 20
1185.497619940364
 10
3600.977619277831
 20
1185.499779102588
 10
3600.976662919935
 20
1185.501900079927
 10
3600.975048073461
 20
1185.503677351456
 10
3600.972986599352
 20
1185.504865696454
  0
LWPOLYLINE
  5
1ED6
330
1F
100
AcDbEntity
  8
Sanindusa
100
AcDbPolyline
 90
        3
 70
   128
 43
0.0
 10
3600.973013345329
 20
1185.504850278628
 10
3600.972636283056
 20
1185.504992787471
 10
3600.970086024159
 20
1185.505410524829
  0
LINE
  5
1ED7
330
1F
100
AcDbEntity
  8
Sanindusa
100
AcDbLine
 10
3600.970086024159
 20
1185.505410524829
 30
0.0
 11
3600.968086179798
 21
1185.505410524829
 31
0.0
  0
LINE
  5
1EDA
330
1F
100
AcDbEntity
  8
Sanindusa
100
AcDbLine
 10
3601.661922653399
 20
1185.449001111789
 30
0.0
 11
3601.66192246592
 21
1185.449124620255
 31
0.0
  0
LINE
  5
1EDB
330
1F
100
AcDbEntity
  8
Sanindusa
100
AcDbLine
 10
3601.701910162196
 20
1185.449001111789
 30
0.0
 11
3601.701909988088
 21
1185.44958069715
 31
0.0
  0
LINE
  5
1EDC
330
1F
100
AcDbEntity
  8
Sanindusa
100
AcDbLine
 10
3601.691913284998
 20
1185.443958995694
 30
0.0
 11
3601.691913110329
 21
1185.444092905998
 31
0.0
  0
LINE
  5
1EDD
330
1F
100
AcDbEntity
  8
Sanindusa
100
AcDbLine
 10
3601.691913284998
 20
1185.449001111789
 30
0.0
 11
3601.691913110888
 21
1185.44958069715
 31
0.0
  0
LINE
  5
1EE0
330
1F
100
AcDbEntity
  8
Sanindusa
100
AcDbLine
 10
3601.721903742487
 20
1185.450042235612
 30
0.0
 11
3601.721903916598
 21
1185.449001111788
 31
0.0
  0
LINE
  5
1EE1
330
1F
100
AcDbEntity
  8
Sanindusa
100
AcDbLine
 10
3601.731900619688
 20
1185.450042235611
 30
0.0
 11
3601.731900793796
 21
1185.449001111789
 31
0.0
  0
LINE
  5
1EE2
330
1F
100
AcDbEntity
  8
Sanindusa
100
AcDbLine
 10
3601.721903741928
 20
1185.44455444446
 30
0.0
 11
3601.721903916598
 21
1185.444400298749
 31
0.0
  0
LINE
  5
1EE3
330
1F
100
AcDbEntity
  8
Sanindusa
100
AcDbLine
 10
3601.671919530595
 20
1185.449001111789
 30
0.0
 11
3601.671919343121
 21
1185.449124620254
 31
0.0
  0
LINE
  5
1EE4
330
1F
100
AcDbEntity
  8
Sanindusa
100
AcDbLine
 10
3601.751894548198
 20
1185.449001111788
 30
0.0
 11
3601.751894374088
 21
1185.450513475666
 31
0.0
  0
LINE
  5
1EE5
330
1F
100
AcDbEntity
  8
Sanindusa
100
AcDbLine
 10
3601.761891425396
 20
1185.449001111789
 30
0.0
 11
3601.761891251288
 21
1185.450513475665
 31
0.0
  0
ENDSEC
  0
SECTION
  2
OBJECTS
  0
DICTIONARY
  5
C
330
0
100
AcDbDictionary
281
     1
  3
ACAD_COLOR
350
1F18
  3
ACAD_GROUP
350
D
  3
ACAD_LAYOUT
350
1A
  3
ACAD_MATERIAL
350
1EEB
  3
ACAD_MLEADERSTYLE
350
1F2D
  3
ACAD_MLINESTYLE
350
17
  3
ACAD_PLOTSETTINGS
350
19
  3
ACAD_PLOTSTYLENAME
350
E
  3
ACAD_SCALELIST
350
1F1B
  3
ACAD_TABLESTYLE
350
1F19
  3
ACAD_VISUALSTYLE
350
1F04
  3
ACDB_RECOMPOSE_DATA
350
1F5A
  3
AcDbVariableDictionary
350
3D
  3
ASE_INDEX_DICTIONARY
350
1EC4
  3
DWGPROPS
350
1F5B
  0
DICTIONARY
  5
1F34
330
10
100
AcDbDictionary
280
     1
281
     1
  3
ADSK_XREC_LAYER_RECONCILED
360
1F35
  0
DICTIONARY
  5
1F36
330
2F
100
AcDbDictionary
280
     1
281
     1
  3
ADSK_XREC_LAYER_RECONCILED
360
1F37
  0
DICTIONARY
  5
1F38
330
30
100
AcDbDictionary
280
     1
281
     1
  3
ADSK_XREC_LAYER_RECONCILED
360
1F39
  0
DICTIONARY
  5
1F3A
330
31
100
AcDbDictionary
280
     1
281
     1
  3
ADSK_XREC_LAYER_RECONCILED
360
1F3B
  0
DICTIONARY
  5
1F3C
330
32
100
AcDbDictionary
280
     1
281
     1
  3
ADSK_XREC_LAYER_RECONCILED
360
1F3D
  0
DICTIONARY
  5
1F3E
330
33
100
AcDbDictionary
280
     1
281
     1
  3
ADSK_XREC_LAYER_RECONCILED
360
1F3F
  0
DICTIONARY
  5
1F40
330
34
100
AcDbDictionary
280
     1
281
     1
  3
ADSK_XREC_LAYER_RECONCILED
360
1F41
  0
DICTIONARY
  5
1F42
330
35
100
AcDbDictionary
280
     1
281
     1
  3
ADSK_XREC_LAYER_RECONCILED
360
1F43
  0
DICTIONARY
  5
1F44
330
36
100
AcDbDictionary
280
     1
281
     1
  3
ADSK_XREC_LAYER_RECONCILED
360
1F45
  0
DICTIONARY
  5
1F46
330
37
100
AcDbDictionary
280
     1
281
     1
  3
ADSK_XREC_LAYER_RECONCILED
360
1F47
  0
DICTIONARY
  5
1F48
330
5D6
100
AcDbDictionary
280
     1
281
     1
  3
ADSK_XREC_LAYER_RECONCILED
360
1F49
  0
DICTIONARY
  5
1F4A
330
8AF
100
AcDbDictionary
280
     1
281
     1
  3
ADSK_XREC_LAYER_RECONCILED
360
1F4B
  0
DICTIONARY
  5
1F4C
330
8F8
100
AcDbDictionary
280
     1
281
     1
  3
ADSK_XREC_LAYER_RECONCILED
360
1F4D
  0
DICTIONARY
  5
1F4E
330
91D
100
AcDbDictionary
280
     1
281
     1
  3
ADSK_XREC_LAYER_RECONCILED
360
1F4F
  0
DICTIONARY
  5
1F50
330
BA2
100
AcDbDictionary
280
     1
281
     1
  3
ADSK_XREC_LAYER_RECONCILED
360
1F51
  0
DICTIONARY
  5
1F18
102
{ACAD_REACTORS
330
C
102
}
330
C
100
AcDbDictionary
281
     1
  0
DICTIONARY
  5
D
102
{ACAD_REACTORS
330
C
102
}
330
C
100
AcDbDictionary
281
     1
  0
DICTIONARY
  5
1A
102
{ACAD_REACTORS
330
C
102
}
330
C
100
AcDbDictionary
281
     1
  3
Layout1
350
1E
  3
Layout2
350
26
  3
Model
350
22
  0
DICTIONARY
  5
1EEB
102
{ACAD_REACTORS
330
C
102
}
330
C
100
AcDbDictionary
281
     1
  3
ByBlock
350
1EF4
  3
ByLayer
350
1EEC
  3
Global
350
1EFC
  0
DICTIONARY
  5
1F2D
102
{ACAD_REACTORS
330
C
102
}
330
C
100
AcDbDictionary
281
     1
  3
Standard
350
1F2E
  0
DICTIONARY
  5
17
102
{ACAD_REACTORS
330
C
102
}
330
C
100
AcDbDictionary
281
     1
  3
Standard
350
18
  0
DICTIONARY
  5
19
102
{ACAD_REACTORS
330
C
102
}
330
C
100
AcDbDictionary
281
     1
  0
ACDBDICTIONARYWDFLT
  5
E
102
{ACAD_REACTORS
330
C
102
}
330
C
100
AcDbDictionary
281
     1
  3
Normal
350
F
100
AcDbDictionaryWithDefault
340
F
  0
DICTIONARY
  5
1F1B
102
{ACAD_REACTORS
330
C
102
}
330
C
100
AcDbDictionary
281
     1
  3
A0
350
1F1C
  3
A1
350
1F1D
  3
A2
350
1F1E
  3
A3
350
1F1F
  3
A4
350
1F20
  3
A5
350
1F21
  3
A6
350
1F22
  3
A7
350
1F23
  3
A8
350
1F24
  3
A9
350
1F25
  3
B0
350
1F26
  3
B1
350
1F27
  3
B2
350
1F28
  3
B3
350
1F29
  3
B4
350
1F2A
  3
B5
350
1F2B
  3
B6
350
1F2C
  0
DICTIONARY
  5
1F19
102
{ACAD_REACTORS
330
C
102
}
330
C
100
AcDbDictionary
281
     1
  3
Standard
350
1F1A
  0
DICTIONARY
  5
1F04
102
{ACAD_REACTORS
330
C
102
}
330
C
100
AcDbDictionary
281
     1
  3
2dWireframe
350
1F0A
  3
3D Hidden
350
1F0C
  3
3dWireframe
350
1F0B
  3
Basic
350
1F09
  3
Brighten
350
1F10
  3
ColorChange
350
1F14
  3
Conceptual
350
1F0D
  3
Dim
350
1F0F
  3
EdgeColorOff
350
1F17
  3
Facepattern
350
1F13
  3
Flat
350
1F05
  3
FlatWithEdges
350
1F06
  3
Gouraud
350
1F07
  3
GouraudWithEdges
350
1F08
  3
JitterOff
350
1F15
  3
Linepattern
350
1F12
  3
OverhangOff
350
1F16
  3
Realistic
350
1F0E
  3
Thicken
350
1F11
  0
XRECORD
  5
1F5A
102
{ACAD_REACTORS
330
C
102
}
330
C
100
AcDbXrecord
280
     1
 90
        1
330
1F1A
  0
DICTIONARY
  5
3D
102
{ACAD_REACTORS
330
C
102
}
330
C
100
AcDbDictionary
281
     1
  3
CANNOSCALE
350
1F54
  3
CMLEADERSTYLE
350
1F53
  3
CTABLESTYLE
350
1F52
  3
DIMASSOC
350
3F
  3
HIDETEXT
350
3E
  3
INDEXCTL
350
1F56
  3
SORTENTS
350
1F55
  3
XCLIPFRAME
350
1F57
  0
DICTIONARY
  5
1EC4
102
{ACAD_REACTORS
330
C
102
}
330
C
100
AcDbDictionary
281
     1
  3
ASEBlockHierarchyIndexRecord
350
1EC5
1001
DCO15
1040
1757673778.375
  0
XRECORD
  5
1F5B
102
{ACAD_REACTORS
330
C
102
}
330
C
100
AcDbXrecord
280
     1
  1
DWGPROPS COOKIE
  2

  3

  4

  6

  7

  8
Julio
  9

300
=
301
=
302
=
303
=
304
=
305
=
306
=
307
=
308
=
309
=
 40
0.0140934259259259
 41
2453158.497124746
 42
2456146.658360822
  1

 90
        0
  0
XRECORD
  5
1F35
102
{ACAD_REACTORS
330
1F34
102
}
330
1F34
100
AcDbXrecord
280
     1
290
     1
  0
XRECORD
  5
1F37
102
{ACAD_REACTORS
330
1F36
102
}
330
1F36
100
AcDbXrecord
280
     1
290
     1
  0
XRECORD
  5
1F39
102
{ACAD_REACTORS
330
1F38
102
}
330
1F38
100
AcDbXrecord
280
     1
290
     1
  0
XRECORD
  5
1F3B
102
{ACAD_REACTORS
330
1F3A
102
}
330
1F3A
100
AcDbXrecord
280
     1
290
     1
  0
XRECORD
  5
1F3D
102
{ACAD_REACTORS
330
1F3C
102
}
330
1F3C
100
AcDbXrecord
280
     1
290
     1
  0
XRECORD
  5
1F3F
102
{ACAD_REACTORS
330
1F3E
102
}
330
1F3E
100
AcDbXrecord
280
     1
290
     1
  0
XRECORD
  5
1F41
102
{ACAD_REACTORS
330
1F40
102
}
330
1F40
100
AcDbXrecord
280
     1
290
     1
  0
XRECORD
  5
1F43
102
{ACAD_REACTORS
330
1F42
102
}
330
1F42
100
AcDbXrecord
280
     1
290
     1
  0
XRECORD
  5
1F45
102
{ACAD_REACTORS
330
1F44
102
}
330
1F44
100
AcDbXrecord
280
     1
290
     1
  0
XRECORD
  5
1F47
102
{ACAD_REACTORS
330
1F46
102
}
330
1F46
100
AcDbXrecord
280
     1
290
     1
  0
XRECORD
  5
1F49
102
{ACAD_REACTORS
330
1F48
102
}
330
1F48
100
AcDbXrecord
280
     1
290
     1
  0
XRECORD
  5
1F4B
102
{ACAD_REACTORS
330
1F4A
102
}
330
1F4A
100
AcDbXrecord
280
     1
290
     1
  0
XRECORD
  5
1F4D
102
{ACAD_REACTORS
330
1F4C
102
}
330
1F4C
100
AcDbXrecord
280
     1
290
     1
  0
XRECORD
  5
1F4F
102
{ACAD_REACTORS
330
1F4E
102
}
330
1F4E
100
AcDbXrecord
280
     1
290
     1
  0
XRECORD
  5
1F51
102
{ACAD_REACTORS
330
1F50
102
}
330
1F50
100
AcDbXrecord
280
     1
290
     1
  0
LAYOUT
  5
1E
102
{ACAD_XDICTIONARY
360
1F5C
102
}
102
{ACAD_REACTORS
330
1A
102
}
330
1A
100
AcDbPlotSettings
  1

  2
Ploter HP500
  4

  6

 40
0.0
 41
0.0
 42
0.0
 43
0.0
 44
0.0
 45
0.0
 46
0.0
 47
0.0
 48
0.0
 49
0.0
140
0.0
141
0.0
142
1.0
143
1.0
 70
   688
 72
     0
 73
     0
 74
     5
  7
monochrome.ctb
 75
    16
147
1.0
148
0.0
149
0.0
100
AcDbLayout
  1
Layout1
 70
     1
 71
     1
 10
0.0
 20
0.0
 11
420.0
 21
297.0
 12
0.0
 22
0.0
 32
0.0
 14
1.000000000000000E+20
 24
1.000000000000000E+20
 34
1.000000000000000E+20
 15
-1.000000000000000E+20
 25
-1.000000000000000E+20
 35
-1.000000000000000E+20
146
0.0
 13
0.0
 23
0.0
 33
0.0
 16
1.0
 26
0.0
 36
0.0
 17
0.0
 27
1.0
 37
0.0
 76
     0
330
1B
  0
LAYOUT
  5
26
102
{ACAD_XDICTIONARY
360
1F60
102
}
102
{ACAD_REACTORS
330
1A
102
}
330
1A
100
AcDbPlotSettings
  1

  2
Ploter HP500
  4

  6

 40
0.0
 41
0.0
 42
0.0
 43
0.0
 44
0.0
 45
0.0
 46
0.0
 47
0.0
 48
0.0
 49
0.0
140
0.0
141
0.0
142
1.0
143
1.0
 70
   688
 72
     0
 73
     0
 74
     5
  7
monochrome.ctb
 75
    16
147
1.0
148
0.0
149
0.0
100
AcDbLayout
  1
Layout2
 70
     1
 71
     2
 10
0.0
 20
0.0
 11
12.0
 21
9.0
 12
0.0
 22
0.0
 32
0.0
 14
0.0
 24
0.0
 34
0.0
 15
0.0
 25
0.0
 35
0.0
146
0.0
 13
0.0
 23
0.0
 33
0.0
 16
1.0
 26
0.0
 36
0.0
 17
0.0
 27
1.0
 37
0.0
 76
     0
330
23
  0
LAYOUT
  5
22
102
{ACAD_XDICTIONARY
360
1F5E
102
}
102
{ACAD_REACTORS
330
1A
102
}
330
1A
100
AcDbPlotSettings
  1

  2
Ploter HP500
  4
User268
  6

 40
4.995333194732666
 41
16.97565841674804
 42
4.995330810546875
 43
16.97567749023437
 44
209.9733276367187
 45
296.9259948730469
 46
0.0
 47
0.0
 48
0.0
 49
0.0
140
0.0
141
0.0
142
1.0
143
1.0
 70
 11952
 72
     1
 73
     1
 74
     0
  7

 75
     0
147
1.0
148
-427.5957866592534
149
7.362384574453926
100
AcDbLayout
  1
Model
 70
     1
 71
     0
 10
0.0
 20
0.0
 11
12.0
 21
9.0
 12
0.0
 22
0.0
 32
0.0
 14
0.0
 24
0.0
 34
0.0
 15
0.0
 25
0.0
 35
0.0
146
0.0
 13
0.0
 23
0.0
 33
0.0
 16
1.0
 26
0.0
 36
0.0
 17
0.0
 27
1.0
 37
0.0
 76
     0
330
1F
331
1EE9
  0
MATERIAL
  5
1EF4
102
{ACAD_XDICTIONARY
360
1EF5
102
}
102
{ACAD_REACTORS
330
1EEB
102
}
330
1EEB
100
AcDbMaterial
  1
ByBlock
 72
     0
 43
0.0008202099737533
 43
0.0
 43
0.0
 43
0.0
 43
0.0
 43
0.0008202099737533
 43
0.0
 43
0.0
 43
0.0
 43
0.0
 43
1.0
 43
0.0
 43
0.0
 43
0.0
 43
0.0
 43
1.0
 77
     0
 47
0.0008202099737533
 47
0.0
 47
0.0
 47
0.0
 47
0.0
 47
0.0008202099737533
 47
0.0
 47
0.0
 47
0.0
 47
0.0
 47
1.0
 47
0.0
 47
0.0
 47
0.0
 47
0.0
 47
1.0
171
     0
 49
0.0008202099737533
 49
0.0
 49
0.0
 49
0.0
 49
0.0
 49
0.0008202099737533
 49
0.0
 49
0.0
 49
0.0
 49
0.0
 49
1.0
 49
0.0
 49
0.0
 49
0.0
 49
0.0
 49
1.0
175
     0
142
0.0008202099737533
142
0.0
142
0.0
142
0.0
142
0.0
142
0.0008202099737533
142
0.0
142
0.0
142
0.0
142
0.0
142
1.0
142
0.0
142
0.0
142
0.0
142
0.0
142
1.0
179
     0
144
0.0008202099737533
144
0.0
144
0.0
144
0.0
144
0.0
144
0.0008202099737533
144
0.0
144
0.0
144
0.0
144
0.0
144
1.0
144
0.0
144
0.0
144
0.0
144
0.0
144
1.0
147
0.0008202099737533
147
0.0
147
0.0
147
0.0
147
0.0
147
0.0008202099737533
147
0.0
147
0.0
147
0.0
147
0.0
147
1.0
147
0.0
147
0.0
147
0.0
147
0.0
147
1.0
  0
MATERIAL
  5
1EEC
102
{ACAD_XDICTIONARY
360
1EED
102
}
102
{ACAD_REACTORS
330
1EEB
102
}
330
1EEB
100
AcDbMaterial
  1
ByLayer
 72
     0
 43
0.0008202099737533
 43
0.0
 43
0.0
 43
0.0
 43
0.0
 43
0.0008202099737533
 43
0.0
 43
0.0
 43
0.0
 43
0.0
 43
1.0
 43
0.0
 43
0.0
 43
0.0
 43
0.0
 43
1.0
 77
     0
 47
0.0008202099737533
 47
0.0
 47
0.0
 47
0.0
 47
0.0
 47
0.0008202099737533
 47
0.0
 47
0.0
 47
0.0
 47
0.0
 47
1.0
 47
0.0
 47
0.0
 47
0.0
 47
0.0
 47
1.0
171
     0
 49
0.0008202099737533
 49
0.0
 49
0.0
 49
0.0
 49
0.0
 49
0.0008202099737533
 49
0.0
 49
0.0
 49
0.0
 49
0.0
 49
1.0
 49
0.0
 49
0.0
 49
0.0
 49
0.0
 49
1.0
175
     0
142
0.0008202099737533
142
0.0
142
0.0
142
0.0
142
0.0
142
0.0008202099737533
142
0.0
142
0.0
142
0.0
142
0.0
142
1.0
142
0.0
142
0.0
142
0.0
142
0.0
142
1.0
179
     0
144
0.0008202099737533
144
0.0
144
0.0
144
0.0
144
0.0
144
0.0008202099737533
144
0.0
144
0.0
144
0.0
144
0.0
144
1.0
144
0.0
144
0.0
144
0.0
144
0.0
144
1.0
147
0.0008202099737533
147
0.0
147
0.0
147
0.0
147
0.0
147
0.0008202099737533
147
0.0
147
0.0
147
0.0
147
0.0
147
1.0
147
0.0
147
0.0
147
0.0
147
0.0
147
1.0
  0
MATERIAL
  5
1EFC
102
{ACAD_XDICTIONARY
360
1EFD
102
}
102
{ACAD_REACTORS
330
1EEB
102
}
330
1EEB
100
AcDbMaterial
  1
Global
 72
     0
 43
0.0008202099737533
 43
0.0
 43
0.0
 43
0.0
 43
0.0
 43
0.0008202099737533
 43
0.0
 43
0.0
 43
0.0
 43
0.0
 43
1.0
 43
0.0
 43
0.0
 43
0.0
 43
0.0
 43
1.0
 77
     0
 47
0.0008202099737533
 47
0.0
 47
0.0
 47
0.0
 47
0.0
 47
0.0008202099737533
 47
0.0
 47
0.0
 47
0.0
 47
0.0
 47
1.0
 47
0.0
 47
0.0
 47
0.0
 47
0.0
 47
1.0
171
     0
 49
0.0008202099737533
 49
0.0
 49
0.0
 49
0.0
 49
0.0
 49
0.0008202099737533
 49
0.0
 49
0.0
 49
0.0
 49
0.0
 49
1.0
 49
0.0
 49
0.0
 49
0.0
 49
0.0
 49
1.0
175
     0
142
0.0008202099737533
142
0.0
142
0.0
142
0.0
142
0.0
142
0.0008202099737533
142
0.0
142
0.0
142
0.0
142
0.0
142
1.0
142
0.0
142
0.0
142
0.0
142
0.0
142
1.0
179
     0
144
0.0008202099737533
144
0.0
144
0.0
144
0.0
144
0.0
144
0.0008202099737533
144
0.0
144
0.0
144
0.0
144
0.0
144
1.0
144
0.0
144
0.0
144
0.0
144
0.0
144
1.0
147
0.0008202099737533
147
0.0
147
0.0
147
0.0
147
0.0
147
0.0008202099737533
147
0.0
147
0.0
147
0.0
147
0.0
147
1.0
147
0.0
147
0.0
147
0.0
147
0.0
147
1.0
  0
MLEADERSTYLE
  5
1F2E
102
{ACAD_REACTORS
330
1F2D
102
}
330
1F2D
100
AcDbMLeaderStyle
170
     2
171
     1
172
     0
 90
        2
 40
0.0
 41
0.0
173
     1
 91
-1056964608
340
14
 92
       -2
290
     1
 42
2.0
291
     1
 43
0.36
  3
Standard
 44
4.0
300

342
11
174
     1
178
     6
175
     1
176
     0
 93
-1056964608
 45
4.0
292
     0
297
     0
 46
4.0
 94
-1056964608
 47
1.0
 49
1.0
140
1.0
293
     1
141
0.0
294
     1
177
     0
142
1.0
295
     0
296
     0
143
0.125
1001
ACAD_MLEADERVER
1070
     2
  0
MLINESTYLE
  5
18
102
{ACAD_REACTORS
330
17
102
}
330
17
100
AcDbMlineStyle
  2
STANDARD
 70
     0
  3

 62
   256
 51
90.0
 52
90.0
 71
     2
 49
0.5
 62
   256
  6
BYLAYER
 49
-0.5
 62
   256
  6
BYLAYER
  0
ACDBPLACEHOLDER
  5
F
102
{ACAD_REACTORS
330
E
102
}
330
E
  0
SCALE
  5
1F1C
102
{ACAD_REACTORS
330
1F1B
102
}
330
1F1B
100
AcDbScale
 70
     0
300
1:1
140
1.0
141
1.0
290
     1
  0
SCALE
  5
1F1D
102
{ACAD_REACTORS
330
1F1B
102
}
330
1F1B
100
AcDbScale
 70
     0
300
1:2
140
1.0
141
2.0
290
     0
  0
SCALE
  5
1F1E
102
{ACAD_REACTORS
330
1F1B
102
}
330
1F1B
100
AcDbScale
 70
     0
300
1:4
140
1.0
141
4.0
290
     0
  0
SCALE
  5
1F1F
102
{ACAD_REACTORS
330
1F1B
102
}
330
1F1B
100
AcDbScale
 70
     0
300
1:5
140
1.0
141
5.0
290
     0
  0
SCALE
  5
1F20
102
{ACAD_REACTORS
330
1F1B
102
}
330
1F1B
100
AcDbScale
 70
     0
300
1:8
140
1.0
141
8.0
290
     0
  0
SCALE
  5
1F21
102
{ACAD_REACTORS
330
1F1B
102
}
330
1F1B
100
AcDbScale
 70
     0
300
1:10
140
1.0
141
10.0
290
     0
  0
SCALE
  5
1F22
102
{ACAD_REACTORS
330
1F1B
102
}
330
1F1B
100
AcDbScale
 70
     0
300
1:16
140
1.0
141
16.0
290
     0
  0
SCALE
  5
1F23
102
{ACAD_REACTORS
330
1F1B
102
}
330
1F1B
100
AcDbScale
 70
     0
300
1:20
140
1.0
141
20.0
290
     0
  0
SCALE
  5
1F24
102
{ACAD_REACTORS
330
1F1B
102
}
330
1F1B
100
AcDbScale
 70
     0
300
1:30
140
1.0
141
30.0
290
     0
  0
SCALE
  5
1F25
102
{ACAD_REACTORS
330
1F1B
102
}
330
1F1B
100
AcDbScale
 70
     0
300
1:40
140
1.0
141
40.0
290
     0
  0
SCALE
  5
1F26
102
{ACAD_REACTORS
330
1F1B
102
}
330
1F1B
100
AcDbScale
 70
     0
300
1:50
140
1.0
141
50.0
290
     0
  0
SCALE
  5
1F27
102
{ACAD_REACTORS
330
1F1B
102
}
330
1F1B
100
AcDbScale
 70
     0
300
1:100
140
1.0
141
100.0
290
     0
  0
SCALE
  5
1F28
102
{ACAD_REACTORS
330
1F1B
102
}
330
1F1B
100
AcDbScale
 70
     0
300
2:1
140
2.0
141
1.0
290
     0
  0
SCALE
  5
1F29
102
{ACAD_REACTORS
330
1F1B
102
}
330
1F1B
100
AcDbScale
 70
     0
300
4:1
140
4.0
141
1.0
290
     0
  0
SCALE
  5
1F2A
102
{ACAD_REACTORS
330
1F1B
102
}
330
1F1B
100
AcDbScale
 70
     0
300
8:1
140
8.0
141
1.0
290
     0
  0
SCALE
  5
1F2B
102
{ACAD_REACTORS
330
1F1B
102
}
330
1F1B
100
AcDbScale
 70
     0
300
10:1
140
10.0
141
1.0
290
     0
  0
SCALE
  5
1F2C
102
{ACAD_REACTORS
330
1F1B
102
}
330
1F1B
100
AcDbScale
 70
     0
300
100:1
140
100.0
141
1.0
290
     0
  0
TABLESTYLE
  5
1F1A
102
{ACAD_XDICTIONARY
360
1F58
102
}
102
{ACAD_REACTORS
330
1F19
102
}
330
1F19
100
AcDbTableStyle
  3
Standard
 70
     0
 71
     0
 40
1.5
 41
1.5
280
     0
281
     0
  7
Standard
140
4.5
170
     2
 62
     0
 63
     7
283
     0
274
    -2
284
     1
 64
     0
275
    -2
285
     1
 65
     0
276
    -2
286
     1
 66
     0
277
    -2
287
     1
 67
     0
278
    -2
288
     1
 68
     0
279
    -2
289
     1
 69
     0
  7
Standard
140
6.0
170
     5
 62
     0
 63
     7
283
     0
274
    -2
284
     1
 64
     0
275
    -2
285
     1
 65
     0
276
    -2
286
     1
 66
     0
277
    -2
287
     1
 67
     0
278
    -2
288
     1
 68
     0
279
    -2
289
     1
 69
     0
  7
Standard
140
4.5
170
     5
 62
     0
 63
     7
283
     0
274
    -2
284
     1
 64
     0
275
    -2
285
     1
 65
     0
276
    -2
286
     1
 66
     0
277
    -2
287
     1
 67
     0
278
    -2
288
     1
 68
     0
279
    -2
289
     1
 69
     0
  0
VISUALSTYLE
  5
1F0A
102
{ACAD_XDICTIONARY
360
1F73
102
}
102
{ACAD_REACTORS
330
1F04
102
}
330
1F04
100
AcDbVisualStyle
  2
2dWireframe
 70
     4
 71
     0
 72
     2
 73
     0
 90
        0
 40
-0.6
 41
-30.0
 62
     5
 63
     7
 74
     1
 91
        4
 64
     7
 65
   257
 75
     1
175
     1
 42
1.0
 92
        0
 66
   257
 43
1.0
 76
     1
 77
     6
 78
     2
 67
     7
 79
     5
170
     0
171
     0
290
     0
174
     0
 93
        1
 44
0.0
173
     0
291
     0
 45
0.0
1001
ACAD
1000
AcDbSavedByObjectVersion
1070
     0
  0
VISUALSTYLE
  5
1F0C
102
{ACAD_XDICTIONARY
360
1F77
102
}
102
{ACAD_REACTORS
330
1F04
102
}
330
1F04
100
AcDbVisualStyle
  2
3D Hidden
 70
     6
 71
     1
 72
     2
 73
     2
 90
        0
 40
-0.6
 41
-30.0
 62
     5
 63
     7
 74
     2
 91
        2
 64
     7
 65
   257
 75
     2
175
     1
 42
179.0
 92
        0
 66
   257
 43
1.0
 76
     1
 77
     6
 78
     2
 67
     7
 79
     3
170
     0
171
     0
290
     0
174
     0
 93
        1
 44
0.0
173
     0
291
     0
 45
0.0
1001
ACAD
1000
AcDbSavedByObjectVersion
1070
     0
  0
VISUALSTYLE
  5
1F0B
102
{ACAD_XDICTIONARY
360
1F75
102
}
102
{ACAD_REACTORS
330
1F04
102
}
330
1F04
100
AcDbVisualStyle
  2
3dWireframe
 70
     5
 71
     0
 72
     2
 73
     0
 90
        0
 40
-0.6
 41
-30.0
 62
     5
 63
     7
 74
     1
 91
        4
 64
     7
 65
   257
 75
     1
175
     1
 42
1.0
 92
        0
 66
   257
 43
1.0
 76
     1
 77
     6
 78
     2
 67
     7
 79
     5
170
     0
171
     0
290
     0
174
     0
 93
        1
 44
0.0
173
     0
291
     0
 45
0.0
1001
ACAD
1000
AcDbSavedByObjectVersion
1070
     0
  0
VISUALSTYLE
  5
1F09
102
{ACAD_XDICTIONARY
360
1F71
102
}
102
{ACAD_REACTORS
330
1F04
102
}
330
1F04
100
AcDbVisualStyle
  2
Basic
 70
     7
 71
     1
 72
     0
 73
     1
 90
        0
 40
-0.6
 41
-30.0
 62
     5
 63
     7
 74
     0
 91
        4
 64
     7
 65
   257
 75
     1
175
     1
 42
1.0
 92
        8
 66
     7
 43
1.0
 76
     1
 77
     6
 78
     2
 67
     7
 79
     5
170
     0
171
     0
290
     0
174
     0
 93
        1
 44
0.0
173
     0
291
     1
 45
0.0
1001
ACAD
1000
AcDbSavedByObjectVersion
1070
     0
  0
VISUALSTYLE
  5
1F10
102
{ACAD_XDICTIONARY
360
1F7F
102
}
102
{ACAD_REACTORS
330
1F04
102
}
330
1F04
100
AcDbVisualStyle
  2
Brighten
 70
    12
 71
     2
 72
     2
 73
     0
 90
        0
 40
-0.6
 41
-30.0
 62
     5
 63
     7
 74
     1
 91
        4
 64
     7
 65
   257
 75
     1
175
     1
 42
1.0
 92
        8
 66
     7
 43
1.0
 76
     1
 77
     6
 78
     2
 67
     7
 79
     5
170
     0
171
     0
290
     0
174
     0
 93
        1
 44
50.0
173
     0
291
     1
 45
0.0
1001
ACAD
1000
AcDbSavedByObjectVersion
1070
     0
  0
VISUALSTYLE
  5
1F14
102
{ACAD_XDICTIONARY
360
1F87
102
}
102
{ACAD_REACTORS
330
1F04
102
}
330
1F04
100
AcDbVisualStyle
  2
ColorChange
 70
    16
 71
     2
 72
     2
 73
     3
 90
        0
 40
-0.6
 41
-30.0
 62
     5
 63
     8
 74
     1
 91
        4
 64
     7
 65
   257
 75
     1
175
     1
 42
1.0
 92
        8
 66
     8
 43
1.0
 76
     1
 77
     6
 78
     2
 67
     7
 79
     5
170
     0
171
     0
290
     0
174
     0
 93
        1
 44
0.0
173
     0
291
     1
 45
0.0
1001
ACAD
1000
AcDbSavedByObjectVersion
1070
     0
  0
VISUALSTYLE
  5
1F0D
102
{ACAD_XDICTIONARY
360
1F79
102
}
102
{ACAD_REACTORS
330
1F04
102
}
330
1F04
100
AcDbVisualStyle
  2
Conceptual
 70
     9
 71
     3
 72
     2
 73
     0
 90
        0
 40
-0.6
 41
-30.0
 62
     5
 63
     7
 74
     2
 91
        2
 64
     7
 65
   257
 75
     1
175
     1
 42
179.0
 92
        8
 66
     7
 43
1.0
 76
     1
 77
     6
 78
     2
 67
     7
 79
     3
170
     0
171
     0
290
     0
174
     0
 93
        1
 44
0.0
173
     0
291
     0
 45
0.0
1001
ACAD
1000
AcDbSavedByObjectVersion
1070
     0
  0
VISUALSTYLE
  5
1F0F
102
{ACAD_XDICTIONARY
360
1F7D
102
}
102
{ACAD_REACTORS
330
1F04
102
}
330
1F04
100
AcDbVisualStyle
  2
Dim
 70
    11
 71
     2
 72
     2
 73
     0
 90
        0
 40
-0.6
 41
-30.0
 62
     5
 63
     7
 74
     1
 91
        4
 64
     7
 65
   257
 75
     1
175
     1
 42
1.0
 92
        8
 66
     7
 43
1.0
 76
     1
 77
     6
 78
     2
 67
     7
 79
     5
170
     0
171
     0
290
     0
174
     0
 93
        1
 44
-50.0
173
     0
291
     1
 45
0.0
1001
ACAD
1000
AcDbSavedByObjectVersion
1070
     0
  0
VISUALSTYLE
  5
1F17
102
{ACAD_XDICTIONARY
360
1F8D
102
}
102
{ACAD_REACTORS
330
1F04
102
}
330
1F04
100
AcDbVisualStyle
  2
EdgeColorOff
 70
    22
 71
     2
 72
     2
 73
     0
 90
        0
 40
-0.6
 41
-30.0
 62
     5
 63
     7
 74
     1
 91
        4
 64
     7
 65
   257
 75
     1
175
     1
 42
1.0
 92
        8
 66
     7
 43
1.0
 76
     1
 77
     6
 78
     2
 67
     7
 79
     5
170
     0
171
     0
290
     0
174
     0
 93
        1
 44
0.0
173
     0
291
     1
 45
0.0
1001
ACAD
1000
AcDbSavedByObjectVersion
1070
     0
  0
VISUALSTYLE
  5
1F13
102
{ACAD_XDICTIONARY
360
1F85
102
}
102
{ACAD_REACTORS
330
1F04
102
}
330
1F04
100
AcDbVisualStyle
  2
Facepattern
 70
    15
 71
     2
 72
     2
 73
     0
 90
        0
 40
-0.6
 41
-30.0
 62
     5
 63
     7
 74
     1
 91
        4
 64
     7
 65
   257
 75
     1
175
     1
 42
1.0
 92
        8
 66
     7
 43
1.0
 76
     1
 77
     6
 78
     2
 67
     7
 79
     5
170
     0
171
     0
290
     0
174
     0
 93
        1
 44
0.0
173
     0
291
     1
 45
0.0
1001
ACAD
1000
AcDbSavedByObjectVersion
1070
     0
  0
VISUALSTYLE
  5
1F05
102
{ACAD_XDICTIONARY
360
1F69
102
}
102
{ACAD_REACTORS
330
1F04
102
}
330
1F04
100
AcDbVisualStyle
  2
Flat
 70
     0
 71
     2
 72
     1
 73
     1
 90
        2
 40
-0.6
 41
30.0
 62
     5
 63
     7
 74
     0
 91
        4
 64
     7
 65
   257
 75
     1
175
     1
 42
1.0
 92
        8
 66
     7
 43
1.0
 76
     1
 77
     6
 78
     2
 67
     7
 79
     5
170
     0
171
     0
290
     0
174
     0
 93
       13
 44
0.0
173
     0
291
     1
 45
0.0
1001
ACAD
1000
AcDbSavedByObjectVersion
1070
     0
  0
VISUALSTYLE
  5
1F06
102
{ACAD_XDICTIONARY
360
1F6B
102
}
102
{ACAD_REACTORS
330
1F04
102
}
330
1F04
100
AcDbVisualStyle
  2
FlatWithEdges
 70
     1
 71
     2
 72
     1
 73
     1
 90
        2
 40
-0.6
 41
30.0
 62
     5
 63
     7
 74
     1
 91
        4
 64
     7
 65
   257
 75
     1
175
     1
 42
1.0
 92
        0
 66
   257
 43
1.0
 76
     1
 77
     6
 78
     2
 67
     7
 79
     5
170
     0
171
     0
290
     0
174
     0
 93
       13
 44
0.0
173
     0
291
     1
 45
0.0
1001
ACAD
1000
AcDbSavedByObjectVersion
1070
     0
  0
VISUALSTYLE
  5
1F07
102
{ACAD_XDICTIONARY
360
1F6D
102
}
102
{ACAD_REACTORS
330
1F04
102
}
330
1F04
100
AcDbVisualStyle
  2
Gouraud
 70
     2
 71
     2
 72
     2
 73
     1
 90
        2
 40
-0.6
 41
30.0
 62
     5
 63
     7
 74
     0
 91
        4
 64
     7
 65
   257
 75
     1
175
     1
 42
1.0
 92
        0
 66
     7
 43
1.0
 76
     1
 77
     6
 78
     2
 67
     7
 79
     5
170
     0
171
     0
290
     0
174
     0
 93
       13
 44
0.0
173
     0
291
     1
 45
0.0
1001
ACAD
1000
AcDbSavedByObjectVersion
1070
     0
  0
VISUALSTYLE
  5
1F08
102
{ACAD_XDICTIONARY
360
1F6F
102
}
102
{ACAD_REACTORS
330
1F04
102
}
330
1F04
100
AcDbVisualStyle
  2
GouraudWithEdges
 70
     3
 71
     2
 72
     2
 73
     1
 90
        2
 40
-0.6
 41
30.0
 62
     5
 63
     7
 74
     1
 91
        4
 64
     7
 65
   257
 75
     1
175
     1
 42
1.0
 92
        0
 66
   257
 43
1.0
 76
     1
 77
     6
 78
     2
 67
     7
 79
     5
170
     0
171
     0
290
     0
174
     0
 93
       13
 44
0.0
173
     0
291
     1
 45
0.0
1001
ACAD
1000
AcDbSavedByObjectVersion
1070
     0
  0
VISUALSTYLE
  5
1F15
102
{ACAD_XDICTIONARY
360
1F89
102
}
102
{ACAD_REACTORS
330
1F04
102
}
330
1F04
100
AcDbVisualStyle
  2
JitterOff
 70
    20
 71
     2
 72
     2
 73
     0
 90
        0
 40
-0.6
 41
-30.0
 62
     5
 63
     7
 74
     1
 91
        4
 64
     7
 65
   257
 75
     1
175
     1
 42
1.0
 92
       10
 66
     7
 43
1.0
 76
     1
 77
     6
 78
     2
 67
     7
 79
     5
170
     0
171
     0
290
     0
174
     0
 93
        1
 44
0.0
173
     0
291
     1
 45
0.0
1001
ACAD
1000
AcDbSavedByObjectVersion
1070
     0
  0
VISUALSTYLE
  5
1F12
102
{ACAD_XDICTIONARY
360
1F83
102
}
102
{ACAD_REACTORS
330
1F04
102
}
330
1F04
100
AcDbVisualStyle
  2
Linepattern
 70
    14
 71
     2
 72
     2
 73
     0
 90
        0
 40
-0.6
 41
-30.0
 62
     5
 63
     7
 74
     1
 91
        4
 64
     7
 65
   257
 75
     7
175
     7
 42
1.0
 92
        8
 66
     7
 43
1.0
 76
     1
 77
     6
 78
     2
 67
     7
 79
     5
170
     0
171
     0
290
     0
174
     0
 93
        1
 44
0.0
173
     0
291
     1
 45
0.0
1001
ACAD
1000
AcDbSavedByObjectVersion
1070
     0
  0
VISUALSTYLE
  5
1F16
102
{ACAD_XDICTIONARY
360
1F8B
102
}
102
{ACAD_REACTORS
330
1F04
102
}
330
1F04
100
AcDbVisualStyle
  2
OverhangOff
 70
    21
 71
     2
 72
     2
 73
     0
 90
        0
 40
-0.6
 41
-30.0
 62
     5
 63
     7
 74
     1
 91
        4
 64
     7
 65
   257
 75
     1
175
     1
 42
1.0
 92
        9
 66
     7
 43
1.0
 76
     1
 77
     6
 78
     2
 67
     7
 79
     5
170
     0
171
     0
290
     0
174
     0
 93
        1
 44
0.0
173
     0
291
     1
 45
0.0
1001
ACAD
1000
AcDbSavedByObjectVersion
1070
     0
  0
VISUALSTYLE
  5
1F0E
102
{ACAD_XDICTIONARY
360
1F7B
102
}
102
{ACAD_REACTORS
330
1F04
102
}
330
1F04
100
AcDbVisualStyle
  2
Realistic
 70
     8
 71
     2
 72
     2
 73
     0
 90
        0
 40
-0.6
 41
-30.0
 62
     5
 63
     7
 74
     1
 91
        0
 64
     7
 65
   257
 75
     1
175
     1
 42
1.0
 92
        8
 66
     8
 43
1.0
 76
     1
 77
     6
 78
     2
 67
     7
 79
     5
170
     0
171
     0
290
     0
174
     0
 93
       13
 44
0.0
173
     0
291
     0
 45
0.0
1001
ACAD
1000
AcDbSavedByObjectVersion
1070
     0
  0
VISUALSTYLE
  5
1F11
102
{ACAD_XDICTIONARY
360
1F81
102
}
102
{ACAD_REACTORS
330
1F04
102
}
330
1F04
100
AcDbVisualStyle
  2
Thicken
 70
    13
 71
     2
 72
     2
 73
     0
 90
        0
 40
-0.6
 41
-30.0
 62
     5
 63
     7
 74
     1
 91
        4
 64
     7
 65
   257
 75
     1
175
     1
 42
1.0
 92
       12
 66
     7
 43
1.0
 76
     1
 77
     6
 78
     2
 67
     7
 79
     5
170
     0
171
     0
290
     0
174
     0
 93
        1
 44
0.0
173
     0
291
     1
 45
0.0
1001
ACAD
1000
AcDbSavedByObjectVersion
1070
     0
  0
DICTIONARYVAR
  5
1F54
102
{ACAD_REACTORS
330
3D
102
}
330
3D
100
DictionaryVariables
280
     0
  1
1:1
  0
DICTIONARYVAR
  5
1F53
102
{ACAD_REACTORS
330
3D
102
}
330
3D
100
DictionaryVariables
280
     0
  1
STANDARD
  0
DICTIONARYVAR
  5
1F52
102
{ACAD_REACTORS
330
3D
102
}
330
3D
100
DictionaryVariables
280
     0
  1
STANDARD
  0
DICTIONARYVAR
  5
3F
102
{ACAD_REACTORS
330
3D
102
}
330
3D
100
DictionaryVariables
280
     0
  1
2
  0
DICTIONARYVAR
  5
3E
102
{ACAD_REACTORS
330
3D
102
}
330
3D
100
DictionaryVariables
280
     0
  1
1
  0
DICTIONARYVAR
  5
1F56
102
{ACAD_REACTORS
330
3D
102
}
330
3D
100
DictionaryVariables
280
     0
  1
0
  0
DICTIONARYVAR
  5
1F55
102
{ACAD_REACTORS
330
3D
102
}
330
3D
100
DictionaryVariables
280
     0
  1
127
  0
DICTIONARYVAR
  5
1F57
102
{ACAD_REACTORS
330
3D
102
}
330
3D
100
DictionaryVariables
280
     0
  1
2
  0
XRECORD
  5
1EC5
102
{ACAD_REACTORS
330
1EC4
102
}
330
1EC4
100
AcDbXrecord
280
     1
  0
DICTIONARY
  5
1F5C
330
1E
100
AcDbDictionary
280
     1
281
     1
  3
ACAD_XREC_ROUNDTRIP
360
1F5D
  0
DICTIONARY
  5
1F60
330
26
100
AcDbDictionary
280
     1
281
     1
  3
ACAD_XREC_ROUNDTRIP
360
1F61
  0
DICTIONARY
  5
1F5E
330
22
100
AcDbDictionary
280
     1
281
     1
  3
ACAD_XREC_ROUNDTRIP
360
1F5F
  0
DICTIONARY
  5
1EF5
330
1EF4
100
AcDbDictionary
280
     1
281
     1
  3
ACAD_XREC_ROUNDTRIP
360
1F67
  3
BUMPTILE
360
1EF7
  3
DIFFUSETILE
360
1EF6
  3
OPACITYTILE
360
1EFA
  3
REFLECTIONTILE
360
1EF9
  3
REFRACTIONTILE
360
1EFB
  3
SPECULARTILE
360
1EF8
  0
DICTIONARY
  5
1EED
330
1EEC
100
AcDbDictionary
280
     1
281
     1
  3
ACAD_XREC_ROUNDTRIP
360
1F66
  3
BUMPTILE
360
1EEF
  3
DIFFUSETILE
360
1EEE
  3
OPACITYTILE
360
1EF2
  3
REFLECTIONTILE
360
1EF1
  3
REFRACTIONTILE
360
1EF3
  3
SPECULARTILE
360
1EF0
  0
DICTIONARY
  5
1EFD
330
1EFC
100
AcDbDictionary
280
     1
281
     1
  3
ACAD_XREC_ROUNDTRIP
360
1F68
  3
BUMPTILE
360
1EFF
  3
DIFFUSETILE
360
1EFE
  3
OPACITYTILE
360
1F02
  3
REFLECTIONTILE
360
1F01
  3
REFRACTIONTILE
360
1F03
  3
SPECULARTILE
360
1F00
  0
DICTIONARY
  5
1F58
330
1F1A
100
AcDbDictionary
280
     1
281
     1
  3
ACAD_ROUNDTRIP_2008_TABLESTYLE_CELLSTYLEMAP
360
1F59
  3
ACAD_XREC_ROUNDTRIP
360
1F8F
  0
DICTIONARY
  5
1F73
330
1F0A
100
AcDbDictionary
280
     1
281
     1
  3
ACAD_XREC_ROUNDTRIP
360
1F74
  0
DICTIONARY
  5
1F77
330
1F0C
100
AcDbDictionary
280
     1
281
     1
  3
ACAD_XREC_ROUNDTRIP
360
1F78
  0
DICTIONARY
  5
1F75
330
1F0B
100
AcDbDictionary
280
     1
281
     1
  3
ACAD_XREC_ROUNDTRIP
360
1F76
  0
DICTIONARY
  5
1F71
330
1F09
100
AcDbDictionary
280
     1
281
     1
  3
ACAD_XREC_ROUNDTRIP
360
1F72
  0
DICTIONARY
  5
1F7F
330
1F10
100
AcDbDictionary
280
     1
281
     1
  3
ACAD_XREC_ROUNDTRIP
360
1F80
  0
DICTIONARY
  5
1F87
330
1F14
100
AcDbDictionary
280
     1
281
     1
  3
ACAD_XREC_ROUNDTRIP
360
1F88
  0
DICTIONARY
  5
1F79
330
1F0D
100
AcDbDictionary
280
     1
281
     1
  3
ACAD_XREC_ROUNDTRIP
360
1F7A
  0
DICTIONARY
  5
1F7D
330
1F0F
100
AcDbDictionary
280
     1
281
     1
  3
ACAD_XREC_ROUNDTRIP
360
1F7E
  0
DICTIONARY
  5
1F8D
330
1F17
100
AcDbDictionary
280
     1
281
     1
  3
ACAD_XREC_ROUNDTRIP
360
1F8E
  0
DICTIONARY
  5
1F85
330
1F13
100
AcDbDictionary
280
     1
281
     1
  3
ACAD_XREC_ROUNDTRIP
360
1F86
  0
DICTIONARY
  5
1F69
330
1F05
100
AcDbDictionary
280
     1
281
     1
  3
ACAD_XREC_ROUNDTRIP
360
1F6A
  0
DICTIONARY
  5
1F6B
330
1F06
100
AcDbDictionary
280
     1
281
     1
  3
ACAD_XREC_ROUNDTRIP
360
1F6C
  0
DICTIONARY
  5
1F6D
330
1F07
100
AcDbDictionary
280
     1
281
     1
  3
ACAD_XREC_ROUNDTRIP
360
1F6E
  0
DICTIONARY
  5
1F6F
330
1F08
100
AcDbDictionary
280
     1
281
     1
  3
ACAD_XREC_ROUNDTRIP
360
1F70
  0
DICTIONARY
  5
1F89
330
1F15
100
AcDbDictionary
280
     1
281
     1
  3
ACAD_XREC_ROUNDTRIP
360
1F8A
  0
DICTIONARY
  5
1F83
330
1F12
100
AcDbDictionary
280
     1
281
     1
  3
ACAD_XREC_ROUNDTRIP
360
1F84
  0
DICTIONARY
  5
1F8B
330
1F16
100
AcDbDictionary
280
     1
281
     1
  3
ACAD_XREC_ROUNDTRIP
360
1F8C
  0
DICTIONARY
  5
1F7B
330
1F0E
100
AcDbDictionary
280
     1
281
     1
  3
ACAD_XREC_ROUNDTRIP
360
1F7C
  0
DICTIONARY
  5
1F81
330
1F11
100
AcDbDictionary
280
     1
281
     1
  3
ACAD_XREC_ROUNDTRIP
360
1F82
  0
XRECORD
  5
1F5D
102
{ACAD_REACTORS
330
1F5C
102
}
330
1F5C
100
AcDbXrecord
280
     1
102
SHADEPLOT
 70
     0
102
SHADEPLOTRESLEVEL
 70
     2
102
SHADEPLOTCUSTOMDPI
 70
   300
  0
XRECORD
  5
1F61
102
{ACAD_REACTORS
330
1F60
102
}
330
1F60
100
AcDbXrecord
280
     1
102
SHADEPLOT
 70
     0
102
SHADEPLOTRESLEVEL
 70
     2
102
SHADEPLOTCUSTOMDPI
 70
   300
  0
XRECORD
  5
1F5F
102
{ACAD_REACTORS
330
1F5E
102
}
330
1F5E
100
AcDbXrecord
280
     1
102
SHADEPLOT
 70
     0
102
SHADEPLOTRESLEVEL
 70
     2
102
SHADEPLOTCUSTOMDPI
 70
   300
  0
XRECORD
  5
1F67
102
{ACAD_REACTORS
330
1EF5
102
}
330
1EF5
100
AcDbXrecord
280
     1
102
MATERIAL
148
0.0
149
0.0
149
0.0
 93
        0
 94
      127
282
     0
 72
     0
 77
     0
171
     0
175
     0
179
     0
273
     0
  0
XRECORD
  5
1EF7
102
{ACAD_REACTORS
330
1EF5
102
}
330
1EF5
100
AcDbXrecord
280
     1
270
     1
271
     1
  0
XRECORD
  5
1EF6
102
{ACAD_REACTORS
330
1EF5
102
}
330
1EF5
100
AcDbXrecord
280
     1
270
     1
271
     1
  0
XRECORD
  5
1EFA
102
{ACAD_REACTORS
330
1EF5
102
}
330
1EF5
100
AcDbXrecord
280
     1
270
     1
271
     1
  0
XRECORD
  5
1EF9
102
{ACAD_REACTORS
330
1EF5
102
}
330
1EF5
100
AcDbXrecord
280
     1
270
     1
271
     1
  0
XRECORD
  5
1EFB
102
{ACAD_REACTORS
330
1EF5
102
}
330
1EF5
100
AcDbXrecord
280
     1
270
     1
271
     1
  0
XRECORD
  5
1EF8
102
{ACAD_REACTORS
330
1EF5
102
}
330
1EF5
100
AcDbXrecord
280
     1
270
     1
271
     1
  0
XRECORD
  5
1F66
102
{ACAD_REACTORS
330
1EED
102
}
330
1EED
100
AcDbXrecord
280
     1
102
MATERIAL
148
0.0
149
0.0
149
0.0
 93
        0
 94
      127
282
     0
 72
     0
 77
     0
171
     0
175
     0
179
     0
273
     0
  0
XRECORD
  5
1EEF
102
{ACAD_REACTORS
330
1EED
102
}
330
1EED
100
AcDbXrecord
280
     1
270
     1
271
     1
  0
XRECORD
  5
1EEE
102
{ACAD_REACTORS
330
1EED
102
}
330
1EED
100
AcDbXrecord
280
     1
270
     1
271
     1
  0
XRECORD
  5
1EF2
102
{ACAD_REACTORS
330
1EED
102
}
330
1EED
100
AcDbXrecord
280
     1
270
     1
271
     1
  0
XRECORD
  5
1EF1
102
{ACAD_REACTORS
330
1EED
102
}
330
1EED
100
AcDbXrecord
280
     1
270
     1
271
     1
  0
XRECORD
  5
1EF3
102
{ACAD_REACTORS
330
1EED
102
}
330
1EED
100
AcDbXrecord
280
     1
270
     1
271
     1
  0
XRECORD
  5
1EF0
102
{ACAD_REACTORS
330
1EED
102
}
330
1EED
100
AcDbXrecord
280
     1
270
     1
271
     1
  0
XRECORD
  5
1F68
102
{ACAD_REACTORS
330
1EFD
102
}
330
1EFD
100
AcDbXrecord
280
     1
102
MATERIAL
148
0.0
149
0.0
149
0.0
 93
        0
 94
      127
282
     0
 72
     0
 77
     0
171
     0
175
     0
179
     0
273
     0
  0
XRECORD
  5
1EFF
102
{ACAD_REACTORS
330
1EFD
102
}
330
1EFD
100
AcDbXrecord
280
     1
270
     1
271
     1
  0
XRECORD
  5
1EFE
102
{ACAD_REACTORS
330
1EFD
102
}
330
1EFD
100
AcDbXrecord
280
     1
270
     1
271
     1
  0
XRECORD
  5
1F02
102
{ACAD_REACTORS
330
1EFD
102
}
330
1EFD
100
AcDbXrecord
280
     1
270
     1
271
     1
  0
XRECORD
  5
1F01
102
{ACAD_REACTORS
330
1EFD
102
}
330
1EFD
100
AcDbXrecord
280
     1
270
     1
271
     1
  0
XRECORD
  5
1F03
102
{ACAD_REACTORS
330
1EFD
102
}
330
1EFD
100
AcDbXrecord
280
     1
270
     1
271
     1
  0
XRECORD
  5
1F00
102
{ACAD_REACTORS
330
1EFD
102
}
330
1EFD
100
AcDbXrecord
280
     1
270
     1
271
     1
  0
CELLSTYLEMAP
  5
1F59
102
{ACAD_REACTORS
330
1F58
102
}
330
1F58
100
AcDbCellStyleMap
 90
        3
300
CELLSTYLE
  1
TABLEFORMAT_BEGIN
 90
        5
170
     1
 91
        0
 92
    32768
 62
   257
 93
        1
300
CONTENTFORMAT
  1
CONTENTFORMAT_BEGIN
 90
        0
 91
        0
 92
      512
 93
        0
300

 40
0.0
140
1.0
 94
        5
 62
     0
340
11
144
6.0
309
CONTENTFORMAT_END
171
     1
301
MARGIN
  1
CELLMARGIN_BEGIN
 40
1.5
 40
1.5
 40
1.5
 40
1.5
 40
4.5
 40
4.5
309
CELLMARGIN_END
 94
        6
 95
        1
302
GRIDFORMAT
  1
GRIDFORMAT_BEGIN
 90
        0
 91
        1
 62
     0
 92
       -2
340
0
 93
        0
 40
1.125
309
GRIDFORMAT_END
 95
        2
302
GRIDFORMAT
  1
GRIDFORMAT_BEGIN
 90
        0
 91
        1
 62
     0
 92
       -2
340
0
 93
        0
 40
1.125
309
GRIDFORMAT_END
 95
        4
302
GRIDFORMAT
  1
GRIDFORMAT_BEGIN
 90
        0
 91
        1
 62
     0
 92
       -2
340
0
 93
        0
 40
1.125
309
GRIDFORMAT_END
 95
        8
302
GRIDFORMAT
  1
GRIDFORMAT_BEGIN
 90
        0
 91
        1
 62
     0
 92
       -2
340
0
 93
        0
 40
1.125
309
GRIDFORMAT_END
 95
       16
302
GRIDFORMAT
  1
GRIDFORMAT_BEGIN
 90
        0
 91
        1
 62
     0
 92
       -2
340
0
 93
        0
 40
1.125
309
GRIDFORMAT_END
 95
       32
302
GRIDFORMAT
  1
GRIDFORMAT_BEGIN
 90
        0
 91
        1
 62
     0
 92
       -2
340
0
 93
        0
 40
1.125
309
GRIDFORMAT_END
309
TABLEFORMAT_END
  1
CELLSTYLE_BEGIN
 90
        1
 91
        1
300
_TITLE
309
CELLSTYLE_END
300
CELLSTYLE
  1
TABLEFORMAT_BEGIN
 90
        5
170
     1
 91
        0
 92
        0
 62
   257
 93
        1
300
CONTENTFORMAT
  1
CONTENTFORMAT_BEGIN
 90
        0
 91
        0
 92
      512
 93
        0
300

 40
0.0
140
1.0
 94
        5
 62
     0
340
11
144
4.5
309
CONTENTFORMAT_END
171
     1
301
MARGIN
  1
CELLMARGIN_BEGIN
 40
1.5
 40
1.5
 40
1.5
 40
1.5
 40
4.5
 40
4.5
309
CELLMARGIN_END
 94
        6
 95
        1
302
GRIDFORMAT
  1
GRIDFORMAT_BEGIN
 90
        0
 91
        1
 62
     0
 92
       -2
340
0
 93
        0
 40
1.125
309
GRIDFORMAT_END
 95
        2
302
GRIDFORMAT
  1
GRIDFORMAT_BEGIN
 90
        0
 91
        1
 62
     0
 92
       -2
340
0
 93
        0
 40
1.125
309
GRIDFORMAT_END
 95
        4
302
GRIDFORMAT
  1
GRIDFORMAT_BEGIN
 90
        0
 91
        1
 62
     0
 92
       -2
340
0
 93
        0
 40
1.125
309
GRIDFORMAT_END
 95
        8
302
GRIDFORMAT
  1
GRIDFORMAT_BEGIN
 90
        0
 91
        1
 62
     0
 92
       -2
340
0
 93
        0
 40
1.125
309
GRIDFORMAT_END
 95
       16
302
GRIDFORMAT
  1
GRIDFORMAT_BEGIN
 90
        0
 91
        1
 62
     0
 92
       -2
340
0
 93
        0
 40
1.125
309
GRIDFORMAT_END
 95
       32
302
GRIDFORMAT
  1
GRIDFORMAT_BEGIN
 90
        0
 91
        1
 62
     0
 92
       -2
340
0
 93
        0
 40
1.125
309
GRIDFORMAT_END
309
TABLEFORMAT_END
  1
CELLSTYLE_BEGIN
 90
        2
 91
        1
300
_HEADER
309
CELLSTYLE_END
300
CELLSTYLE
  1
TABLEFORMAT_BEGIN
 90
        5
170
     1
 91
        0
 92
        0
 62
   257
 93
        1
300
CONTENTFORMAT
  1
CONTENTFORMAT_BEGIN
 90
        0
 91
        0
 92
      512
 93
        0
300

 40
0.0
140
1.0
 94
        2
 62
     0
340
11
144
4.5
309
CONTENTFORMAT_END
171
     1
301
MARGIN
  1
CELLMARGIN_BEGIN
 40
1.5
 40
1.5
 40
1.5
 40
1.5
 40
4.5
 40
4.5
309
CELLMARGIN_END
 94
        6
 95
        1
302
GRIDFORMAT
  1
GRIDFORMAT_BEGIN
 90
        0
 91
        1
 62
     0
 92
       -2
340
0
 93
        0
 40
1.125
309
GRIDFORMAT_END
 95
        2
302
GRIDFORMAT
  1
GRIDFORMAT_BEGIN
 90
        0
 91
        1
 62
     0
 92
       -2
340
0
 93
        0
 40
1.125
309
GRIDFORMAT_END
 95
        4
302
GRIDFORMAT
  1
GRIDFORMAT_BEGIN
 90
        0
 91
        1
 62
     0
 92
       -2
340
0
 93
        0
 40
1.125
309
GRIDFORMAT_END
 95
        8
302
GRIDFORMAT
  1
GRIDFORMAT_BEGIN
 90
        0
 91
        1
 62
     0
 92
       -2
340
0
 93
        0
 40
1.125
309
GRIDFORMAT_END
 95
       16
302
GRIDFORMAT
  1
GRIDFORMAT_BEGIN
 90
        0
 91
        1
 62
     0
 92
       -2
340
0
 93
        0
 40
1.125
309
GRIDFORMAT_END
 95
       32
302
GRIDFORMAT
  1
GRIDFORMAT_BEGIN
 90
        0
 91
        1
 62
     0
 92
       -2
340
0
 93
        0
 40
1.125
309
GRIDFORMAT_END
309
TABLEFORMAT_END
  1
CELLSTYLE_BEGIN
 90
        3
 91
        2
300
_DATA
309
CELLSTYLE_END
  0
XRECORD
  5
1F8F
102
{ACAD_REACTORS
330
1F58
102
}
330
1F58
100
AcDbXrecord
280
     1
102
ACAD_ROUNDTRIP_PRE2007_TABLESTYLE
 90
      512
 91
        0
  1

 92
      512
 93
        0
  2

 94
      512
 95
        0
  3

  0
XRECORD
  5
1F74
102
{ACAD_REACTORS
330
1F73
102
}
330
1F73
100
AcDbXrecord
280
     1
102
RTVSPropertyOp0
 70
     1
102
RTVSPropertyOp1
 70
     1
102
RTVSPropertyOp2
 70
     1
102
RTVSPropertyOp3
 70
     1
102
RTVSPropertyOp4
 70
     1
102
RTVSPropertyOp5
 70
     1
102
RTVSPropertyOp6
 70
     1
102
RTVSPropertyOp7
 70
     1
102
RTVSPropertyOp8
 70
     1
102
RTVSPropertyOp9
 70
     1
102
RTVSPropertyOp10
 70
     1
102
RTVSPropertyOp11
 70
     1
102
RTVSPropertyOp12
 70
     1
102
RTVSPropertyOp13
 70
     1
102
RTVSPropertyOp14
 70
     1
102
RTVSPropertyOp15
 70
     1
102
RTVSPropertyOp16
 70
     1
102
RTVSPropertyOp17
 70
     1
102
RTVSPropertyOp18
 70
     1
102
RTVSPropertyOp19
 70
     1
102
RTVSPropertyOp20
 70
     1
102
RTVSPropertyOp21
 70
     1
102
RTVSPropertyOp22
 70
     1
102
RTVSPropertyOp23
 70
     1
102
RTVSPropertyOp24
 70
     1
102
RTVSPropertyOp25
 70
     1
102
RTVSPropertyOp26
 70
     1
102
RTVSPropertyOp27
 70
     1
  0
XRECORD
  5
1F78
102
{ACAD_REACTORS
330
1F77
102
}
330
1F77
100
AcDbXrecord
280
     1
102
RTVSPropertyOp0
 70
     1
102
RTVSPropertyOp1
 70
     1
102
RTVSPropertyOp2
 70
     1
102
RTVSPropertyOp3
 70
     1
102
RTVSPropertyOp4
 70
     1
102
RTVSPropertyOp5
 70
     1
102
RTVSPropertyOp6
 70
     1
102
RTVSPropertyOp7
 70
     1
102
RTVSPropertyOp8
 70
     1
102
RTVSPropertyOp9
 70
     1
102
RTVSPropertyOp10
 70
     1
102
RTVSPropertyOp11
 70
     1
102
RTVSPropertyOp12
 70
     1
102
RTVSPropertyOp13
 70
     1
102
RTVSPropertyOp14
 70
     1
102
RTVSPropertyOp15
 70
     1
102
RTVSPropertyOp16
 70
     1
102
RTVSPropertyOp17
 70
     1
102
RTVSPropertyOp18
 70
     1
102
RTVSPropertyOp19
 70
     1
102
RTVSPropertyOp20
 70
     1
102
RTVSPropertyOp21
 70
     1
102
RTVSPropertyOp22
 70
     1
102
RTVSPropertyOp23
 70
     1
102
RTVSPropertyOp24
 70
     1
102
RTVSPropertyOp25
 70
     1
102
RTVSPropertyOp26
 70
     1
102
RTVSPropertyOp27
 70
     1
  0
XRECORD
  5
1F76
102
{ACAD_REACTORS
330
1F75
102
}
330
1F75
100
AcDbXrecord
280
     1
102
RTVSPropertyOp0
 70
     1
102
RTVSPropertyOp1
 70
     1
102
RTVSPropertyOp2
 70
     1
102
RTVSPropertyOp3
 70
     1
102
RTVSPropertyOp4
 70
     1
102
RTVSPropertyOp5
 70
     1
102
RTVSPropertyOp6
 70
     1
102
RTVSPropertyOp7
 70
     1
102
RTVSPropertyOp8
 70
     1
102
RTVSPropertyOp9
 70
     1
102
RTVSPropertyOp10
 70
     1
102
RTVSPropertyOp11
 70
     1
102
RTVSPropertyOp12
 70
     1
102
RTVSPropertyOp13
 70
     1
102
RTVSPropertyOp14
 70
     1
102
RTVSPropertyOp15
 70
     1
102
RTVSPropertyOp16
 70
     1
102
RTVSPropertyOp17
 70
     1
102
RTVSPropertyOp18
 70
     1
102
RTVSPropertyOp19
 70
     1
102
RTVSPropertyOp20
 70
     1
102
RTVSPropertyOp21
 70
     1
102
RTVSPropertyOp22
 70
     1
102
RTVSPropertyOp23
 70
     1
102
RTVSPropertyOp24
 70
     1
102
RTVSPropertyOp25
 70
     1
102
RTVSPropertyOp26
 70
     1
102
RTVSPropertyOp27
 70
     1
  0
XRECORD
  5
1F72
102
{ACAD_REACTORS
330
1F71
102
}
330
1F71
100
AcDbXrecord
280
     1
102
RTVSPropertyOp0
 70
     1
102
RTVSPropertyOp1
 70
     1
102
RTVSPropertyOp2
 70
     1
102
RTVSPropertyOp3
 70
     1
102
RTVSPropertyOp4
 70
     1
102
RTVSPropertyOp5
 70
     1
102
RTVSPropertyOp6
 70
     1
102
RTVSPropertyOp7
 70
     1
102
RTVSPropertyOp8
 70
     1
102
RTVSPropertyOp9
 70
     1
102
RTVSPropertyOp10
 70
     1
102
RTVSPropertyOp11
 70
     1
102
RTVSPropertyOp12
 70
     1
102
RTVSPropertyOp13
 70
     1
102
RTVSPropertyOp14
 70
     1
102
RTVSPropertyOp15
 70
     1
102
RTVSPropertyOp16
 70
     1
102
RTVSPropertyOp17
 70
     1
102
RTVSPropertyOp18
 70
     1
102
RTVSPropertyOp19
 70
     1
102
RTVSPropertyOp20
 70
     1
102
RTVSPropertyOp21
 70
     1
102
RTVSPropertyOp22
 70
     1
102
RTVSPropertyOp23
 70
     1
102
RTVSPropertyOp24
 70
     1
102
RTVSPropertyOp25
 70
     1
102
RTVSPropertyOp26
 70
     1
102
RTVSPropertyOp27
 70
     1
  0
XRECORD
  5
1F80
102
{ACAD_REACTORS
330
1F7F
102
}
330
1F7F
100
AcDbXrecord
280
     1
102
RTVSPropertyOp0
 70
     1
102
RTVSPropertyOp1
 70
     1
102
RTVSPropertyOp2
 70
     1
102
RTVSPropertyOp3
 70
     1
102
RTVSPropertyOp4
 70
     1
102
RTVSPropertyOp5
 70
     1
102
RTVSPropertyOp6
 70
     1
102
RTVSPropertyOp7
 70
     1
102
RTVSPropertyOp8
 70
     1
102
RTVSPropertyOp9
 70
     1
102
RTVSPropertyOp10
 70
     1
102
RTVSPropertyOp11
 70
     1
102
RTVSPropertyOp12
 70
     1
102
RTVSPropertyOp13
 70
     1
102
RTVSPropertyOp14
 70
     1
102
RTVSPropertyOp15
 70
     1
102
RTVSPropertyOp16
 70
     1
102
RTVSPropertyOp17
 70
     1
102
RTVSPropertyOp18
 70
     1
102
RTVSPropertyOp19
 70
     1
102
RTVSPropertyOp20
 70
     1
102
RTVSPropertyOp21
 70
     1
102
RTVSPropertyOp22
 70
     1
102
RTVSPropertyOp23
 70
     1
102
RTVSPropertyOp24
 70
     1
102
RTVSPropertyOp25
 70
     1
102
RTVSPropertyOp26
 70
     1
102
RTVSPropertyOp27
 70
     1
  0
XRECORD
  5
1F88
102
{ACAD_REACTORS
330
1F87
102
}
330
1F87
100
AcDbXrecord
280
     1
102
RTVSPropertyOp0
 70
     1
102
RTVSPropertyOp1
 70
     1
102
RTVSPropertyOp2
 70
     1
102
RTVSPropertyOp3
 70
     1
102
RTVSPropertyOp4
 70
     1
102
RTVSPropertyOp5
 70
     1
102
RTVSPropertyOp6
 70
     1
102
RTVSPropertyOp7
 70
     1
102
RTVSPropertyOp8
 70
     1
102
RTVSPropertyOp9
 70
     1
102
RTVSPropertyOp10
 70
     1
102
RTVSPropertyOp11
 70
     1
102
RTVSPropertyOp12
 70
     1
102
RTVSPropertyOp13
 70
     1
102
RTVSPropertyOp14
 70
     1
102
RTVSPropertyOp15
 70
     1
102
RTVSPropertyOp16
 70
     1
102
RTVSPropertyOp17
 70
     1
102
RTVSPropertyOp18
 70
     1
102
RTVSPropertyOp19
 70
     1
102
RTVSPropertyOp20
 70
     1
102
RTVSPropertyOp21
 70
     1
102
RTVSPropertyOp22
 70
     1
102
RTVSPropertyOp23
 70
     1
102
RTVSPropertyOp24
 70
     1
102
RTVSPropertyOp25
 70
     1
102
RTVSPropertyOp26
 70
     1
102
RTVSPropertyOp27
 70
     1
  0
XRECORD
  5
1F7A
102
{ACAD_REACTORS
330
1F79
102
}
330
1F79
100
AcDbXrecord
280
     1
102
RTVSPropertyOp0
 70
     1
102
RTVSPropertyOp1
 70
     1
102
RTVSPropertyOp2
 70
     1
102
RTVSPropertyOp3
 70
     1
102
RTVSPropertyOp4
 70
     1
102
RTVSPropertyOp5
 70
     1
102
RTVSPropertyOp6
 70
     1
102
RTVSPropertyOp7
 70
     1
102
RTVSPropertyOp8
 70
     1
102
RTVSPropertyOp9
 70
     1
102
RTVSPropertyOp10
 70
     1
102
RTVSPropertyOp11
 70
     1
102
RTVSPropertyOp12
 70
     1
102
RTVSPropertyOp13
 70
     1
102
RTVSPropertyOp14
 70
     1
102
RTVSPropertyOp15
 70
     1
102
RTVSPropertyOp16
 70
     1
102
RTVSPropertyOp17
 70
     1
102
RTVSPropertyOp18
 70
     1
102
RTVSPropertyOp19
 70
     1
102
RTVSPropertyOp20
 70
     1
102
RTVSPropertyOp21
 70
     1
102
RTVSPropertyOp22
 70
     1
102
RTVSPropertyOp23
 70
     1
102
RTVSPropertyOp24
 70
     1
102
RTVSPropertyOp25
 70
     1
102
RTVSPropertyOp26
 70
     1
102
RTVSPropertyOp27
 70
     1
  0
XRECORD
  5
1F7E
102
{ACAD_REACTORS
330
1F7D
102
}
330
1F7D
100
AcDbXrecord
280
     1
102
RTVSPropertyOp0
 70
     1
102
RTVSPropertyOp1
 70
     1
102
RTVSPropertyOp2
 70
     1
102
RTVSPropertyOp3
 70
     1
102
RTVSPropertyOp4
 70
     1
102
RTVSPropertyOp5
 70
     1
102
RTVSPropertyOp6
 70
     1
102
RTVSPropertyOp7
 70
     1
102
RTVSPropertyOp8
 70
     1
102
RTVSPropertyOp9
 70
     1
102
RTVSPropertyOp10
 70
     1
102
RTVSPropertyOp11
 70
     1
102
RTVSPropertyOp12
 70
     1
102
RTVSPropertyOp13
 70
     1
102
RTVSPropertyOp14
 70
     1
102
RTVSPropertyOp15
 70
     1
102
RTVSPropertyOp16
 70
     1
102
RTVSPropertyOp17
 70
     1
102
RTVSPropertyOp18
 70
     1
102
RTVSPropertyOp19
 70
     1
102
RTVSPropertyOp20
 70
     1
102
RTVSPropertyOp21
 70
     1
102
RTVSPropertyOp22
 70
     1
102
RTVSPropertyOp23
 70
     1
102
RTVSPropertyOp24
 70
     1
102
RTVSPropertyOp25
 70
     1
102
RTVSPropertyOp26
 70
     1
102
RTVSPropertyOp27
 70
     1
  0
XRECORD
  5
1F8E
102
{ACAD_REACTORS
330
1F8D
102
}
330
1F8D
100
AcDbXrecord
280
     1
102
RTVSPropertyOp0
 70
     0
102
RTVSPropertyOp1
 70
     0
102
RTVSPropertyOp2
 70
     0
102
RTVSPropertyOp3
 70
     0
102
RTVSPropertyOp4
 70
     0
102
RTVSPropertyOp5
 70
     0
102
RTVSPropertyOp6
 70
     0
102
RTVSPropertyOp7
 70
     0
102
RTVSPropertyOp8
 70
     0
102
RTVSPropertyOp9
 70
     0
102
RTVSPropertyOp10
 70
     0
102
RTVSPropertyOp11
 70
     0
102
RTVSPropertyOp12
 70
     0
102
RTVSPropertyOp13
 70
     0
102
RTVSPropertyOp14
 70
     2
102
RTVSPropertyOp15
 70
     0
102
RTVSPropertyOp16
 70
     0
102
RTVSPropertyOp17
 70
     0
102
RTVSPropertyOp18
 70
     0
102
RTVSPropertyOp19
 70
     0
102
RTVSPropertyOp20
 70
     0
102
RTVSPropertyOp21
 70
     0
102
RTVSPropertyOp22
 70
     0
102
RTVSPropertyOp23
 70
     0
102
RTVSPropertyOp24
 70
     0
102
RTVSPropertyOp25
 70
     0
102
RTVSPropertyOp26
 70
     0
102
RTVSPropertyOp27
 70
     0
  0
XRECORD
  5
1F86
102
{ACAD_REACTORS
330
1F85
102
}
330
1F85
100
AcDbXrecord
280
     1
102
RTVSPropertyOp0
 70
     1
102
RTVSPropertyOp1
 70
     1
102
RTVSPropertyOp2
 70
     1
102
RTVSPropertyOp3
 70
     1
102
RTVSPropertyOp4
 70
     1
102
RTVSPropertyOp5
 70
     1
102
RTVSPropertyOp6
 70
     1
102
RTVSPropertyOp7
 70
     1
102
RTVSPropertyOp8
 70
     1
102
RTVSPropertyOp9
 70
     1
102
RTVSPropertyOp10
 70
     1
102
RTVSPropertyOp11
 70
     1
102
RTVSPropertyOp12
 70
     1
102
RTVSPropertyOp13
 70
     1
102
RTVSPropertyOp14
 70
     1
102
RTVSPropertyOp15
 70
     1
102
RTVSPropertyOp16
 70
     1
102
RTVSPropertyOp17
 70
     1
102
RTVSPropertyOp18
 70
     1
102
RTVSPropertyOp19
 70
     1
102
RTVSPropertyOp20
 70
     1
102
RTVSPropertyOp21
 70
     1
102
RTVSPropertyOp22
 70
     1
102
RTVSPropertyOp23
 70
     1
102
RTVSPropertyOp24
 70
     1
102
RTVSPropertyOp25
 70
     1
102
RTVSPropertyOp26
 70
     1
102
RTVSPropertyOp27
 70
     1
  0
XRECORD
  5
1F6A
102
{ACAD_REACTORS
330
1F69
102
}
330
1F69
100
AcDbXrecord
280
     1
102
RTVSPropertyOp0
 70
     1
102
RTVSPropertyOp1
 70
     1
102
RTVSPropertyOp2
 70
     1
102
RTVSPropertyOp3
 70
     1
102
RTVSPropertyOp4
 70
     1
102
RTVSPropertyOp5
 70
     1
102
RTVSPropertyOp6
 70
     1
102
RTVSPropertyOp7
 70
     1
102
RTVSPropertyOp8
 70
     1
102
RTVSPropertyOp9
 70
     1
102
RTVSPropertyOp10
 70
     1
102
RTVSPropertyOp11
 70
     1
102
RTVSPropertyOp12
 70
     1
102
RTVSPropertyOp13
 70
     1
102
RTVSPropertyOp14
 70
     1
102
RTVSPropertyOp15
 70
     1
102
RTVSPropertyOp16
 70
     1
102
RTVSPropertyOp17
 70
     1
102
RTVSPropertyOp18
 70
     1
102
RTVSPropertyOp19
 70
     1
102
RTVSPropertyOp20
 70
     1
102
RTVSPropertyOp21
 70
     1
102
RTVSPropertyOp22
 70
     1
102
RTVSPropertyOp23
 70
     1
102
RTVSPropertyOp24
 70
     1
102
RTVSPropertyOp25
 70
     1
102
RTVSPropertyOp26
 70
     1
102
RTVSPropertyOp27
 70
     1
  0
XRECORD
  5
1F6C
102
{ACAD_REACTORS
330
1F6B
102
}
330
1F6B
100
AcDbXrecord
280
     1
102
RTVSPropertyOp0
 70
     1
102
RTVSPropertyOp1
 70
     1
102
RTVSPropertyOp2
 70
     1
102
RTVSPropertyOp3
 70
     1
102
RTVSPropertyOp4
 70
     1
102
RTVSPropertyOp5
 70
     1
102
RTVSPropertyOp6
 70
     1
102
RTVSPropertyOp7
 70
     1
102
RTVSPropertyOp8
 70
     1
102
RTVSPropertyOp9
 70
     1
102
RTVSPropertyOp10
 70
     1
102
RTVSPropertyOp11
 70
     1
102
RTVSPropertyOp12
 70
     1
102
RTVSPropertyOp13
 70
     1
102
RTVSPropertyOp14
 70
     1
102
RTVSPropertyOp15
 70
     1
102
RTVSPropertyOp16
 70
     1
102
RTVSPropertyOp17
 70
     1
102
RTVSPropertyOp18
 70
     1
102
RTVSPropertyOp19
 70
     1
102
RTVSPropertyOp20
 70
     1
102
RTVSPropertyOp21
 70
     1
102
RTVSPropertyOp22
 70
     1
102
RTVSPropertyOp23
 70
     1
102
RTVSPropertyOp24
 70
     1
102
RTVSPropertyOp25
 70
     1
102
RTVSPropertyOp26
 70
     1
102
RTVSPropertyOp27
 70
     1
  0
XRECORD
  5
1F6E
102
{ACAD_REACTORS
330
1F6D
102
}
330
1F6D
100
AcDbXrecord
280
     1
102
RTVSPropertyOp0
 70
     1
102
RTVSPropertyOp1
 70
     1
102
RTVSPropertyOp2
 70
     1
102
RTVSPropertyOp3
 70
     1
102
RTVSPropertyOp4
 70
     1
102
RTVSPropertyOp5
 70
     1
102
RTVSPropertyOp6
 70
     1
102
RTVSPropertyOp7
 70
     1
102
RTVSPropertyOp8
 70
     1
102
RTVSPropertyOp9
 70
     1
102
RTVSPropertyOp10
 70
     1
102
RTVSPropertyOp11
 70
     1
102
RTVSPropertyOp12
 70
     1
102
RTVSPropertyOp13
 70
     1
102
RTVSPropertyOp14
 70
     1
102
RTVSPropertyOp15
 70
     1
102
RTVSPropertyOp16
 70
     1
102
RTVSPropertyOp17
 70
     1
102
RTVSPropertyOp18
 70
     1
102
RTVSPropertyOp19
 70
     1
102
RTVSPropertyOp20
 70
     1
102
RTVSPropertyOp21
 70
     1
102
RTVSPropertyOp22
 70
     1
102
RTVSPropertyOp23
 70
     1
102
RTVSPropertyOp24
 70
     1
102
RTVSPropertyOp25
 70
     1
102
RTVSPropertyOp26
 70
     1
102
RTVSPropertyOp27
 70
     1
  0
XRECORD
  5
1F70
102
{ACAD_REACTORS
330
1F6F
102
}
330
1F6F
100
AcDbXrecord
280
     1
102
RTVSPropertyOp0
 70
     1
102
RTVSPropertyOp1
 70
     1
102
RTVSPropertyOp2
 70
     1
102
RTVSPropertyOp3
 70
     1
102
RTVSPropertyOp4
 70
     1
102
RTVSPropertyOp5
 70
     1
102
RTVSPropertyOp6
 70
     1
102
RTVSPropertyOp7
 70
     1
102
RTVSPropertyOp8
 70
     1
102
RTVSPropertyOp9
 70
     1
102
RTVSPropertyOp10
 70
     1
102
RTVSPropertyOp11
 70
     1
102
RTVSPropertyOp12
 70
     1
102
RTVSPropertyOp13
 70
     1
102
RTVSPropertyOp14
 70
     1
102
RTVSPropertyOp15
 70
     1
102
RTVSPropertyOp16
 70
     1
102
RTVSPropertyOp17
 70
     1
102
RTVSPropertyOp18
 70
     1
102
RTVSPropertyOp19
 70
     1
102
RTVSPropertyOp20
 70
     1
102
RTVSPropertyOp21
 70
     1
102
RTVSPropertyOp22
 70
     1
102
RTVSPropertyOp23
 70
     1
102
RTVSPropertyOp24
 70
     1
102
RTVSPropertyOp25
 70
     1
102
RTVSPropertyOp26
 70
     1
102
RTVSPropertyOp27
 70
     1
  0
XRECORD
  5
1F8A
102
{ACAD_REACTORS
330
1F89
102
}
330
1F89
100
AcDbXrecord
280
     1
102
RTVSPropertyOp0
 70
     0
102
RTVSPropertyOp1
 70
     0
102
RTVSPropertyOp2
 70
     0
102
RTVSPropertyOp3
 70
     0
102
RTVSPropertyOp4
 70
     0
102
RTVSPropertyOp5
 70
     0
102
RTVSPropertyOp6
 70
     0
102
RTVSPropertyOp7
 70
     0
102
RTVSPropertyOp8
 70
     0
102
RTVSPropertyOp9
 70
     0
102
RTVSPropertyOp10
 70
     0
102
RTVSPropertyOp11
 70
     0
102
RTVSPropertyOp12
 70
     0
102
RTVSPropertyOp13
 70
     0
102
RTVSPropertyOp14
 70
     2
102
RTVSPropertyOp15
 70
     0
102
RTVSPropertyOp16
 70
     0
102
RTVSPropertyOp17
 70
     0
102
RTVSPropertyOp18
 70
     0
102
RTVSPropertyOp19
 70
     0
102
RTVSPropertyOp20
 70
     0
102
RTVSPropertyOp21
 70
     0
102
RTVSPropertyOp22
 70
     0
102
RTVSPropertyOp23
 70
     0
102
RTVSPropertyOp24
 70
     0
102
RTVSPropertyOp25
 70
     0
102
RTVSPropertyOp26
 70
     0
102
RTVSPropertyOp27
 70
     0
  0
XRECORD
  5
1F84
102
{ACAD_REACTORS
330
1F83
102
}
330
1F83
100
AcDbXrecord
280
     1
102
RTVSPropertyOp0
 70
     1
102
RTVSPropertyOp1
 70
     1
102
RTVSPropertyOp2
 70
     1
102
RTVSPropertyOp3
 70
     1
102
RTVSPropertyOp4
 70
     1
102
RTVSPropertyOp5
 70
     1
102
RTVSPropertyOp6
 70
     1
102
RTVSPropertyOp7
 70
     1
102
RTVSPropertyOp8
 70
     1
102
RTVSPropertyOp9
 70
     1
102
RTVSPropertyOp10
 70
     1
102
RTVSPropertyOp11
 70
     1
102
RTVSPropertyOp12
 70
     1
102
RTVSPropertyOp13
 70
     1
102
RTVSPropertyOp14
 70
     1
102
RTVSPropertyOp15
 70
     1
102
RTVSPropertyOp16
 70
     1
102
RTVSPropertyOp17
 70
     1
102
RTVSPropertyOp18
 70
     1
102
RTVSPropertyOp19
 70
     1
102
RTVSPropertyOp20
 70
     1
102
RTVSPropertyOp21
 70
     1
102
RTVSPropertyOp22
 70
     1
102
RTVSPropertyOp23
 70
     1
102
RTVSPropertyOp24
 70
     1
102
RTVSPropertyOp25
 70
     1
102
RTVSPropertyOp26
 70
     1
102
RTVSPropertyOp27
 70
     1
  0
XRECORD
  5
1F8C
102
{ACAD_REACTORS
330
1F8B
102
}
330
1F8B
100
AcDbXrecord
280
     1
102
RTVSPropertyOp0
 70
     0
102
RTVSPropertyOp1
 70
     0
102
RTVSPropertyOp2
 70
     0
102
RTVSPropertyOp3
 70
     0
102
RTVSPropertyOp4
 70
     0
102
RTVSPropertyOp5
 70
     0
102
RTVSPropertyOp6
 70
     0
102
RTVSPropertyOp7
 70
     0
102
RTVSPropertyOp8
 70
     0
102
RTVSPropertyOp9
 70
     0
102
RTVSPropertyOp10
 70
     0
102
RTVSPropertyOp11
 70
     0
102
RTVSPropertyOp12
 70
     0
102
RTVSPropertyOp13
 70
     0
102
RTVSPropertyOp14
 70
     2
102
RTVSPropertyOp15
 70
     0
102
RTVSPropertyOp16
 70
     0
102
RTVSPropertyOp17
 70
     0
102
RTVSPropertyOp18
 70
     0
102
RTVSPropertyOp19
 70
     0
102
RTVSPropertyOp20
 70
     0
102
RTVSPropertyOp21
 70
     0
102
RTVSPropertyOp22
 70
     0
102
RTVSPropertyOp23
 70
     0
102
RTVSPropertyOp24
 70
     0
102
RTVSPropertyOp25
 70
     0
102
RTVSPropertyOp26
 70
     0
102
RTVSPropertyOp27
 70
     0
  0
XRECORD
  5
1F7C
102
{ACAD_REACTORS
330
1F7B
102
}
330
1F7B
100
AcDbXrecord
280
     1
102
RTVSPropertyOp0
 70
     1
102
RTVSPropertyOp1
 70
     1
102
RTVSPropertyOp2
 70
     1
102
RTVSPropertyOp3
 70
     1
102
RTVSPropertyOp4
 70
     1
102
RTVSPropertyOp5
 70
     1
102
RTVSPropertyOp6
 70
     1
102
RTVSPropertyOp7
 70
     1
102
RTVSPropertyOp8
 70
     1
102
RTVSPropertyOp9
 70
     1
102
RTVSPropertyOp10
 70
     1
102
RTVSPropertyOp11
 70
     1
102
RTVSPropertyOp12
 70
     1
102
RTVSPropertyOp13
 70
     1
102
RTVSPropertyOp14
 70
     1
102
RTVSPropertyOp15
 70
     1
102
RTVSPropertyOp16
 70
     1
102
RTVSPropertyOp17
 70
     1
102
RTVSPropertyOp18
 70
     1
102
RTVSPropertyOp19
 70
     1
102
RTVSPropertyOp20
 70
     1
102
RTVSPropertyOp21
 70
     1
102
RTVSPropertyOp22
 70
     1
102
RTVSPropertyOp23
 70
     1
102
RTVSPropertyOp24
 70
     1
102
RTVSPropertyOp25
 70
     1
102
RTVSPropertyOp26
 70
     1
102
RTVSPropertyOp27
 70
     1
  0
XRECORD
  5
1F82
102
{ACAD_REACTORS
330
1F81
102
}
330
1F81
100
AcDbXrecord
280
     1
102
RTVSPropertyOp0
 70
     1
102
RTVSPropertyOp1
 70
     1
102
RTVSPropertyOp2
 70
     1
102
RTVSPropertyOp3
 70
     1
102
RTVSPropertyOp4
 70
     1
102
RTVSPropertyOp5
 70
     1
102
RTVSPropertyOp6
 70
     1
102
RTVSPropertyOp7
 70
     1
102
RTVSPropertyOp8
 70
     1
102
RTVSPropertyOp9
 70
     1
102
RTVSPropertyOp10
 70
     1
102
RTVSPropertyOp11
 70
     1
102
RTVSPropertyOp12
 70
     1
102
RTVSPropertyOp13
 70
     1
102
RTVSPropertyOp14
 70
     1
102
RTVSPropertyOp15
 70
     1
102
RTVSPropertyOp16
 70
     1
102
RTVSPropertyOp17
 70
     1
102
RTVSPropertyOp18
 70
     1
102
RTVSPropertyOp19
 70
     1
102
RTVSPropertyOp20
 70
     1
102
RTVSPropertyOp21
 70
     1
102
RTVSPropertyOp22
 70
     1
102
RTVSPropertyOp23
 70
     1
102
RTVSPropertyOp24
 70
     1
102
RTVSPropertyOp25
 70
     1
102
RTVSPropertyOp26
 70
     1
102
RTVSPropertyOp27
 70
     1
  0
ENDSEC
  0
EOF
