  0
SECTION
  2
HEADER
  9
$ACADVER
  1
AC1015
  9
$ACADMAINTVER
 70
    20
  9
$DWGCODEPAGE
  3
ANSI_1252
  9
$INSBASE
 10
0.0
 20
0.0
 30
0.0
  9
$EXTMIN
 10
-1.500539906951452
 20
-0.4328974835830524
 30
0.0
  9
$EXTMAX
 10
2.788581607024541
 20
0.3709126858593812
 30
0.0
  9
$LIMMIN
 10
0.0
 20
0.0
  9
$LIMMAX
 10
420.0
 20
297.0
  9
$ORTHOMODE
 70
     1
  9
$REGENMODE
 70
     1
  9
$FILLMODE
 70
     1
  9
$QTEXTMODE
 70
     0
  9
$MIRRTEXT
 70
     1
  9
$LTSCALE
 40
1.0
  9
$ATTMODE
 70
     1
  9
$TEXTSIZE
 40
2.0
  9
$TRACEWID
 40
1.0
  9
$TEXTSTYLE
  7
LEG-ATT
  9
$CLAYER
  8
BLOCKS
  9
$CELTYPE
  6
ByLayer
  9
$CECOLOR
 62
   256
  9
$CELTSCALE
 40
1.0
  9
$DISPSILH
 70
     0
  9
$DIMSCALE
 40
1.0
  9
$DIMASZ
 40
2.5
  9
$DIMEXO
 40
0.625
  9
$DIMDLI
 40
3.75
  9
$DIMRND
 40
0.0
  9
$DIMDLE
 40
0.0
  9
$DIMEXE
 40
1.25
  9
$DIMTP
 40
0.0
  9
$DIMTM
 40
0.0
  9
$DIMTXT
 40
2.5
  9
$DIMCEN
 40
2.5
  9
$DIMTSZ
 40
0.0
  9
$DIMTOL
 70
     0
  9
$DIMLIM
 70
     0
  9
$DIMTIH
 70
     0
  9
$DIMTOH
 70
     0
  9
$DIMSE1
 70
     0
  9
$DIMSE2
 70
     0
  9
$DIMTAD
 70
     1
  9
$DIMZIN
 70
     8
  9
$DIMBLK
  1

  9
$DIMASO
 70
     1
  9
$DIMSHO
 70
     1
  9
$DIMPOST
  1

  9
$DIMAPOST
  1

  9
$DIMALT
 70
     0
  9
$DIMALTD
 70
     3
  9
$DIMALTF
 40
0.03937007874016
  9
$DIMLFAC
 40
1.0
  9
$DIMTOFL
 70
     1
  9
$DIMTVP
 40
0.0
  9
$DIMTIX
 70
     0
  9
$DIMSOXD
 70
     0
  9
$DIMSAH
 70
     0
  9
$DIMBLK1
  1

  9
$DIMBLK2
  1

  9
$DIMSTYLE
  2
ISO-25
  9
$DIMCLRD
 70
     0
  9
$DIMCLRE
 70
     0
  9
$DIMCLRT
 70
     0
  9
$DIMTFAC
 40
1.0
  9
$DIMGAP
 40
0.625
  9
$DIMJUST
 70
     0
  9
$DIMSD1
 70
     0
  9
$DIMSD2
 70
     0
  9
$DIMTOLJ
 70
     0
  9
$DIMTZIN
 70
     8
  9
$DIMALTZ
 70
     0
  9
$DIMALTTZ
 70
     0
  9
$DIMUPT
 70
     0
  9
$DIMDEC
 70
     2
  9
$DIMTDEC
 70
     2
  9
$DIMALTU
 70
     2
  9
$DIMALTTD
 70
     3
  9
$DIMTXSTY
  7
Standard
  9
$DIMAUNIT
 70
     0
  9
$DIMADEC
 70
     0
  9
$DIMALTRND
 40
0.0
  9
$DIMAZIN
 70
     0
  9
$DIMDSEP
 70
    44
  9
$DIMATFIT
 70
     3
  9
$DIMFRAC
 70
     0
  9
$DIMLDRBLK
  1

  9
$DIMLUNIT
 70
     2
  9
$DIMLWD
 70
    -2
  9
$DIMLWE
 70
    -2
  9
$DIMTMOVE
 70
     0
  9
$LUNITS
 70
     2
  9
$LUPREC
 70
     4
  9
$SKETCHINC
 40
1.0
  9
$FILLETRAD
 40
0.0
  9
$AUNITS
 70
     0
  9
$AUPREC
 70
     0
  9
$MENU
  1
.
  9
$ELEVATION
 40
0.0
  9
$PELEVATION
 40
0.0
  9
$THICKNESS
 40
0.0
  9
$LIMCHECK
 70
     0
  9
$CHAMFERA
 40
10.0
  9
$CHAMFERB
 40
10.0
  9
$CHAMFERC
 40
20.0
  9
$CHAMFERD
 40
0.0
  9
$SKPOLY
 70
     0
  9
$TDCREATE
 40
2453125.639648206
  9
$TDUCREATE
 40
2453125.597981539
  9
$TDUPDATE
 40
2456146.631924549
  9
$TDUUPDATE
 40
2456146.590257882
  9
$TDINDWG
 40
0.0134119213
  9
$TDUSRTIMER
 40
0.0134119213
  9
$USRTIMER
 70
     1
  9
$ANGBASE
 50
0.0
  9
$ANGDIR
 70
     0
  9
$PDMODE
 70
     3
  9
$PDSIZE
 40
0.0
  9
$PLINEWID
 40
0.0
  9
$SPLFRAME
 70
     0
  9
$SPLINETYPE
 70
     6
  9
$SPLINESEGS
 70
     8
  9
$HANDSEED
  5
596
  9
$SURFTAB1
 70
     6
  9
$SURFTAB2
 70
     6
  9
$SURFTYPE
 70
     6
  9
$SURFU
 70
     6
  9
$SURFV
 70
     6
  9
$UCSBASE
  2

  9
$UCSNAME
  2

  9
$UCSORG
 10
0.0
 20
0.0
 30
0.0
  9
$UCSXDIR
 10
1.0
 20
0.0
 30
0.0
  9
$UCSYDIR
 10
0.0
 20
1.0
 30
0.0
  9
$UCSORTHOREF
  2

  9
$UCSORTHOVIEW
 70
     0
  9
$UCSORGTOP
 10
0.0
 20
0.0
 30
0.0
  9
$UCSORGBOTTOM
 10
0.0
 20
0.0
 30
0.0
  9
$UCSORGLEFT
 10
0.0
 20
0.0
 30
0.0
  9
$UCSORGRIGHT
 10
0.0
 20
0.0
 30
0.0
  9
$UCSORGFRONT
 10
0.0
 20
0.0
 30
0.0
  9
$UCSORGBACK
 10
0.0
 20
0.0
 30
0.0
  9
$PUCSBASE
  2

  9
$PUCSNAME
  2

  9
$PUCSORG
 10
0.0
 20
0.0
 30
0.0
  9
$PUCSXDIR
 10
1.0
 20
0.0
 30
0.0
  9
$PUCSYDIR
 10
0.0
 20
1.0
 30
0.0
  9
$PUCSORTHOREF
  2

  9
$PUCSORTHOVIEW
 70
     0
  9
$PUCSORGTOP
 10
0.0
 20
0.0
 30
0.0
  9
$PUCSORGBOTTOM
 10
0.0
 20
0.0
 30
0.0
  9
$PUCSORGLEFT
 10
0.0
 20
0.0
 30
0.0
  9
$PUCSORGRIGHT
 10
0.0
 20
0.0
 30
0.0
  9
$PUCSORGFRONT
 10
0.0
 20
0.0
 30
0.0
  9
$PUCSORGBACK
 10
0.0
 20
0.0
 30
0.0
  9
$USERI1
 70
     0
  9
$USERI2
 70
     0
  9
$USERI3
 70
     0
  9
$USERI4
 70
     0
  9
$USERI5
 70
     0
  9
$USERR1
 40
0.0
  9
$USERR2
 40
0.0
  9
$USERR3
 40
0.0
  9
$USERR4
 40
0.0
  9
$USERR5
 40
0.0
  9
$WORLDVIEW
 70
     1
  9
$SHADEDGE
 70
     3
  9
$SHADEDIF
 70
    70
  9
$TILEMODE
 70
     1
  9
$MAXACTVP
 70
    64
  9
$PINSBASE
 10
0.0
 20
0.0
 30
0.0
  9
$PLIMCHECK
 70
     0
  9
$PEXTMIN
 10
1.000000000000000E+20
 20
1.000000000000000E+20
 30
1.000000000000000E+20
  9
$PEXTMAX
 10
-1.000000000000000E+20
 20
-1.000000000000000E+20
 30
-1.000000000000000E+20
  9
$PLIMMIN
 10
0.0
 20
0.0
  9
$PLIMMAX
 10
420.0
 20
297.0
  9
$UNITMODE
 70
     0
  9
$VISRETAIN
 70
     1
  9
$PLINEGEN
 70
     0
  9
$PSLTSCALE
 70
     1
  9
$TREEDEPTH
 70
  3020
  9
$CMLSTYLE
  2
Standard
  9
$CMLJUST
 70
     0
  9
$CMLSCALE
 40
20.0
  9
$PROXYGRAPHICS
 70
     1
  9
$MEASUREMENT
 70
     1
  9
$CELWEIGHT
370
    -1
  9
$ENDCAPS
280
     0
  9
$JOINSTYLE
280
     0
  9
$LWDISPLAY
290
     0
  9
$INSUNITS
 70
     4
  9
$HYPERLINKBASE
  1

  9
$STYLESHEET
  1

  9
$XEDIT
290
     1
  9
$CEPSNTYPE
380
     0
  9
$PSTYLEMODE
290
     1
  9
$FINGERPRINTGUID
  2
{38505E8A-DB8E-4A5A-9240-5BDA279CF715}
  9
$VERSIONGUID
  2
{189238D4-F23B-4CCC-A3CC-F89DA40032DD}
  9
$EXTNAMES
290
     1
  9
$PSVPSCALE
 40
0.0
  9
$OLESTARTUP
290
     0
  0
ENDSEC
  0
SECTION
  2
CLASSES
  0
CLASS
  1
ACDBDICTIONARYWDFLT
  2
AcDbDictionaryWithDefault
  3
ObjectDBX Classes
 90
        0
280
     0
281
     0
  0
CLASS
  1
ACDBPLACEHOLDER
  2
AcDbPlaceHolder
  3
ObjectDBX Classes
 90
        0
280
     0
281
     0
  0
CLASS
  1
LAYOUT
  2
AcDbLayout
  3
ObjectDBX Classes
 90
        0
280
     0
281
     0
  0
CLASS
  1
DICTIONARYVAR
  2
AcDbDictionaryVar
  3
ObjectDBX Classes
 90
        0
280
     0
281
     0
  0
CLASS
  1
TABLESTYLE
  2
AcDbTableStyle
  3
ObjectDBX Classes
 90
     4095
280
     0
281
     0
  0
CLASS
  1
DIMASSOC
  2
AcDbDimAssoc
  3
"AcDbDimAssoc|Product Desc:     AcDim ARX App For Dimension|Company:          Autodesk, Inc.|WEB Address:      www.autodesk.com"
 90
    32768
280
     0
281
     0
  0
CLASS
  1
MATERIAL
  2
AcDbMaterial
  3
ObjectDBX Classes
 90
     1153
280
     0
281
     0
  0
CLASS
  1
VISUALSTYLE
  2
AcDbVisualStyle
  3
ObjectDBX Classes
 90
     4095
280
     0
281
     0
  0
CLASS
  1
SCALE
  2
AcDbScale
  3
ObjectDBX Classes
 90
     1153
280
     0
281
     0
  0
CLASS
  1
MLEADERSTYLE
  2
AcDbMLeaderStyle
  3
ACDB_MLEADERSTYLE_CLASS
 90
     4095
280
     0
281
     0
  0
CLASS
  1
CELLSTYLEMAP
  2
AcDbCellStyleMap
  3
ObjectDBX Classes
 90
     1152
280
     0
281
     0
  0
ENDSEC
  0
SECTION
  2
TABLES
  0
TABLE
  2
VPORT
  5
19
330
0
100
AcDbSymbolTable
 70
     1
  0
VPORT
  5
4FC
330
19
100
AcDbSymbolTableRecord
100
AcDbViewportTableRecord
  2
*Active
 70
     0
 10
0.0
 20
0.0
 11
1.0
 21
1.0
 12
0.7217681179953433
 22
-0.0335119695523076
 13
0.0
 23
0.0
 14
10.0
 24
10.0
 15
10.0
 25
10.0
 16
0.0
 26
0.0
 36
1.0
 17
0.0
 27
0.0
 37
0.0
 40
2.756454232829063
 41
1.645464025026068
 42
50.0
 43
0.0
 44
0.0
 50
0.0
 51
0.0
 71
     0
 72
   100
 73
     1
 74
     2
 75
     0
 76
     0
 77
     0
 78
     0
281
     0
 65
     1
110
0.0
120
0.0
130
0.0
111
1.0
121
0.0
131
0.0
112
0.0
122
1.0
132
0.0
 79
     0
146
0.0
  0
ENDTAB
  0
TABLE
  2
LTYPE
  5
14
330
0
100
AcDbSymbolTable
 70
     2
  0
LTYPE
  5
15
330
14
100
AcDbSymbolTableRecord
100
AcDbLinetypeTableRecord
  2
ByBlock
 70
     0
  3

 72
    65
 73
     0
 40
0.0
  0
LTYPE
  5
16
330
14
100
AcDbSymbolTableRecord
100
AcDbLinetypeTableRecord
  2
ByLayer
 70
     0
  3

 72
    65
 73
     0
 40
0.0
  0
LTYPE
  5
8
330
14
100
AcDbSymbolTableRecord
100
AcDbLinetypeTableRecord
  2
Continuous
 70
     0
  3
Solid line
 72
    65
 73
     0
 40
0.0
  0
LTYPE
  5
11B
330
14
100
AcDbSymbolTableRecord
100
AcDbLinetypeTableRecord
  2
DASHDOT
 70
     0
  3
Dash dot __ . __ . __ . __ . __ . __ . __ . __
 72
    65
 73
     4
 40
25.4
 49
12.7
 74
     0
 49
-6.349999999999999
 74
     0
 49
0.0
 74
     0
 49
-6.349999999999999
 74
     0
  0
ENDTAB
  0
TABLE
  2
LAYER
  5
10
330
0
100
AcDbSymbolTable
 70
     8
  0
LAYER
  5
4
102
{ACAD_XDICTIONARY
360
548
102
}
330
10
100
AcDbSymbolTableRecord
100
AcDbLayerTableRecord
  2
0
 70
     0
 62
     7
  6
Continuous
370
    -3
390
5
  0
LAYER
  5
22
102
{ACAD_XDICTIONARY
360
54A
102
}
330
10
100
AcDbSymbolTableRecord
100
AcDbLayerTableRecord
  2
BLOCKS
 70
     0
 62
     3
  6
Continuous
370
    -3
390
5
  0
LAYER
  5
11C
102
{ACAD_XDICTIONARY
360
54C
102
}
330
10
100
AcDbSymbolTableRecord
100
AcDbLayerTableRecord
  2
cen
 70
     0
 62
     7
  6
DASHDOT
370
    -3
390
5
  0
LAYER
  5
11D
330
10
100
AcDbSymbolTableRecord
100
AcDbLayerTableRecord
  2
Defpoints
 70
     0
 62
     7
  6
Continuous
290
     0
370
    -3
390
5
  0
LAYER
  5
11E
102
{ACAD_XDICTIONARY
360
54E
102
}
330
10
100
AcDbSymbolTableRecord
100
AcDbLayerTableRecord
  2
9
 70
     0
 62
     9
  6
Continuous
370
    -3
390
5
  0
LAYER
  5
11F
102
{ACAD_XDICTIONARY
360
550
102
}
330
10
100
AcDbSymbolTableRecord
100
AcDbLayerTableRecord
  2
hatch
 70
     0
 62
     9
  6
Continuous
370
    -3
390
5
  0
LAYER
  5
120
102
{ACAD_XDICTIONARY
360
552
102
}
330
10
100
AcDbSymbolTableRecord
100
AcDbLayerTableRecord
  2
COTAS
 70
     0
 62
     1
  6
Continuous
370
    -3
390
5
  0
LAYER
  5
121
102
{ACAD_XDICTIONARY
360
554
102
}
330
10
100
AcDbSymbolTableRecord
100
AcDbLayerTableRecord
  2
SANINDUSA
 70
     0
 62
     3
  6
Continuous
370
    -3
390
5
  0
ENDTAB
  0
TABLE
  2
STYLE
  5
11
330
0
100
AcDbSymbolTable
 70
     3
  0
STYLE
  5
12
330
11
100
AcDbSymbolTableRecord
100
AcDbTextStyleTableRecord
  2
Standard
 70
     0
 40
0.0
 41
1.0
 50
0.0
 71
     0
 42
2.5
  3
txt
  4

  0
STYLE
  5
23
330
11
100
AcDbSymbolTableRecord
100
AcDbTextStyleTableRecord
  2
LEG-ATT
 70
     0
 40
2.0
 41
0.8
 50
0.0
 71
     0
 42
2.0
  3
ARIAL.TTF
  4

1001
ACAD
1000
Arial
1071
       34
  0
STYLE
  5
122
330
11
100
AcDbSymbolTableRecord
100
AcDbTextStyleTableRecord
  2
SANINDUSA
 70
     0
 40
0.0
 41
1.0
 50
0.0
 71
     0
 42
2.5
  3
verdana.TTF
  4

1001
ACAD
1000
Verdana
1071
       34
  0
ENDTAB
  0
TABLE
  2
VIEW
  5
17
330
0
100
AcDbSymbolTable
 70
     0
  0
ENDTAB
  0
TABLE
  2
UCS
  5
18
330
0
100
AcDbSymbolTable
 70
     0
  0
ENDTAB
  0
TABLE
  2
APPID
  5
1B
330
0
100
AcDbSymbolTable
 70
     4
  0
APPID
  5
1C
330
1B
100
AcDbSymbolTableRecord
100
AcDbRegAppTableRecord
  2
ACAD
 70
     0
  0
APPID
  5
4F0
330
1B
100
AcDbSymbolTableRecord
100
AcDbRegAppTableRecord
  2
ACAD_EXEMPT_FROM_CAD_STANDARDS
 70
     0
  0
APPID
  5
558
330
1B
100
AcDbSymbolTableRecord
100
AcDbRegAppTableRecord
  2
DCO15
 70
     0
  0
APPID
  5
595
330
1B
100
AcDbSymbolTableRecord
100
AcDbRegAppTableRecord
  2
ACAD_MLEADERVER
 70
     0
  0
ENDTAB
  0
TABLE
  2
DIMSTYLE
  5
1D
330
0
100
AcDbSymbolTable
 70
     2
100
AcDbDimStyleTable
 71
     1
340
25
  0
DIMSTYLE
105
25
330
1D
100
AcDbSymbolTableRecord
100
AcDbDimStyleTableRecord
  2
ISO-25
 70
     0
 41
2.5
 42
0.625
 43
3.75
 44
1.25
 73
     0
 74
     0
 77
     1
 78
     8
140
2.5
141
2.5
143
0.03937007874016
147
0.625
171
     3
172
     1
271
     2
272
     2
274
     3
278
    44
283
     0
284
     8
340
12
  0
DIMSTYLE
105
123
330
1D
100
AcDbSymbolTableRecord
100
AcDbDimStyleTableRecord
  2
SANINDUSA
 70
     0
 41
3.0
 42
1.0
 43
1.0
 44
1.0
 73
     0
 74
     0
 77
     1
 78
     8
140
2.0
141
0.0
143
0.03937007874016
147
1.0
171
     3
172
     1
176
     1
177
     1
178
     1
179
     1
271
     1
272
     1
274
     3
278
    44
283
     0
284
     8
340
122
371
    -1
372
    -1
  0
ENDTAB
  0
TABLE
  2
BLOCK_RECORD
  5
1
330
0
100
AcDbSymbolTable
 70
    14
  0
BLOCK_RECORD
  5
2
330
1
100
AcDbSymbolTableRecord
100
AcDbBlockTableRecord
  2
*Model_Space
340
A
  0
BLOCK_RECORD
  5
C
330
1
100
AcDbSymbolTableRecord
100
AcDbBlockTableRecord
  2
*Paper_Space
340
F
  0
BLOCK_RECORD
  5
3D
330
1
100
AcDbSymbolTableRecord
100
AcDbBlockTableRecord
  2
107170AL
340
0
102
{BLKREFS
331
4B
102
}
1001
ACAD
1000
DesignCenter Data
1002
{
1070
     1
1070
     4
1002
}
  0
BLOCK_RECORD
  5
4C
330
1
100
AcDbSymbolTableRecord
100
AcDbBlockTableRecord
  2
107170CT
340
0
1001
ACAD
1000
DesignCenter Data
1002
{
1070
     1
1070
     4
1002
}
  0
BLOCK_RECORD
  5
88
330
1
100
AcDbSymbolTableRecord
100
AcDbBlockTableRecord
  2
107170PL
340
0
102
{BLKREFS
331
CD
102
}
1001
ACAD
1000
DesignCenter Data
1002
{
1070
     1
1070
     4
1002
}
  0
BLOCK_RECORD
  5
DA
330
1
100
AcDbSymbolTableRecord
100
AcDbBlockTableRecord
  2
_DotSmall
340
0
  0
ENDTAB
  0
ENDSEC
  0
SECTION
  2
BLOCKS
  0
BLOCK
  5
3
330
2
100
AcDbEntity
  8
0
100
AcDbBlockBegin
  2
*Model_Space
 70
     0
 10
0.0
 20
0.0
 30
0.0
  3
*Model_Space
  1

  0
ENDBLK
  5
9
330
2
100
AcDbEntity
  8
0
100
AcDbBlockEnd
  0
BLOCK
  5
D
330
C
100
AcDbEntity
 67
     1
  8
0
100
AcDbBlockBegin
  2
*Paper_Space
 70
     0
 10
0.0
 20
0.0
 30
0.0
  3
*Paper_Space
  1

  0
ENDBLK
  5
E
330
C
100
AcDbEntity
 67
     1
  8
0
100
AcDbBlockEnd
  0
BLOCK
  5
49
330
3D
100
AcDbEntity
  8
0
100
AcDbBlockBegin
  2
107170AL
 70
     0
 10
0.0
 20
0.0
 30
0.0
  3
107170AL
  1

  0
ARC
  5
3E
330
3D
100
AcDbEntity
  8
BLOCKS
  6
Continuous
100
AcDbCircle
 10
0.392193106156584
 20
0.0719999999999982
 30
0.0
 40
0.0080000000000013
100
AcDbArc
 50
1.400000003936249
 51
90.0
  0
LINE
  5
3F
330
3D
100
AcDbEntity
  8
BLOCKS
  6
Continuous
100
AcDbLine
 10
0.392193106156584
 20
0.08
 30
0.0
 11
0.3611385950682251
 21
0.08
 31
0.0
  0
LINE
  5
40
330
3D
100
AcDbEntity
  8
BLOCKS
  6
Continuous
100
AcDbLine
 10
0.3999056609035842
 20
0.0
 30
0.0
 11
0.390951852456584
 21
0.0
 31
0.0
  0
LINE
  5
41
330
3D
100
AcDbEntity
  8
BLOCKS
  6
Continuous
100
AcDbLine
 10
0.3809548374640866
 20
0.0
 30
0.0
 11
0.3909518524564612
 21
0.0
 31
0.0
  0
ARC
  5
42
330
3D
100
AcDbEntity
  8
BLOCKS
  6
Continuous
100
AcDbCircle
 10
0.3999056609035842
 20
0.0019999999999965
 30
0.0
 40
0.0020000000004302
100
AcDbArc
 50
270.0
 51
1.399999991099983
  0
LINE
  5
43
330
3D
100
AcDbEntity
  8
BLOCKS
  6
Continuous
100
AcDbLine
 10
0.4019050638835842
 20
0.0020488643560003
 30
0.0
 11
0.4001907180748214
 21
0.072195457425716
 31
0.0
  0
ARC
  5
44
330
3D
100
AcDbEntity
  8
BLOCKS
  6
Continuous
100
AcDbCircle
 10
-0.3921931478314161
 20
0.0719999999999982
 30
0.0
 40
0.0080000000000013
100
AcDbArc
 50
90.0
 51
178.5999999960637
  0
ARC
  5
45
330
3D
100
AcDbEntity
  8
BLOCKS
  6
Continuous
100
AcDbCircle
 10
-0.3999057025784163
 20
0.0019999999999965
 30
0.0
 40
0.0020000000004302
100
AcDbArc
 50
178.6000000089
 51
270.0
  0
LINE
  5
46
330
3D
100
AcDbEntity
  8
BLOCKS
  6
Continuous
100
AcDbLine
 10
-0.4001907597496535
 20
0.072195457425716
 30
0.0
 11
-0.4019051055584164
 21
0.0020488643560003
 31
0.0
  0
LINE
  5
47
330
3D
100
AcDbEntity
  8
BLOCKS
  6
Continuous
100
AcDbLine
 10
0.3999057025784157
 20
0.0
 30
0.0
 11
-0.3999057025784163
 21
0.0
 31
0.0
  0
LINE
  5
48
330
3D
100
AcDbEntity
  8
BLOCKS
  6
Continuous
100
AcDbLine
 10
0.392193106156584
 20
0.08
 30
0.0
 11
-0.3921931478314161
 21
0.08
 31
0.0
  0
ENDBLK
  5
4A
330
3D
100
AcDbEntity
  8
0
100
AcDbBlockEnd
  0
BLOCK
  5
85
330
4C
100
AcDbEntity
  8
0
100
AcDbBlockBegin
  2
107170CT
 70
     0
 10
0.0
 20
0.0
 30
0.0
  3
107170CT
  1

  0
LWPOLYLINE
  5
4D
330
4C
100
AcDbEntity
  8
BLOCKS
  6
Continuous
100
AcDbPolyline
 90
        6
 70
   128
 43
0.0
 10
0.5296349305834679
 20
0.0689999999998406
 10
0.5328208867955351
 20
0.0684789072707469
 10
0.5357788619012008
 20
0.0668900005088079
 10
0.5380441553578095
 20
0.0644115560411416
 10
0.5393613725120901
 20
0.0613229996805922
 10
0.5396289630562689
 20
0.059345420095874
  0
LWPOLYLINE
  5
4E
330
4C
100
AcDbEntity
  8
BLOCKS
  6
Continuous
100
AcDbPolyline
 90
        6
 70
   128
 43
0.0
 10
0.5547430308286807
 20
0.0722763360769795
 10
0.5542008615027686
 20
0.0749072231772578
 10
0.5528184165768347
 20
0.0772103429177702
 10
0.5507515562294094
 20
0.0789260360186154
 10
0.5482333032860892
 20
0.0798608710974759
 10
0.5467478048551539
 20
0.079999999999979
  0
LWPOLYLINE
  5
4F
330
4C
100
AcDbEntity
  8
BLOCKS
  6
Continuous
100
AcDbPolyline
 90
        5
 70
   128
 43
0.0
 10
0.4906326661664583
 20
0.0799999999999824
 10
0.4879846214389159
 20
0.0795490303430296
 10
0.485635123666977
 20
0.0782469647801014
 10
0.4838490609015492
 20
0.0762406013261614
 10
0.4831517611543126
 20
0.0748347945599807
  0
LINE
  5
50
330
4C
100
AcDbEntity
  8
BLOCKS
  6
Continuous
100
AcDbLine
 10
0.4811187524083266
 20
0.0799999999999818
 30
0.0
 11
0.4906326661664583
 21
0.0799999999999818
 31
0.0
  0
LINE
  5
51
330
4C
100
AcDbEntity
  8
BLOCKS
  6
Continuous
100
AcDbLine
 10
0.5296349305889056
 20
0.0689999999999782
 30
0.0
 11
0.4927040220110206
 21
0.068999999999981
 31
0.0
  0
LINE
  5
52
330
4C
100
AcDbEntity
  8
BLOCKS
  6
Continuous
100
AcDbLine
 10
0.5467478048551681
 20
0.0799999999999773
 30
0.0
 11
0.4906326661664583
 21
0.0799999999999818
 31
0.0
  0
LWPOLYLINE
  5
53
330
4C
100
AcDbEntity
  8
BLOCKS
  6
Continuous
100
AcDbPolyline
 90
        6
 70
   128
 43
0.0
 10
0.5551707719627581
 20
-0.0000000000000227
 10
0.5558327831447906
 20
0.0001127424142425
 10
0.5564201575879088
 20
0.0004382588050493
 10
0.5568666732793469
 20
0.0009398496686487
 10
0.557121988961992
 20
0.0015609644400763
 10
0.557169578456493
 20
0.0020690840189792
  0
LINE
  5
54
330
4C
100
AcDbEntity
  8
BLOCKS
  6
Continuous
100
AcDbLine
 10
0.5551707719627604
 20
-0.0000000000000227
 30
0.0
 11
0.5416800971491142
 21
-0.000000000000021
 31
0.0
  0
LINE
  5
55
330
4C
100
AcDbEntity
  8
BLOCKS
  6
Continuous
100
AcDbLine
 10
0.5416800971491142
 20
-0.000000000000021
 30
0.0
 11
0.5387515274170648
 21
-0.000000000000021
 31
0.0
  0
LWPOLYLINE
  5
56
330
4C
100
AcDbEntity
  8
BLOCKS
  6
Continuous
100
AcDbPolyline
 90
        8
 70
   128
 43
0.0
 10
0.4565617106530994
 20
0.0275174175279835
 10
0.4587388136292776
 20
0.0277564870296254
 10
0.4608455942966538
 20
0.028355157903373
 10
0.4628208380083658
 20
0.0293013840258362
 10
0.4646106935000342
 20
0.0305636632795859
 10
0.4661613842025498
 20
0.0321103662054293
 10
0.4674325218892637
 20
0.033893941428708
 10
0.4684005629816733
 20
0.0359069957359816
  0
LWPOLYLINE
  5
57
330
4C
100
AcDbEntity
  8
BLOCKS
  6
Continuous
100
AcDbPolyline
 90
        8
 70
   128
 43
0.0
 10
0.4568304646122687
 20
0.0165207011409831
 10
0.4608497316454651
 20
0.0169620602206749
 10
0.4647391728778383
 20
0.0180672987565856
 10
0.4683857766536426
 20
0.0198141777517441
 10
0.4716901252539749
 20
0.0221445394509038
 10
0.4745529388587232
 20
0.0249999910061496
 10
0.476899654588122
 20
0.02829274526441
 10
0.4786868073736349
 20
0.0320091532149826
  0
LINE
  5
58
330
4C
100
AcDbEntity
  8
BLOCKS
  6
Continuous
100
AcDbLine
 10
0.3945555014681446
 20
-0.0000000000000153
 30
0.0
 11
0.3835555014681444
 21
-0.0000000000000136
 31
0.0
  0
LINE
  5
59
330
4C
100
AcDbEntity
  8
BLOCKS
  6
Continuous
100
AcDbLine
 10
0.3945555014681463
 20
0.0104436508139861
 30
0.0
 11
0.3945555014681446
 21
-0.0000000000000153
 31
0.0
  0
LINE
  5
5A
330
4C
100
AcDbEntity
  8
BLOCKS
  6
Continuous
100
AcDbLine
 10
0.3992246971629805
 20
0.0151128465088186
 30
0.0
 11
0.3945555014681463
 21
0.0104436508139861
 31
0.0
  0
ARC
  5
5B
330
4C
100
AcDbEntity
  8
BLOCKS
  6
Continuous
100
AcDbCircle
 10
0.3845555014681458
 20
0.014585786437986
 30
0.0
 40
0.0009999999999339
100
AcDbArc
 50
135.0
 51
180.0
  0
ARC
  5
5C
330
4C
100
AcDbEntity
  8
BLOCKS
  6
Continuous
100
AcDbCircle
 10
0.3954061389430211
 20
0.0240222103514952
 30
0.0
 40
0.0019999999988806
100
AcDbArc
 50
91.40000011001172
 51
135.0
  0
LINE
  5
5D
330
4C
100
AcDbEntity
  8
BLOCKS
  6
Continuous
100
AcDbLine
 10
0.3939919253813758
 20
0.0254364239130155
 30
0.0
 11
0.3838483946870525
 21
0.0152928932189843
 31
0.0
  0
LINE
  5
5E
330
4C
100
AcDbEntity
  8
BLOCKS
  6
Continuous
100
AcDbLine
 10
0.3835555014682109
 20
0.014585786437986
 30
0.0
 11
0.3835555014681444
 21
-0.0000000000000136
 31
0.0
  0
LINE
  5
5F
330
4C
100
AcDbEntity
  8
BLOCKS
  6
Continuous
100
AcDbLine
 10
0.456830464612275
 20
0.016520701140762
 30
0.0
 11
0.3992246971629805
 21
0.0151128465088186
 31
0.0
  0
LINE
  5
60
330
4C
100
AcDbEntity
  8
BLOCKS
  6
Continuous
100
AcDbLine
 10
0.4565617106531022
 20
0.0275174175278107
 30
0.0
 11
0.395357274582903
 21
0.0260216133298445
 31
0.0
  0
LINE
  5
61
330
4C
100
AcDbEntity
  8
BLOCKS
  6
Continuous
100
AcDbLine
 10
0.3945555014681446
 20
-0.0000000000000153
 30
0.0
 11
0.5387515274172325
 21
-0.0000000000000273
 31
0.0
  0
LINE
  5
62
330
4C
100
AcDbEntity
  8
BLOCKS
  6
Continuous
100
AcDbLine
 10
0.4927040220110206
 20
0.068999999999981
 30
0.0
 11
0.4786868073736929
 21
0.0320091532149581
 31
0.0
  0
LINE
  5
63
330
4C
100
AcDbEntity
  8
BLOCKS
  6
Continuous
100
AcDbLine
 10
0.4831517611502182
 20
0.0748347945501701
 30
0.0
 11
0.468400562981932
 21
0.0359069957358833
 31
0.0
  0
LINE
  5
64
330
4C
100
AcDbEntity
  8
BLOCKS
  6
Continuous
100
AcDbLine
 10
0.5396289630562683
 20
0.059345420095874
 30
0.0
 11
0.5416800971491142
 21
-0.000000000000021
 31
0.0
  0
LINE
  5
65
330
4C
100
AcDbEntity
  8
BLOCKS
  6
Continuous
100
AcDbLine
 10
0.5547430308290008
 20
0.0722763360769886
 30
0.0
 11
0.5571695784557892
 21
0.0020690840365569
 31
0.0
  0
LINE
  5
66
330
4C
100
AcDbEntity
  8
BLOCKS
  6
Continuous
100
AcDbLine
 10
0.3125555014681464
 20
0.010443650813989
 30
0.0
 11
0.3078863057729024
 21
0.0151128465092325
 31
0.0
  0
LINE
  5
67
330
4C
100
AcDbEntity
  8
BLOCKS
  6
Continuous
100
AcDbLine
 10
0.3125555014681441
 20
-0.0000000000000136
 30
0.0
 11
0.3125555014681464
 21
0.010443650813989
 31
0.0
  0
LINE
  5
68
330
4C
100
AcDbEntity
  8
BLOCKS
  6
Continuous
100
AcDbLine
 10
0.3235555014681444
 20
-0.0000000000000136
 30
0.0
 11
0.3125555014681441
 21
-0.0000000000000136
 31
0.0
  0
LINE
  5
69
330
4C
100
AcDbEntity
  8
BLOCKS
  6
Continuous
100
AcDbLine
 10
0.3235555014681444
 20
-0.0000000000000136
 30
0.0
 11
0.323555501468079
 21
0.0145857864379877
 31
0.0
  0
ARC
  5
6A
330
4C
100
AcDbEntity
  8
BLOCKS
  6
Continuous
100
AcDbCircle
 10
0.322555501468147
 20
0.0145857864379877
 30
0.0
 40
0.0009999999999339
100
AcDbArc
 50
0.0
 51
44.99999999622313
  0
ARC
  5
6B
330
4C
100
AcDbEntity
  8
BLOCKS
  6
Continuous
100
AcDbCircle
 10
0.3117048639932733
 20
0.0240222103514998
 30
0.0
 40
0.0019999999988808
100
AcDbArc
 50
44.99999999753582
 51
88.59999988536168
  0
LINE
  5
6C
330
4C
100
AcDbEntity
  8
BLOCKS
  6
Continuous
100
AcDbLine
 10
0.3232626082492396
 20
0.0152928932189889
 30
0.0
 11
0.3131190775549152
 21
0.0254364239130183
 31
0.0
  0
LINE
  5
6D
330
4C
100
AcDbEntity
  8
BLOCKS
  6
Continuous
100
AcDbLine
 10
0.0
 20
0.0
 30
0.0
 11
-0.0141379140292526
 21
0.0
 31
0.0
  0
LINE
  5
6E
330
4C
100
AcDbEntity
  8
BLOCKS
  6
Continuous
100
AcDbLine
 10
-0.029608376099759
 20
0.08
 30
0.0
 11
0.0154704622257793
 21
0.08
 31
0.0
  0
LINE
  5
6F
330
4C
100
AcDbEntity
  8
BLOCKS
  6
Continuous
100
AcDbLine
 10
0.0000000000001319
 20
-0.0000000000000063
 30
0.0
 11
0.3125555014681441
 21
-0.0000000000000136
 31
0.0
  0
LINE
  5
70
330
4C
100
AcDbEntity
  8
BLOCKS
  6
Continuous
100
AcDbLine
 10
0.3835555014681444
 20
-0.0000000000000136
 30
0.0
 11
0.3235555014681444
 21
-0.0000000000000136
 31
0.0
  0
LINE
  5
71
330
4C
100
AcDbEntity
  8
BLOCKS
  6
Continuous
100
AcDbLine
 10
0.4811187524094868
 20
0.0799999999999818
 30
0.0
 11
0.0154704622269395
 21
0.08
 31
0.0
  0
LINE
  5
72
330
4C
100
AcDbEntity
  8
BLOCKS
  6
Continuous
100
AcDbLine
 10
-0.5047705800404395
 20
0.0800000000000211
 30
0.0
 11
-0.4952566662834665
 21
0.0800000000000182
 31
0.0
  0
LWPOLYLINE
  5
73
330
4C
100
AcDbEntity
  8
BLOCKS
  6
Continuous
100
AcDbPolyline
 90
        5
 70
   128
 43
0.0
 10
-0.4972896750282946
 20
0.0748347945600187
 10
-0.4986497155229609
 20
0.0771512151534017
 10
-0.5006998370606488
 20
0.0788868753140605
 10
-0.5032089039896266
 20
0.0798460925250976
 10
-0.5047705800404395
 20
0.0800000000000211
  0
LINE
  5
74
330
4C
100
AcDbEntity
  8
BLOCKS
  6
Continuous
100
AcDbLine
 10
-0.5068419358848547
 20
0.0690000000000208
 30
0.0
 11
-0.5437728444628874
 21
0.0690000000000237
 31
0.0
  0
LWPOLYLINE
  5
75
330
4C
100
AcDbEntity
  8
BLOCKS
  6
Continuous
100
AcDbPolyline
 90
        6
 70
   128
 43
0.0
 10
-0.5537668769304157
 20
0.0593454200968523
 10
-0.5531731151828387
 20
0.0624109984457601
 10
-0.5515141510188028
 20
0.0653302585107201
 10
-0.5489824132642878
 20
0.0675358299484111
 10
-0.5458633361459784
 20
0.0687790513101618
 10
-0.5437728445098219
 20
0.0690000000001607
  0
LINE
  5
76
330
4C
100
AcDbEntity
  8
BLOCKS
  6
Continuous
100
AcDbLine
 10
-0.5047705800404395
 20
0.0800000000000211
 30
0.0
 11
-0.5608857187291477
 21
0.0800000000000228
 31
0.0
  0
LWPOLYLINE
  5
77
330
4C
100
AcDbEntity
  8
BLOCKS
  6
Continuous
100
AcDbPolyline
 90
        6
 70
   128
 43
0.0
 10
-0.5608857187291352
 20
0.0800000000000228
 10
-0.563533763456598
 20
0.0795490303430916
 10
-0.5658832612284716
 20
0.078246964780198
 10
-0.5676693239938011
 20
0.076240601326349
 10
-0.5686905867244469
 20
0.0737561422410426
 10
-0.5688809447026627
 20
0.072276336077025
  0
LINE
  5
78
330
4C
100
AcDbEntity
  8
BLOCKS
  6
Continuous
100
AcDbLine
 10
-0.5528894414469318
 20
0.0000000000000227
 30
0.0
 11
-0.5558180110239614
 21
0.000000000000021
 31
0.0
  0
LWPOLYLINE
  5
79
330
4C
100
AcDbEntity
  8
BLOCKS
  6
Continuous
100
AcDbPolyline
 90
        6
 70
   128
 43
0.0
 10
-0.5713074923304811
 20
0.0020690840190224
 10
-0.5712176843921674
 20
0.0014035735449716
 10
-0.5709126513480016
 20
0.0008053056293858
 10
-0.5704267833597516
 20
0.0003417304413387
 10
-0.5698148583573465
 20
0.0000651125667565
 10
-0.5693086858367457
 20
0.0000000000000227
  0
LINE
  5
7A
330
4C
100
AcDbEntity
  8
BLOCKS
  6
Continuous
100
AcDbLine
 10
-0.5558180110239614
 20
0.000000000000021
 30
0.0
 11
-0.5693086858367486
 21
0.0000000000000227
 31
0.0
  0
LWPOLYLINE
  5
7B
330
4C
100
AcDbEntity
  8
BLOCKS
  6
Continuous
100
AcDbPolyline
 90
        8
 70
   128
 43
0.0
 10
-0.4892804221697731
 20
0.0536987091810198
 10
-0.488333377398638
 20
0.0517238578455664
 10
-0.4870703563659755
 20
0.0499345257168852
 10
-0.4855230108184299
 20
0.0483844762492271
 10
-0.4837389088673035
 20
0.0471140779559056
 10
-0.4817657140160845
 20
0.0461635866752687
 10
-0.4796616751077755
 20
0.0455553499879761
 10
-0.4774415698404927
 20
0.0453091309740222
  0
LWPOLYLINE
  5
7C
330
4C
100
AcDbEntity
  8
BLOCKS
  6
Continuous
100
AcDbPolyline
 90
        8
 70
   128
 43
0.0
 10
-0.499566666561737
 20
0.0498008666610196
 10
-0.4978182762149925
 20
0.0461549872723907
 10
-0.4954865450777118
 20
0.042851604880895
 10
-0.4926299071437218
 20
0.039989975094374
 10
-0.4893361804646572
 20
0.0376446243989312
 10
-0.4856933592007227
 20
0.0358898712653434
 10
-0.4818089796775349
 20
0.0347669727656495
 10
-0.4777103238003702
 20
0.0343124145860173
  0
LINE
  5
7D
330
4C
100
AcDbEntity
  8
BLOCKS
  6
Continuous
100
AcDbLine
 10
-0.5558180110239614
 20
0.000000000000021
 30
0.0
 11
-0.5537668769304157
 21
0.0593454200968518
 31
0.0
  0
LINE
  5
7E
330
4C
100
AcDbEntity
  8
BLOCKS
  6
Continuous
100
AcDbLine
 10
-0.4892804221697134
 20
0.0536987091810397
 30
0.0
 11
-0.4972896750258958
 21
0.074834794553999
 31
0.0
  0
LINE
  5
7F
330
4C
100
AcDbEntity
  8
BLOCKS
  6
Continuous
100
AcDbLine
 10
-0.4995666665614505
 20
0.0498008666611304
 30
0.0
 11
-0.5068419358848547
 21
0.0690000000000208
 31
0.0
  0
LINE
  5
80
330
4C
100
AcDbEntity
  8
BLOCKS
  6
Continuous
100
AcDbLine
 10
-0.5713074923284922
 20
0.0020690840366024
 30
0.0
 11
-0.5688809447017991
 21
0.0722763360769932
 31
0.0
  0
LINE
  5
81
330
4C
100
AcDbEntity
  8
BLOCKS
  6
Continuous
100
AcDbLine
 10
0.3078863057729035
 20
0.0151128465092325
 30
0.0
 11
-0.4777103238003764
 21
0.0343124145857991
 31
0.0
  0
LINE
  5
82
330
4C
100
AcDbEntity
  8
BLOCKS
  6
Continuous
100
AcDbLine
 10
0.3117537283535517
 20
0.0260216133298445
 30
0.0
 11
-0.4774415698404989
 21
0.0453091309737892
 31
0.0
  0
LINE
  5
83
330
4C
100
AcDbEntity
  8
BLOCKS
  6
Continuous
100
AcDbLine
 10
-0.5528894414469529
 20
0.000000000000021
 30
0.0
 11
-0.0141379140292526
 21
0.0
 31
0.0
  0
LINE
  5
84
330
4C
100
AcDbEntity
  8
BLOCKS
  6
Continuous
100
AcDbLine
 10
-0.029608376100918
 20
0.08
 30
0.0
 11
-0.4952566662834665
 21
0.0800000000000182
 31
0.0
  0
ENDBLK
  5
86
330
4C
100
AcDbEntity
  8
0
100
AcDbBlockEnd
  0
BLOCK
  5
CB
330
88
100
AcDbEntity
  8
0
100
AcDbBlockBegin
  2
107170PL
 70
     0
 10
0.0
 20
0.0
 30
0.0
  3
107170PL
  1

  0
LWPOLYLINE
  5
89
330
88
100
AcDbEntity
  8
BLOCKS
  6
Continuous
100
AcDbPolyline
 90
        9
 70
   128
 43
0.0
 10
0.793813154538967
 20
-0.0000000000008629
 10
0.7958425746635454
 20
-0.0002083226894547
 10
0.7977379926541199
 20
-0.0008028978882555
 10
0.799434017996901
 20
-0.0017300795536255
 10
0.8008819793014081
 20
-0.0029281901378715
 10
0.802080100401551
 20
-0.0043761669239893
 10
0.8030072813431502
 20
-0.0060721997389533
 10
0.8036018505497105
 20
-0.0079676131023712
 10
0.8038101694409107
 20
-0.0099970148992804
  0
LWPOLYLINE
  5
8A
330
88
100
AcDbEntity
  8
BLOCKS
  6
Continuous
100
AcDbPolyline
 90
        9
 70
   128
 43
0.0
 10
0.7315974763025572
 20
-0.0833546229242109
 10
0.7313903182775511
 20
-0.0810413439142042
 10
0.7307546911045506
 20
-0.0788369855377039
 10
0.729712987138052
 20
-0.0768192045957051
 10
0.7283019043120508
 20
-0.0750590850002038
 10
0.7265711533170583
 20
-0.0736186335727098
 10
0.7245817063575509
 20
-0.0725485956242039
 10
0.7224036491720512
 20
-0.0718866672592026
 10
0.720113712005562
 20
-0.0716561673912145
  0
LWPOLYLINE
  5
8B
330
88
100
AcDbEntity
  8
BLOCKS
  6
Continuous
100
AcDbPolyline
 90
       10
 70
   128
 43
0.0
 10
0.7553162940083264
 20
-0.0726420210908953
 10
0.7549306273449777
 20
-0.0676651191385406
 10
0.7536605112688016
 20
-0.063130256764224
 10
0.7514849063301626
 20
-0.058892972756338
 10
0.7485434787532232
 20
-0.0552666906787067
 10
0.7449172446466914
 20
-0.052325294385854
 10
0.7428673173022043
 20
-0.0511344322957405
 10
0.740679912665018
 20
-0.0501496581671972
 10
0.7361450959791347
 20
-0.048879549875968
 10
0.731168148351282
 20
-0.0484938754334769
  0
LWPOLYLINE
  5
8C
330
88
100
AcDbEntity
  8
BLOCKS
100
AcDbPolyline
 90
       22
 70
     1
 43
0.0
 10
0.6430816485701263
 20
-0.1598448743072584
 10
0.6426923405505631
 20
-0.1595847470052149
 10
0.6422331204305366
 20
-0.1594934024440124
 10
0.6337478390589255
 20
-0.1594934024440192
 10
0.6333994974445627
 20
-0.1595450740412139
 10
0.6330811547775608
 20
-0.1596956389097147
 10
0.6328202265130595
 20
-0.1599321305032106
 10
0.6326391836180561
 20
-0.1602341823252072
 10
0.6325536173855553
 20
-0.1605757818757081
 10
0.6325708967210569
 20
-0.1609275108307099
 10
0.6326895335400537
 20
-0.1612590785282055
 10
0.6328993109122604
 20
-0.1615419305713681
 10
0.6466536800019123
 20
-0.1752962996637871
 10
0.6470429880205819
 20
-0.1755564269652348
 10
0.6475022081400727
 20
-0.1756477715262235
 10
0.6479614282585749
 20
-0.1755564269652268
 10
0.648350736276575
 20
-0.1752962996642282
 10
0.6486108635785755
 20
-0.1749069916452288
 10
0.6487022081383652
 20
-0.1744477715323444
 10
0.6487022081398381
 20
-0.1659624901535835
 10
0.6486108635785682
 20
-0.1655032700332185
 10
0.6483507362282719
 20
-0.1651139619429398
  0
LWPOLYLINE
  5
8D
330
88
100
AcDbEntity
  8
BLOCKS
100
AcDbPolyline
 90
       22
 70
     1
 43
0.0
 10
0.6077263095054168
 20
-0.1598448743034419
 10
0.6073370014910547
 20
-0.1595847470052081
 10
0.6068777813715946
 20
-0.159493402444017
 10
0.5983924999989729
 20
-0.159493402444009
 10
0.5980441583850604
 20
-0.1595450740412139
 10
0.5977258157180589
 20
-0.1596956389097113
 10
0.5974648874540657
 20
-0.1599321305032163
 10
0.5972838445590714
 20
-0.1602341823252243
 10
0.5971982783255619
 20
-0.1605757818757149
 10
0.5972155576610626
 20
-0.1609275108307168
 10
0.5973341944805685
 20
-0.1612590785282214
 10
0.5975439718551875
 20
-0.1615419305739647
 10
0.6466536800003638
 20
-0.2106516387217414
 10
0.6470429880205561
 20
-0.2109117660252093
 10
0.6475022081400639
 20
-0.2110031105862174
 10
0.6479614282585672
 20
-0.2109117660252207
 10
0.6483507362765676
 20
-0.2106516387232193
 10
0.6486108635785678
 20
-0.210262330704719
 10
0.6487022081383475
 20
-0.2098031105922803
 10
0.6487022081398442
 20
-0.2013178292126247
 10
0.6486108635785644
 20
-0.2008586090927156
 10
0.6483507363435614
 20
-0.2004693011744848
  0
LINE
  5
8E
330
88
100
AcDbEntity
  8
BLOCKS
  6
Continuous
100
AcDbLine
 10
0.7297846851281839
 20
-0.5943911795708783
 30
0.0
 11
0.7293355049950913
 21
-0.5741089691310738
 31
0.0
  0
LINE
  5
8F
330
88
100
AcDbEntity
  8
BLOCKS
  6
Continuous
100
AcDbLine
 10
0.7293355049950913
 20
-0.5741089691310738
 30
0.0
 11
0.7315974763025811
 21
-0.0833546229203773
 31
0.0
  0
LWPOLYLINE
  5
90
330
88
100
AcDbEntity
  8
BLOCKS
  6
Continuous
100
AcDbPolyline
 90
        9
 70
   128
 43
0.0
 10
0.8038101694417951
 20
-0.7938131545499307
 10
0.8036018467463106
 20
-0.7958425746983716
 10
0.8030072715385212
 20
-0.7977379926929223
 10
0.8020800898727776
 20
-0.7994340180224078
 10
0.8008819793052657
 20
-0.8008819793025157
 10
0.7994339955700679
 20
-0.8020801051293251
 10
0.7977379594005828
 20
-0.8030072857469997
 10
0.7958425481140525
 20
-0.8036018522608481
 10
0.7938131545445359
 20
-0.8038101694424506
  0
LWPOLYLINE
  5
91
330
88
100
AcDbEntity
  8
BLOCKS
  6
Continuous
100
AcDbPolyline
 90
        9
 70
   128
 43
0.0
 10
0.718772202759555
 20
-0.7303633126762083
 10
0.7210835453400496
 20
-0.7301542182207009
 10
0.7232819621290565
 20
-0.7295126494602079
 10
0.7252900056405594
 20
-0.7284612080632116
 10
0.7270369350005513
 20
-0.7270369350012055
 10
0.7284612080625594
 20
-0.725290005641212
 10
0.7295126494595565
 20
-0.7232819621297092
 10
0.7301542182200496
 20
-0.7210835453402007
 10
0.7303633126755549
 20
-0.7187722027602064
  0
CIRCLE
  5
92
330
88
100
AcDbEntity
  8
BLOCKS
  6
Continuous
100
AcDbCircle
 10
0.6569050847205622
 20
-0.6569050847212141
 30
0.0
 40
0.0299999999999999
  0
LINE
  5
93
330
88
100
AcDbEntity
  8
BLOCKS
  6
Continuous
100
AcDbLine
 10
0.5943911796228436
 20
-0.7297846850369098
 30
0.0
 11
0.7187722027929146
 21
-0.7303633126679609
 31
0.0
  0
LWPOLYLINE
  5
94
330
88
100
AcDbEntity
  8
BLOCKS
  6
Continuous
100
AcDbPolyline
 90
       10
 70
   128
 43
0.0
 10
0.7311681483418063
 20
-0.755316294009902
 10
0.7361450640545773
 20
-0.7549306245648234
 10
0.7406799126759092
 20
-0.7536605112668037
 10
0.7449171967712596
 20
-0.7514849062688859
 10
0.7485434787628066
 20
-0.7485434787527749
 10
0.7514848750559788
 20
-0.744917244644655
 10
0.7526757371452169
 20
-0.7428673172999164
 10
0.7536605112724156
 20
-0.7406799126629683
 10
0.7549306195884525
 20
-0.7361450958529071
 10
0.7553162940086048
 20
-0.7311681483520819
  0
LINE
  5
95
330
88
100
AcDbEntity
  8
BLOCKS
  6
Continuous
100
AcDbLine
 10
0.8038101694411324
 20
-0.793813154544215
 30
0.0
 11
0.8038101694413303
 21
-0.0099970148969612
 31
0.0
  0
LINE
  5
96
330
88
100
AcDbEntity
  8
BLOCKS
  6
Continuous
100
AcDbLine
 10
0.7553162940143157
 20
-0.7311681483572153
 30
0.0
 11
0.7553162940145624
 21
-0.0726420212481651
 31
0.0
  0
LINE
  5
97
330
88
100
AcDbEntity
  8
BLOCKS
  6
Continuous
100
AcDbLine
 10
0.7303633126721263
 20
-0.7187722027600496
 30
0.0
 11
0.7297846851281839
 21
-0.5943911795708783
 31
0.0
  0
CIRCLE
  5
98
330
88
100
AcDbEntity
  8
BLOCKS
100
AcDbCircle
 10
0.6569050847205622
 20
-0.6569050847212141
 30
0.0
 40
0.0413151570543662
  0
LWPOLYLINE
  5
99
330
88
100
AcDbEntity
  8
BLOCKS
  6
Continuous
100
AcDbPolyline
 90
        9
 70
   128
 43
0.0
 10
0.0000000000002142
 20
-0.0099970148981947
 10
0.0002083209846546
 20
-0.0079676029781729
 10
0.0008028934989647
 20
-0.0060721870587201
 10
0.001730074842184
 20
-0.0043761583707681
 10
0.0029281901409868
 20
-0.0029281901366028
 10
0.0043761669325787
 20
-0.0017300690339505
 10
0.0060721997488372
 20
-0.0008028880941356
 10
0.007967613107763
 20
-0.0002083188908159
 10
0.0099970148939559
 20
-0.0000000000008686
  0
LWPOLYLINE
  5
9A
330
88
100
AcDbEntity
  8
BLOCKS
  6
Continuous
100
AcDbPolyline
 90
       10
 70
   128
 43
0.0
 10
0.0726420210827982
 20
-0.0484938754312395
 10
0.0676651053846467
 20
-0.0488795448825556
 10
0.0631302567799131
 20
-0.0501496581770107
 10
0.0588929726261714
 20
-0.0523252632050492
 10
0.0552666906841478
 20
-0.0552666906813079
 10
0.05232529439166
 20
-0.0588929247893191
 10
0.0511344323036565
 20
-0.0609428521359269
 10
0.050149658178415
 20
-0.063130256776102
 10
0.0488795498385711
 20
-0.0676650737030866
 10
0.0484938754309124
 20
-0.0726420210786068
  0
LWPOLYLINE
  5
9B
330
88
100
AcDbEntity
  8
BLOCKS
  6
Continuous
100
AcDbPolyline
 90
        9
 70
   128
 43
0.0
 10
0.0802706914315695
 20
-0.0686795815172207
 10
0.0779593488515575
 20
-0.0688886759722095
 10
0.0757609320620677
 20
-0.0695302447322217
 10
0.0737528885510656
 20
-0.0705816861297183
 10
0.0720059591910732
 20
-0.0720059591917243
 10
0.070581686129065
 20
-0.0737528885517179
 10
0.069530244731568
 20
-0.0757609320627205
 10
0.068888675971557
 20
-0.0779593488522107
 10
0.0686795815165692
 20
-0.0802706914322232
  0
LWPOLYLINE
  5
9C
330
88
100
AcDbEntity
  8
BLOCKS
100
AcDbPolyline
 90
       26
 70
     1
 43
0.0
 10
0.1615419305836061
 20
-0.208635242210471
 10
0.1612590785275577
 20
-0.2084254648287106
 10
0.1609275108300535
 20
-0.2083068280097075
 10
0.1605757818750533
 20
-0.2082895486742052
 10
0.1602341823245631
 20
-0.2083751149067154
 10
0.1599321305025565
 20
-0.2085561578017087
 10
0.1596956389090511
 20
-0.2088170860662024
 10
0.1595450740405519
 20
-0.2091354287332047
 10
0.1594934024433505
 20
-0.2094837703475957
 10
0.1594934024433594
 20
-0.2179690517192478
 10
0.159584747004556
 20
-0.2184282718392057
 10
0.1598448743044817
 20
-0.2188175798556051
 10
0.5612368203837577
 20
-0.6202095259349239
 10
0.561470554187631
 20
-0.6203913375610348
 10
0.5617414911620698
 20
-0.6205106769327228
 10
0.5620334927900058
 20
-0.6205596901548444
 10
0.5623286362545623
 20
-0.6205360769747159
 10
0.5626088927299416
 20
-0.6204405596730334
 10
0.5628574286955712
 20
-0.6202796338502259
 10
0.563058708037072
 20
-0.6200625271022233
 10
0.5632010374265627
 20
-0.6198028555352097
 10
0.5657352770046007
 20
-0.6139516405791267
 10
0.5658390132205714
 20
-0.6136003475742229
 10
0.5658319438680605
 20
-0.6132341263272117
 10
0.565714727613065
 20
-0.612887098479717
 10
0.5654982857456139
 20
-0.6125915973703627
  0
LWPOLYLINE
  5
9D
330
88
100
AcDbEntity
  8
BLOCKS
100
AcDbPolyline
 90
       22
 70
     1
 43
0.0
 10
0.1615419305799101
 20
-0.6328993109197347
 10
0.1612590785275604
 20
-0.6326895335407147
 10
0.1609275108300658
 20
-0.6325708967217191
 10
0.1605757818750642
 20
-0.6325536173862162
 10
0.1602341823245656
 20
-0.6326391836187173
 10
0.1599321305025685
 20
-0.6328202265137202
 10
0.1596956389090705
 20
-0.6330811547782237
 10
0.1595450740405724
 20
-0.6333994974452231
 10
0.159493402443359
 20
-0.6337478390597
 10
0.1594934024433499
 20
-0.6422331204311388
 10
0.1595847470045631
 20
-0.6426923405512146
 10
0.1598448743054048
 20
-0.6430816485689804
 10
0.1651139620128831
 20
-0.6483507362760878
 10
0.1655032700325542
 20
-0.6486108635792073
 10
0.1659624902773616
 20
-0.6487022081652305
 10
0.1744477715241358
 20
-0.6487022081404951
 10
0.1749069916445524
 20
-0.6486108635792056
 10
0.1752962996635526
 20
-0.6483507362772048
 10
0.175556426964553
 20
-0.6479614282592059
 10
0.1756477715255491
 20
-0.6475022081407019
 10
0.1755564269645595
 20
-0.6470429880212129
 10
0.1752962996619083
 20
-0.6466536800007413
  0
LWPOLYLINE
  5
9E
330
88
100
AcDbEntity
  8
BLOCKS
  6
Continuous
100
AcDbPolyline
 90
        9
 70
   128
 43
0.0
 10
0.0716561673905631
 20
-0.7201137120062152
 10
0.0718866672585523
 20
-0.7224036491727049
 10
0.0725485956235519
 20
-0.7245817063582046
 10
0.0736186335720595
 20
-0.726571153317712
 10
0.0750590849995518
 20
-0.7283019043127036
 10
0.0768192045950536
 20
-0.7297129871387057
 10
0.0788369855370519
 20
-0.7307546911052043
 10
0.0810413439135522
 20
-0.7313903182782048
 10
0.083354622923558
 20
-0.7315974763032097
  0
LINE
  5
9F
330
88
100
AcDbEntity
  8
BLOCKS
  6
Continuous
100
AcDbLine
 10
0.0484938754327951
 20
-0.7311681483562803
 30
0.0
 11
0.0488795448809401
 21
-0.7361450640612617
 31
0.0
  0
LINE
  5
A0
330
88
100
AcDbEntity
  8
BLOCKS
  6
Continuous
100
AcDbLine
 10
0.0501496581680311
 20
-0.7406799126697854
 30
0.0
 11
0.0523252630975313
 21
-0.7449171966676455
 31
0.0
  0
LINE
  5
A1
330
88
100
AcDbEntity
  8
BLOCKS
  6
Continuous
100
AcDbLine
 10
0.0523252630975313
 20
-0.7449171966676455
 30
0.0
 11
0.0552666906808331
 21
-0.7485434787572065
 31
0.0
  0
LINE
  5
A2
330
88
100
AcDbEntity
  8
BLOCKS
  6
Continuous
100
AcDbLine
 10
0.0552666906808331
 20
-0.7485434787572065
 30
0.0
 11
0.0588929247872685
 21
-0.7514848750519826
 31
0.0
  0
LINE
  5
A3
330
88
100
AcDbEntity
  8
BLOCKS
  6
Continuous
100
AcDbLine
 10
0.0588929247872685
 20
-0.7514848750519826
 30
0.0
 11
0.0609428521311406
 21
-0.7526757371426203
 31
0.0
  0
LINE
  5
A4
330
88
100
AcDbEntity
  8
BLOCKS
  6
Continuous
100
AcDbLine
 10
0.0609428521311406
 20
-0.7526757371426203
 30
0.0
 11
0.0631302567672418
 21
-0.753660511271558
 31
0.0
  0
LINE
  5
A5
330
88
100
AcDbEntity
  8
BLOCKS
  6
Continuous
100
AcDbLine
 10
0.0631302567672418
 20
-0.753660511271558
 30
0.0
 11
0.0676650734804156
 21
-0.7549306195699917
 31
0.0
  0
LINE
  5
A6
330
88
100
AcDbEntity
  8
BLOCKS
  6
Continuous
100
AcDbLine
 10
0.0676650734804156
 20
-0.7549306195699917
 30
0.0
 11
0.0726420210804182
 21
-0.7553162940086418
 31
0.0
  0
LWPOLYLINE
  5
A7
330
88
100
AcDbEntity
  8
BLOCKS
  6
Continuous
100
AcDbPolyline
 90
        9
 70
   128
 43
0.0
 10
0.0099970148965889
 20
-0.8038101694424506
 10
0.007967602976521
 20
-0.8036018484579996
 10
0.0060721870569664
 20
-0.8030072759436313
 10
0.0043761583688843
 20
-0.8020800946002793
 10
0.0029281901345888
 20
-0.800881979301244
 10
0.0017300690382513
 20
-0.7994340025187206
 10
0.000802888098126
 20
-0.7977379697068239
 10
0.000208318891392
 20
-0.7958425563451432
 10
-0.0000000000006722
 20
-0.793813154548135
  0
LINE
  5
A8
330
88
100
AcDbEntity
  8
BLOCKS
  6
Continuous
100
AcDbLine
 10
0.0488795448809401
 20
-0.7361450640612617
 30
0.0
 11
0.0501496581680311
 21
-0.7406799126697854
 31
0.0
  0
LINE
  5
A9
330
88
100
AcDbEntity
  8
BLOCKS
  6
Continuous
100
AcDbLine
 10
0.0833546229244212
 20
-0.7315974762987327
 30
0.0
 11
0.5741089689439687
 21
-0.7293355049054328
 31
0.0
  0
LINE
  5
AA
330
88
100
AcDbEntity
  8
BLOCKS
  6
Continuous
100
AcDbLine
 10
0.0686795815142728
 20
-0.0802706914329236
 30
0.0
 11
0.0716561673707406
 21
-0.7201137120075703
 31
0.0
  0
LINE
  5
AB
330
88
100
AcDbEntity
  8
BLOCKS
  6
Continuous
100
AcDbLine
 10
-0.000000000000008
 20
-0.0099970148982163
 30
0.0
 11
-0.0000000000006362
 21
-0.7938131545454679
 31
0.0
  0
LINE
  5
AC
330
88
100
AcDbEntity
  8
BLOCKS
  6
Continuous
100
AcDbLine
 10
0.0484938754268092
 20
-0.0726420210852155
 30
0.0
 11
0.0484938754265625
 21
-0.7311681481942634
 31
0.0
  0
LWPOLYLINE
  5
AD
330
88
100
AcDbEntity
  8
BLOCKS
100
AcDbPolyline
 90
       25
 70
     1
 43
0.0
 10
0.1615419305776194
 20
-0.2439905812660323
 10
0.1612590785275567
 20
-0.2437808038882065
 10
0.1609275108300497
 20
-0.2436621670687009
 10
0.1605757818750567
 20
-0.2436448877332089
 10
0.1602341823245494
 20
-0.2437304539662011
 10
0.1599321305025524
 20
-0.2439114968612046
 10
0.159695638909055
 20
-0.2441724251257051
 10
0.1595450740405564
 20
-0.2444907677927085
 10
0.1594934024433607
 20
-0.2448391094065641
 10
0.1594934024433523
 20
-0.2533243907781991
 10
0.1595847470045517
 20
-0.2537836108982037
 10
0.1598448743056708
 20
-0.2541729189173816
 10
0.5540226916630764
 20
-0.6483507362748839
 10
0.5544119996855585
 20
-0.6486108635792113
 10
0.5548712199283726
 20
-0.6487022081648405
 10
0.5553545132240593
 20
-0.6487022081404877
 10
0.5557879885585679
 20
-0.6486211804972203
 10
0.5561629247510616
 20
-0.6483890400327124
 10
0.5564286881420574
 20
-0.6480371364052111
 10
0.5565493884305574
 20
-0.64761299281721
 10
0.5574480221555558
 20
-0.6406037796232062
 10
0.5574603710995584
 20
-0.6403203142910235
 10
0.5574061267485613
 20
-0.6400418668237155
 10
0.5572877581268131
 20
-0.6397840601251534
 10
0.5571123730929282
 20
-0.6395610237753341
  0
LWPOLYLINE
  5
AE
330
88
100
AcDbEntity
  8
BLOCKS
100
AcDbPolyline
 90
       22
 70
     1
 43
0.0
 10
0.1615419305883589
 20
-0.2793459203329974
 10
0.1612590785275602
 20
-0.2791361429472125
 10
0.160927510830065
 20
-0.2790175061277159
 10
0.1605757818750631
 20
-0.2790002267922148
 10
0.1602341823245629
 20
-0.2790857930257164
 10
0.159932130502566
 20
-0.2792668359207198
 10
0.1596956389090693
 20
-0.2795277641847212
 10
0.1595450740405621
 20
-0.2798461068517133
 10
0.1594934024433539
 20
-0.2801944484655849
 10
0.1594934024433633
 20
-0.2886797298381998
 10
0.1595847470045661
 20
-0.2891389499577178
 10
0.1598448743042604
 20
-0.289528257974265
 10
0.5186673526125612
 20
-0.6483507362805609
 10
0.5190566606260805
 20
-0.6486108635792318
 10
0.5195158806718067
 20
-0.6487022081257561
 10
0.5280011621196065
 20
-0.6487022081402149
 10
0.5284603822380741
 20
-0.6486108635792249
 10
0.5288496902565651
 20
-0.6483507362772173
 10
0.5291098175585737
 20
-0.6479614282592258
 10
0.5292011621195702
 20
-0.6475022081407235
 10
0.5291098175585712
 20
-0.6470429880212238
 10
0.5288496902538283
 20
-0.6466536799991184
  0
LWPOLYLINE
  5
AF
330
88
100
AcDbEntity
  8
BLOCKS
100
AcDbPolyline
 90
       22
 70
     1
 43
0.0
 10
0.1615419305840518
 20
-0.3147012593888007
 10
0.1612590785275702
 20
-0.3144914820067208
 10
0.1609275108300638
 20
-0.3143728451877155
 10
0.1605757818750626
 20
-0.3143555658522144
 10
0.1602341823245635
 20
-0.3144411320847155
 10
0.1599321305025583
 20
-0.3146221749797076
 10
0.1596956389090603
 20
-0.3148831032442137
 10
0.159545074040562
 20
-0.3152014459112149
 10
0.1594934024433653
 20
-0.3155497875255776
 10
0.1594934024433567
 20
-0.3240350688971966
 10
0.1595847470045562
 20
-0.3244942890172103
 10
0.159844874304717
 20
-0.3248835970339507
 10
0.483312013545864
 20
-0.6483507362754102
 10
0.483701321566563
 20
-0.648610863579213
 10
0.4841605416111821
 20
-0.6487022081254174
 10
0.4926458230581361
 20
-0.648702208140486
 10
0.4931050431785639
 20
-0.6486108635792164
 10
0.4934943511975635
 20
-0.6483507362772173
 10
0.4937544784985636
 20
-0.6479614282592167
 10
0.4938458230595603
 20
-0.6475022081407128
 10
0.4937544784985528
 20
-0.6470429880212043
 10
0.4934943511980146
 20
-0.6466536800038973
  0
LWPOLYLINE
  5
B0
330
88
100
AcDbEntity
  8
BLOCKS
100
AcDbPolyline
 90
       22
 70
     1
 43
0.0
 10
0.1615419305783421
 20
-0.3500565984445706
 10
0.1612590785275611
 20
-0.3498468210662133
 10
0.1609275108300645
 20
-0.3497281842467157
 10
0.1605757818750621
 20
-0.3497109049112163
 10
0.1602341823245627
 20
-0.349796471144216
 10
0.1599321305025671
 20
-0.3499775140392205
 10
0.1596956389090693
 20
-0.3502384423037216
 10
0.1595450740405704
 20
-0.3505567849707234
 10
0.1594934024433584
 20
-0.3509051265845568
 10
0.1594934024433501
 20
-0.3593904079561281
 10
0.1595847470045653
 20
-0.3598496280762186
 10
0.1598448743060601
 20
-0.3602389360959575
 10
0.4479566744856487
 20
-0.6483507362752676
 10
0.4483459825075608
 20
-0.6486108635792113
 10
0.4488052027503642
 20
-0.6487022081648389
 10
0.4572904840005871
 20
-0.6487022081402149
 10
0.4577497041195631
 20
-0.648610863579213
 10
0.4581390121375632
 20
-0.6483507362772168
 10
0.4583991394395622
 20
-0.6479614282592151
 10
0.4584904840005675
 20
-0.6475022081407201
 10
0.4583991394395685
 20
-0.6470429880212209
 10
0.4581390121365161
 20
-0.6466536800016468
  0
LWPOLYLINE
  5
B1
330
88
100
AcDbEntity
  8
BLOCKS
100
AcDbPolyline
 90
       22
 70
     1
 43
0.0
 10
0.1615419305885125
 20
-0.3854119375111128
 10
0.1612590785275711
 20
-0.385202160125221
 10
0.1609275108300725
 20
-0.3850835233057257
 10
0.1605757818750717
 20
-0.3850662439702239
 10
0.1602341823245729
 20
-0.3851518102037255
 10
0.1599321305025676
 20
-0.3853328530987193
 10
0.1596956389090607
 20
-0.3855937813627145
 10
0.1595450740405621
 20
-0.3859121240297151
 10
0.1594934024433516
 20
-0.3862604656436685
 10
0.1594934024433613
 20
-0.394745747016155
 10
0.1595847470045746
 20
-0.3952049671357287
 10
0.1598448743015017
 20
-0.3955942751481286
 10
0.4126013354303854
 20
-0.648350736277763
 10
0.4129906434480592
 20
-0.6486108635792113
 10
0.413449863493843
 20
-0.648702208125747
 10
0.421935144941478
 20
-0.6487022081402149
 10
0.4223943650600527
 20
-0.6486108635792056
 10
0.4227836730785615
 20
-0.6483507362772157
 10
0.4230438003805518
 20
-0.6479614282592059
 10
0.4231351449415582
 20
-0.6475022081407093
 10
0.4230438003805506
 20
-0.6470429880212016
 10
0.4227836730758799
 20
-0.6466536799992059
  0
LWPOLYLINE
  5
B2
330
88
100
AcDbEntity
  8
BLOCKS
100
AcDbPolyline
 90
       22
 70
     1
 43
0.0
 10
0.1615419305844873
 20
-0.4207672765671265
 10
0.1612590785275522
 20
-0.4205574991847039
 10
0.1609275108300469
 20
-0.4204388623657008
 10
0.1605757818750544
 20
-0.4204215830302071
 10
0.160234182324546
 20
-0.420507149262699
 10
0.1599321305025498
 20
-0.4206881921577025
 10
0.1596956389090524
 20
-0.4209491204222042
 10
0.1595450740405548
 20
-0.4212674630892048
 10
0.159493402443363
 20
-0.4216158047035293
 10
0.1594934024433542
 20
-0.4301010860752155
 10
0.1595847470045506
 20
-0.4305603061952053
 10
0.1598448743049387
 20
-0.4309496142122874
 10
0.3772459963682295
 20
-0.6483507362756587
 10
0.3776353043885732
 20
-0.6486108635792272
 10
0.3780945244331286
 20
-0.6487022081254174
 10
0.3865798058816478
 20
-0.6487022081402222
 10
0.3870390260005763
 20
-0.6486108635792295
 10
0.3874283340195768
 20
-0.6483507362772304
 10
0.3876884613205766
 20
-0.647961428259228
 10
0.3877798058815736
 20
-0.6475022081407253
 10
0.387688461320574
 20
-0.6470429880212265
 10
0.387428334020326
 20
-0.6466536800043463
  0
LWPOLYLINE
  5
B3
330
88
100
AcDbEntity
  8
BLOCKS
100
AcDbPolyline
 90
       22
 70
     1
 43
0.0
 10
0.1615419305790513
 20
-0.456122615623089
 10
0.1612590785275533
 20
-0.4559128382437058
 10
0.1609275108300581
 20
-0.4557942014247085
 10
0.1605757818750555
 20
-0.4557769220892089
 10
0.1602341823245563
 20
-0.4558624883222086
 10
0.1599321305025592
 20
-0.4560435312172115
 10
0.1596956389090614
 20
-0.4563044594817126
 10
0.1595450740405629
 20
-0.4566228021487161
 10
0.1594934024433564
 20
-0.4569711437625114
 10
0.1594934024433478
 20
-0.4654564251341521
 10
0.1595847470045586
 20
-0.4659156452542112
 10
0.1598448743064227
 20
-0.4663049532745084
 10
0.3418906573082057
 20
-0.6483507362756388
 10
0.3422799653295547
 20
-0.6486108635792089
 10
0.342739185572386
 20
-0.6487022081648394
 10
0.3512244668225668
 20
-0.6487022081402149
 10
0.3516836869415584
 20
-0.6486108635792113
 10
0.3520729949595591
 20
-0.6483507362772098
 10
0.3523331222615579
 20
-0.6479614282592098
 10
0.3524244668225637
 20
-0.6475022081407161
 10
0.3523331222615655
 20
-0.6470429880212175
 10
0.3520729949588901
 20
-0.6466536800022089
  0
LWPOLYLINE
  5
B4
330
88
100
AcDbEntity
  8
BLOCKS
100
AcDbPolyline
 90
       22
 70
     1
 43
0.0
 10
0.1615419305886437
 20
-0.4914779546892073
 10
0.1612590785275627
 20
-0.491268177303216
 10
0.1609275108300656
 20
-0.4911495404837166
 10
0.1605757818750624
 20
-0.4911322611482166
 10
0.1602341823245646
 20
-0.4912178273817166
 10
0.1599321305025595
 20
-0.4913988702767126
 10
0.159695638909053
 20
-0.4916597985407055
 10
0.1595450740405548
 20
-0.4919781412077061
 10
0.1594934024433496
 20
-0.4923264828216264
 10
0.159493402443359
 20
-0.5008117641941659
 10
0.1595847470045594
 20
-0.5012709843137105
 10
0.1598448743015669
 20
-0.501660292326232
 10
0.3065353182525081
 20
-0.6483507362778506
 10
0.3069246262700716
 20
-0.6486108635792238
 10
0.307383846315791
 20
-0.648702208125747
 10
0.315869127763562
 20
-0.6487022081402149
 10
0.316328347882075
 20
-0.6486108635792272
 10
0.3167176559005748
 20
-0.6483507362772265
 10
0.3169777832025736
 20
-0.6479614282592258
 10
0.3170691277635706
 20
-0.6475022081407235
 10
0.3169777832025622
 20
-0.6470429880212152
 10
0.3167176558979651
 20
-0.6466536799993287
  0
LWPOLYLINE
  5
B5
330
88
100
AcDbEntity
  8
BLOCKS
100
AcDbPolyline
 90
       22
 70
     1
 43
0.0
 10
0.1615419305794629
 20
-0.5268332937414028
 10
0.1612590785275638
 20
-0.5266235163627158
 10
0.1609275108300562
 20
-0.5265048795437099
 10
0.1605757818750635
 20
-0.5264876002082162
 10
0.1602341823245567
 20
-0.5265731664407071
 10
0.1599321305025592
 20
-0.5267542093357127
 10
0.1596956389090619
 20
-0.5270151376002133
 10
0.1595450740405639
 20
-0.5273334802672157
 10
0.159493402443361
 20
-0.5276818218816146
 10
0.1594934024433516
 20
-0.5361671032531718
 10
0.1595847470045578
 20
-0.5366263233732111
 10
0.1598448743051699
 20
-0.5370156313906313
 10
0.2711799791905449
 20
-0.6483507362758622
 10
0.271569287210554
 20
-0.6486108635792056
 10
0.2720285074552819
 20
-0.6487022081652151
 10
0.2805137887035494
 20
-0.6487022081402149
 10
0.2809730088225563
 20
-0.6486108635792073
 10
0.2813623168415558
 20
-0.6483507362772082
 10
0.2816224441425557
 20
-0.6479614282592076
 10
0.2817137887035524
 20
-0.6475022081407054
 10
0.2816224441425618
 20
-0.6470429880212152
 10
0.2813623168396832
 20
-0.6466536800004008
  0
LWPOLYLINE
  5
B6
330
88
100
AcDbEntity
  8
BLOCKS
100
AcDbPolyline
 90
       22
 70
     1
 43
0.0
 10
0.1615419305797846
 20
-0.5621886328016365
 10
0.1612590785275604
 20
-0.5619788554217149
 10
0.160927510830065
 20
-0.5618602186027175
 10
0.1605757818750646
 20
-0.5618429392672181
 10
0.1602341823245652
 20
-0.5619285054997193
 10
0.159932130502568
 20
-0.5621095483952207
 10
0.1596956389090713
 20
-0.5623704766597234
 10
0.1595450740405639
 20
-0.5626888193267162
 10
0.1594934024433545
 20
-0.5630371609405966
 10
0.159493402443363
 20
-0.5715224423121896
 10
0.1595847470045672
 20
-0.5719816624322186
 10
0.1598448743068143
 20
-0.572370970453086
 10
0.2358246401307784
 20
-0.6483507362760241
 10
0.236213948151561
 20
-0.648610863579213
 10
0.2366731681993731
 20
-0.6487022081260614
 10
0.2451584496445491
 20
-0.6487022081402149
 10
0.2456176697635551
 20
-0.6486108635792073
 10
0.2460069777815538
 20
-0.6483507362772082
 10
0.2462671050835543
 20
-0.6479614282592059
 10
0.246358449644559
 20
-0.6475022081407128
 10
0.2462671050835612
 20
-0.6470429880212152
 10
0.2460069777812615
 20
-0.6466536800027639
  0
LWPOLYLINE
  5
B7
330
88
100
AcDbEntity
  8
BLOCKS
100
AcDbPolyline
 90
       22
 70
     1
 43
0.0
 10
0.1615419305888013
 20
-0.5975439718673289
 10
0.1612590785275714
 20
-0.5973341944812234
 10
0.160927510830065
 20
-0.5972155576617201
 10
0.1605757818750644
 20
-0.5971982783262167
 10
0.1602341823245752
 20
-0.5972838445597273
 10
0.159932130502568
 20
-0.5974648874547234
 10
0.1596956389090621
 20
-0.597725815718714
 10
0.159545074040564
 20
-0.5980441583857151
 10
0.1594934024433471
 20
-0.5983924999997158
 10
0.1594934024433564
 20
-0.6068777813721892
 10
0.1595847470045598
 20
-0.6073370014917141
 10
0.1598448743016316
 20
-0.6077263095043338
 10
0.2004693010746203
 20
-0.6483507362779233
 10
0.200858609092069
 20
-0.6486108635792204
 10
0.2013178291378117
 20
-0.648702208125747
 10
0.2098031105841748
 20
-0.648702208140486
 10
0.2102623307040703
 20
-0.6486108635792238
 10
0.2106516387225709
 20
-0.648350736277223
 10
0.2109117660245697
 20
-0.6479614282592207
 10
0.2110031105855668
 20
-0.6475022081407184
 10
0.2109117660245593
 20
-0.6470429880212118
 10
0.2106516387200352
 20
-0.6466536799994351
  0
LINE
  5
B8
330
88
100
AcDbEntity
  8
BLOCKS
  6
Continuous
100
AcDbLine
 10
0.0099970148975621
 20
-0.8038101694417843
 30
0.0
 11
0.7938131545448153
 21
-0.8038101694419816
 31
0.0
  0
LINE
  5
B9
330
88
100
AcDbEntity
  8
BLOCKS
  6
Continuous
100
AcDbLine
 10
0.0726420210804179
 20
-0.7553162940152136
 30
0.0
 11
0.7311681481936115
 21
-0.7553162940152136
 31
0.0
  0
LINE
  5
BA
330
88
100
AcDbEntity
  8
BLOCKS
  6
Continuous
100
AcDbLine
 10
0.5741089691734804
 20
-0.7293355050185176
 30
0.0
 11
0.5943911796228436
 21
-0.7297846850369098
 31
0.0
  0
LINE
  5
BB
330
88
100
AcDbEntity
  8
BLOCKS
  6
Continuous
100
AcDbLine
 10
0.720113712005267
 20
-0.0716561673892136
 30
0.0
 11
0.0802706914369122
 21
-0.0686795817576092
 31
0.0
  0
LINE
  5
BC
330
88
100
AcDbEntity
  8
BLOCKS
  6
Continuous
100
AcDbLine
 10
0.7938131545466116
 20
-0.0000000000013904
 30
0.0
 11
0.0099970148963087
 21
-0.0000000000000171
 31
0.0
  0
LINE
  5
BD
330
88
100
AcDbEntity
  8
BLOCKS
  6
Continuous
100
AcDbLine
 10
0.7311681483565622
 20
-0.0484938754274606
 30
0.0
 11
0.0726420212475131
 21
-0.048493875427215
 31
0.0
  0
LWPOLYLINE
  5
BE
330
88
100
AcDbEntity
  8
BLOCKS
100
AcDbPolyline
 90
       22
 70
     1
 43
0.0
 10
0.572370970450414
 20
-0.1598448743061192
 10
0.5719816624315735
 20
-0.159584747005224
 10
0.5715224423115556
 20
-0.1594934024440238
 10
0.5630371609399145
 20
-0.159493402444017
 10
0.5626888193260684
 20
-0.1595450740412207
 10
0.5623704766590761
 20
-0.1596956389097272
 10
0.5621095483945732
 20
-0.1599321305032254
 10
0.5619285054990701
 20
-0.160234182325222
 10
0.5618429392665695
 20
-0.1605757818757206
 10
0.5618602186020702
 20
-0.1609275108307236
 10
0.561978855421067
 20
-0.1612590785282202
 10
0.5621886327961843
 20
-0.1615419305739613
 10
0.6466536800043839
 20
-0.2460069777834303
 10
0.6470429880205657
 20
-0.2462671050842175
 10
0.6475022081400644
 20
-0.2463584496452165
 10
0.6479614282585584
 20
-0.2462671050842107
 10
0.6483507362765596
 20
-0.2460069777822116
 10
0.6486108635785595
 20
-0.2456176697642104
 10
0.6487022081379729
 20
-0.2451584496532189
 10
0.64870220813985
 20
-0.236673168272614
 10
0.6486108635785656
 20
-0.2362139481522183
 10
0.648350736290054
 20
-0.2358246401534029
  0
LWPOLYLINE
  5
BF
330
88
100
AcDbEntity
  8
BLOCKS
100
AcDbPolyline
 90
       22
 70
     1
 43
0.0
 10
0.537015631391787
 20
-0.159844874307031
 10
0.5366263233725547
 20
-0.1595847470052058
 10
0.5361671032525801
 20
-0.1594934024440147
 10
0.527681821880884
 20
-0.1594934024440204
 10
0.5273334802665577
 20
-0.1595450740412104
 10
0.5270151375995566
 20
-0.1596956389097102
 10
0.5267542093350545
 20
-0.1599321305032072
 10
0.526573166440052
 20
-0.1602341823252038
 10
0.5264876002075594
 20
-0.1605757818757127
 10
0.5265048795430523
 20
-0.1609275108307054
 10
0.5266235163620582
 20
-0.1612590785282089
 10
0.5268332937342449
 20
-0.1615419305713522
 10
0.6466536800015643
 20
-0.281362316841554
 10
0.6470429880205739
 20
-0.2816224441432257
 10
0.6475022081400654
 20
-0.2817137887042168
 10
0.6479614282585687
 20
-0.2816224441432212
 10
0.6483507362765682
 20
-0.2813623168422191
 10
0.6486108635785678
 20
-0.2809730088232186
 10
0.6487022081383648
 20
-0.2805137887103013
 10
0.6487022081398385
 20
-0.2720285073315949
 10
0.6486108635785652
 20
-0.2715692872112174
 10
0.6483507362282674
 20
-0.2711799791209375
  0
LWPOLYLINE
  5
C0
330
88
100
AcDbEntity
  8
BLOCKS
100
AcDbPolyline
 90
       22
 70
     1
 43
0.0
 10
0.5016602923268702
 20
-0.1598448743030792
 10
0.5012709843130608
 20
-0.1595847470052138
 10
0.5008117641935477
 20
-0.1594934024440204
 10
0.4923264828209299
 20
-0.1594934024440124
 10
0.491978141207058
 20
-0.1595450740412104
 10
0.4916597985400557
 20
-0.1596956389097079
 10
0.4913988702760625
 20
-0.1599321305032151
 10
0.4912178273810674
 20
-0.1602341823252186
 10
0.4911322611475672
 20
-0.1605757818757183
 10
0.4911495404830681
 20
-0.1609275108307213
 10
0.4912681773025648
 20
-0.161259078528218
 10
0.4914779546771797
 20
-0.1615419305739556
 10
0.6466536799998046
 20
-0.3167176558993719
 10
0.6470429880205668
 20
-0.3169777832032174
 10
0.6475022081400735
 20
-0.3170691277642266
 10
0.6479614282585763
 20
-0.3169777832032298
 10
0.6483507362765773
 20
-0.3167176559012307
 10
0.6486108635785769
 20
-0.3163283478827282
 10
0.6487022081383475
 20
-0.3158691277703394
 10
0.6487022081398449
 20
-0.3073838463905895
 10
0.6486108635785741
 20
-0.3069246262707248
 10
0.6483507363435754
 20
-0.3065353183524996
  0
LWPOLYLINE
  5
C1
330
88
100
AcDbEntity
  8
BLOCKS
100
AcDbPolyline
 90
       22
 70
     1
 43
0.0
 10
0.4663049532764456
 20
-0.1598448743088113
 10
0.4659156452535672
 20
-0.1595847470052206
 10
0.4654564251335106
 20
-0.159493402444009
 10
0.456971143761883
 20
-0.159493402444017
 10
0.4566228021480731
 20
-0.1595450740412263
 10
0.4563044594810715
 20
-0.1596956389097227
 10
0.4560435312165697
 20
-0.1599321305032208
 10
0.4558624883215663
 20
-0.1602341823252175
 10
0.4557769220885655
 20
-0.1605757818757172
 10
0.4557942014240661
 20
-0.1609275108307179
 10
0.4559128382435631
 20
-0.1612590785282145
 10
0.4561226157495787
 20
-0.1615419307511263
 10
0.6466536800042748
 20
-0.352072994961357
 10
0.6470429880205577
 20
-0.3523331222622102
 10
0.6475022081400583
 20
-0.3524244668232091
 10
0.6479614282585508
 20
-0.3523331222622033
 10
0.6483507362765516
 20
-0.3520729949602042
 10
0.6486108635785514
 20
-0.3516836869422053
 10
0.6487022081398414
 20
-0.3512244668217778
 10
0.6487022081398332
 20
-0.3427391854506328
 10
0.6486108635785485
 20
-0.3422799653302013
 10
0.6483507362282529
 20
-0.3418906572389239
  0
LWPOLYLINE
  5
C2
330
88
100
AcDbEntity
  8
BLOCKS
100
AcDbPolyline
 90
       22
 70
     1
 43
0.0
 10
0.4309496142134385
 20
-0.1598448743067956
 10
0.4305603061945499
 20
-0.1595847470052024
 10
0.4301010860746166
 20
-0.159493402444017
 10
0.4216158047028382
 20
-0.1594934024440238
 10
0.4212674630885548
 20
-0.1595450740412082
 10
0.4209491204215536
 20
-0.1596956389097045
 10
0.4206881921570511
 20
-0.1599321305032038
 10
0.4205071492620477
 20
-0.1602341823252005
 10
0.4204215830295556
 20
-0.1605757818757081
 10
0.4204388623650485
 20
-0.1609275108307008
 10
0.4205574991840541
 20
-0.1612590785282055
 10
0.4207672765562455
 20
-0.1615419305713522
 10
0.6466536800054991
 20
-0.3874283340221842
 10
0.6470429880205766
 20
-0.3876884613212275
 10
0.6475022081400751
 20
-0.3877798058822276
 10
0.6479614282585789
 20
-0.3876884613212292
 10
0.6483507362765778
 20
-0.3874283340202288
 10
0.6486108635785777
 20
-0.3870390260012311
 10
0.6487022081383732
 20
-0.3865798058883166
 10
0.648702208139839
 20
-0.3780945245095603
 10
0.6486108635785746
 20
-0.3776353043892271
 10
0.6483507362282797
 20
-0.3772459962989484
  0
LWPOLYLINE
  5
C3
330
88
100
AcDbEntity
  8
BLOCKS
100
AcDbPolyline
 90
       22
 70
     1
 43
0.0
 10
0.3955942751483036
 20
-0.1598448743027029
 10
0.3952049671350639
 20
-0.1595847470052183
 10
0.3947457470155839
 20
-0.1594934024440238
 10
0.3862604656428736
 20
-0.1594934024440147
 10
0.3859121240290535
 20
-0.1595450740412059
 10
0.3855937813620522
 20
-0.1596956389097045
 10
0.3853328530980576
 20
-0.1599321305032106
 10
0.3851518102030638
 20
-0.1602341823252152
 10
0.3850662439695629
 20
-0.1605757818757149
 10
0.3850835233050651
 20
-0.1609275108307168
 10
0.3852021601245613
 20
-0.1612590785282134
 10
0.3854119374991813
 20
-0.161541930573959
 10
0.6466536800032996
 20
-0.4227836730797066
 10
0.6470429880205577
 20
-0.4230438003812088
 10
0.647502208140065
 20
-0.4231351449422176
 10
0.647961428258559
 20
-0.4230438003812118
 10
0.6483507362765698
 20
-0.42278367307922
 10
0.6486108635785604
 20
-0.4223943650607117
 10
0.6487022081564432
 20
-0.421935144857319
 10
0.6487022081398454
 20
-0.4134498635686226
 10
0.6486108635785664
 20
-0.412990643448718
 10
0.6483507363435644
 20
-0.4126013355304878
  0
LWPOLYLINE
  5
C4
330
88
100
AcDbEntity
  8
BLOCKS
100
AcDbPolyline
 90
       22
 70
     1
 43
0.0
 10
0.3602389360983227
 20
-0.1598448743087272
 10
0.3598496280755657
 20
-0.1595847470052194
 10
0.3593904079555352
 20
-0.1594934024440124
 10
0.3509051265838264
 20
-0.1594934024440215
 10
0.3505567849700691
 20
-0.1595450740412207
 10
0.3502384423030671
 20
-0.1596956389097193
 10
0.349977514038566
 20
-0.1599321305032151
 10
0.3497964711435628
 20
-0.1602341823252141
 10
0.3497109049105615
 20
-0.1605757818757149
 10
0.3497281842460623
 20
-0.1609275108307111
 10
0.3498468210655599
 20
-0.1612590785282111
 10
0.3500565983282999
 20
-0.1615419304231056
 10
0.6466536800041746
 20
-0.4581390121392934
 10
0.6470429880205661
 20
-0.4583991394402193
 10
0.647502208140065
 20
-0.4584904840012184
 10
0.6479614282585603
 20
-0.4583991394402125
 10
0.6483507362765613
 20
-0.4581390121382134
 10
0.6486108635785611
 20
-0.4577497041202128
 10
0.6487022081379729
 20
-0.4572904840092281
 10
0.648702208139834
 20
-0.4488052026286011
 10
0.6486108635785584
 20
-0.448345982508211
 10
0.6483507362282631
 20
-0.447956674416933
  0
LWPOLYLINE
  5
C5
330
88
100
AcDbEntity
  8
BLOCKS
100
AcDbPolyline
 90
       22
 70
     1
 43
0.0
 10
0.3248835970351033
 20
-0.1598448743065762
 10
0.3244942890165626
 20
-0.1595847470052149
 10
0.3240350688965688
 20
-0.1594934024440192
 10
0.3155497875249233
 20
-0.1594934024440261
 10
0.3152014459105686
 20
-0.1595450740412196
 10
0.3148831032435674
 20
-0.1596956389097193
 10
0.3146221749790638
 20
-0.1599321305032163
 10
0.3144411320840698
 20
-0.160234182325222
 10
0.3143555658515689
 20
-0.1605757818757206
 10
0.31437284518707
 20
-0.1609275108307236
 10
0.3144914820060745
 20
-0.1612590785282271
 10
0.3147012593782605
 20
-0.1615419305713647
 10
0.6466536800050551
 20
-0.4934943511998802
 10
0.6470429880205581
 20
-0.4937544784992111
 10
0.6475022081400671
 20
-0.4938458230602169
 10
0.647961428258571
 20
-0.4937544784992218
 10
0.6483507362765698
 20
-0.4934943511982203
 10
0.6486108635785694
 20
-0.4931050431792221
 10
0.6487022081383648
 20
-0.4926458230662076
 10
0.6487022081398396
 20
-0.4841605416875922
 10
0.6486108635785678
 20
-0.4837013215672192
 10
0.6483507362282709
 20
-0.4833120134769411
  0
LWPOLYLINE
  5
C6
330
88
100
AcDbEntity
  8
BLOCKS
100
AcDbPolyline
 90
       22
 70
     1
 43
0.0
 10
0.289528257973989
 20
-0.159844874305162
 10
0.2891389499570625
 20
-0.1595847470052138
 10
0.2886797298376129
 20
-0.1594934024440261
 10
0.2801944484648375
 20
-0.159493402444017
 10
0.279846106851058
 20
-0.1595450740412104
 10
0.2795277641840656
 20
-0.1596956389097193
 10
0.2792668359200627
 20
-0.1599321305032151
 10
0.2790857930250597
 20
-0.1602341823252129
 10
0.2790002267915588
 20
-0.1605757818757127
 10
0.2790175061270604
 20
-0.1609275108307111
 10
0.2791361429465561
 20
-0.16125907852821
 10
0.2793459203211721
 20
-0.1615419305739499
 10
0.6466536799986892
 20
-0.5288496902546279
 10
0.6470429880205677
 20
-0.5291098175592209
 10
0.6475022081400671
 20
-0.5292011621202193
 10
0.6479614282585703
 20
-0.5291098175592225
 10
0.6483507362765613
 20
-0.5288496902572143
 10
0.6486108635785694
 20
-0.5284603822387208
 10
0.6487022081383475
 20
-0.5280011621263458
 10
0.6487022081398458
 20
-0.5195158807465891
 10
0.6486108635785758
 20
-0.51905666062673
 10
0.6483507363435769
 20
-0.5186673527085009
  0
LWPOLYLINE
  5
C7
330
88
100
AcDbEntity
  8
BLOCKS
100
AcDbPolyline
 90
       25
 70
     1
 43
0.0
 10
0.2541729189202097
 20
-0.159844874308651
 10
0.2537836108975573
 20
-0.1595847470052115
 10
0.2533243907775602
 20
-0.1594934024440147
 10
0.2448391094058818
 20
-0.1594934024440238
 10
0.2444907677920619
 20
-0.1595450740412139
 10
0.2441724251250613
 20
-0.1596956389097147
 10
0.2439114968605593
 20
-0.1599321305032106
 10
0.2437304539655561
 20
-0.1602341823252072
 10
0.2436448877325638
 20
-0.1605757818757172
 10
0.2436621670680563
 20
-0.1609275108307099
 10
0.2437808038875615
 20
-0.1612590785282134
 10
0.2439905812621903
 20
-0.161541930573967
 10
0.6395610238034345
 20
-0.5571123731161919
 10
0.6397840601245079
 20
-0.5572877581274735
 10
0.6400418668230671
 20
-0.557406126749221
 10
0.6403203142903772
 20
-0.5574603711002158
 10
0.6406037796412566
 20
-0.5574480221554001
 10
0.6466004877928328
 20
-0.5566484201749587
 10
0.6470206932085694
 20
-0.5565248189922216
 10
0.6473685494760716
 20
-0.5562586499517215
 10
0.6475977119020718
 20
-0.555885374553223
 10
0.6476776493778298
 20
-0.5554547239497709
 10
0.6476776493778408
 20
-0.5538466610445682
 10
0.6475863048165739
 20
-0.5533874409242264
 10
0.6473261775806148
 20
-0.5529981330025652
  0
LWPOLYLINE
  5
C8
330
88
100
AcDbEntity
  8
BLOCKS
100
AcDbPolyline
 90
       26
 70
     1
 43
0.0
 10
0.2188175798567541
 20
-0.1598448743063375
 10
0.2184282718385569
 20
-0.1595847470052115
 10
0.2179690517186407
 20
-0.1594934024440215
 10
0.209483770346917
 20
-0.1594934024440124
 10
0.2091354287325547
 20
-0.1595450740412059
 10
0.208817086065554
 20
-0.1596956389097033
 10
0.2085561578010588
 20
-0.1599321305032106
 10
0.2083751149060637
 20
-0.1602341823252164
 10
0.2082895486735552
 20
-0.1605757818757081
 10
0.2083068280090563
 20
-0.1609275108307099
 10
0.2084254648280614
 20
-0.1612590785282134
 10
0.2086352422002471
 20
-0.1615419305713522
 10
0.6125915973829319
 20
-0.5654982857559476
 10
0.6128870984790598
 20
-0.5657147276137124
 10
0.6132341263265549
 20
-0.5658319438687079
 10
0.6136003475735665
 20
-0.5658390132212202
 10
0.6139516405340637
 20
-0.5657352770183582
 10
0.6198028555345588
 20
-0.5632010374272062
 10
0.6200625271015657
 20
-0.5630587080377194
 10
0.6202796338495669
 20
-0.5628574286962186
 10
0.6204405596723746
 20
-0.5626088927305892
 10
0.6205360769740583
 20
-0.5623286362552092
 10
0.6205596901541873
 20
-0.5620334927906539
 10
0.6205106769320656
 20
-0.5617414911627163
 10
0.6203913375603765
 20
-0.5614705541882808
 10
0.6202095259366656
 20
-0.5612368203874946
  0
LWPOLYLINE
  5
C9
330
88
100
AcDbEntity
  8
BLOCKS
100
AcDbPolyline
 90
       26
 70
     1
 43
0.0
 10
0.1834622407954403
 20
-0.1598448743047982
 10
0.1830729327790684
 20
-0.1595847470052206
 10
0.1826137126596004
 20
-0.1594934024440272
 10
0.1741284312868689
 20
-0.1594934024440181
 10
0.1737800896730732
 20
-0.1595450740412263
 10
0.1734617470060725
 20
-0.1596956389097215
 10
0.1732008187420698
 20
-0.159932130503222
 10
0.1730197758470664
 20
-0.1602341823252186
 10
0.1729342096135659
 20
-0.1605757818757172
 10
0.1729514889490664
 20
-0.1609275108307191
 10
0.1730701257685636
 20
-0.1612590785282145
 10
0.1732799032745649
 20
-0.1615419307511115
 10
0.5909765070360013
 20
-0.5792385344700922
 10
0.5913400904940716
 20
-0.5794876532067224
 10
0.5917690919995744
 20
-0.5795887016102256
 10
0.5922056401255675
 20
-0.5795280484587199
 10
0.5925908454185583
 20
-0.57931387573922
 10
0.5973015205775728
 20
-0.575639096363214
 10
0.5974918838291297
 20
-0.5754649414834069
 10
0.5976407701280739
 20
-0.5752542662337266
 10
0.5977409965693249
 20
-0.575016539286416
 10
0.5977883006870716
 20
-0.5747629219342235
 10
0.5977800858265688
 20
-0.5745050615904086
 10
0.5977171485360678
 20
-0.5742548649907218
 10
0.5976020056956355
 20
-0.5740240115296644
 10
0.5974403179344464
 20
-0.5738229514428508
  0
LWPOLYLINE
  5
CA
330
88
100
AcDbEntity
  8
BLOCKS
100
AcDbPolyline
 90
       26
 70
     1
 43
0.0
 10
0.1615419305882206
 20
-0.1732799031548905
 10
0.1612590785275556
 20
-0.1730701257692055
 10
0.1609275108300594
 20
-0.1729514889497125
 10
0.1605757818750575
 20
-0.1729342096142091
 10
0.1602341823245601
 20
-0.1730197758477107
 10
0.1599321305025622
 20
-0.1732008187427141
 10
0.1596956389090651
 20
-0.1734617470067155
 10
0.1595450740405659
 20
-0.1737800896737178
 10
0.1594934024433564
 20
-0.1741284312875371
 10
0.1594934024433655
 20
-0.1826137126602248
 10
0.1595847470045608
 20
-0.1830729327797133
 10
0.1598448743041843
 20
-0.1834622407961512
 10
0.5738229514507959
 20
-0.5974403179420092
 10
0.5740240115290058
 20
-0.5976020056962859
 10
0.5742548649900656
 20
-0.5977171485367155
 10
0.5745050615897504
 20
-0.5977800858272145
 10
0.5747629219335649
 20
-0.5977883006877193
 10
0.5750165392857558
 20
-0.5977409965699713
 10
0.5752542662330703
 20
-0.5976407701287196
 10
0.5754649414827498
 20
-0.5974918838297759
 10
0.5756390963625585
 20
-0.5973015205782173
 10
0.5793138757385098
 20
-0.5925908454193002
 10
0.5795280484580628
 20
-0.5922056401262154
 10
0.5795887016095695
 20
-0.5917690920002218
 10
0.5794876532060659
 20
-0.5913400904947168
 10
0.5792385344662244
 20
-0.5909765070319623
  0
ENDBLK
  5
CC
330
88
100
AcDbEntity
  8
0
100
AcDbBlockEnd
  0
BLOCK
  5
DB
330
DA
100
AcDbEntity
  8
0
100
AcDbBlockBegin
  2
_DotSmall
 70
     0
 10
0.0
 20
0.0
 30
0.0
  3
_DotSmall
  1

  0
LWPOLYLINE
  5
DC
330
DA
100
AcDbEntity
  8
0
  6
ByBlock
 62
     0
100
AcDbPolyline
 90
        2
 70
     1
 43
0.5
 10
-0.0625
 20
0.0
 42
1.0
 10
0.0625
 20
0.0
 42
1.0
  0
ENDBLK
  5
DD
330
DA
100
AcDbEntity
  8
0
100
AcDbBlockEnd
  0
ENDSEC
  0
SECTION
  2
ENTITIES
  0
LINE
  5
26
330
2
100
AcDbEntity
  8
SANINDUSA
  6
Continuous
100
AcDbLine
 10
0.3877162019365184
 20
0.08
 30
0.0
 11
0.3566616908481598
 21
0.08
 31
0.0
  0
ARC
  5
27
330
2
100
AcDbEntity
  8
SANINDUSA
  6
Continuous
100
AcDbCircle
 10
0.3877162019365184
 20
0.0719999999999982
 30
0.0
 40
0.0080000000000013
100
AcDbArc
 50
1.400000003936249
 51
90.0
  0
ARC
  5
28
330
2
100
AcDbEntity
  8
SANINDUSA
  6
Continuous
100
AcDbCircle
 10
0.3954287566835188
 20
0.0019999999999965
 30
0.0
 40
0.0020000000004302
100
AcDbArc
 50
270.0
 51
1.399999991100381
  0
LINE
  5
29
330
2
100
AcDbEntity
  8
SANINDUSA
  6
Continuous
100
AcDbLine
 10
0.3764779332440213
 20
0.0
 30
0.0
 11
0.3864749482363962
 21
0.0
 31
0.0
  0
LINE
  5
2A
330
2
100
AcDbEntity
  8
SANINDUSA
  6
Continuous
100
AcDbLine
 10
0.3954287566835188
 20
0.0
 30
0.0
 11
0.3864749482365184
 21
0.0
 31
0.0
  0
LINE
  5
2B
330
2
100
AcDbEntity
  8
SANINDUSA
  6
Continuous
100
AcDbLine
 10
0.3974281596635189
 20
0.0020488643560003
 30
0.0
 11
0.3957138138547561
 21
0.072195457425716
 31
0.0
  0
ARC
  5
2C
330
2
100
AcDbEntity
  8
SANINDUSA
  6
Continuous
100
AcDbCircle
 10
-0.3966700520514812
 20
0.0719999999999982
 30
0.0
 40
0.0080000000000013
100
AcDbArc
 50
90.0
 51
178.5999999960637
  0
ARC
  5
2D
330
2
100
AcDbEntity
  8
SANINDUSA
  6
Continuous
100
AcDbCircle
 10
-0.4043826067984817
 20
0.0019999999999965
 30
0.0
 40
0.0020000000004302
100
AcDbArc
 50
178.6000000088996
 51
270.0
  0
LINE
  5
2E
330
2
100
AcDbEntity
  8
SANINDUSA
  6
Continuous
100
AcDbLine
 10
-0.3954287983514812
 20
0.0
 30
0.0
 11
-0.4043826067984817
 21
0.0
 31
0.0
  0
LINE
  5
2F
330
2
100
AcDbEntity
  8
SANINDUSA
  6
Continuous
100
AcDbLine
 10
-0.4046676639697188
 20
0.072195457425716
 30
0.0
 11
-0.4063820097784817
 21
0.0020488643560003
 31
0.0
  0
LINE
  5
30
330
2
100
AcDbEntity
  8
SANINDUSA
  6
Continuous
100
AcDbLine
 10
0.3877162019365184
 20
0.08
 30
0.0
 11
-0.3966700520514812
 21
0.08
 31
0.0
  0
LINE
  5
31
330
2
100
AcDbEntity
  8
SANINDUSA
  6
Continuous
100
AcDbLine
 10
-0.3954287983513592
 20
0.0
 30
0.0
 11
0.3954287983513592
 21
0.0
 31
0.0
  0
INSERT
  5
4B
330
2
100
AcDbEntity
  8
SANINDUSA
100
AcDbBlockReference
  2
107170AL
 10
1.047516247813644
 20
0.0019999999999965
 30
0.0
  0
INSERT
  5
CD
330
2
100
AcDbEntity
  8
SANINDUSA
100
AcDbBlockReference
  2
107170PL
 10
-1.50053990695078
 20
0.3709126858593983
 30
0.0
  0
LINE
  5
2CA
330
2
100
AcDbEntity
  8
SANINDUSA
100
AcDbLine
 10
2.249942696015611
 20
0.081999999999971
 30
0.0
 11
2.713120722768975
 21
0.0819999999999719
 31
0.0
  0
LINE
  5
2CE
330
2
100
AcDbEntity
  8
SANINDUSA
100
AcDbLine
 10
2.378310288397542
 20
0.0019999999999701
 30
0.0
 11
2.277829397903288
 21
0.0019999999999737
 31
0.0
  0
LINE
  5
2D0
330
2
100
AcDbEntity
  8
SANINDUSA
100
AcDbLine
 10
2.496476119050789
 20
0.0346120135351625
 30
0.0
 11
1.949355400985226
 21
0.0455560845150059
 31
0.0
  0
LINE
  5
2D3
330
2
100
AcDbEntity
  8
SANINDUSA
100
AcDbLine
 10
2.061790973475316
 20
0.0019999999999719
 30
0.0
 11
2.043734863987844
 21
0.0019999999999719
 31
0.0
  0
LINE
  5
2D4
330
2
100
AcDbEntity
  8
SANINDUSA
100
AcDbLine
 10
1.740988220012911
 20
0.0819999999999701
 30
0.0
 11
2.204863870452121
 21
0.081999999999971
 31
0.0
  0
LINE
  5
2DA
330
2
100
AcDbEntity
  8
SANINDUSA
100
AcDbLine
 10
1.9942190046259
 20
0.0296550675835603
 30
0.0
 11
2.069202020216943
 21
0.0281551811963774
 31
0.0
  0
LINE
  5
2DB
330
2
100
AcDbEntity
  8
SANINDUSA
100
AcDbLine
 10
1.72499183761319
 20
0.0019999999998637
 30
0.0
 11
1.679739144862948
 21
0.0019999999999701
 31
0.0
  0
LINE
  5
2DF
330
2
100
AcDbEntity
  8
SANINDUSA
100
AcDbLine
 10
1.683244813342667
 20
0.0069999999999683
 30
0.0
 11
1.721044009652273
 21
0.0069999999999719
 31
0.0
  0
LWPOLYLINE
  5
2E0
330
2
100
AcDbEntity
  8
SANINDUSA
100
AcDbPolyline
 90
        8
 70
   128
 43
0.0
 10
1.759220861409753
 20
0.0463577393763109
 10
1.757039631382836
 20
0.0465872669450729
 10
1.754927183118666
 20
0.0471770976276749
 10
1.752944825493246
 20
0.0481157934126906
 10
1.75114689078525
 20
0.0493720875397131
 10
1.749588787022796
 20
0.0509132023452568
 10
1.748309576535967
 20
0.0526926263659272
 10
1.747314952840949
 20
0.05475033837904
  0
LINE
  5
2E2
330
2
100
AcDbEntity
  8
SANINDUSA
100
AcDbLine
 10
1.731463571332132
 20
0.081999999999971
 30
0.0
 11
1.676284767679003
 21
0.081999999999971
 31
0.0
  0
LINE
  5
2E3
330
2
100
AcDbEntity
  8
SANINDUSA
100
AcDbLine
 10
1.738946829932207
 20
0.076833862452636
 30
0.0
 11
1.747314941119713
 21
0.0547503197131856
 31
0.0
  0
LINE
  5
2E4
330
2
100
AcDbEntity
  8
SANINDUSA
100
AcDbLine
 10
1.668193062292445
 20
0.0742953580823424
 30
0.0
 11
1.665515924624287
 21
0.0019999999999701
 31
0.0
  0
LINE
  5
2E5
330
2
100
AcDbEntity
  8
SANINDUSA
100
AcDbLine
 10
1.678623117843362
 20
0.0019999999999701
 30
0.0
 11
1.665515924624287
 21
0.0019999999999701
 31
0.0
  0
LINE
  5
2E6
330
2
100
AcDbEntity
  8
SANINDUSA
100
AcDbLine
 10
1.665515924624287
 20
0.0019999999999701
 30
0.0
 11
1.665492370082489
 21
0.0019999999999719
 31
0.0
  0
LINE
  5
2EA
330
2
100
AcDbEntity
  8
SANINDUSA
100
AcDbLine
 10
1.679739144862948
 20
0.0019999999999701
 30
0.0
 11
1.678623117843362
 21
0.0019999999999701
 31
0.0
  0
LWPOLYLINE
  5
2ED
330
2
100
AcDbEntity
  8
SANINDUSA
100
AcDbPolyline
 90
        6
 70
   128
 43
0.0
 10
1.680684734311786
 20
0.0039999999999719
 10
1.6805736260269
 20
0.0033610204033322
 10
1.680259455673693
 20
0.0027943282393236
 10
1.679763914511232
 20
0.002341013467637
 10
1.679123816494545
 20
0.00206140020126
 10
1.678623117843362
 20
0.0019999999999701
  0
LINE
  5
2EE
330
2
100
AcDbEntity
  8
SANINDUSA
100
AcDbLine
 10
1.680684734311783
 20
0.004999999998835
 30
0.0
 11
1.680684734311786
 21
0.0039999999999701
 31
0.0
  0
ARC
  5
2EF
330
2
100
AcDbEntity
  8
SANINDUSA
100
AcDbCircle
 10
1.68256544274753
 20
0.0050000000000151
 30
0.0
 40
0.0018807084364238
100
AcDbArc
 50
111.2427550069284
 51
180.0000000238404
  0
LWPOLYLINE
  5
2F0
330
2
100
AcDbEntity
  8
SANINDUSA
100
AcDbPolyline
 90
        4
 70
   128
 43
0.0
 10
1.683244813342666
 20
0.0069999999999701
 10
1.682773771566361
 20
0.0069720275996361
 10
1.682315905959194
 20
0.0068888928538064
 10
1.681884024121233
 20
0.0067529212408746
  0
LWPOLYLINE
  5
2F1
330
2
100
AcDbEntity
  8
SANINDUSA
100
AcDbPolyline
 90
        6
 70
   128
 43
0.0
 10
1.668193094188227
 20
0.0742953479087838
 10
1.668740722912625
 20
0.0769194142186981
 10
1.670126061616204
 20
0.0792142858500039
 10
1.67219255128729
 20
0.0809220056646774
 10
1.674710311979735
 20
0.0818540933842761
 10
1.676284771845891
 20
0.0819999999999701
  0
LINE
  5
2F3
330
2
100
AcDbEntity
  8
SANINDUSA
100
AcDbLine
 10
1.740988220014072
 20
0.0819999999999719
 30
0.0
 11
1.731813571335055
 21
0.081999999999971
 31
0.0
  0
LWPOLYLINE
  5
2F5
330
2
100
AcDbEntity
  8
SANINDUSA
100
AcDbPolyline
 90
        3
 70
   128
 43
0.0
 10
1.733861361275836
 20
0.081591649352322
 10
1.733559468881605
 20
0.0817188724251202
 10
1.731457347658309
 20
0.0819999999999719
  0
ARC
  5
2F7
330
2
100
AcDbEntity
  8
SANINDUSA
100
AcDbCircle
 10
1.731463933476319
 20
0.0739976223482451
 30
0.0
 40
0.0080023776595959
100
AcDbArc
 50
20.75825394050986
 51
90.00254097340464
  0
LINE
  5
2F8
330
2
100
AcDbEntity
  8
SANINDUSA
100
AcDbLine
 10
2.043734863987915
 20
0.0019999999999719
 30
0.0
 11
1.979226348135499
 21
0.0019999999999701
 31
0.0
  0
LINE
  5
2F9
330
2
100
AcDbEntity
  8
SANINDUSA
100
AcDbLine
 10
1.8445672979107
 20
0.0019999999999701
 30
0.0
 11
1.778611895487177
 21
0.0019999999999701
 31
0.0
  0
LINE
  5
2FC
330
2
100
AcDbEntity
  8
SANINDUSA
100
AcDbLine
 10
1.768583137003625
 20
0.0019999999999719
 30
0.0
 11
1.725639329630752
 21
0.0019999999999701
 31
0.0
  0
LINE
  5
2FD
330
2
100
AcDbEntity
  8
SANINDUSA
100
AcDbLine
 10
1.725639329630752
 20
0.0019999999999701
 30
0.0
 11
1.72499183761319
 21
0.0019999999998637
 31
0.0
  0
LINE
  5
2FE
330
2
100
AcDbEntity
  8
SANINDUSA
100
AcDbLine
 10
1.722991837606403
 20
0.0049999999999683
 30
0.0
 11
1.723099883532388
 21
0.0049999999999692
 31
0.0
  0
LWPOLYLINE
  5
2FF
330
2
100
AcDbEntity
  8
SANINDUSA
100
AcDbPolyline
 90
        7
 70
   128
 43
0.0
 10
1.721044009652274
 20
0.0069999999999719
 10
1.721299875945439
 20
0.006984121193279
 10
1.721959176666148
 20
0.0067866694575861
 10
1.722524485095739
 20
0.0063787014551627
 10
1.722922627470794
 20
0.005803364802082
 10
1.723094492871531
 20
0.0051427403258223
 10
1.723099883532388
 20
0.004999999999971
  0
LINE
  5
300
330
2
100
AcDbEntity
  8
SANINDUSA
100
AcDbLine
 10
1.723099883532388
 20
0.0049999999999692
 30
0.0
 11
1.723099883532388
 21
0.0039999999992925
 31
0.0
  0
ARC
  5
301
330
2
100
AcDbEntity
  8
SANINDUSA
100
AcDbCircle
 10
1.724991837606068
 20
0.0039999999999278
 30
0.0
 40
0.0018919540743521
100
AcDbArc
 50
180.0000000079467
 51
249.9240036908343
  0
LWPOLYLINE
  5
302
330
2
100
AcDbEntity
  8
SANINDUSA
100
AcDbPolyline
 90
        4
 70
   128
 43
0.0
 10
1.724342393650569
 20
0.0022230045676734
 10
1.724756110814083
 20
0.0021001644173003
 10
1.725192084970422
 20
0.0020251998625728
 10
1.725639329630752
 20
0.0019999999999719
  0
LINE
  5
303
330
2
100
AcDbEntity
  8
SANINDUSA
100
AcDbLine
 10
1.777823288523691
 20
0.0305987937792508
 30
0.0
 11
1.773508047486102
 21
0.0061317591117996
 31
0.0
  0
LINE
  5
304
330
2
100
AcDbEntity
  8
SANINDUSA
100
AcDbLine
 10
1.778611895487177
 20
0.0019999999999701
 30
0.0
 11
1.768583152469439
 21
0.0019999999999719
 31
0.0
  0
LWPOLYLINE
  5
307
330
2
100
AcDbEntity
  8
SANINDUSA
100
AcDbPolyline
 90
        6
 70
   128
 43
0.0
 10
1.773508047485135
 20
0.0061317591119715
 10
1.772943049358246
 20
0.0045509628054179
 10
1.771886671510523
 20
0.0032462875327502
 10
1.770457851813879
 20
0.0023646349620895
 10
1.768817482568611
 20
0.0020054924306297
 10
1.768583152469439
 20
0.0019999999999737
  0
LINE
  5
309
330
2
100
AcDbEntity
  8
SANINDUSA
100
AcDbLine
 10
1.869315519518047
 20
0.0019999999999701
 30
0.0
 11
1.854254683986209
 21
0.0019999999999701
 31
0.0
  0
LINE
  5
30C
330
2
100
AcDbEntity
  8
SANINDUSA
100
AcDbLine
 10
1.869983486152823
 20
0.03214015252617
 30
0.0
 11
1.957562544479354
 21
0.0303883073068024
 31
0.0
  0
LINE
  5
30E
330
2
100
AcDbEntity
  8
SANINDUSA
100
AcDbLine
 10
1.78184248688197
 20
0.0339032382568695
 30
0.0
 11
1.833941263170635
 21
0.0328611056529195
 31
0.0
  0
LINE
  5
310
330
2
100
AcDbEntity
  8
SANINDUSA
100
AcDbLine
 10
1.866068211272414
 20
0.0292770143001759
 30
0.0
 11
1.859048810471451
 21
0.0055799232759701
 31
0.0
  0
LINE
  5
311
330
2
100
AcDbEntity
  8
SANINDUSA
100
AcDbLine
 10
1.837696545861396
 20
0.0299979676780928
 30
0.0
 11
1.844929504602131
 21
0.0055799232759701
 31
0.0
  0
LWPOLYLINE
  5
315
330
2
100
AcDbEntity
  8
SANINDUSA
100
AcDbPolyline
 90
        3
 70
   128
 43
0.0
 10
1.846728775038304
 20
0.0030803779458785
 10
1.845775611539759
 20
0.0023015368964453
 10
1.844567298030737
 20
0.0019999999999719
  0
LINE
  5
316
330
2
100
AcDbEntity
  8
SANINDUSA
100
AcDbLine
 10
1.859048685095156
 20
0.0055799232759701
 30
0.0
 11
1.859048810471451
 21
0.0055799232759701
 31
0.0
  0
LINE
  5
317
330
2
100
AcDbEntity
  8
SANINDUSA
100
AcDbLine
 10
1.844929504602131
 20
0.0055799232759701
 30
0.0
 11
1.844929316172349
 21
0.0055799232759701
 31
0.0
  0
LINE
  5
318
330
2
100
AcDbEntity
  8
SANINDUSA
100
AcDbLine
 10
1.854254708635385
 20
0.0019999999999719
 30
0.0
 11
1.849723617340016
 21
0.001999999999971
 31
0.0
  0
LWPOLYLINE
  5
319
330
2
100
AcDbEntity
  8
SANINDUSA
100
AcDbPolyline
 90
        6
 70
   128
 43
0.0
 10
1.849723617340034
 20
0.0019999999997946
 10
1.849392719501484
 20
0.002010960610699
 10
1.847759969948075
 20
0.0024017245584056
 10
1.846348605724315
 20
0.0033109099467193
 10
1.845317747981331
 20
0.0046360124900358
 10
1.844929504603113
 20
0.005579923276263
  0
ARC
  5
31A
330
2
100
AcDbEntity
  8
SANINDUSA
100
AcDbCircle
 10
1.854254710570776
 20
0.0070000016424284
 30
0.0
 40
0.0050000016424562
100
AcDbArc
 50
269.9999940618281
 51
343.4999859398447
  0
LWPOLYLINE
  5
31B
330
2
100
AcDbEntity
  8
SANINDUSA
100
AcDbPolyline
 90
        3
 70
   128
 43
0.0
 10
1.844567298030737
 20
0.0019999999999719
 10
1.847306727152709
 20
0.0020619756143834
 10
1.849723617334707
 20
0.001999999999971
  0
LINE
  5
323
330
2
100
AcDbEntity
  8
SANINDUSA
100
AcDbLine
 10
1.890305358741992
 20
0.0457361911636136
 30
0.0
 11
1.890285365280856
 21
0.0447363910047308
 31
0.0
  0
LWPOLYLINE
  5
324
330
2
100
AcDbEntity
  8
SANINDUSA
100
AcDbPolyline
 90
       16
 70
   128
 43
0.0
 10
1.8913221989246
 20
0.0467102491947627
 10
1.891285962415448
 20
0.0467160078859744
 10
1.89091665029282
 20
0.046637637318937
 10
1.89062015117781
 20
0.0464447281193271
 10
1.890454325213993
 20
0.0462416275245661
 10
1.890377468642766
 20
0.0460895433338111
 10
1.89034072266065
 20
0.0459805083852344
 10
1.890322790179436
 20
0.0459031467826582
 10
1.890313936485299
 20
0.0458483982967147
 10
1.890309538072544
 20
0.045809677496046
 10
1.89030734601166
 20
0.0457822964803737
 10
1.890306251772185
 20
0.0457629349883183
 10
1.890305705100766
 20
0.0457492443248085
 10
1.890305431877207
 20
0.0457395635644572
 10
1.890305295293472
 20
0.0457327182348328
 10
1.890305158728439
 20
0.0457161919804258
  0
LWPOLYLINE
  5
325
330
2
100
AcDbEntity
  8
SANINDUSA
100
AcDbPolyline
 90
       10
 70
   128
 43
0.0
 10
1.890285359803582
 20
0.0447363911710892
 10
1.890262409669299
 20
0.0445409997475136
 10
1.890196055354502
 20
0.0443416691706735
 10
1.890071442584088
 20
0.044137988234622
 10
1.88988445233185
 20
0.0439534564785919
 10
1.889781133189919
 20
0.0438820406368033
 10
1.889684923967438
 20
0.0438282249516807
 10
1.889608216832337
 20
0.0437914360502865
 10
1.889563382249072
 20
0.043768963054593
 10
1.889562160397601
 20
0.0437619847404432
  0
LINE
  5
326
330
2
100
AcDbEntity
  8
SANINDUSA
100
AcDbLine
 10
1.972610845906637
 20
0.0019999999999701
 30
0.0
 11
1.89126910644759
 21
0.0019999999999701
 31
0.0
  0
LINE
  5
329
330
2
100
AcDbEntity
  8
SANINDUSA
100
AcDbLine
 10
1.891269106419869
 20
0.0019999999999683
 30
0.0
 11
1.86931551951797
 21
0.0019999999999701
 31
0.0
  0
LINE
  5
32D
330
2
100
AcDbEntity
  8
SANINDUSA
100
AcDbLine
 10
1.961317827361141
 20
0.0275251686868784
 30
0.0
 11
1.967818305202783
 21
0.0055799232758883
 31
0.0
  0
LINE
  5
32E
330
2
100
AcDbEntity
  8
SANINDUSA
100
AcDbLine
 10
1.949355400985226
 20
0.0455560845150059
 30
0.0
 11
1.891325157816481
 21
0.0467159921499944
 31
0.0
  0
LINE
  5
331
330
2
100
AcDbEntity
  8
SANINDUSA
100
AcDbLine
 10
1.941350178513071
 20
0.0457160927820897
 30
0.0
 11
1.941350154019249
 21
0.0457158374333523
 31
0.0
  0
LINE
  5
332
330
2
100
AcDbEntity
  8
SANINDUSA
100
AcDbLine
 10
1.916337668164094
 20
0.0462160424658461
 30
0.0
 11
1.916337643668406
 21
0.0462157871191831
 31
0.0
  0
LINE
  5
334
330
2
100
AcDbEntity
  8
SANINDUSA
100
AcDbLine
 10
1.966362688859361
 20
0.0452161430978396
 30
0.0
 11
1.966362664369609
 21
0.045215887751655
 31
0.0
  0
LINE
  5
335
330
2
100
AcDbEntity
  8
SANINDUSA
100
AcDbLine
 10
1.990303729629139
 20
0.0267919289647495
 30
0.0
 11
1.984020447281581
 21
0.0055799232759692
 31
0.0
  0
LINE
  5
336
330
2
100
AcDbEntity
  8
SANINDUSA
100
AcDbLine
 10
1.979226348135499
 20
0.0019999999999701
 30
0.0
 11
1.972612404128082
 21
0.0019999999999719
 31
0.0
  0
ARC
  5
337
330
2
100
AcDbEntity
  8
SANINDUSA
100
AcDbCircle
 10
1.972612403877764
 20
0.0070000000006345
 30
0.0
 40
0.0050000000006641
100
AcDbArc
 50
196.5000000114272
 51
270.0000000065392
  0
ARC
  5
338
330
2
100
AcDbEntity
  8
SANINDUSA
100
AcDbCircle
 10
1.979226348603167
 20
0.0070000000056135
 30
0.0
 40
0.0050000000056433
100
AcDbArc
 50
269.9999999792119
 51
343.4999999456396
  0
LWPOLYLINE
  5
339
330
2
100
AcDbEntity
  8
SANINDUSA
100
AcDbPolyline
 90
        3
 70
   128
 43
0.0
 10
1.969769050112481
 20
0.0029404129977767
 10
1.970187455370822
 20
0.0026275726698287
 10
1.970542335052531
 20
0.0024877606610754
  0
LINE
  5
33A
330
2
100
AcDbEntity
  8
SANINDUSA
100
AcDbLine
 10
1.991375199202916
 20
0.0447161934147454
 30
0.0
 11
1.991375174719065
 21
0.0447159380663371
 31
0.0
  0
LINE
  5
33B
330
2
100
AcDbEntity
  8
SANINDUSA
100
AcDbLine
 10
2.016387709547307
 20
0.0442162437302133
 30
0.0
 11
2.016387685070017
 21
0.0442159883823798
 31
0.0
  0
LINE
  5
33C
330
2
100
AcDbEntity
  8
SANINDUSA
100
AcDbLine
 10
2.041400219890993
 20
0.0437162940464469
 30
0.0
 11
2.041400195420334
 21
0.0437160386997285
 31
0.0
  0
LINE
  5
33E
330
2
100
AcDbEntity
  8
SANINDUSA
100
AcDbLine
 10
2.227410442614377
 20
0.0819999999999719
 30
0.0
 11
2.204863870453277
 21
0.0819999999999701
 31
0.0
  0
LWPOLYLINE
  5
341
330
2
100
AcDbEntity
  8
SANINDUSA
100
AcDbPolyline
 90
        5
 70
   128
 43
0.0
 10
2.244466044463778
 20
0.0464740051381533
 10
2.243930757616296
 20
0.0444527179855578
 10
2.243167555404
 20
0.0425784314711574
 10
2.242197268233837
 20
0.0409023013046718
 10
2.241248368506211
 20
0.0397214415252685
  0
LWPOLYLINE
  5
342
330
2
100
AcDbEntity
  8
SANINDUSA
100
AcDbPolyline
 90
        5
 70
   128
 43
0.0
 10
2.37318877457176
 20
0.0220745295830071
 10
2.291409635319738
 20
0.0237103589337017
 42
0.3256149273638452
 10
2.287547606894292
 20
0.0210135533332133
 10
2.285197408498655
 20
0.0141887954762388
 10
2.282161283738824
 20
0.0053721592279099
  0
LINE
  5
345
330
2
100
AcDbEntity
  8
SANINDUSA
100
AcDbLine
 10
2.271291653406449
 20
0.0019999999999737
 30
0.0
 11
2.174212560937984
 21
0.0019999999999719
 31
0.0
  0
ARC
  5
347
330
2
100
AcDbEntity
  8
SANINDUSA
100
AcDbCircle
 10
2.174212561307811
 20
0.0070000000864271
 30
0.0
 40
0.0050000000864526
100
AcDbArc
 50
269.9999997334186
 51
341.9999992775754
  0
LINE
  5
349
330
2
100
AcDbEntity
  8
SANINDUSA
100
AcDbLine
 10
2.17205700187638
 20
0.0019999999999701
 30
0.0
 11
2.086209149535604
 21
0.0019999999999701
 31
0.0
  0
LINE
  5
34B
330
2
100
AcDbEntity
  8
SANINDUSA
100
AcDbLine
 10
2.100571649378774
 20
0.0275276940330442
 30
0.0
 11
2.157850702202393
 21
0.0263819402791051
 31
0.0
  0
LINE
  5
34C
330
2
100
AcDbEntity
  8
SANINDUSA
100
AcDbLine
 10
2.096656374390477
 20
0.0246645554427865
 30
0.0
 11
2.091003248635132
 21
0.0055799232759719
 31
0.0
  0
LINE
  5
34F
330
2
100
AcDbEntity
  8
SANINDUSA
100
AcDbLine
 10
2.072957303090426
 20
0.0252920426045076
 30
0.0
 11
2.078796299007283
 21
0.0055799232759283
 31
0.0
  0
LINE
  5
350
330
2
100
AcDbEntity
  8
SANINDUSA
100
AcDbLine
 10
2.066412730235228
 20
0.0432163443622004
 30
0.0
 11
2.066412705770476
 21
0.0432160890147417
 31
0.0
  0
LINE
  5
353
330
2
100
AcDbEntity
  8
SANINDUSA
100
AcDbLine
 10
2.083589863807742
 20
0.0019999999999719
 30
0.0
 11
2.061790973126656
 21
0.0019999999999692
 31
0.0
  0
LINE
  5
356
330
2
100
AcDbEntity
  8
SANINDUSA
100
AcDbLine
 10
2.086209149535604
 20
0.0019999999999701
 30
0.0
 11
2.08359039804228
 21
0.0019999999999719
 31
0.0
  0
ARC
  5
357
330
2
100
AcDbEntity
  8
SANINDUSA
100
AcDbCircle
 10
2.083590397767646
 20
0.0070000001151849
 30
0.0
 40
0.0050000001152123
100
AcDbArc
 50
196.5000009917324
 51
270.0000005207713
  0
ARC
  5
358
330
2
100
AcDbEntity
  8
SANINDUSA
100
AcDbCircle
 10
2.086209149866531
 20
0.0070000001263944
 30
0.0
 40
0.0050000001264233
100
AcDbArc
 50
269.9999995349266
 51
343.4999989115001
  0
LINE
  5
359
330
2
100
AcDbEntity
  8
SANINDUSA
100
AcDbLine
 10
2.09142524617261
 20
0.0427163945670119
 30
0.0
 11
2.09142521612077
 21
0.04271613933123
 31
0.0
  0
LINE
  5
35A
330
2
100
AcDbEntity
  8
SANINDUSA
100
AcDbLine
 10
2.116437756507673
 20
0.0422164448836803
 30
0.0
 11
2.116437726470327
 21
0.0422161896485333
 31
0.0
  0
LINE
  5
35B
330
2
100
AcDbEntity
  8
SANINDUSA
100
AcDbLine
 10
2.16646277720479
 20
0.0412165455149026
 30
0.0
 11
2.166462747171443
 21
0.0412162902784995
 31
0.0
  0
LINE
  5
35C
330
2
100
AcDbEntity
  8
SANINDUSA
100
AcDbLine
 10
2.141450261267766
 20
0.0417164953103148
 30
0.0
 11
2.141450236821526
 21
0.0417162399625014
 31
0.0
  0
LINE
  5
35D
330
2
100
AcDbEntity
  8
SANINDUSA
100
AcDbLine
 10
2.174212560937984
 20
0.0019999999999719
 30
0.0
 11
2.172232021876381
 21
0.0019999999999701
 31
0.0
  0
LINE
  5
35E
330
2
100
AcDbEntity
  8
SANINDUSA
100
AcDbLine
 10
2.161574932203436
 20
0.0236188082777454
 30
0.0
 11
2.167476738986077
 21
0.0054549150279155
 31
0.0
  0
ARC
  5
35F
330
2
100
AcDbEntity
  8
SANINDUSA
100
AcDbCircle
 10
2.172232021625431
 20
0.0070000000793008
 30
0.0
 40
0.0050000000793264
100
AcDbArc
 50
198.0000006619273
 51
270.0000003283605
  0
LINE
  5
360
330
2
100
AcDbEntity
  8
SANINDUSA
100
AcDbLine
 10
2.210315512587455
 20
0.0468019007541517
 30
0.0
 11
2.210323858578617
 21
0.0760705523609696
 31
0.0
  0
LWPOLYLINE
  5
361
330
2
100
AcDbEntity
  8
SANINDUSA
100
AcDbPolyline
 90
        5
 70
   128
 43
0.0
 10
2.204863870452121
 20
0.0819999999999719
 10
2.20668083781428
 20
0.0815754410363271
 10
2.208304952731264
 20
0.080346826722801
 10
2.20956383206635
 20
0.0784445618644678
 10
2.210323858692917
 20
0.0760705523607895
  0
LINE
  5
362
330
2
100
AcDbEntity
  8
SANINDUSA
100
AcDbLine
 10
2.191475287548639
 20
0.0407165958314437
 30
0.0
 11
2.1914752575217
 21
0.0407163405954954
 31
0.0
  0
LWPOLYLINE
  5
363
330
2
100
AcDbEntity
  8
SANINDUSA
100
AcDbPolyline
 90
        3
 70
   128
 43
0.0
 10
2.213224439077287
 20
0.0402816673678855
 10
2.211489505593883
 20
0.0429827542934755
 10
2.210315512539073
 20
0.0468019007482627
  0
LWPOLYLINE
  5
364
330
2
100
AcDbEntity
  8
SANINDUSA
100
AcDbPolyline
 90
        7
 70
   128
 43
0.0
 10
2.178967843952056
 20
0.0054549150279737
 10
2.184670096461615
 20
0.0230046433789813
 42
-0.3304566966115372
 10
2.188554318577771
 20
0.0257677753797822
 10
2.257582158684729
 20
0.024387010457218
 42
-0.3145907826173149
 10
2.261284198628527
 20
0.0216901943049198
 10
2.263746830012788
 20
0.014538876682028
 10
2.266903489545345
 20
0.0053721592280627
  0
LINE
  5
365
330
2
100
AcDbEntity
  8
SANINDUSA
100
AcDbLine
 10
2.216487797885348
 20
0.0402166461477765
 30
0.0
 11
2.216487767871893
 21
0.0402163909106759
 31
0.0
  0
LINE
  5
366
330
2
100
AcDbEntity
  8
SANINDUSA
100
AcDbLine
 10
2.266903489545083
 20
0.00537215922797
 30
0.0
 11
2.266857503579117
 21
0.0053721592279736
 31
0.0
  0
LINE
  5
367
330
2
100
AcDbEntity
  8
SANINDUSA
100
AcDbLine
 10
2.27743320727733
 20
0.0019999999999701
 30
0.0
 11
2.271631547199765
 21
0.0019999999999701
 31
0.0
  0
ARC
  5
368
330
2
100
AcDbEntity
  8
SANINDUSA
100
AcDbCircle
 10
2.271631391095879
 20
0.0070004327534845
 30
0.0
 40
0.0050004327559708
100
AcDbArc
 50
199.0035369316412
 51
270.001796249248
  0
ARC
  5
369
330
2
100
AcDbEntity
  8
SANINDUSA
100
AcDbCircle
 10
2.277433337588044
 20
0.0070004952858727
 30
0.0
 40
0.0050004952875089
100
AcDbArc
 50
269.9985466286685
 51
340.9959520241133
  0
LINE
  5
36A
330
2
100
AcDbEntity
  8
SANINDUSA
100
AcDbLine
 10
2.244474484232866
 20
0.0760705523609714
 30
0.0
 11
2.244466044644105
 21
0.0464740051185028
 31
0.0
  0
LINE
  5
36B
330
2
100
AcDbEntity
  8
SANINDUSA
100
AcDbLine
 10
2.24994269601445
 20
0.0819999999999683
 30
0.0
 11
2.227410442614377
 21
0.0819999999999719
 31
0.0
  0
LWPOLYLINE
  5
36D
330
2
100
AcDbEntity
  8
SANINDUSA
100
AcDbPolyline
 90
        5
 70
   128
 43
0.0
 10
2.244474484118328
 20
0.0760705523623466
 10
2.245235655472467
 20
0.078444561865471
 10
2.246496430890663
 20
0.0803468267232903
 10
2.248122991996548
 20
0.0815754410364563
 10
2.249942696015611
 20
0.0819999999999719
  0
LINE
  5
371
330
2
100
AcDbEntity
  8
SANINDUSA
100
AcDbLine
 10
2.480605100080698
 20
0.0019999999999719
 30
0.0
 11
2.535545816739539
 21
0.0019999999999737
 31
0.0
  0
LINE
  5
374
330
2
100
AcDbEntity
  8
SANINDUSA
100
AcDbLine
 10
2.493891147851183
 20
0.0196601181974344
 30
0.0
 11
2.540069537989318
 21
0.0187364111658459
 31
0.0
  0
LINE
  5
375
330
2
100
AcDbEntity
  8
SANINDUSA
100
AcDbLine
 10
2.468490354182341
 20
0.0019999999999701
 30
0.0
 11
2.391100537684073
 21
0.0019999999999728
 31
0.0
  0
LINE
  5
377
330
2
100
AcDbEntity
  8
SANINDUSA
100
AcDbLine
 10
2.401014992521548
 20
0.0188758953289226
 30
0.0
 11
2.395768440342442
 21
0.005208160251973
 31
0.0
  0
LINE
  5
378
330
2
100
AcDbEntity
  8
SANINDUSA
100
AcDbLine
 10
2.376843100201121
 20
0.0195088014318063
 30
0.0
 11
2.382332602245228
 21
0.0052081602522568
 31
0.0
  0
LINE
  5
379
330
2
100
AcDbEntity
  8
SANINDUSA
100
AcDbLine
 10
2.386825484742778
 20
0.001999999999971
 30
0.0
 11
2.37831028839746
 21
0.0019999999999701
 31
0.0
  0
LINE
  5
37D
330
2
100
AcDbEntity
  8
SANINDUSA
100
AcDbLine
 10
2.391100537684073
 20
0.0019999999999728
 30
0.0
 11
2.387000504742779
 21
0.0019999999999719
 31
0.0
  0
ARC
  5
37E
330
2
100
AcDbEntity
  8
SANINDUSA
100
AcDbCircle
 10
2.38700050450416
 20
0.0070000001852451
 30
0.0
 40
0.005000000185273
100
AcDbArc
 50
201.0000014634973
 51
270.0000007246067
  0
ARC
  5
37F
330
2
100
AcDbEntity
  8
SANINDUSA
100
AcDbCircle
 10
2.391100538050702
 20
0.0070000002318453
 30
0.0
 40
0.0050000002318718
100
AcDbArc
 50
269.9999994368891
 51
338.999998170143
  0
LINE
  5
381
330
2
100
AcDbEntity
  8
SANINDUSA
100
AcDbLine
 10
2.404829310262988
 20
0.0214416234717984
 30
0.0
 11
2.463226315820564
 21
0.0202735072926613
 31
0.0
  0
LINE
  5
382
330
2
100
AcDbEntity
  8
SANINDUSA
100
AcDbLine
 10
2.476425176620359
 20
0.0019999999999728
 30
0.0
 11
2.468490354182075
 21
0.0019999999999728
 31
0.0
  0
LINE
  5
39B
330
2
100
AcDbEntity
  8
SANINDUSA
100
AcDbLine
 10
2.480605100080698
 20
0.0019999999999719
 30
0.0
 11
2.476600196620359
 21
0.0019999999999737
 31
0.0
  0
LINE
  5
39C
330
2
100
AcDbEntity
  8
SANINDUSA
100
AcDbLine
 10
2.466855055148352
 20
0.0177727337487755
 30
0.0
 11
2.471964276869699
 21
0.0051269670331559
 31
0.0
  0
ARC
  5
39D
330
2
100
AcDbEntity
  8
SANINDUSA
100
AcDbCircle
 10
2.476600196347862
 20
0.0070000003051351
 30
0.0
 40
0.0050000003051621
100
AcDbArc
 50
202.0000023596736
 51
270.0000011601646
  0
ARC
  5
39E
330
2
100
AcDbEntity
  8
SANINDUSA
100
AcDbCircle
 10
2.48060510037393
 20
0.0070000003942788
 30
0.0
 40
0.0050000003943069
100
AcDbArc
 50
269.9999991391384
 51
337.9999969468366
  0
LINE
  5
39F
330
2
100
AcDbEntity
  8
SANINDUSA
100
AcDbLine
 10
2.490102416415654
 20
0.0171593446722155
 30
0.0
 11
2.485241019912996
 21
0.0051269670329722
 31
0.0
  0
LINE
  5
3A0
330
2
100
AcDbEntity
  8
SANINDUSA
100
AcDbLine
 10
2.675499516226353
 20
0.0019999999999719
 30
0.0
 11
2.556842248404997
 21
0.0019999999999737
 31
0.0
  0
LINE
  5
3A3
330
2
100
AcDbEntity
  8
SANINDUSA
100
AcDbLine
 10
2.722617578803244
 20
0.0819999999999729
 30
0.0
 11
2.713120722767814
 21
0.0819999999999729
 31
0.0
  0
LINE
  5
3A6
330
2
100
AcDbEntity
  8
SANINDUSA
100
AcDbLine
 10
2.684634583868573
 20
0.0293642492811579
 30
0.0
 11
2.625667991691468
 21
0.0297471094324529
 31
0.0
  0
ARC
  5
3A7
330
2
100
AcDbEntity
  8
SANINDUSA
100
AcDbCircle
 10
2.722617610656138
 20
0.0739999085593337
 30
0.0
 40
0.0080000914406998
100
AcDbArc
 50
90.00022003942397
 51
159.2461391508828
  0
LINE
  5
3A8
330
2
100
AcDbEntity
  8
SANINDUSA
100
AcDbLine
 10
2.633364614965757
 20
0.0176969205468018
 30
0.0
 11
2.674417580786002
 21
0.0174303429224279
 31
0.0
  0
LINE
  5
3BC
330
2
100
AcDbEntity
  8
SANINDUSA
100
AcDbLine
 10
2.497349030580219
 20
0.0325937701363274
 30
0.0
 11
2.497369029592133
 21
0.0335935701373484
 31
0.0
  0
LINE
  5
3BE
330
2
100
AcDbEntity
  8
SANINDUSA
100
AcDbLine
 10
2.497369029592352
 20
0.0335935701375867
 30
0.0
 11
2.497369242774054
 21
0.0336118025433945
 31
0.0
  0
LWPOLYLINE
  5
3BF
330
2
100
AcDbEntity
  8
SANINDUSA
100
AcDbPolyline
 90
        5
 70
   128
 43
0.0
 10
2.497369242774054
 20
0.0336118025435627
 10
2.497302728821796
 20
0.0339902577190106
 10
2.497110522179371
 20
0.0343124096597959
 10
2.496821217662521
 20
0.0345303314294835
 10
2.496477855455657
 20
0.0346116025418952
  0
LWPOLYLINE
  5
3C0
330
2
100
AcDbEntity
  8
SANINDUSA
100
AcDbPolyline
 90
        5
 70
   128
 43
0.0
 10
2.497349030582776
 20
0.0325937701369732
 10
2.497421789204143
 20
0.0321800498546519
 10
2.497667501241878
 20
0.031813500219134
 10
2.497946417494123
 20
0.031635436055055
 10
2.498240204730961
 20
0.031575737730973
  0
LINE
  5
3CD
330
2
100
AcDbEntity
  8
SANINDUSA
100
AcDbLine
 10
2.616722833206695
 20
0.0189999999999719
 30
0.0
 11
2.621264741193347
 21
0.0271754343755766
 31
0.0
  0
LINE
  5
3CE
330
2
100
AcDbEntity
  8
SANINDUSA
100
AcDbLine
 10
2.630339024636693
 20
0.0147581264209722
 30
0.0
 11
2.630356550768186
 21
0.0149584510209735
 31
0.0
  0
ARC
  5
3CF
330
2
100
AcDbEntity
  8
SANINDUSA
100
AcDbCircle
 10
2.603011299947282
 20
-1.796322442909695
 30
0.0
 40
1.826200029231051
100
AcDbArc
 50
89.29821137505134
 51
90.51012677318581
  0
LINE
  5
3D1
330
2
100
AcDbEntity
  8
SANINDUSA
100
AcDbLine
 10
2.556722833206696
 20
0.0120195936489719
 30
0.0
 11
2.616722833206694
 21
0.0120195936489728
 31
0.0
  0
LINE
  5
3D2
330
2
100
AcDbEntity
  8
SANINDUSA
100
AcDbLine
 10
2.607951993919736
 20
0.0189999999999719
 30
0.0
 11
2.556722833206697
 21
0.0189999999999737
 31
0.0
  0
LWPOLYLINE
  5
3D4
330
2
100
AcDbEntity
  8
SANINDUSA
100
AcDbPolyline
 90
       13
 70
   128
 43
0.0
 10
2.586752140206835
 20
0.029805205004882
 10
2.581637265795758
 20
0.0299075135592131
 10
2.576605629259834
 20
0.0300081470422621
 10
2.571742882799797
 20
0.0301053923987721
 10
2.567132869581712
 20
0.0301975729286252
 10
2.562856834321884
 20
0.0302830640855829
 10
2.558987526604639
 20
0.030360411382405
 10
2.555591760179139
 20
0.0304282792128298
 10
2.55272932132371
 20
0.0304854726880386
 10
2.550448869583938
 20
0.0305310195595704
 10
2.548789876523259
 20
0.0305641314684682
 10
2.547781504265901
 20
0.0305842263679161
 10
2.547440842854098
 20
0.0305909636925354
  0
ARC
  5
3D6
330
2
100
AcDbEntity
  8
SANINDUSA
100
AcDbCircle
 10
2.547340821071502
 20
0.0255919373998314
 30
0.0
 40
0.0050000263786616
100
AcDbArc
 50
29.05477790663681
 51
88.85389065739143
  0
LINE
  5
3D7
330
2
100
AcDbEntity
  8
SANINDUSA
100
AcDbLine
 10
2.547440842854098
 20
0.0305909636925345
 30
0.0
 11
2.54744083220959
 21
0.0305909634604969
 31
0.0
  0
LINE
  5
3D8
330
2
100
AcDbEntity
  8
SANINDUSA
100
AcDbLine
 10
2.535545816739539
 20
0.0019999999999737
 30
0.0
 11
2.556842248461222
 21
0.001999999999971
 31
0.0
  0
LINE
  5
3DD
330
2
100
AcDbEntity
  8
SANINDUSA
100
AcDbLine
 10
2.551711632926414
 20
0.0280201783482518
 30
0.0
 11
2.551711623140875
 21
0.0280201781186526
 31
0.0
  0
LINE
  5
3DE
330
2
100
AcDbEntity
  8
SANINDUSA
100
AcDbLine
 10
2.54299812504039
 20
0.015998478394558
 30
0.0
 11
2.543106641776696
 21
0.0147581264209722
 31
0.0
  0
LWPOLYLINE
  5
3DF
330
2
100
AcDbEntity
  8
SANINDUSA
100
AcDbPolyline
 90
        6
 70
   128
 43
0.0
 10
2.54609522587155
 20
0.0120195936489737
 10
2.545102209098583
 20
0.0121887072703404
 10
2.544221147433979
 20
0.0126769818565127
 10
2.543551373896986
 20
0.0134293681517867
 10
2.543168400373159
 20
0.0143610403086888
 10
2.543106641777304
 20
0.0147581264209176
  0
LINE
  5
3E0
330
2
100
AcDbEntity
  8
SANINDUSA
100
AcDbLine
 10
2.546095186813399
 20
0.0120195936489746
 30
0.0
 11
2.556722833206696
 21
0.0120195936489719
 31
0.0
  0
LINE
  5
3E1
330
2
100
AcDbEntity
  8
SANINDUSA
100
AcDbLine
 10
2.556722833206697
 20
0.0189999999999737
 30
0.0
 11
2.556722833206696
 21
0.0120195936489719
 31
0.0
  0
LINE
  5
3E2
330
2
100
AcDbEntity
  8
SANINDUSA
100
AcDbLine
 10
2.551711623140875
 20
0.0280201781186526
 30
0.0
 11
2.556722833206697
 21
0.0189999999999737
 31
0.0
  0
LINE
  5
3E3
330
2
100
AcDbEntity
  8
SANINDUSA
100
AcDbLine
 10
2.616722833206694
 20
0.0120195936489728
 30
0.0
 11
2.616722833206695
 21
0.0189999999999719
 31
0.0
  0
LINE
  5
3E5
330
2
100
AcDbEntity
  8
SANINDUSA
100
AcDbLine
 10
2.616722833206695
 20
0.0189999999999719
 30
0.0
 11
2.607951993919736
 21
0.0189999999999719
 31
0.0
  0
LINE
  5
3E7
330
2
100
AcDbEntity
  8
SANINDUSA
100
AcDbLine
 10
2.616722833206694
 20
0.0120195936489728
 30
0.0
 11
2.627350479600717
 21
0.0120195936489737
 31
0.0
  0
LWPOLYLINE
  5
3E8
330
2
100
AcDbEntity
  8
SANINDUSA
100
AcDbPolyline
 90
        6
 70
   128
 43
0.0
 10
2.630339024636545
 20
0.0147581264209267
 10
2.63008400742881
 20
0.0137836275995243
 10
2.629520801290655
 20
0.0129484745745714
 10
2.62871290344173
 20
0.0123468245143605
 10
2.627751398236311
 20
0.0120465088994816
 10
2.627350440542549
 20
0.0120195936489746
  0
LWPOLYLINE
  5
3E9
330
2
100
AcDbEntity
  8
SANINDUSA
100
AcDbPolyline
 90
        5
 70
   128
 43
0.0
 10
2.621264738473652
 20
0.0271754294983349
 10
2.622315083345057
 20
0.0284854325701591
 10
2.623739831834312
 20
0.0293738425827816
 10
2.62537899217074
 20
0.0297405990217959
 10
2.625667991691468
 20
0.0297471094324529
  0
LINE
  5
3EB
330
2
100
AcDbEntity
  8
SANINDUSA
100
AcDbLine
 10
2.774340132213411
 20
0.0019999999999737
 30
0.0
 11
2.729426651136833
 21
0.0019999999999719
 31
0.0
  0
LINE
  5
3EE
330
2
100
AcDbEntity
  8
SANINDUSA
100
AcDbLine
 10
2.733081747767845
 20
0.0069999999999719
 30
0.0
 11
2.771370731417018
 21
0.0069999999999746
 31
0.0
  0
LINE
  5
3EF
330
2
100
AcDbEntity
  8
SANINDUSA
100
AcDbLine
 10
2.70032032753836
 20
0.0377350513216262
 30
0.0
 11
2.715136634489005
 21
0.0768347730421339
 31
0.0
  0
LINE
  5
3F0
330
2
100
AcDbEntity
  8
SANINDUSA
100
AcDbLine
 10
2.728976215115376
 20
0.0019999999999728
 30
0.0
 11
2.685496923637332
 21
0.0019999999999719
 31
0.0
  0
LINE
  5
3F1
330
2
100
AcDbEntity
  8
SANINDUSA
100
AcDbLine
 10
2.675499516226353
 20
0.0019999999999719
 30
0.0
 11
2.685496923637328
 21
0.0019999999999728
 31
0.0
  0
LWPOLYLINE
  5
3F2
330
2
100
AcDbEntity
  8
SANINDUSA
100
AcDbPolyline
 90
        6
 70
   128
 43
0.0
 10
2.685496922308746
 20
0.0019999999999737
 10
2.683841891092182
 20
0.0022818565638455
 10
2.682373452088223
 20
0.0030956491625285
 10
2.681257161321637
 20
0.004349628665701
 10
2.680618872757184
 20
0.00590241691742
 10
2.680572877735114
 20
0.0061317591119306
  0
LINE
  5
3F6
330
2
100
AcDbEntity
  8
SANINDUSA
100
AcDbLine
 10
2.680572877734611
 20
0.0061317591119724
 30
0.0
 11
2.67930915249199
 21
0.0132986904709115
 31
0.0
  0
LWPOLYLINE
  5
3FA
330
2
100
AcDbEntity
  8
SANINDUSA
100
AcDbPolyline
 90
        5
 70
   128
 43
0.0
 10
2.688079325688683
 20
0.0293418411438462
 10
2.68784809825847
 20
0.0293433533886738
 10
2.687188848681878
 20
0.0293476446196502
 10
2.68610237458537
 20
0.0293547094611396
 10
2.684634583889768
 20
0.0293642492810224
  0
LWPOLYLINE
  5
3FB
330
2
100
AcDbEntity
  8
SANINDUSA
100
AcDbPolyline
 90
        8
 70
   128
 43
0.0
 10
2.700320327248123
 20
0.0377350517214646
 10
2.699373311711962
 20
0.0357602261275807
 10
2.698110306326349
 20
0.0339709322116515
 10
2.696562996373074
 20
0.0324209154591855
 10
2.694778956936585
 20
0.0311505227076678
 10
2.692805645281222
 20
0.0301999688543157
 10
2.690701482153589
 20
0.0295916770469677
 10
2.688079326358622
 20
0.0293418411396753
  0
LWPOLYLINE
  5
3FC
330
2
100
AcDbEntity
  8
SANINDUSA
100
AcDbPolyline
 90
        4
 70
   128
 43
0.0
 10
2.728976215115377
 20
0.0019999999999728
 10
2.729047695216355
 20
0.0020006397391199
 10
2.729119129588717
 20
0.0020025585473014
 10
2.729190472533093
 20
0.0020057551969795
  0
LWPOLYLINE
  5
3FD
330
2
100
AcDbEntity
  8
SANINDUSA
100
AcDbPolyline
 90
        6
 70
   128
 43
0.0
 10
2.729190472532692
 20
0.0020057551967894
 10
2.729844530648765
 20
0.00215368675401
 10
2.730412752546789
 20
0.0025097761240132
 10
2.730831075518163
 20
0.0030338769315423
 10
2.731052336821166
 20
0.003666900786263
 10
2.731080311397155
 20
0.0040000000000765
  0
LINE
  5
3FE
330
2
100
AcDbEntity
  8
SANINDUSA
100
AcDbLine
 10
2.731080311397155
 20
0.0040000000000756
 30
0.0
 11
2.731080311397462
 21
0.0049999999999728
 31
0.0
  0
ARC
  5
3FF
330
2
100
AcDbEntity
  8
SANINDUSA
100
AcDbCircle
 10
2.733081305329324
 20
0.0049990058700783
 30
0.0
 40
0.0020009941788106
100
AcDbArc
 50
89.98733136730885
 51
179.9715344250708
  0
LINE
  5
400
330
2
100
AcDbEntity
  8
SANINDUSA
100
AcDbLine
 10
2.788581607024541
 20
0.0019999999999719
 30
0.0
 11
2.785904335229055
 21
0.0742960241951115
 31
0.0
  0
LINE
  5
401
330
2
100
AcDbEntity
  8
SANINDUSA
100
AcDbLine
 10
2.77790574581081
 20
0.0819999999999738
 30
0.0
 11
2.722617578803237
 21
0.0819999999999729
 31
0.0
  0
ARC
  5
402
330
2
100
AcDbEntity
  8
SANINDUSA
100
AcDbCircle
 10
2.777909055370465
 20
0.0739992166188705
 30
0.0
 40
0.0080007840661928
100
AcDbArc
 50
2.126002904243774
 51
90.02371071415845
  0
LINE
  5
404
330
2
100
AcDbEntity
  8
SANINDUSA
100
AcDbLine
 10
2.775507445676729
 20
0.0019999999999728
 30
0.0
 11
2.774340132213411
 21
0.0019999999999737
 31
0.0
  0
LINE
  5
409
330
2
100
AcDbEntity
  8
SANINDUSA
100
AcDbLine
 10
2.788581607024541
 20
0.0019999999999719
 30
0.0
 11
2.775507445676729
 21
0.0019999999999728
 31
0.0
  0
LINE
  5
40A
330
2
100
AcDbEntity
  8
SANINDUSA
100
AcDbLine
 10
2.773504737509009
 20
0.0039999999999719
 30
0.0
 11
2.773504737508692
 21
0.0050000000003648
 31
0.0
  0
LWPOLYLINE
  5
40B
330
2
100
AcDbEntity
  8
SANINDUSA
100
AcDbPolyline
 90
        7
 70
   128
 43
0.0
 10
2.775507445676729
 20
0.0019999999999737
 10
2.775204158400135
 20
0.00202305532001
 10
2.774566066801205
 20
0.0022348531143826
 10
2.774033706782071
 20
0.0026460839729835
 10
2.773667550332664
 20
0.0032104404373423
 10
2.773509412399308
 20
0.0038634984798137
 10
2.773504737509008
 20
0.0039999999999737
  0
LWPOLYLINE
  5
40C
330
2
100
AcDbEntity
  8
SANINDUSA
100
AcDbPolyline
 90
        4
 70
   128
 43
0.0
 10
2.771648842063352
 20
0.0069902937035814
 10
2.771556305433809
 20
0.0069956841495015
 10
2.771463568522813
 20
0.0069989207460013
 10
2.771370731417018
 20
0.0069999999999755
  0
LWPOLYLINE
  5
40D
330
2
100
AcDbEntity
  8
SANINDUSA
100
AcDbPolyline
 90
        6
 70
   128
 43
0.0
 10
2.773504737508692
 20
0.0050000000001056
 10
2.773392267927742
 20
0.0056604091344062
 10
2.773067539277054
 20
0.0062463621485032
 10
2.772567162248694
 20
0.0066917972849425
 10
2.771947550556884
 20
0.0069464951110541
 10
2.771648842062856
 20
0.0069902937037724
  0
LINE
  5
40E
330
2
100
AcDbEntity
  8
SANINDUSA
100
AcDbLine
 10
1.759220861409753
 20
0.0463577393763109
 30
0.0
 11
2.547440831837295
 21
0.0305909634683809
 31
0.0
  0
LINE
  5
40F
330
2
100
AcDbEntity
  8
SANINDUSA
100
AcDbLine
 10
1.728703744196772
 20
0.070999999999971
 30
0.0
 11
1.680042227529003
 21
0.070999999999971
 31
0.0
  0
LINE
  5
410
330
2
100
AcDbEntity
  8
SANINDUSA
100
AcDbLine
 10
1.679042912455896
 20
0.0700370051977531
 30
0.0
 11
1.677122756820042
 21
0.018183736343076
 31
0.0
  0
ARC
  5
411
330
2
100
AcDbEntity
  8
SANINDUSA
100
AcDbCircle
 10
1.68255669271485
 20
0.0050027067989205
 30
0.0
 40
0.0128719586883471
100
AcDbArc
 50
107.992296498713
 51
108.64371789743
  0
LWPOLYLINE
  5
412
330
2
100
AcDbEntity
  8
SANINDUSA
100
AcDbPolyline
 90
       13
 70
   128
 43
0.0
 10
1.678580684714643
 20
0.0172452016776944
 10
1.679671282689813
 20
0.0175885603297835
 10
1.681460416536253
 20
0.0179134137043353
 10
1.682888874378046
 20
0.0179982414130878
 42
-0.0148297018795463
 10
1.682948154063718
 20
0.0179999999999683
 10
1.721354006472815
 20
0.0179999999999719
 42
-0.015496119054555
 10
1.721415946313956
 20
0.0179980798845901
 10
1.723243852864015
 20
0.0178846418291038
 10
1.726892109537149
 20
0.0167920378174036
 10
1.730494296233041
 20
0.0141924358412867
 10
1.731021255522027
 20
0.0134309519786526
 42
0.2461609176628489
 10
1.73184355981451
 20
0.0129999999999701
 10
1.762710557803179
 20
0.0129999999999715
  0
LINE
  5
413
330
2
100
AcDbEntity
  8
SANINDUSA
100
AcDbLine
 10
1.767204281538011
 20
0.0337215948002282
 30
0.0
 11
1.763695358378351
 21
0.0138263111196644
 31
0.0
  0
LWPOLYLINE
  5
414
330
2
100
AcDbEntity
  8
SANINDUSA
100
AcDbPolyline
 90
       10
 70
   128
 43
0.0
 10
1.758069703745041
 20
0.0354181399306741
 10
1.754970467567225
 20
0.0357442679117377
 10
1.751066424310106
 20
0.036834341708248
 10
1.747401907974293
 20
0.038569581603632
 10
1.744077971464512
 20
0.0408921586678949
 10
1.741196500679938
 20
0.04374221101669
 10
1.738821076541792
 20
0.0470465044181425
 10
1.73721945345574
 20
0.0503599978339486
 42
-0.0220132809375656
 10
1.737184676133915
 20
0.0504408457259298
 10
1.729638859690088
 20
0.0703543430740671
  0
ARC
  5
415
330
2
100
AcDbEntity
  8
SANINDUSA
100
AcDbCircle
 10
2.633345134862503
 20
0.0146969837932057
 30
0.0
 40
0.003
100
AcDbArc
 50
89.62795481850728
 51
175.0000000091015
  0
ARC
  5
416
330
2
100
AcDbEntity
  8
SANINDUSA
100
AcDbCircle
 10
2.54000954094608
 20
0.0157370111667125
 30
0.0
 40
0.003
100
AcDbArc
 50
4.999999992389034
 51
88.85406448291123
  0
ARC
  5
417
330
2
100
AcDbEntity
  8
SANINDUSA
100
AcDbCircle
 10
2.493811151793534
 20
0.0156609181985897
 30
0.0
 40
0.004
100
AcDbArc
 50
88.85406448291123
 51
157.9999984556865
  0
ARC
  5
418
330
2
100
AcDbEntity
  8
SANINDUSA
100
AcDbCircle
 10
2.463146319762929
 20
0.0162743072938161
 30
0.0
 40
0.004
100
AcDbArc
 50
22.00000125591417
 51
88.85406448311481
  0
ARC
  5
419
330
2
100
AcDbEntity
  8
SANINDUSA
100
AcDbCircle
 10
2.404749314205354
 20
0.0174424234729532
 30
0.0
 40
0.004
100
AcDbArc
 50
88.85406448311481
 51
158.9999991133534
  0
ARC
  5
41A
330
2
100
AcDbEntity
  8
SANINDUSA
100
AcDbCircle
 10
2.37310877851412
 20
0.018075329584162
 30
0.0
 40
0.004
100
AcDbArc
 50
21.00000075890868
 51
88.85406448303847
  0
ARC
  5
41B
330
2
100
AcDbEntity
  8
SANINDUSA
100
AcDbCircle
 10
2.15777070614475
 20
0.02238274028026
 30
0.0
 40
0.004
100
AcDbArc
 50
18.00000030101831
 51
88.85406448298757
  0
ARC
  5
41C
330
2
100
AcDbEntity
  8
SANINDUSA
100
AcDbCircle
 10
2.100491653321131
 20
0.0235284940341991
 30
0.0
 40
0.004
100
AcDbArc
 50
88.85406448298757
 51
163.4999995552254
  0
ARC
  5
41D
330
2
100
AcDbEntity
  8
SANINDUSA
100
AcDbCircle
 10
2.069122024159294
 20
0.0241559811975327
 30
0.0
 40
0.004
100
AcDbArc
 50
16.50000042066967
 51
88.85406448293666
  0
ARC
  5
41E
330
2
100
AcDbEntity
  8
SANINDUSA
100
AcDbCircle
 10
1.994139008568252
 20
0.0256558675847156
 30
0.0
 40
0.004
100
AcDbArc
 50
88.85406448293666
 51
163.4999999818086
  0
ARC
  5
41F
330
2
100
AcDbEntity
  8
SANINDUSA
100
AcDbCircle
 10
1.957482548421699
 20
0.0263891073079577
 30
0.0
 40
0.004
100
AcDbArc
 50
16.50000000156732
 51
88.85406448283486
  0
ARC
  5
420
330
2
100
AcDbEntity
  8
SANINDUSA
100
AcDbCircle
 10
1.869903490095168
 20
0.0281409525273253
 30
0.0
 40
0.004
100
AcDbArc
 50
88.85406448283486
 51
163.4999941134683
  0
ARC
  5
421
330
2
100
AcDbEntity
  8
SANINDUSA
100
AcDbCircle
 10
1.833861267113042
 20
0.0288619056540735
 30
0.0
 40
0.004
100
AcDbArc
 50
16.50000963879031
 51
88.8540644837256
  0
ARC
  5
422
330
2
100
AcDbEntity
  8
SANINDUSA
100
AcDbCircle
 10
1.781762490824376
 20
0.0299040382580234
 30
0.0
 40
0.004
100
AcDbArc
 50
88.8540644837256
 51
169.9976319256392
  0
ARC
  5
425
330
2
100
AcDbEntity
  8
SANINDUSA
100
AcDbCircle
 10
2.674385113947246
 20
0.0124304483331008
 30
0.0
 40
0.005
100
AcDbArc
 50
10.00001453881165
 51
89.62795481850728
  0
LINE
  5
426
330
2
100
AcDbEntity
  8
SANINDUSA
100
AcDbLine
 10
2.773091547113834
 20
0.0699999999999742
 30
0.0
 11
2.726069810635439
 21
0.0699999999999729
 31
0.0
  0
ARC
  5
427
330
2
100
AcDbEntity
  8
SANINDUSA
100
AcDbCircle
 10
2.733081305329324
 20
0.0049990058700783
 30
0.0
 40
0.0140009941788106
100
AcDbArc
 50
89.98733136730885
 51
138.187987158943
  0
LINE
  5
428
330
2
100
AcDbEntity
  8
SANINDUSA
100
AcDbLine
 10
2.721900520796561
 20
0.0139999999999724
 30
0.0
 11
2.692200764489151
 21
0.0139999999999715
 31
0.0
  0
ARC
  5
429
330
2
100
AcDbEntity
  8
SANINDUSA
100
AcDbCircle
 10
2.674385113947246
 20
0.0124304483331008
 30
0.0
 40
0.017
100
AcDbArc
 50
8.207174462601411
 51
13.54277954902178
  0
LWPOLYLINE
  5
42A
330
2
100
AcDbEntity
  8
SANINDUSA
100
AcDbPolyline
 90
       10
 70
   128
 43
0.0
 10
2.725134697197991
 20
0.0693543484994822
 10
2.711376065757914
 20
0.0330457958787712
 42
-0.0212361755216434
 10
2.711342635760161
 20
0.0329677475991754
 10
2.709757924403118
 20
0.0296631254179102
 10
2.707324807297302
 20
0.0262161396142266
 10
2.704344091843708
 20
0.023230209821928
 10
2.700907255686412
 20
0.0207828806580752
 10
2.697105912568978
 20
0.018951755129389
 10
2.692956419356193
 20
0.0177521795390577
 10
2.691789780957378
 20
0.0176410236102566
  0
ARC
  5
42B
330
2
100
AcDbEntity
  8
SANINDUSA
100
AcDbCircle
 10
2.726069810635439
 20
0.0689999999999729
 30
0.0
 40
0.001
100
AcDbArc
 50
90.0
 51
159.2464792894244
  0
ARC
  5
42C
330
2
100
AcDbEntity
  8
SANINDUSA
100
AcDbCircle
 10
2.692200764489151
 20
0.0149999999999719
 30
0.0
 40
0.001
100
AcDbArc
 50
188.2071744626014
 51
270.0
  0
ARC
  5
42D
330
2
100
AcDbEntity
  8
SANINDUSA
100
AcDbCircle
 10
2.721900520796561
 20
0.0149999999999724
 30
0.0
 40
0.001
100
AcDbArc
 50
270.0
 51
318.1879871589334
  0
ARC
  5
42E
330
2
100
AcDbEntity
  8
SANINDUSA
100
AcDbCircle
 10
2.773091547113834
 20
0.0689999999999742
 30
0.0
 40
0.001
100
AcDbArc
 50
2.120812486471909
 51
90.0
  0
ARC
  5
42F
330
2
100
AcDbEntity
  8
SANINDUSA
100
AcDbCircle
 10
2.774919087740708
 20
0.0196497914776661
 30
0.0
 40
0.001
100
AcDbArc
 50
261.6583591461847
 51
2.120812486471909
  0
ARC
  5
430
330
2
100
AcDbEntity
  8
SANINDUSA
100
AcDbCircle
 10
2.691884630225656
 20
0.0166455319647331
 30
0.0
 40
0.001
100
AcDbArc
 50
95.44264434646242
 51
193.5427795489978
  0
LWPOLYLINE
  5
431
330
2
100
AcDbEntity
  8
SANINDUSA
100
AcDbPolyline
 90
        4
 70
   128
 43
0.0
 10
2.774774012420234
 20
0.0186603708636759
 10
2.772529877408835
 20
0.0189894206139658
 42
0.0364133555713689
 10
2.772384802088361
 20
0.0189999999999751
 10
2.733081747767844
 20
0.0189999999999719
  0
LINE
  5
432
330
2
100
AcDbEntity
  8
SANINDUSA
100
AcDbLine
 10
2.775918402757862
 20
0.0196867981864031
 30
0.0
 11
2.774090862130987
 21
0.0690370067087112
 31
0.0
  0
LINE
  5
433
330
2
100
AcDbEntity
  8
SANINDUSA
100
AcDbLine
 10
1.758069703745041
 20
0.0354181399306741
 30
0.0
 11
1.766283256464065
 21
0.0348932479511601
 31
0.0
  0
ARC
  5
434
330
2
100
AcDbEntity
  8
SANINDUSA
100
AcDbCircle
 10
1.76621948096284
 20
0.0338952836805353
 30
0.0
 40
0.001
100
AcDbArc
 50
349.9976319256392
 51
86.343451358746
  0
ARC
  5
435
330
2
100
AcDbEntity
  8
SANINDUSA
100
AcDbCircle
 10
1.762710557803179
 20
0.0139999999999715
 30
0.0
 40
0.001
100
AcDbArc
 50
270.0
 51
349.9976319256392
  0
ARC
  5
436
330
2
100
AcDbEntity
  8
SANINDUSA
100
AcDbCircle
 10
1.678122071893148
 20
0.0181467311452944
 30
0.0
 40
0.001
100
AcDbArc
 50
177.8792741442316
 51
288.6437178974566
  0
ARC
  5
437
330
2
100
AcDbEntity
  8
SANINDUSA
100
AcDbCircle
 10
1.680042227529003
 20
0.069999999999971
 30
0.0
 40
0.001
100
AcDbArc
 50
90.0
 51
177.8792741442056
  0
ARC
  5
438
330
2
100
AcDbEntity
  8
SANINDUSA
100
AcDbCircle
 10
1.728703744196772
 20
0.069999999999971
 30
0.0
 40
0.001
100
AcDbArc
 50
20.75318828787327
 51
90.0
  0
LINE
  5
439
330
2
100
AcDbEntity
  8
SANINDUSA
100
AcDbLine
 10
1.847745910525718
 20
0.0312812473209621
 30
0.0
 11
1.851989157232751
 21
0.0169562953593278
 31
0.0
  0
LINE
  5
43A
330
2
100
AcDbEntity
  8
SANINDUSA
100
AcDbLine
 10
1.856193667871706
 20
0.0311504800409986
 30
0.0
 11
1.851989157232751
 21
0.0169562953593287
 31
0.0
  0
LINE
  5
43B
330
2
100
AcDbEntity
  8
SANINDUSA
100
AcDbLine
 10
1.97136718985421
 20
0.0288084546981523
 30
0.0
 11
1.975919376242962
 21
0.0134405310021754
 31
0.0
  0
LINE
  5
43C
330
2
100
AcDbEntity
  8
SANINDUSA
100
AcDbLine
 10
1.980429184869339
 20
0.0286653897537745
 30
0.0
 11
1.975919376242962
 21
0.013440531002174
 31
0.0
  0
LINE
  5
43D
330
2
100
AcDbEntity
  8
SANINDUSA
100
AcDbLine
 10
2.083006681889392
 20
0.0265752736098144
 30
0.0
 11
2.084899773823892
 21
0.0201843025174936
 31
0.0
  0
LINE
  5
43E
330
2
100
AcDbEntity
  8
SANINDUSA
100
AcDbLine
 10
2.086781845556508
 20
0.0265380700229472
 30
0.0
 11
2.084899773823892
 21
0.020184302517495
 31
0.0
  0
LINE
  5
43F
330
2
100
AcDbEntity
  8
SANINDUSA
100
AcDbLine
 10
2.171713429162008
 20
0.0247764029061947
 30
0.0
 11
2.173222291469997
 21
0.0201326023040421
 31
0.0
  0
LWPOLYLINE
  5
440
330
2
100
AcDbEntity
  8
SANINDUSA
100
AcDbPolyline
 90
        4
 70
   128
 43
0.0
 10
2.173222291469997
 20
0.0201326023040421
 10
2.174723949823303
 20
0.0247542314115514
 42
0.5032432134747964
 10
2.173792892323082
 20
0.0260630484107734
 10
2.172684484691084
 20
0.0260852199052775
  0
LINE
  5
441
330
2
100
AcDbEntity
  8
SANINDUSA
100
AcDbLine
 10
2.387206110195182
 20
0.0204165186211613
 30
0.0
 11
2.389050521302611
 21
0.0156116636046219
 31
0.0
  0
LINE
  5
442
330
2
100
AcDbEntity
  8
SANINDUSA
100
AcDbLine
 10
2.39088103403122
 20
0.0203803120761341
 30
0.0
 11
2.38905052130261
 21
0.0156116636046219
 31
0.0
  0
LINE
  5
443
330
2
100
AcDbEntity
  8
SANINDUSA
100
AcDbLine
 10
2.477306930508404
 20
0.0185981062614284
 30
0.0
 11
2.478602648410464
 21
0.0153910921186968
 31
0.0
  0
LINE
  5
444
330
2
100
AcDbEntity
  8
SANINDUSA
100
AcDbLine
 10
2.479892449622932
 20
0.018583461895461
 30
0.0
 11
2.478602648410465
 21
0.0153910921186963
 31
0.0
  0
LINE
  5
445
330
2
100
AcDbEntity
  8
SANINDUSA
100
AcDbLine
 10
2.478985290939167
 20
0.0199578679902321
 30
0.0
 11
2.478254139515465
 21
0.0199725123515324
 31
0.0
  0
LINE
  5
446
330
2
100
AcDbEntity
  8
SANINDUSA
100
AcDbLine
 10
2.389967477962684
 20
0.0217384795326799
 30
0.0
 11
2.388159714969348
 21
0.0217746860756257
 31
0.0
  0
LINE
  5
447
330
2
100
AcDbEntity
  8
SANINDUSA
100
AcDbLine
 10
2.085843050395622
 20
0.0278218848632542
 30
0.0
 11
2.083985526193953
 21
0.0278590884497181
 31
0.0
  0
LINE
  5
448
330
2
100
AcDbEntity
  8
SANINDUSA
100
AcDbLine
 10
1.97949038601224
 20
0.0299492046609236
 30
0.0
 11
1.972346030466749
 21
0.030092269605023
 31
0.0
  0
LINE
  5
449
330
2
100
AcDbEntity
  8
SANINDUSA
100
AcDbLine
 10
1.855254869417086
 20
0.0324342950388747
 30
0.0
 11
1.848724751463875
 21
0.0325650623816306
 31
0.0
  0
ARC
  5
44A
330
2
100
AcDbEntity
  8
SANINDUSA
100
AcDbCircle
 10
1.848704730212806
 20
0.0315652628269669
 30
0.0
 40
0.001
100
AcDbArc
 50
88.85279016119413
 51
196.5000096387903
  0
ARC
  5
44B
330
2
100
AcDbEntity
  8
SANINDUSA
100
AcDbCircle
 10
1.855234848166017
 20
0.031434495484211
 30
0.0
 40
0.001
100
AcDbArc
 50
343.4999941134683
 51
88.85279016119413
  0
ARC
  5
44C
330
2
100
AcDbEntity
  8
SANINDUSA
100
AcDbCircle
 10
1.972326009589071
 20
0.0290924700428824
 30
0.0
 40
0.001
100
AcDbArc
 50
88.8528115591662
 51
196.5000000015673
  0
ARC
  5
44D
330
2
100
AcDbEntity
  8
SANINDUSA
100
AcDbCircle
 10
1.979470365134561
 20
0.0289494050987829
 30
0.0
 40
0.001
100
AcDbArc
 50
343.4999999818086
 51
88.8528115591662
  0
ARC
  5
44E
330
2
100
AcDbEntity
  8
SANINDUSA
100
AcDbCircle
 10
2.083965501622175
 20
0.026859288961558
 30
0.0
 40
0.001
100
AcDbArc
 50
88.85259986045532
 51
196.5000004206696
  0
ARC
  5
44F
330
2
100
AcDbEntity
  8
SANINDUSA
100
AcDbCircle
 10
2.085823025823844
 20
0.0268220853750942
 30
0.0
 40
0.001
100
AcDbArc
 50
343.4999995552254
 51
88.85259986045532
  0
ARC
  5
450
330
2
100
AcDbEntity
  8
SANINDUSA
100
AcDbCircle
 10
2.172664485676679
 20
0.0250854199055663
 30
0.0
 40
0.001
100
AcDbArc
 50
88.85406448336931
 51
198.0000003010183
  0
LWPOLYLINE
  5
451
330
2
100
AcDbEntity
  8
SANINDUSA
100
AcDbPolyline
 90
        8
 70
   129
 43
0.0
 10
2.274532392513809
 20
0.0139312376625159
 10
2.27574232622191
 20
0.0174447775308573
 10
2.277545421717159
 20
0.0226807993794456
 42
0.5087337647691581
 10
2.276619912639627
 20
0.0240061979787457
 10
2.272456213791865
 20
0.0240894845093704
 42
0.5213859905673458
 10
2.271490705777083
 20
0.0227640885480233
 10
2.273201918735307
 20
0.0177948400186307
 10
2.274532392513809
 20
0.0139312376625154
  0
ARC
  5
452
330
2
100
AcDbEntity
  8
SANINDUSA
100
AcDbCircle
 10
2.388139690616932
 20
0.0207748865830723
 30
0.0
 40
0.001
100
AcDbArc
 50
88.85261243145935
 51
201.0000007589087
  0
ARC
  5
453
330
2
100
AcDbEntity
  8
SANINDUSA
100
AcDbCircle
 10
2.389947453610269
 20
0.0207386800401265
 30
0.0
 40
0.001
100
AcDbArc
 50
338.9999991133533
 51
88.85261243145935
  0
ARC
  5
454
330
2
100
AcDbEntity
  8
SANINDUSA
100
AcDbCircle
 10
2.47823411435476
 20
0.018972712875168
 30
0.0
 40
0.001
100
AcDbArc
 50
88.85256611067438
 51
202.0000012559142
  0
ARC
  5
455
330
2
100
AcDbEntity
  8
SANINDUSA
100
AcDbCircle
 10
2.478965265778463
 20
0.0189580685138677
 30
0.0
 40
0.001
100
AcDbArc
 50
337.9999984556781
 51
88.85256611067438
  0
ENDSEC
  0
SECTION
  2
OBJECTS
  0
DICTIONARY
  5
7
330
0
100
AcDbDictionary
281
     1
  3
ACAD_COLOR
350
37
  3
ACAD_GROUP
350
1F
  3
ACAD_LAYOUT
350
B
  3
ACAD_MATERIAL
350
36
  3
ACAD_MLEADERSTYLE
350
541
  3
ACAD_MLINESTYLE
350
20
  3
ACAD_PLOTSETTINGS
350
21
  3
ACAD_PLOTSTYLENAME
350
6
  3
ACAD_SCALELIST
350
52F
  3
ACAD_TABLESTYLE
350
38
  3
ACAD_VISUALSTYLE
350
51B
  3
ACDB_RECOMPOSE_DATA
350
561
  3
AcDbVariableDictionary
350
32
  3
ASE_INDEX_DICTIONARY
350
557
  3
DWGPROPS
350
562
  0
DICTIONARY
  5
548
330
4
100
AcDbDictionary
280
     1
281
     1
  3
ADSK_XREC_LAYER_RECONCILED
360
549
  0
DICTIONARY
  5
54A
330
22
100
AcDbDictionary
280
     1
281
     1
  3
ADSK_XREC_LAYER_RECONCILED
360
54B
  0
DICTIONARY
  5
54C
330
11C
100
AcDbDictionary
280
     1
281
     1
  3
ADSK_XREC_LAYER_RECONCILED
360
54D
  0
DICTIONARY
  5
54E
330
11E
100
AcDbDictionary
280
     1
281
     1
  3
ADSK_XREC_LAYER_RECONCILED
360
54F
  0
DICTIONARY
  5
550
330
11F
100
AcDbDictionary
280
     1
281
     1
  3
ADSK_XREC_LAYER_RECONCILED
360
551
  0
DICTIONARY
  5
552
330
120
100
AcDbDictionary
280
     1
281
     1
  3
ADSK_XREC_LAYER_RECONCILED
360
553
  0
DICTIONARY
  5
554
330
121
100
AcDbDictionary
280
     1
281
     1
  3
ADSK_XREC_LAYER_RECONCILED
360
555
  0
DICTIONARY
  5
37
102
{ACAD_REACTORS
330
7
102
}
330
7
100
AcDbDictionary
281
     1
  0
DICTIONARY
  5
1F
102
{ACAD_REACTORS
330
7
102
}
330
7
100
AcDbDictionary
281
     1
  0
DICTIONARY
  5
B
102
{ACAD_REACTORS
330
7
102
}
330
7
100
AcDbDictionary
281
     1
  3
Layout1
350
F
  3
Model
350
A
  0
DICTIONARY
  5
36
102
{ACAD_REACTORS
330
7
102
}
330
7
100
AcDbDictionary
281
     1
  3
ByBlock
350
50B
  3
ByLayer
350
503
  3
Global
350
513
  0
DICTIONARY
  5
541
102
{ACAD_REACTORS
330
7
102
}
330
7
100
AcDbDictionary
281
     1
  3
Standard
350
542
  0
DICTIONARY
  5
20
102
{ACAD_REACTORS
330
7
102
}
330
7
100
AcDbDictionary
281
     1
  3
Standard
350
24
  0
DICTIONARY
  5
21
102
{ACAD_REACTORS
330
7
102
}
330
7
100
AcDbDictionary
281
     1
  0
ACDBDICTIONARYWDFLT
  5
6
102
{ACAD_REACTORS
330
7
102
}
330
7
100
AcDbDictionary
281
     1
  3
Normal
350
5
100
AcDbDictionaryWithDefault
340
5
  0
DICTIONARY
  5
52F
102
{ACAD_REACTORS
330
7
102
}
330
7
100
AcDbDictionary
281
     1
  3
A0
350
530
  3
A1
350
531
  3
A2
350
532
  3
A3
350
533
  3
A4
350
534
  3
A5
350
535
  3
A6
350
536
  3
A7
350
537
  3
A8
350
538
  3
A9
350
539
  3
B0
350
53A
  3
B1
350
53B
  3
B2
350
53C
  3
B3
350
53D
  3
B4
350
53E
  3
B5
350
53F
  3
B6
350
540
  0
DICTIONARY
  5
38
102
{ACAD_REACTORS
330
7
102
}
330
7
100
AcDbDictionary
281
     1
  3
Standard
350
39
  0
DICTIONARY
  5
51B
102
{ACAD_REACTORS
330
7
102
}
330
7
100
AcDbDictionary
281
     1
  3
2dWireframe
350
521
  3
3D Hidden
350
523
  3
3dWireframe
350
522
  3
Basic
350
520
  3
Brighten
350
527
  3
ColorChange
350
52B
  3
Conceptual
350
524
  3
Dim
350
526
  3
EdgeColorOff
350
52E
  3
Facepattern
350
52A
  3
Flat
350
51C
  3
FlatWithEdges
350
51D
  3
Gouraud
350
51E
  3
GouraudWithEdges
350
51F
  3
JitterOff
350
52C
  3
Linepattern
350
529
  3
OverhangOff
350
52D
  3
Realistic
350
525
  3
Thicken
350
528
  0
XRECORD
  5
561
102
{ACAD_REACTORS
330
7
102
}
330
7
100
AcDbXrecord
280
     1
 90
        1
330
39
  0
DICTIONARY
  5
32
102
{ACAD_REACTORS
330
7
102
}
330
7
100
AcDbDictionary
281
     1
  3
CANNOSCALE
350
55B
  3
CMLEADERSTYLE
350
55A
  3
CTABLESTYLE
350
D4
  3
DIMASSOC
350
34
  3
HIDETEXT
350
33
  3
INDEXCTL
350
55D
  3
PROJECTNAME
350
D5
  3
SORTENTS
350
55C
  3
XCLIPFRAME
350
55E
  0
DICTIONARY
  5
557
102
{ACAD_REACTORS
330
7
102
}
330
7
100
AcDbDictionary
281
     1
  3
ASEBlockHierarchyIndexRecord
350
559
1001
DCO15
1040
1757671494.281
  0
XRECORD
  5
562
102
{ACAD_REACTORS
330
7
102
}
330
7
100
AcDbXrecord
280
     1
  1
DWGPROPS COOKIE
  2

  3

  4

  6

  7

  8
Julio
  9

300
=
301
=
302
=
303
=
304
=
305
=
306
=
307
=
308
=
309
=
 40
0.0134117361111111
 41
2453125.639648206
 42
2456146.631924549
  1

 90
        0
  0
XRECORD
  5
549
102
{ACAD_REACTORS
330
548
102
}
330
548
100
AcDbXrecord
280
     1
290
     1
  0
XRECORD
  5
54B
102
{ACAD_REACTORS
330
54A
102
}
330
54A
100
AcDbXrecord
280
     1
290
     1
  0
XRECORD
  5
54D
102
{ACAD_REACTORS
330
54C
102
}
330
54C
100
AcDbXrecord
280
     1
290
     1
  0
XRECORD
  5
54F
102
{ACAD_REACTORS
330
54E
102
}
330
54E
100
AcDbXrecord
280
     1
290
     1
  0
XRECORD
  5
551
102
{ACAD_REACTORS
330
550
102
}
330
550
100
AcDbXrecord
280
     1
290
     1
  0
XRECORD
  5
553
102
{ACAD_REACTORS
330
552
102
}
330
552
100
AcDbXrecord
280
     1
290
     1
  0
XRECORD
  5
555
102
{ACAD_REACTORS
330
554
102
}
330
554
100
AcDbXrecord
280
     1
290
     1
  0
LAYOUT
  5
F
102
{ACAD_XDICTIONARY
360
565
102
}
102
{ACAD_REACTORS
330
B
102
}
330
B
100
AcDbPlotSettings
  1

  2
C:\Programas\Autodesk\MDT6\plotters\LASER_BANHEIRAS.pc3
  4

  6

 40
0.0
 41
0.0
 42
0.0
 43
0.0
 44
0.0
 45
0.0
 46
0.0
 47
0.0
 48
0.0
 49
0.0
140
0.0
141
0.0
142
1.0
143
1.0
 70
   688
 72
     0
 73
     0
 74
     5
  7
BANHEIRAS.ctb
 75
    16
147
1.0
148
0.0
149
0.0
100
AcDbLayout
  1
Layout1
 70
     1
 71
     1
 10
0.0
 20
0.0
 11
420.0
 21
297.0
 12
0.0
 22
0.0
 32
0.0
 14
1.000000000000000E+20
 24
1.000000000000000E+20
 34
1.000000000000000E+20
 15
-1.000000000000000E+20
 25
-1.000000000000000E+20
 35
-1.000000000000000E+20
146
0.0
 13
0.0
 23
0.0
 33
0.0
 16
1.0
 26
0.0
 36
0.0
 17
0.0
 27
1.0
 37
0.0
 76
     0
330
C
  0
LAYOUT
  5
A
102
{ACAD_XDICTIONARY
360
563
102
}
102
{ACAD_REACTORS
330
B
102
}
330
B
100
AcDbPlotSettings
  1

  2
Laser 4M+
  4
A4
  6

 40
6.805083274841308
 41
5.069413185119628
 42
6.805084228515625
 43
5.027069091796875
 44
209.9733276367187
 45
296.9683227539062
 46
0.0
 47
4.591826185639661
 48
0.0
 49
0.0
140
0.0
141
0.0
142
1.0
143
1.069577584606243
 70
 11956
 72
     1
 73
     0
 74
     1
  7
FINO.CTB
 75
     0
147
0.934948538930107
148
0.0064049753888185
149
0.004528679247187
100
AcDbLayout
  1
Model
 70
     1
 71
     0
 10
0.0
 20
0.0
 11
12.0
 21
9.0
 12
0.0
 22
0.0
 32
0.0
 14
0.0
 24
0.0
 34
0.0
 15
0.0
 25
0.0
 35
0.0
146
0.0
 13
0.0
 23
0.0
 33
0.0
 16
1.0
 26
0.0
 36
0.0
 17
0.0
 27
1.0
 37
0.0
 76
     0
330
2
331
4FC
  0
MATERIAL
  5
50B
102
{ACAD_XDICTIONARY
360
50C
102
}
102
{ACAD_REACTORS
330
36
102
}
330
36
100
AcDbMaterial
  1
ByBlock
 72
     0
 43
0.0008202099737533
 43
0.0
 43
0.0
 43
0.0
 43
0.0
 43
0.0008202099737533
 43
0.0
 43
0.0
 43
0.0
 43
0.0
 43
1.0
 43
0.0
 43
0.0
 43
0.0
 43
0.0
 43
1.0
 77
     0
 47
0.0008202099737533
 47
0.0
 47
0.0
 47
0.0
 47
0.0
 47
0.0008202099737533
 47
0.0
 47
0.0
 47
0.0
 47
0.0
 47
1.0
 47
0.0
 47
0.0
 47
0.0
 47
0.0
 47
1.0
171
     0
 49
0.0008202099737533
 49
0.0
 49
0.0
 49
0.0
 49
0.0
 49
0.0008202099737533
 49
0.0
 49
0.0
 49
0.0
 49
0.0
 49
1.0
 49
0.0
 49
0.0
 49
0.0
 49
0.0
 49
1.0
175
     0
142
0.0008202099737533
142
0.0
142
0.0
142
0.0
142
0.0
142
0.0008202099737533
142
0.0
142
0.0
142
0.0
142
0.0
142
1.0
142
0.0
142
0.0
142
0.0
142
0.0
142
1.0
179
     0
144
0.0008202099737533
144
0.0
144
0.0
144
0.0
144
0.0
144
0.0008202099737533
144
0.0
144
0.0
144
0.0
144
0.0
144
1.0
144
0.0
144
0.0
144
0.0
144
0.0
144
1.0
147
0.0008202099737533
147
0.0
147
0.0
147
0.0
147
0.0
147
0.0008202099737533
147
0.0
147
0.0
147
0.0
147
0.0
147
1.0
147
0.0
147
0.0
147
0.0
147
0.0
147
1.0
  0
MATERIAL
  5
503
102
{ACAD_XDICTIONARY
360
504
102
}
102
{ACAD_REACTORS
330
36
102
}
330
36
100
AcDbMaterial
  1
ByLayer
 72
     0
 43
0.0008202099737533
 43
0.0
 43
0.0
 43
0.0
 43
0.0
 43
0.0008202099737533
 43
0.0
 43
0.0
 43
0.0
 43
0.0
 43
1.0
 43
0.0
 43
0.0
 43
0.0
 43
0.0
 43
1.0
 77
     0
 47
0.0008202099737533
 47
0.0
 47
0.0
 47
0.0
 47
0.0
 47
0.0008202099737533
 47
0.0
 47
0.0
 47
0.0
 47
0.0
 47
1.0
 47
0.0
 47
0.0
 47
0.0
 47
0.0
 47
1.0
171
     0
 49
0.0008202099737533
 49
0.0
 49
0.0
 49
0.0
 49
0.0
 49
0.0008202099737533
 49
0.0
 49
0.0
 49
0.0
 49
0.0
 49
1.0
 49
0.0
 49
0.0
 49
0.0
 49
0.0
 49
1.0
175
     0
142
0.0008202099737533
142
0.0
142
0.0
142
0.0
142
0.0
142
0.0008202099737533
142
0.0
142
0.0
142
0.0
142
0.0
142
1.0
142
0.0
142
0.0
142
0.0
142
0.0
142
1.0
179
     0
144
0.0008202099737533
144
0.0
144
0.0
144
0.0
144
0.0
144
0.0008202099737533
144
0.0
144
0.0
144
0.0
144
0.0
144
1.0
144
0.0
144
0.0
144
0.0
144
0.0
144
1.0
147
0.0008202099737533
147
0.0
147
0.0
147
0.0
147
0.0
147
0.0008202099737533
147
0.0
147
0.0
147
0.0
147
0.0
147
1.0
147
0.0
147
0.0
147
0.0
147
0.0
147
1.0
  0
MATERIAL
  5
513
102
{ACAD_XDICTIONARY
360
514
102
}
102
{ACAD_REACTORS
330
36
102
}
330
36
100
AcDbMaterial
  1
Global
 72
     0
 43
0.0008202099737533
 43
0.0
 43
0.0
 43
0.0
 43
0.0
 43
0.0008202099737533
 43
0.0
 43
0.0
 43
0.0
 43
0.0
 43
1.0
 43
0.0
 43
0.0
 43
0.0
 43
0.0
 43
1.0
 77
     0
 47
0.0008202099737533
 47
0.0
 47
0.0
 47
0.0
 47
0.0
 47
0.0008202099737533
 47
0.0
 47
0.0
 47
0.0
 47
0.0
 47
1.0
 47
0.0
 47
0.0
 47
0.0
 47
0.0
 47
1.0
171
     0
 49
0.0008202099737533
 49
0.0
 49
0.0
 49
0.0
 49
0.0
 49
0.0008202099737533
 49
0.0
 49
0.0
 49
0.0
 49
0.0
 49
1.0
 49
0.0
 49
0.0
 49
0.0
 49
0.0
 49
1.0
175
     0
142
0.0008202099737533
142
0.0
142
0.0
142
0.0
142
0.0
142
0.0008202099737533
142
0.0
142
0.0
142
0.0
142
0.0
142
1.0
142
0.0
142
0.0
142
0.0
142
0.0
142
1.0
179
     0
144
0.0008202099737533
144
0.0
144
0.0
144
0.0
144
0.0
144
0.0008202099737533
144
0.0
144
0.0
144
0.0
144
0.0
144
1.0
144
0.0
144
0.0
144
0.0
144
0.0
144
1.0
147
0.0008202099737533
147
0.0
147
0.0
147
0.0
147
0.0
147
0.0008202099737533
147
0.0
147
0.0
147
0.0
147
0.0
147
1.0
147
0.0
147
0.0
147
0.0
147
0.0
147
1.0
  0
MLEADERSTYLE
  5
542
102
{ACAD_REACTORS
330
541
102
}
330
541
100
AcDbMLeaderStyle
170
     2
171
     1
172
     0
 90
        2
 40
0.0
 41
0.0
173
     1
 91
-1056964608
340
15
 92
       -2
290
     1
 42
2.0
291
     1
 43
0.36
  3
Standard
 44
4.0
300

342
12
174
     1
178
     6
175
     1
176
     0
 93
-1056964608
 45
4.0
292
     0
297
     0
 46
4.0
 94
-1056964608
 47
1.0
 49
1.0
140
1.0
293
     1
141
0.0
294
     1
177
     0
142
1.0
295
     0
296
     0
143
0.125
1001
ACAD_MLEADERVER
1070
     2
  0
MLINESTYLE
  5
24
102
{ACAD_REACTORS
330
20
102
}
330
20
100
AcDbMlineStyle
  2
STANDARD
 70
     0
  3

 62
   256
 51
90.0
 52
90.0
 71
     2
 49
0.5
 62
   256
  6
BYLAYER
 49
-0.5
 62
   256
  6
BYLAYER
  0
ACDBPLACEHOLDER
  5
5
102
{ACAD_REACTORS
330
6
102
}
330
6
  0
SCALE
  5
530
102
{ACAD_REACTORS
330
52F
102
}
330
52F
100
AcDbScale
 70
     0
300
1:1
140
1.0
141
1.0
290
     1
  0
SCALE
  5
531
102
{ACAD_REACTORS
330
52F
102
}
330
52F
100
AcDbScale
 70
     0
300
1:2
140
1.0
141
2.0
290
     0
  0
SCALE
  5
532
102
{ACAD_REACTORS
330
52F
102
}
330
52F
100
AcDbScale
 70
     0
300
1:4
140
1.0
141
4.0
290
     0
  0
SCALE
  5
533
102
{ACAD_REACTORS
330
52F
102
}
330
52F
100
AcDbScale
 70
     0
300
1:5
140
1.0
141
5.0
290
     0
  0
SCALE
  5
534
102
{ACAD_REACTORS
330
52F
102
}
330
52F
100
AcDbScale
 70
     0
300
1:8
140
1.0
141
8.0
290
     0
  0
SCALE
  5
535
102
{ACAD_REACTORS
330
52F
102
}
330
52F
100
AcDbScale
 70
     0
300
1:10
140
1.0
141
10.0
290
     0
  0
SCALE
  5
536
102
{ACAD_REACTORS
330
52F
102
}
330
52F
100
AcDbScale
 70
     0
300
1:16
140
1.0
141
16.0
290
     0
  0
SCALE
  5
537
102
{ACAD_REACTORS
330
52F
102
}
330
52F
100
AcDbScale
 70
     0
300
1:20
140
1.0
141
20.0
290
     0
  0
SCALE
  5
538
102
{ACAD_REACTORS
330
52F
102
}
330
52F
100
AcDbScale
 70
     0
300
1:30
140
1.0
141
30.0
290
     0
  0
SCALE
  5
539
102
{ACAD_REACTORS
330
52F
102
}
330
52F
100
AcDbScale
 70
     0
300
1:40
140
1.0
141
40.0
290
     0
  0
SCALE
  5
53A
102
{ACAD_REACTORS
330
52F
102
}
330
52F
100
AcDbScale
 70
     0
300
1:50
140
1.0
141
50.0
290
     0
  0
SCALE
  5
53B
102
{ACAD_REACTORS
330
52F
102
}
330
52F
100
AcDbScale
 70
     0
300
1:100
140
1.0
141
100.0
290
     0
  0
SCALE
  5
53C
102
{ACAD_REACTORS
330
52F
102
}
330
52F
100
AcDbScale
 70
     0
300
2:1
140
2.0
141
1.0
290
     0
  0
SCALE
  5
53D
102
{ACAD_REACTORS
330
52F
102
}
330
52F
100
AcDbScale
 70
     0
300
4:1
140
4.0
141
1.0
290
     0
  0
SCALE
  5
53E
102
{ACAD_REACTORS
330
52F
102
}
330
52F
100
AcDbScale
 70
     0
300
8:1
140
8.0
141
1.0
290
     0
  0
SCALE
  5
53F
102
{ACAD_REACTORS
330
52F
102
}
330
52F
100
AcDbScale
 70
     0
300
10:1
140
10.0
141
1.0
290
     0
  0
SCALE
  5
540
102
{ACAD_REACTORS
330
52F
102
}
330
52F
100
AcDbScale
 70
     0
300
100:1
140
100.0
141
1.0
290
     0
  0
TABLESTYLE
  5
39
102
{ACAD_XDICTIONARY
360
55F
102
}
102
{ACAD_REACTORS
330
38
102
}
330
38
100
AcDbTableStyle
  3
Standard
 70
     0
 71
     0
 40
1.5
 41
1.5
280
     0
281
     0
  7
Standard
140
4.5
170
     2
 62
     0
 63
     7
283
     0
274
    -2
284
     1
 64
     0
275
    -2
285
     1
 65
     0
276
    -2
286
     1
 66
     0
277
    -2
287
     1
 67
     0
278
    -2
288
     1
 68
     0
279
    -2
289
     1
 69
     0
  7
Standard
140
6.0
170
     5
 62
     0
 63
     7
283
     0
274
    -2
284
     1
 64
     0
275
    -2
285
     1
 65
     0
276
    -2
286
     1
 66
     0
277
    -2
287
     1
 67
     0
278
    -2
288
     1
 68
     0
279
    -2
289
     1
 69
     0
  7
Standard
140
4.5
170
     5
 62
     0
 63
     7
283
     0
274
    -2
284
     1
 64
     0
275
    -2
285
     1
 65
     0
276
    -2
286
     1
 66
     0
277
    -2
287
     1
 67
     0
278
    -2
288
     1
 68
     0
279
    -2
289
     1
 69
     0
  0
VISUALSTYLE
  5
521
102
{ACAD_XDICTIONARY
360
579
102
}
102
{ACAD_REACTORS
330
51B
102
}
330
51B
100
AcDbVisualStyle
  2
2dWireframe
 70
     4
 71
     0
 72
     2
 73
     0
 90
        0
 40
-0.6
 41
-30.0
 62
     5
 63
     7
 74
     1
 91
        4
 64
     7
 65
   257
 75
     1
175
     1
 42
1.0
 92
        0
 66
   257
 43
1.0
 76
     1
 77
     6
 78
     2
 67
     7
 79
     5
170
     0
171
     0
290
     0
174
     0
 93
        1
 44
0.0
173
     0
291
     0
 45
0.0
1001
ACAD
1000
AcDbSavedByObjectVersion
1070
     0
  0
VISUALSTYLE
  5
523
102
{ACAD_XDICTIONARY
360
57D
102
}
102
{ACAD_REACTORS
330
51B
102
}
330
51B
100
AcDbVisualStyle
  2
3D Hidden
 70
     6
 71
     1
 72
     2
 73
     2
 90
        0
 40
-0.6
 41
-30.0
 62
     5
 63
     7
 74
     2
 91
        2
 64
     7
 65
   257
 75
     2
175
     1
 42
179.0
 92
        0
 66
   257
 43
1.0
 76
     1
 77
     6
 78
     2
 67
     7
 79
     3
170
     0
171
     0
290
     0
174
     0
 93
        1
 44
0.0
173
     0
291
     0
 45
0.0
1001
ACAD
1000
AcDbSavedByObjectVersion
1070
     0
  0
VISUALSTYLE
  5
522
102
{ACAD_XDICTIONARY
360
57B
102
}
102
{ACAD_REACTORS
330
51B
102
}
330
51B
100
AcDbVisualStyle
  2
3dWireframe
 70
     5
 71
     0
 72
     2
 73
     0
 90
        0
 40
-0.6
 41
-30.0
 62
     5
 63
     7
 74
     1
 91
        4
 64
     7
 65
   257
 75
     1
175
     1
 42
1.0
 92
        0
 66
   257
 43
1.0
 76
     1
 77
     6
 78
     2
 67
     7
 79
     5
170
     0
171
     0
290
     0
174
     0
 93
        1
 44
0.0
173
     0
291
     0
 45
0.0
1001
ACAD
1000
AcDbSavedByObjectVersion
1070
     0
  0
VISUALSTYLE
  5
520
102
{ACAD_XDICTIONARY
360
577
102
}
102
{ACAD_REACTORS
330
51B
102
}
330
51B
100
AcDbVisualStyle
  2
Basic
 70
     7
 71
     1
 72
     0
 73
     1
 90
        0
 40
-0.6
 41
-30.0
 62
     5
 63
     7
 74
     0
 91
        4
 64
     7
 65
   257
 75
     1
175
     1
 42
1.0
 92
        8
 66
     7
 43
1.0
 76
     1
 77
     6
 78
     2
 67
     7
 79
     5
170
     0
171
     0
290
     0
174
     0
 93
        1
 44
0.0
173
     0
291
     1
 45
0.0
1001
ACAD
1000
AcDbSavedByObjectVersion
1070
     0
  0
VISUALSTYLE
  5
527
102
{ACAD_XDICTIONARY
360
585
102
}
102
{ACAD_REACTORS
330
51B
102
}
330
51B
100
AcDbVisualStyle
  2
Brighten
 70
    12
 71
     2
 72
     2
 73
     0
 90
        0
 40
-0.6
 41
-30.0
 62
     5
 63
     7
 74
     1
 91
        4
 64
     7
 65
   257
 75
     1
175
     1
 42
1.0
 92
        8
 66
     7
 43
1.0
 76
     1
 77
     6
 78
     2
 67
     7
 79
     5
170
     0
171
     0
290
     0
174
     0
 93
        1
 44
50.0
173
     0
291
     1
 45
0.0
1001
ACAD
1000
AcDbSavedByObjectVersion
1070
     0
  0
VISUALSTYLE
  5
52B
102
{ACAD_XDICTIONARY
360
58D
102
}
102
{ACAD_REACTORS
330
51B
102
}
330
51B
100
AcDbVisualStyle
  2
ColorChange
 70
    16
 71
     2
 72
     2
 73
     3
 90
        0
 40
-0.6
 41
-30.0
 62
     5
 63
     8
 74
     1
 91
        4
 64
     7
 65
   257
 75
     1
175
     1
 42
1.0
 92
        8
 66
     8
 43
1.0
 76
     1
 77
     6
 78
     2
 67
     7
 79
     5
170
     0
171
     0
290
     0
174
     0
 93
        1
 44
0.0
173
     0
291
     1
 45
0.0
1001
ACAD
1000
AcDbSavedByObjectVersion
1070
     0
  0
VISUALSTYLE
  5
524
102
{ACAD_XDICTIONARY
360
57F
102
}
102
{ACAD_REACTORS
330
51B
102
}
330
51B
100
AcDbVisualStyle
  2
Conceptual
 70
     9
 71
     3
 72
     2
 73
     0
 90
        0
 40
-0.6
 41
-30.0
 62
     5
 63
     7
 74
     2
 91
        2
 64
     7
 65
   257
 75
     1
175
     1
 42
179.0
 92
        8
 66
     7
 43
1.0
 76
     1
 77
     6
 78
     2
 67
     7
 79
     3
170
     0
171
     0
290
     0
174
     0
 93
        1
 44
0.0
173
     0
291
     0
 45
0.0
1001
ACAD
1000
AcDbSavedByObjectVersion
1070
     0
  0
VISUALSTYLE
  5
526
102
{ACAD_XDICTIONARY
360
583
102
}
102
{ACAD_REACTORS
330
51B
102
}
330
51B
100
AcDbVisualStyle
  2
Dim
 70
    11
 71
     2
 72
     2
 73
     0
 90
        0
 40
-0.6
 41
-30.0
 62
     5
 63
     7
 74
     1
 91
        4
 64
     7
 65
   257
 75
     1
175
     1
 42
1.0
 92
        8
 66
     7
 43
1.0
 76
     1
 77
     6
 78
     2
 67
     7
 79
     5
170
     0
171
     0
290
     0
174
     0
 93
        1
 44
-50.0
173
     0
291
     1
 45
0.0
1001
ACAD
1000
AcDbSavedByObjectVersion
1070
     0
  0
VISUALSTYLE
  5
52E
102
{ACAD_XDICTIONARY
360
593
102
}
102
{ACAD_REACTORS
330
51B
102
}
330
51B
100
AcDbVisualStyle
  2
EdgeColorOff
 70
    22
 71
     2
 72
     2
 73
     0
 90
        0
 40
-0.6
 41
-30.0
 62
     5
 63
     7
 74
     1
 91
        4
 64
     7
 65
   257
 75
     1
175
     1
 42
1.0
 92
        8
 66
     7
 43
1.0
 76
     1
 77
     6
 78
     2
 67
     7
 79
     5
170
     0
171
     0
290
     0
174
     0
 93
        1
 44
0.0
173
     0
291
     1
 45
0.0
1001
ACAD
1000
AcDbSavedByObjectVersion
1070
     0
  0
VISUALSTYLE
  5
52A
102
{ACAD_XDICTIONARY
360
58B
102
}
102
{ACAD_REACTORS
330
51B
102
}
330
51B
100
AcDbVisualStyle
  2
Facepattern
 70
    15
 71
     2
 72
     2
 73
     0
 90
        0
 40
-0.6
 41
-30.0
 62
     5
 63
     7
 74
     1
 91
        4
 64
     7
 65
   257
 75
     1
175
     1
 42
1.0
 92
        8
 66
     7
 43
1.0
 76
     1
 77
     6
 78
     2
 67
     7
 79
     5
170
     0
171
     0
290
     0
174
     0
 93
        1
 44
0.0
173
     0
291
     1
 45
0.0
1001
ACAD
1000
AcDbSavedByObjectVersion
1070
     0
  0
VISUALSTYLE
  5
51C
102
{ACAD_XDICTIONARY
360
56F
102
}
102
{ACAD_REACTORS
330
51B
102
}
330
51B
100
AcDbVisualStyle
  2
Flat
 70
     0
 71
     2
 72
     1
 73
     1
 90
        2
 40
-0.6
 41
30.0
 62
     5
 63
     7
 74
     0
 91
        4
 64
     7
 65
   257
 75
     1
175
     1
 42
1.0
 92
        8
 66
     7
 43
1.0
 76
     1
 77
     6
 78
     2
 67
     7
 79
     5
170
     0
171
     0
290
     0
174
     0
 93
       13
 44
0.0
173
     0
291
     1
 45
0.0
1001
ACAD
1000
AcDbSavedByObjectVersion
1070
     0
  0
VISUALSTYLE
  5
51D
102
{ACAD_XDICTIONARY
360
571
102
}
102
{ACAD_REACTORS
330
51B
102
}
330
51B
100
AcDbVisualStyle
  2
FlatWithEdges
 70
     1
 71
     2
 72
     1
 73
     1
 90
        2
 40
-0.6
 41
30.0
 62
     5
 63
     7
 74
     1
 91
        4
 64
     7
 65
   257
 75
     1
175
     1
 42
1.0
 92
        0
 66
   257
 43
1.0
 76
     1
 77
     6
 78
     2
 67
     7
 79
     5
170
     0
171
     0
290
     0
174
     0
 93
       13
 44
0.0
173
     0
291
     1
 45
0.0
1001
ACAD
1000
AcDbSavedByObjectVersion
1070
     0
  0
VISUALSTYLE
  5
51E
102
{ACAD_XDICTIONARY
360
573
102
}
102
{ACAD_REACTORS
330
51B
102
}
330
51B
100
AcDbVisualStyle
  2
Gouraud
 70
     2
 71
     2
 72
     2
 73
     1
 90
        2
 40
-0.6
 41
30.0
 62
     5
 63
     7
 74
     0
 91
        4
 64
     7
 65
   257
 75
     1
175
     1
 42
1.0
 92
        0
 66
     7
 43
1.0
 76
     1
 77
     6
 78
     2
 67
     7
 79
     5
170
     0
171
     0
290
     0
174
     0
 93
       13
 44
0.0
173
     0
291
     1
 45
0.0
1001
ACAD
1000
AcDbSavedByObjectVersion
1070
     0
  0
VISUALSTYLE
  5
51F
102
{ACAD_XDICTIONARY
360
575
102
}
102
{ACAD_REACTORS
330
51B
102
}
330
51B
100
AcDbVisualStyle
  2
GouraudWithEdges
 70
     3
 71
     2
 72
     2
 73
     1
 90
        2
 40
-0.6
 41
30.0
 62
     5
 63
     7
 74
     1
 91
        4
 64
     7
 65
   257
 75
     1
175
     1
 42
1.0
 92
        0
 66
   257
 43
1.0
 76
     1
 77
     6
 78
     2
 67
     7
 79
     5
170
     0
171
     0
290
     0
174
     0
 93
       13
 44
0.0
173
     0
291
     1
 45
0.0
1001
ACAD
1000
AcDbSavedByObjectVersion
1070
     0
  0
VISUALSTYLE
  5
52C
102
{ACAD_XDICTIONARY
360
58F
102
}
102
{ACAD_REACTORS
330
51B
102
}
330
51B
100
AcDbVisualStyle
  2
JitterOff
 70
    20
 71
     2
 72
     2
 73
     0
 90
        0
 40
-0.6
 41
-30.0
 62
     5
 63
     7
 74
     1
 91
        4
 64
     7
 65
   257
 75
     1
175
     1
 42
1.0
 92
       10
 66
     7
 43
1.0
 76
     1
 77
     6
 78
     2
 67
     7
 79
     5
170
     0
171
     0
290
     0
174
     0
 93
        1
 44
0.0
173
     0
291
     1
 45
0.0
1001
ACAD
1000
AcDbSavedByObjectVersion
1070
     0
  0
VISUALSTYLE
  5
529
102
{ACAD_XDICTIONARY
360
589
102
}
102
{ACAD_REACTORS
330
51B
102
}
330
51B
100
AcDbVisualStyle
  2
Linepattern
 70
    14
 71
     2
 72
     2
 73
     0
 90
        0
 40
-0.6
 41
-30.0
 62
     5
 63
     7
 74
     1
 91
        4
 64
     7
 65
   257
 75
     7
175
     7
 42
1.0
 92
        8
 66
     7
 43
1.0
 76
     1
 77
     6
 78
     2
 67
     7
 79
     5
170
     0
171
     0
290
     0
174
     0
 93
        1
 44
0.0
173
     0
291
     1
 45
0.0
1001
ACAD
1000
AcDbSavedByObjectVersion
1070
     0
  0
VISUALSTYLE
  5
52D
102
{ACAD_XDICTIONARY
360
591
102
}
102
{ACAD_REACTORS
330
51B
102
}
330
51B
100
AcDbVisualStyle
  2
OverhangOff
 70
    21
 71
     2
 72
     2
 73
     0
 90
        0
 40
-0.6
 41
-30.0
 62
     5
 63
     7
 74
     1
 91
        4
 64
     7
 65
   257
 75
     1
175
     1
 42
1.0
 92
        9
 66
     7
 43
1.0
 76
     1
 77
     6
 78
     2
 67
     7
 79
     5
170
     0
171
     0
290
     0
174
     0
 93
        1
 44
0.0
173
     0
291
     1
 45
0.0
1001
ACAD
1000
AcDbSavedByObjectVersion
1070
     0
  0
VISUALSTYLE
  5
525
102
{ACAD_XDICTIONARY
360
581
102
}
102
{ACAD_REACTORS
330
51B
102
}
330
51B
100
AcDbVisualStyle
  2
Realistic
 70
     8
 71
     2
 72
     2
 73
     0
 90
        0
 40
-0.6
 41
-30.0
 62
     5
 63
     7
 74
     1
 91
        0
 64
     7
 65
   257
 75
     1
175
     1
 42
1.0
 92
        8
 66
     8
 43
1.0
 76
     1
 77
     6
 78
     2
 67
     7
 79
     5
170
     0
171
     0
290
     0
174
     0
 93
       13
 44
0.0
173
     0
291
     0
 45
0.0
1001
ACAD
1000
AcDbSavedByObjectVersion
1070
     0
  0
VISUALSTYLE
  5
528
102
{ACAD_XDICTIONARY
360
587
102
}
102
{ACAD_REACTORS
330
51B
102
}
330
51B
100
AcDbVisualStyle
  2
Thicken
 70
    13
 71
     2
 72
     2
 73
     0
 90
        0
 40
-0.6
 41
-30.0
 62
     5
 63
     7
 74
     1
 91
        4
 64
     7
 65
   257
 75
     1
175
     1
 42
1.0
 92
       12
 66
     7
 43
1.0
 76
     1
 77
     6
 78
     2
 67
     7
 79
     5
170
     0
171
     0
290
     0
174
     0
 93
        1
 44
0.0
173
     0
291
     1
 45
0.0
1001
ACAD
1000
AcDbSavedByObjectVersion
1070
     0
  0
DICTIONARYVAR
  5
55B
102
{ACAD_REACTORS
330
32
102
}
330
32
100
DictionaryVariables
280
     0
  1
1:1
  0
DICTIONARYVAR
  5
55A
102
{ACAD_REACTORS
330
32
102
}
330
32
100
DictionaryVariables
280
     0
  1
STANDARD
  0
DICTIONARYVAR
  5
D4
102
{ACAD_REACTORS
330
32
102
}
330
32
100
DictionaryVariables
280
     0
  1
STANDARD
  0
DICTIONARYVAR
  5
34
102
{ACAD_REACTORS
330
32
102
}
330
32
100
DictionaryVariables
280
     0
  1
1
  0
DICTIONARYVAR
  5
33
102
{ACAD_REACTORS
330
32
102
}
330
32
100
DictionaryVariables
280
     0
  1
1
  0
DICTIONARYVAR
  5
55D
102
{ACAD_REACTORS
330
32
102
}
330
32
100
DictionaryVariables
280
     0
  1
0
  0
DICTIONARYVAR
  5
D5
102
{ACAD_REACTORS
330
32
102
}
330
32
100
DictionaryVariables
280
     0
  1

  0
DICTIONARYVAR
  5
55C
102
{ACAD_REACTORS
330
32
102
}
330
32
100
DictionaryVariables
280
     0
  1
127
  0
DICTIONARYVAR
  5
55E
102
{ACAD_REACTORS
330
32
102
}
330
32
100
DictionaryVariables
280
     0
  1
2
  0
XRECORD
  5
559
102
{ACAD_REACTORS
330
557
102
}
330
557
100
AcDbXrecord
280
     1
330
CD
330
4B
  0
DICTIONARY
  5
565
330
F
100
AcDbDictionary
280
     1
281
     1
  3
ACAD_XREC_ROUNDTRIP
360
566
  0
DICTIONARY
  5
563
330
A
100
AcDbDictionary
280
     1
281
     1
  3
ACAD_XREC_ROUNDTRIP
360
564
  0
DICTIONARY
  5
50C
330
50B
100
AcDbDictionary
280
     1
281
     1
  3
ACAD_XREC_ROUNDTRIP
360
56D
  3
BUMPTILE
360
50E
  3
DIFFUSETILE
360
50D
  3
OPACITYTILE
360
511
  3
REFLECTIONTILE
360
510
  3
REFRACTIONTILE
360
512
  3
SPECULARTILE
360
50F
  0
DICTIONARY
  5
504
330
503
100
AcDbDictionary
280
     1
281
     1
  3
ACAD_XREC_ROUNDTRIP
360
56C
  3
BUMPTILE
360
506
  3
DIFFUSETILE
360
505
  3
OPACITYTILE
360
509
  3
REFLECTIONTILE
360
508
  3
REFRACTIONTILE
360
50A
  3
SPECULARTILE
360
507
  0
DICTIONARY
  5
514
330
513
100
AcDbDictionary
280
     1
281
     1
  3
ACAD_XREC_ROUNDTRIP
360
56E
  3
BUMPTILE
360
516
  3
DIFFUSETILE
360
515
  3
OPACITYTILE
360
519
  3
REFLECTIONTILE
360
518
  3
REFRACTIONTILE
360
51A
  3
SPECULARTILE
360
517
  0
DICTIONARY
  5
55F
330
39
100
AcDbDictionary
280
     1
281
     1
  3
ACAD_ROUNDTRIP_2008_TABLESTYLE_CELLSTYLEMAP
360
560
  3
ACAD_XREC_ROUNDTRIP
360
567
  0
DICTIONARY
  5
579
330
521
100
AcDbDictionary
280
     1
281
     1
  3
ACAD_XREC_ROUNDTRIP
360
57A
  0
DICTIONARY
  5
57D
330
523
100
AcDbDictionary
280
     1
281
     1
  3
ACAD_XREC_ROUNDTRIP
360
57E
  0
DICTIONARY
  5
57B
330
522
100
AcDbDictionary
280
     1
281
     1
  3
ACAD_XREC_ROUNDTRIP
360
57C
  0
DICTIONARY
  5
577
330
520
100
AcDbDictionary
280
     1
281
     1
  3
ACAD_XREC_ROUNDTRIP
360
578
  0
DICTIONARY
  5
585
330
527
100
AcDbDictionary
280
     1
281
     1
  3
ACAD_XREC_ROUNDTRIP
360
586
  0
DICTIONARY
  5
58D
330
52B
100
AcDbDictionary
280
     1
281
     1
  3
ACAD_XREC_ROUNDTRIP
360
58E
  0
DICTIONARY
  5
57F
330
524
100
AcDbDictionary
280
     1
281
     1
  3
ACAD_XREC_ROUNDTRIP
360
580
  0
DICTIONARY
  5
583
330
526
100
AcDbDictionary
280
     1
281
     1
  3
ACAD_XREC_ROUNDTRIP
360
584
  0
DICTIONARY
  5
593
330
52E
100
AcDbDictionary
280
     1
281
     1
  3
ACAD_XREC_ROUNDTRIP
360
594
  0
DICTIONARY
  5
58B
330
52A
100
AcDbDictionary
280
     1
281
     1
  3
ACAD_XREC_ROUNDTRIP
360
58C
  0
DICTIONARY
  5
56F
330
51C
100
AcDbDictionary
280
     1
281
     1
  3
ACAD_XREC_ROUNDTRIP
360
570
  0
DICTIONARY
  5
571
330
51D
100
AcDbDictionary
280
     1
281
     1
  3
ACAD_XREC_ROUNDTRIP
360
572
  0
DICTIONARY
  5
573
330
51E
100
AcDbDictionary
280
     1
281
     1
  3
ACAD_XREC_ROUNDTRIP
360
574
  0
DICTIONARY
  5
575
330
51F
100
AcDbDictionary
280
     1
281
     1
  3
ACAD_XREC_ROUNDTRIP
360
576
  0
DICTIONARY
  5
58F
330
52C
100
AcDbDictionary
280
     1
281
     1
  3
ACAD_XREC_ROUNDTRIP
360
590
  0
DICTIONARY
  5
589
330
529
100
AcDbDictionary
280
     1
281
     1
  3
ACAD_XREC_ROUNDTRIP
360
58A
  0
DICTIONARY
  5
591
330
52D
100
AcDbDictionary
280
     1
281
     1
  3
ACAD_XREC_ROUNDTRIP
360
592
  0
DICTIONARY
  5
581
330
525
100
AcDbDictionary
280
     1
281
     1
  3
ACAD_XREC_ROUNDTRIP
360
582
  0
DICTIONARY
  5
587
330
528
100
AcDbDictionary
280
     1
281
     1
  3
ACAD_XREC_ROUNDTRIP
360
588
  0
XRECORD
  5
566
102
{ACAD_REACTORS
330
565
102
}
330
565
100
AcDbXrecord
280
     1
102
SHADEPLOT
 70
     0
102
SHADEPLOTRESLEVEL
 70
     2
102
SHADEPLOTCUSTOMDPI
 70
   300
  0
XRECORD
  5
564
102
{ACAD_REACTORS
330
563
102
}
330
563
100
AcDbXrecord
280
     1
102
SHADEPLOT
 70
     0
102
SHADEPLOTRESLEVEL
 70
     2
102
SHADEPLOTCUSTOMDPI
 70
   300
  0
XRECORD
  5
56D
102
{ACAD_REACTORS
330
50C
102
}
330
50C
100
AcDbXrecord
280
     1
102
MATERIAL
148
0.0
149
0.0
149
0.0
 93
        0
 94
      127
282
     0
 72
     0
 77
     0
171
     0
175
     0
179
     0
273
     0
  0
XRECORD
  5
50E
102
{ACAD_REACTORS
330
50C
102
}
330
50C
100
AcDbXrecord
280
     1
270
     1
271
     1
  0
XRECORD
  5
50D
102
{ACAD_REACTORS
330
50C
102
}
330
50C
100
AcDbXrecord
280
     1
270
     1
271
     1
  0
XRECORD
  5
511
102
{ACAD_REACTORS
330
50C
102
}
330
50C
100
AcDbXrecord
280
     1
270
     1
271
     1
  0
XRECORD
  5
510
102
{ACAD_REACTORS
330
50C
102
}
330
50C
100
AcDbXrecord
280
     1
270
     1
271
     1
  0
XRECORD
  5
512
102
{ACAD_REACTORS
330
50C
102
}
330
50C
100
AcDbXrecord
280
     1
270
     1
271
     1
  0
XRECORD
  5
50F
102
{ACAD_REACTORS
330
50C
102
}
330
50C
100
AcDbXrecord
280
     1
270
     1
271
     1
  0
XRECORD
  5
56C
102
{ACAD_REACTORS
330
504
102
}
330
504
100
AcDbXrecord
280
     1
102
MATERIAL
148
0.0
149
0.0
149
0.0
 93
        0
 94
      127
282
     0
 72
     0
 77
     0
171
     0
175
     0
179
     0
273
     0
  0
XRECORD
  5
506
102
{ACAD_REACTORS
330
504
102
}
330
504
100
AcDbXrecord
280
     1
270
     1
271
     1
  0
XRECORD
  5
505
102
{ACAD_REACTORS
330
504
102
}
330
504
100
AcDbXrecord
280
     1
270
     1
271
     1
  0
XRECORD
  5
509
102
{ACAD_REACTORS
330
504
102
}
330
504
100
AcDbXrecord
280
     1
270
     1
271
     1
  0
XRECORD
  5
508
102
{ACAD_REACTORS
330
504
102
}
330
504
100
AcDbXrecord
280
     1
270
     1
271
     1
  0
XRECORD
  5
50A
102
{ACAD_REACTORS
330
504
102
}
330
504
100
AcDbXrecord
280
     1
270
     1
271
     1
  0
XRECORD
  5
507
102
{ACAD_REACTORS
330
504
102
}
330
504
100
AcDbXrecord
280
     1
270
     1
271
     1
  0
XRECORD
  5
56E
102
{ACAD_REACTORS
330
514
102
}
330
514
100
AcDbXrecord
280
     1
102
MATERIAL
148
0.0
149
0.0
149
0.0
 93
        0
 94
      127
282
     0
 72
     0
 77
     0
171
     0
175
     0
179
     0
273
     0
  0
XRECORD
  5
516
102
{ACAD_REACTORS
330
514
102
}
330
514
100
AcDbXrecord
280
     1
270
     1
271
     1
  0
XRECORD
  5
515
102
{ACAD_REACTORS
330
514
102
}
330
514
100
AcDbXrecord
280
     1
270
     1
271
     1
  0
XRECORD
  5
519
102
{ACAD_REACTORS
330
514
102
}
330
514
100
AcDbXrecord
280
     1
270
     1
271
     1
  0
XRECORD
  5
518
102
{ACAD_REACTORS
330
514
102
}
330
514
100
AcDbXrecord
280
     1
270
     1
271
     1
  0
XRECORD
  5
51A
102
{ACAD_REACTORS
330
514
102
}
330
514
100
AcDbXrecord
280
     1
270
     1
271
     1
  0
XRECORD
  5
517
102
{ACAD_REACTORS
330
514
102
}
330
514
100
AcDbXrecord
280
     1
270
     1
271
     1
  0
CELLSTYLEMAP
  5
560
102
{ACAD_REACTORS
330
55F
102
}
330
55F
100
AcDbCellStyleMap
 90
        3
300
CELLSTYLE
  1
TABLEFORMAT_BEGIN
 90
        5
170
     1
 91
        0
 92
    32768
 62
   257
 93
        1
300
CONTENTFORMAT
  1
CONTENTFORMAT_BEGIN
 90
        0
 91
        0
 92
        4
 93
        0
300

 40
0.0
140
1.0
 94
        5
 62
     0
340
12
144
6.0
309
CONTENTFORMAT_END
171
     1
301
MARGIN
  1
CELLMARGIN_BEGIN
 40
1.5
 40
1.5
 40
1.5
 40
1.5
 40
0.18
 40
0.18
309
CELLMARGIN_END
 94
        6
 95
        1
302
GRIDFORMAT
  1
GRIDFORMAT_BEGIN
 90
        0
 91
        1
 62
     0
 92
       -2
340
0
 93
        0
 40
0.045
309
GRIDFORMAT_END
 95
        2
302
GRIDFORMAT
  1
GRIDFORMAT_BEGIN
 90
        0
 91
        1
 62
     0
 92
       -2
340
0
 93
        0
 40
0.045
309
GRIDFORMAT_END
 95
        4
302
GRIDFORMAT
  1
GRIDFORMAT_BEGIN
 90
        0
 91
        1
 62
     0
 92
       -2
340
0
 93
        0
 40
0.045
309
GRIDFORMAT_END
 95
        8
302
GRIDFORMAT
  1
GRIDFORMAT_BEGIN
 90
        0
 91
        1
 62
     0
 92
       -2
340
0
 93
        0
 40
0.045
309
GRIDFORMAT_END
 95
       16
302
GRIDFORMAT
  1
GRIDFORMAT_BEGIN
 90
        0
 91
        1
 62
     0
 92
       -2
340
0
 93
        0
 40
0.045
309
GRIDFORMAT_END
 95
       32
302
GRIDFORMAT
  1
GRIDFORMAT_BEGIN
 90
        0
 91
        1
 62
     0
 92
       -2
340
0
 93
        0
 40
0.045
309
GRIDFORMAT_END
309
TABLEFORMAT_END
  1
CELLSTYLE_BEGIN
 90
        1
 91
        1
300
_TITLE
309
CELLSTYLE_END
300
CELLSTYLE
  1
TABLEFORMAT_BEGIN
 90
        5
170
     1
 91
        0
 92
        0
 62
   257
 93
        1
300
CONTENTFORMAT
  1
CONTENTFORMAT_BEGIN
 90
        0
 91
        0
 92
        4
 93
        0
300

 40
0.0
140
1.0
 94
        5
 62
     0
340
12
144
4.5
309
CONTENTFORMAT_END
171
     1
301
MARGIN
  1
CELLMARGIN_BEGIN
 40
1.5
 40
1.5
 40
1.5
 40
1.5
 40
0.18
 40
0.18
309
CELLMARGIN_END
 94
        6
 95
        1
302
GRIDFORMAT
  1
GRIDFORMAT_BEGIN
 90
        0
 91
        1
 62
     0
 92
       -2
340
0
 93
        0
 40
0.045
309
GRIDFORMAT_END
 95
        2
302
GRIDFORMAT
  1
GRIDFORMAT_BEGIN
 90
        0
 91
        1
 62
     0
 92
       -2
340
0
 93
        0
 40
0.045
309
GRIDFORMAT_END
 95
        4
302
GRIDFORMAT
  1
GRIDFORMAT_BEGIN
 90
        0
 91
        1
 62
     0
 92
       -2
340
0
 93
        0
 40
0.045
309
GRIDFORMAT_END
 95
        8
302
GRIDFORMAT
  1
GRIDFORMAT_BEGIN
 90
        0
 91
        1
 62
     0
 92
       -2
340
0
 93
        0
 40
0.045
309
GRIDFORMAT_END
 95
       16
302
GRIDFORMAT
  1
GRIDFORMAT_BEGIN
 90
        0
 91
        1
 62
     0
 92
       -2
340
0
 93
        0
 40
0.045
309
GRIDFORMAT_END
 95
       32
302
GRIDFORMAT
  1
GRIDFORMAT_BEGIN
 90
        0
 91
        1
 62
     0
 92
       -2
340
0
 93
        0
 40
0.045
309
GRIDFORMAT_END
309
TABLEFORMAT_END
  1
CELLSTYLE_BEGIN
 90
        2
 91
        1
300
_HEADER
309
CELLSTYLE_END
300
CELLSTYLE
  1
TABLEFORMAT_BEGIN
 90
        5
170
     1
 91
        0
 92
        0
 62
   257
 93
        1
300
CONTENTFORMAT
  1
CONTENTFORMAT_BEGIN
 90
        0
 91
        0
 92
        4
 93
        0
300

 40
0.0
140
1.0
 94
        2
 62
     0
340
12
144
4.5
309
CONTENTFORMAT_END
171
     1
301
MARGIN
  1
CELLMARGIN_BEGIN
 40
1.5
 40
1.5
 40
1.5
 40
1.5
 40
0.18
 40
0.18
309
CELLMARGIN_END
 94
        6
 95
        1
302
GRIDFORMAT
  1
GRIDFORMAT_BEGIN
 90
        0
 91
        1
 62
     0
 92
       -2
340
0
 93
        0
 40
0.045
309
GRIDFORMAT_END
 95
        2
302
GRIDFORMAT
  1
GRIDFORMAT_BEGIN
 90
        0
 91
        1
 62
     0
 92
       -2
340
0
 93
        0
 40
0.045
309
GRIDFORMAT_END
 95
        4
302
GRIDFORMAT
  1
GRIDFORMAT_BEGIN
 90
        0
 91
        1
 62
     0
 92
       -2
340
0
 93
        0
 40
0.045
309
GRIDFORMAT_END
 95
        8
302
GRIDFORMAT
  1
GRIDFORMAT_BEGIN
 90
        0
 91
        1
 62
     0
 92
       -2
340
0
 93
        0
 40
0.045
309
GRIDFORMAT_END
 95
       16
302
GRIDFORMAT
  1
GRIDFORMAT_BEGIN
 90
        0
 91
        1
 62
     0
 92
       -2
340
0
 93
        0
 40
0.045
309
GRIDFORMAT_END
 95
       32
302
GRIDFORMAT
  1
GRIDFORMAT_BEGIN
 90
        0
 91
        1
 62
     0
 92
       -2
340
0
 93
        0
 40
0.045
309
GRIDFORMAT_END
309
TABLEFORMAT_END
  1
CELLSTYLE_BEGIN
 90
        3
 91
        2
300
_DATA
309
CELLSTYLE_END
  0
XRECORD
  5
567
102
{ACAD_REACTORS
330
55F
102
}
330
55F
100
AcDbXrecord
280
     1
102
ACAD_ROUNDTRIP_PRE2007_TABLESTYLE
 90
        4
 91
        0
  1

 92
        4
 93
        0
  2

 94
        4
 95
        0
  3

  0
XRECORD
  5
57A
102
{ACAD_REACTORS
330
579
102
}
330
579
100
AcDbXrecord
280
     1
102
RTVSPropertyOp0
 70
     1
102
RTVSPropertyOp1
 70
     1
102
RTVSPropertyOp2
 70
     1
102
RTVSPropertyOp3
 70
     1
102
RTVSPropertyOp4
 70
     1
102
RTVSPropertyOp5
 70
     1
102
RTVSPropertyOp6
 70
     1
102
RTVSPropertyOp7
 70
     1
102
RTVSPropertyOp8
 70
     1
102
RTVSPropertyOp9
 70
     1
102
RTVSPropertyOp10
 70
     1
102
RTVSPropertyOp11
 70
     1
102
RTVSPropertyOp12
 70
     1
102
RTVSPropertyOp13
 70
     1
102
RTVSPropertyOp14
 70
     1
102
RTVSPropertyOp15
 70
     1
102
RTVSPropertyOp16
 70
     1
102
RTVSPropertyOp17
 70
     1
102
RTVSPropertyOp18
 70
     1
102
RTVSPropertyOp19
 70
     1
102
RTVSPropertyOp20
 70
     1
102
RTVSPropertyOp21
 70
     1
102
RTVSPropertyOp22
 70
     1
102
RTVSPropertyOp23
 70
     1
102
RTVSPropertyOp24
 70
     1
102
RTVSPropertyOp25
 70
     1
102
RTVSPropertyOp26
 70
     1
102
RTVSPropertyOp27
 70
     1
  0
XRECORD
  5
57E
102
{ACAD_REACTORS
330
57D
102
}
330
57D
100
AcDbXrecord
280
     1
102
RTVSPropertyOp0
 70
     1
102
RTVSPropertyOp1
 70
     1
102
RTVSPropertyOp2
 70
     1
102
RTVSPropertyOp3
 70
     1
102
RTVSPropertyOp4
 70
     1
102
RTVSPropertyOp5
 70
     1
102
RTVSPropertyOp6
 70
     1
102
RTVSPropertyOp7
 70
     1
102
RTVSPropertyOp8
 70
     1
102
RTVSPropertyOp9
 70
     1
102
RTVSPropertyOp10
 70
     1
102
RTVSPropertyOp11
 70
     1
102
RTVSPropertyOp12
 70
     1
102
RTVSPropertyOp13
 70
     1
102
RTVSPropertyOp14
 70
     1
102
RTVSPropertyOp15
 70
     1
102
RTVSPropertyOp16
 70
     1
102
RTVSPropertyOp17
 70
     1
102
RTVSPropertyOp18
 70
     1
102
RTVSPropertyOp19
 70
     1
102
RTVSPropertyOp20
 70
     1
102
RTVSPropertyOp21
 70
     1
102
RTVSPropertyOp22
 70
     1
102
RTVSPropertyOp23
 70
     1
102
RTVSPropertyOp24
 70
     1
102
RTVSPropertyOp25
 70
     1
102
RTVSPropertyOp26
 70
     1
102
RTVSPropertyOp27
 70
     1
  0
XRECORD
  5
57C
102
{ACAD_REACTORS
330
57B
102
}
330
57B
100
AcDbXrecord
280
     1
102
RTVSPropertyOp0
 70
     1
102
RTVSPropertyOp1
 70
     1
102
RTVSPropertyOp2
 70
     1
102
RTVSPropertyOp3
 70
     1
102
RTVSPropertyOp4
 70
     1
102
RTVSPropertyOp5
 70
     1
102
RTVSPropertyOp6
 70
     1
102
RTVSPropertyOp7
 70
     1
102
RTVSPropertyOp8
 70
     1
102
RTVSPropertyOp9
 70
     1
102
RTVSPropertyOp10
 70
     1
102
RTVSPropertyOp11
 70
     1
102
RTVSPropertyOp12
 70
     1
102
RTVSPropertyOp13
 70
     1
102
RTVSPropertyOp14
 70
     1
102
RTVSPropertyOp15
 70
     1
102
RTVSPropertyOp16
 70
     1
102
RTVSPropertyOp17
 70
     1
102
RTVSPropertyOp18
 70
     1
102
RTVSPropertyOp19
 70
     1
102
RTVSPropertyOp20
 70
     1
102
RTVSPropertyOp21
 70
     1
102
RTVSPropertyOp22
 70
     1
102
RTVSPropertyOp23
 70
     1
102
RTVSPropertyOp24
 70
     1
102
RTVSPropertyOp25
 70
     1
102
RTVSPropertyOp26
 70
     1
102
RTVSPropertyOp27
 70
     1
  0
XRECORD
  5
578
102
{ACAD_REACTORS
330
577
102
}
330
577
100
AcDbXrecord
280
     1
102
RTVSPropertyOp0
 70
     1
102
RTVSPropertyOp1
 70
     1
102
RTVSPropertyOp2
 70
     1
102
RTVSPropertyOp3
 70
     1
102
RTVSPropertyOp4
 70
     1
102
RTVSPropertyOp5
 70
     1
102
RTVSPropertyOp6
 70
     1
102
RTVSPropertyOp7
 70
     1
102
RTVSPropertyOp8
 70
     1
102
RTVSPropertyOp9
 70
     1
102
RTVSPropertyOp10
 70
     1
102
RTVSPropertyOp11
 70
     1
102
RTVSPropertyOp12
 70
     1
102
RTVSPropertyOp13
 70
     1
102
RTVSPropertyOp14
 70
     1
102
RTVSPropertyOp15
 70
     1
102
RTVSPropertyOp16
 70
     1
102
RTVSPropertyOp17
 70
     1
102
RTVSPropertyOp18
 70
     1
102
RTVSPropertyOp19
 70
     1
102
RTVSPropertyOp20
 70
     1
102
RTVSPropertyOp21
 70
     1
102
RTVSPropertyOp22
 70
     1
102
RTVSPropertyOp23
 70
     1
102
RTVSPropertyOp24
 70
     1
102
RTVSPropertyOp25
 70
     1
102
RTVSPropertyOp26
 70
     1
102
RTVSPropertyOp27
 70
     1
  0
XRECORD
  5
586
102
{ACAD_REACTORS
330
585
102
}
330
585
100
AcDbXrecord
280
     1
102
RTVSPropertyOp0
 70
     1
102
RTVSPropertyOp1
 70
     1
102
RTVSPropertyOp2
 70
     1
102
RTVSPropertyOp3
 70
     1
102
RTVSPropertyOp4
 70
     1
102
RTVSPropertyOp5
 70
     1
102
RTVSPropertyOp6
 70
     1
102
RTVSPropertyOp7
 70
     1
102
RTVSPropertyOp8
 70
     1
102
RTVSPropertyOp9
 70
     1
102
RTVSPropertyOp10
 70
     1
102
RTVSPropertyOp11
 70
     1
102
RTVSPropertyOp12
 70
     1
102
RTVSPropertyOp13
 70
     1
102
RTVSPropertyOp14
 70
     1
102
RTVSPropertyOp15
 70
     1
102
RTVSPropertyOp16
 70
     1
102
RTVSPropertyOp17
 70
     1
102
RTVSPropertyOp18
 70
     1
102
RTVSPropertyOp19
 70
     1
102
RTVSPropertyOp20
 70
     1
102
RTVSPropertyOp21
 70
     1
102
RTVSPropertyOp22
 70
     1
102
RTVSPropertyOp23
 70
     1
102
RTVSPropertyOp24
 70
     1
102
RTVSPropertyOp25
 70
     1
102
RTVSPropertyOp26
 70
     1
102
RTVSPropertyOp27
 70
     1
  0
XRECORD
  5
58E
102
{ACAD_REACTORS
330
58D
102
}
330
58D
100
AcDbXrecord
280
     1
102
RTVSPropertyOp0
 70
     1
102
RTVSPropertyOp1
 70
     1
102
RTVSPropertyOp2
 70
     1
102
RTVSPropertyOp3
 70
     1
102
RTVSPropertyOp4
 70
     1
102
RTVSPropertyOp5
 70
     1
102
RTVSPropertyOp6
 70
     1
102
RTVSPropertyOp7
 70
     1
102
RTVSPropertyOp8
 70
     1
102
RTVSPropertyOp9
 70
     1
102
RTVSPropertyOp10
 70
     1
102
RTVSPropertyOp11
 70
     1
102
RTVSPropertyOp12
 70
     1
102
RTVSPropertyOp13
 70
     1
102
RTVSPropertyOp14
 70
     1
102
RTVSPropertyOp15
 70
     1
102
RTVSPropertyOp16
 70
     1
102
RTVSPropertyOp17
 70
     1
102
RTVSPropertyOp18
 70
     1
102
RTVSPropertyOp19
 70
     1
102
RTVSPropertyOp20
 70
     1
102
RTVSPropertyOp21
 70
     1
102
RTVSPropertyOp22
 70
     1
102
RTVSPropertyOp23
 70
     1
102
RTVSPropertyOp24
 70
     1
102
RTVSPropertyOp25
 70
     1
102
RTVSPropertyOp26
 70
     1
102
RTVSPropertyOp27
 70
     1
  0
XRECORD
  5
580
102
{ACAD_REACTORS
330
57F
102
}
330
57F
100
AcDbXrecord
280
     1
102
RTVSPropertyOp0
 70
     1
102
RTVSPropertyOp1
 70
     1
102
RTVSPropertyOp2
 70
     1
102
RTVSPropertyOp3
 70
     1
102
RTVSPropertyOp4
 70
     1
102
RTVSPropertyOp5
 70
     1
102
RTVSPropertyOp6
 70
     1
102
RTVSPropertyOp7
 70
     1
102
RTVSPropertyOp8
 70
     1
102
RTVSPropertyOp9
 70
     1
102
RTVSPropertyOp10
 70
     1
102
RTVSPropertyOp11
 70
     1
102
RTVSPropertyOp12
 70
     1
102
RTVSPropertyOp13
 70
     1
102
RTVSPropertyOp14
 70
     1
102
RTVSPropertyOp15
 70
     1
102
RTVSPropertyOp16
 70
     1
102
RTVSPropertyOp17
 70
     1
102
RTVSPropertyOp18
 70
     1
102
RTVSPropertyOp19
 70
     1
102
RTVSPropertyOp20
 70
     1
102
RTVSPropertyOp21
 70
     1
102
RTVSPropertyOp22
 70
     1
102
RTVSPropertyOp23
 70
     1
102
RTVSPropertyOp24
 70
     1
102
RTVSPropertyOp25
 70
     1
102
RTVSPropertyOp26
 70
     1
102
RTVSPropertyOp27
 70
     1
  0
XRECORD
  5
584
102
{ACAD_REACTORS
330
583
102
}
330
583
100
AcDbXrecord
280
     1
102
RTVSPropertyOp0
 70
     1
102
RTVSPropertyOp1
 70
     1
102
RTVSPropertyOp2
 70
     1
102
RTVSPropertyOp3
 70
     1
102
RTVSPropertyOp4
 70
     1
102
RTVSPropertyOp5
 70
     1
102
RTVSPropertyOp6
 70
     1
102
RTVSPropertyOp7
 70
     1
102
RTVSPropertyOp8
 70
     1
102
RTVSPropertyOp9
 70
     1
102
RTVSPropertyOp10
 70
     1
102
RTVSPropertyOp11
 70
     1
102
RTVSPropertyOp12
 70
     1
102
RTVSPropertyOp13
 70
     1
102
RTVSPropertyOp14
 70
     1
102
RTVSPropertyOp15
 70
     1
102
RTVSPropertyOp16
 70
     1
102
RTVSPropertyOp17
 70
     1
102
RTVSPropertyOp18
 70
     1
102
RTVSPropertyOp19
 70
     1
102
RTVSPropertyOp20
 70
     1
102
RTVSPropertyOp21
 70
     1
102
RTVSPropertyOp22
 70
     1
102
RTVSPropertyOp23
 70
     1
102
RTVSPropertyOp24
 70
     1
102
RTVSPropertyOp25
 70
     1
102
RTVSPropertyOp26
 70
     1
102
RTVSPropertyOp27
 70
     1
  0
XRECORD
  5
594
102
{ACAD_REACTORS
330
593
102
}
330
593
100
AcDbXrecord
280
     1
102
RTVSPropertyOp0
 70
     0
102
RTVSPropertyOp1
 70
     0
102
RTVSPropertyOp2
 70
     0
102
RTVSPropertyOp3
 70
     0
102
RTVSPropertyOp4
 70
     0
102
RTVSPropertyOp5
 70
     0
102
RTVSPropertyOp6
 70
     0
102
RTVSPropertyOp7
 70
     0
102
RTVSPropertyOp8
 70
     0
102
RTVSPropertyOp9
 70
     0
102
RTVSPropertyOp10
 70
     0
102
RTVSPropertyOp11
 70
     0
102
RTVSPropertyOp12
 70
     0
102
RTVSPropertyOp13
 70
     0
102
RTVSPropertyOp14
 70
     2
102
RTVSPropertyOp15
 70
     0
102
RTVSPropertyOp16
 70
     0
102
RTVSPropertyOp17
 70
     0
102
RTVSPropertyOp18
 70
     0
102
RTVSPropertyOp19
 70
     0
102
RTVSPropertyOp20
 70
     0
102
RTVSPropertyOp21
 70
     0
102
RTVSPropertyOp22
 70
     0
102
RTVSPropertyOp23
 70
     0
102
RTVSPropertyOp24
 70
     0
102
RTVSPropertyOp25
 70
     0
102
RTVSPropertyOp26
 70
     0
102
RTVSPropertyOp27
 70
     0
  0
XRECORD
  5
58C
102
{ACAD_REACTORS
330
58B
102
}
330
58B
100
AcDbXrecord
280
     1
102
RTVSPropertyOp0
 70
     1
102
RTVSPropertyOp1
 70
     1
102
RTVSPropertyOp2
 70
     1
102
RTVSPropertyOp3
 70
     1
102
RTVSPropertyOp4
 70
     1
102
RTVSPropertyOp5
 70
     1
102
RTVSPropertyOp6
 70
     1
102
RTVSPropertyOp7
 70
     1
102
RTVSPropertyOp8
 70
     1
102
RTVSPropertyOp9
 70
     1
102
RTVSPropertyOp10
 70
     1
102
RTVSPropertyOp11
 70
     1
102
RTVSPropertyOp12
 70
     1
102
RTVSPropertyOp13
 70
     1
102
RTVSPropertyOp14
 70
     1
102
RTVSPropertyOp15
 70
     1
102
RTVSPropertyOp16
 70
     1
102
RTVSPropertyOp17
 70
     1
102
RTVSPropertyOp18
 70
     1
102
RTVSPropertyOp19
 70
     1
102
RTVSPropertyOp20
 70
     1
102
RTVSPropertyOp21
 70
     1
102
RTVSPropertyOp22
 70
     1
102
RTVSPropertyOp23
 70
     1
102
RTVSPropertyOp24
 70
     1
102
RTVSPropertyOp25
 70
     1
102
RTVSPropertyOp26
 70
     1
102
RTVSPropertyOp27
 70
     1
  0
XRECORD
  5
570
102
{ACAD_REACTORS
330
56F
102
}
330
56F
100
AcDbXrecord
280
     1
102
RTVSPropertyOp0
 70
     1
102
RTVSPropertyOp1
 70
     1
102
RTVSPropertyOp2
 70
     1
102
RTVSPropertyOp3
 70
     1
102
RTVSPropertyOp4
 70
     1
102
RTVSPropertyOp5
 70
     1
102
RTVSPropertyOp6
 70
     1
102
RTVSPropertyOp7
 70
     1
102
RTVSPropertyOp8
 70
     1
102
RTVSPropertyOp9
 70
     1
102
RTVSPropertyOp10
 70
     1
102
RTVSPropertyOp11
 70
     1
102
RTVSPropertyOp12
 70
     1
102
RTVSPropertyOp13
 70
     1
102
RTVSPropertyOp14
 70
     1
102
RTVSPropertyOp15
 70
     1
102
RTVSPropertyOp16
 70
     1
102
RTVSPropertyOp17
 70
     1
102
RTVSPropertyOp18
 70
     1
102
RTVSPropertyOp19
 70
     1
102
RTVSPropertyOp20
 70
     1
102
RTVSPropertyOp21
 70
     1
102
RTVSPropertyOp22
 70
     1
102
RTVSPropertyOp23
 70
     1
102
RTVSPropertyOp24
 70
     1
102
RTVSPropertyOp25
 70
     1
102
RTVSPropertyOp26
 70
     1
102
RTVSPropertyOp27
 70
     1
  0
XRECORD
  5
572
102
{ACAD_REACTORS
330
571
102
}
330
571
100
AcDbXrecord
280
     1
102
RTVSPropertyOp0
 70
     1
102
RTVSPropertyOp1
 70
     1
102
RTVSPropertyOp2
 70
     1
102
RTVSPropertyOp3
 70
     1
102
RTVSPropertyOp4
 70
     1
102
RTVSPropertyOp5
 70
     1
102
RTVSPropertyOp6
 70
     1
102
RTVSPropertyOp7
 70
     1
102
RTVSPropertyOp8
 70
     1
102
RTVSPropertyOp9
 70
     1
102
RTVSPropertyOp10
 70
     1
102
RTVSPropertyOp11
 70
     1
102
RTVSPropertyOp12
 70
     1
102
RTVSPropertyOp13
 70
     1
102
RTVSPropertyOp14
 70
     1
102
RTVSPropertyOp15
 70
     1
102
RTVSPropertyOp16
 70
     1
102
RTVSPropertyOp17
 70
     1
102
RTVSPropertyOp18
 70
     1
102
RTVSPropertyOp19
 70
     1
102
RTVSPropertyOp20
 70
     1
102
RTVSPropertyOp21
 70
     1
102
RTVSPropertyOp22
 70
     1
102
RTVSPropertyOp23
 70
     1
102
RTVSPropertyOp24
 70
     1
102
RTVSPropertyOp25
 70
     1
102
RTVSPropertyOp26
 70
     1
102
RTVSPropertyOp27
 70
     1
  0
XRECORD
  5
574
102
{ACAD_REACTORS
330
573
102
}
330
573
100
AcDbXrecord
280
     1
102
RTVSPropertyOp0
 70
     1
102
RTVSPropertyOp1
 70
     1
102
RTVSPropertyOp2
 70
     1
102
RTVSPropertyOp3
 70
     1
102
RTVSPropertyOp4
 70
     1
102
RTVSPropertyOp5
 70
     1
102
RTVSPropertyOp6
 70
     1
102
RTVSPropertyOp7
 70
     1
102
RTVSPropertyOp8
 70
     1
102
RTVSPropertyOp9
 70
     1
102
RTVSPropertyOp10
 70
     1
102
RTVSPropertyOp11
 70
     1
102
RTVSPropertyOp12
 70
     1
102
RTVSPropertyOp13
 70
     1
102
RTVSPropertyOp14
 70
     1
102
RTVSPropertyOp15
 70
     1
102
RTVSPropertyOp16
 70
     1
102
RTVSPropertyOp17
 70
     1
102
RTVSPropertyOp18
 70
     1
102
RTVSPropertyOp19
 70
     1
102
RTVSPropertyOp20
 70
     1
102
RTVSPropertyOp21
 70
     1
102
RTVSPropertyOp22
 70
     1
102
RTVSPropertyOp23
 70
     1
102
RTVSPropertyOp24
 70
     1
102
RTVSPropertyOp25
 70
     1
102
RTVSPropertyOp26
 70
     1
102
RTVSPropertyOp27
 70
     1
  0
XRECORD
  5
576
102
{ACAD_REACTORS
330
575
102
}
330
575
100
AcDbXrecord
280
     1
102
RTVSPropertyOp0
 70
     1
102
RTVSPropertyOp1
 70
     1
102
RTVSPropertyOp2
 70
     1
102
RTVSPropertyOp3
 70
     1
102
RTVSPropertyOp4
 70
     1
102
RTVSPropertyOp5
 70
     1
102
RTVSPropertyOp6
 70
     1
102
RTVSPropertyOp7
 70
     1
102
RTVSPropertyOp8
 70
     1
102
RTVSPropertyOp9
 70
     1
102
RTVSPropertyOp10
 70
     1
102
RTVSPropertyOp11
 70
     1
102
RTVSPropertyOp12
 70
     1
102
RTVSPropertyOp13
 70
     1
102
RTVSPropertyOp14
 70
     1
102
RTVSPropertyOp15
 70
     1
102
RTVSPropertyOp16
 70
     1
102
RTVSPropertyOp17
 70
     1
102
RTVSPropertyOp18
 70
     1
102
RTVSPropertyOp19
 70
     1
102
RTVSPropertyOp20
 70
     1
102
RTVSPropertyOp21
 70
     1
102
RTVSPropertyOp22
 70
     1
102
RTVSPropertyOp23
 70
     1
102
RTVSPropertyOp24
 70
     1
102
RTVSPropertyOp25
 70
     1
102
RTVSPropertyOp26
 70
     1
102
RTVSPropertyOp27
 70
     1
  0
XRECORD
  5
590
102
{ACAD_REACTORS
330
58F
102
}
330
58F
100
AcDbXrecord
280
     1
102
RTVSPropertyOp0
 70
     0
102
RTVSPropertyOp1
 70
     0
102
RTVSPropertyOp2
 70
     0
102
RTVSPropertyOp3
 70
     0
102
RTVSPropertyOp4
 70
     0
102
RTVSPropertyOp5
 70
     0
102
RTVSPropertyOp6
 70
     0
102
RTVSPropertyOp7
 70
     0
102
RTVSPropertyOp8
 70
     0
102
RTVSPropertyOp9
 70
     0
102
RTVSPropertyOp10
 70
     0
102
RTVSPropertyOp11
 70
     0
102
RTVSPropertyOp12
 70
     0
102
RTVSPropertyOp13
 70
     0
102
RTVSPropertyOp14
 70
     2
102
RTVSPropertyOp15
 70
     0
102
RTVSPropertyOp16
 70
     0
102
RTVSPropertyOp17
 70
     0
102
RTVSPropertyOp18
 70
     0
102
RTVSPropertyOp19
 70
     0
102
RTVSPropertyOp20
 70
     0
102
RTVSPropertyOp21
 70
     0
102
RTVSPropertyOp22
 70
     0
102
RTVSPropertyOp23
 70
     0
102
RTVSPropertyOp24
 70
     0
102
RTVSPropertyOp25
 70
     0
102
RTVSPropertyOp26
 70
     0
102
RTVSPropertyOp27
 70
     0
  0
XRECORD
  5
58A
102
{ACAD_REACTORS
330
589
102
}
330
589
100
AcDbXrecord
280
     1
102
RTVSPropertyOp0
 70
     1
102
RTVSPropertyOp1
 70
     1
102
RTVSPropertyOp2
 70
     1
102
RTVSPropertyOp3
 70
     1
102
RTVSPropertyOp4
 70
     1
102
RTVSPropertyOp5
 70
     1
102
RTVSPropertyOp6
 70
     1
102
RTVSPropertyOp7
 70
     1
102
RTVSPropertyOp8
 70
     1
102
RTVSPropertyOp9
 70
     1
102
RTVSPropertyOp10
 70
     1
102
RTVSPropertyOp11
 70
     1
102
RTVSPropertyOp12
 70
     1
102
RTVSPropertyOp13
 70
     1
102
RTVSPropertyOp14
 70
     1
102
RTVSPropertyOp15
 70
     1
102
RTVSPropertyOp16
 70
     1
102
RTVSPropertyOp17
 70
     1
102
RTVSPropertyOp18
 70
     1
102
RTVSPropertyOp19
 70
     1
102
RTVSPropertyOp20
 70
     1
102
RTVSPropertyOp21
 70
     1
102
RTVSPropertyOp22
 70
     1
102
RTVSPropertyOp23
 70
     1
102
RTVSPropertyOp24
 70
     1
102
RTVSPropertyOp25
 70
     1
102
RTVSPropertyOp26
 70
     1
102
RTVSPropertyOp27
 70
     1
  0
XRECORD
  5
592
102
{ACAD_REACTORS
330
591
102
}
330
591
100
AcDbXrecord
280
     1
102
RTVSPropertyOp0
 70
     0
102
RTVSPropertyOp1
 70
     0
102
RTVSPropertyOp2
 70
     0
102
RTVSPropertyOp3
 70
     0
102
RTVSPropertyOp4
 70
     0
102
RTVSPropertyOp5
 70
     0
102
RTVSPropertyOp6
 70
     0
102
RTVSPropertyOp7
 70
     0
102
RTVSPropertyOp8
 70
     0
102
RTVSPropertyOp9
 70
     0
102
RTVSPropertyOp10
 70
     0
102
RTVSPropertyOp11
 70
     0
102
RTVSPropertyOp12
 70
     0
102
RTVSPropertyOp13
 70
     0
102
RTVSPropertyOp14
 70
     2
102
RTVSPropertyOp15
 70
     0
102
RTVSPropertyOp16
 70
     0
102
RTVSPropertyOp17
 70
     0
102
RTVSPropertyOp18
 70
     0
102
RTVSPropertyOp19
 70
     0
102
RTVSPropertyOp20
 70
     0
102
RTVSPropertyOp21
 70
     0
102
RTVSPropertyOp22
 70
     0
102
RTVSPropertyOp23
 70
     0
102
RTVSPropertyOp24
 70
     0
102
RTVSPropertyOp25
 70
     0
102
RTVSPropertyOp26
 70
     0
102
RTVSPropertyOp27
 70
     0
  0
XRECORD
  5
582
102
{ACAD_REACTORS
330
581
102
}
330
581
100
AcDbXrecord
280
     1
102
RTVSPropertyOp0
 70
     1
102
RTVSPropertyOp1
 70
     1
102
RTVSPropertyOp2
 70
     1
102
RTVSPropertyOp3
 70
     1
102
RTVSPropertyOp4
 70
     1
102
RTVSPropertyOp5
 70
     1
102
RTVSPropertyOp6
 70
     1
102
RTVSPropertyOp7
 70
     1
102
RTVSPropertyOp8
 70
     1
102
RTVSPropertyOp9
 70
     1
102
RTVSPropertyOp10
 70
     1
102
RTVSPropertyOp11
 70
     1
102
RTVSPropertyOp12
 70
     1
102
RTVSPropertyOp13
 70
     1
102
RTVSPropertyOp14
 70
     1
102
RTVSPropertyOp15
 70
     1
102
RTVSPropertyOp16
 70
     1
102
RTVSPropertyOp17
 70
     1
102
RTVSPropertyOp18
 70
     1
102
RTVSPropertyOp19
 70
     1
102
RTVSPropertyOp20
 70
     1
102
RTVSPropertyOp21
 70
     1
102
RTVSPropertyOp22
 70
     1
102
RTVSPropertyOp23
 70
     1
102
RTVSPropertyOp24
 70
     1
102
RTVSPropertyOp25
 70
     1
102
RTVSPropertyOp26
 70
     1
102
RTVSPropertyOp27
 70
     1
  0
XRECORD
  5
588
102
{ACAD_REACTORS
330
587
102
}
330
587
100
AcDbXrecord
280
     1
102
RTVSPropertyOp0
 70
     1
102
RTVSPropertyOp1
 70
     1
102
RTVSPropertyOp2
 70
     1
102
RTVSPropertyOp3
 70
     1
102
RTVSPropertyOp4
 70
     1
102
RTVSPropertyOp5
 70
     1
102
RTVSPropertyOp6
 70
     1
102
RTVSPropertyOp7
 70
     1
102
RTVSPropertyOp8
 70
     1
102
RTVSPropertyOp9
 70
     1
102
RTVSPropertyOp10
 70
     1
102
RTVSPropertyOp11
 70
     1
102
RTVSPropertyOp12
 70
     1
102
RTVSPropertyOp13
 70
     1
102
RTVSPropertyOp14
 70
     1
102
RTVSPropertyOp15
 70
     1
102
RTVSPropertyOp16
 70
     1
102
RTVSPropertyOp17
 70
     1
102
RTVSPropertyOp18
 70
     1
102
RTVSPropertyOp19
 70
     1
102
RTVSPropertyOp20
 70
     1
102
RTVSPropertyOp21
 70
     1
102
RTVSPropertyOp22
 70
     1
102
RTVSPropertyOp23
 70
     1
102
RTVSPropertyOp24
 70
     1
102
RTVSPropertyOp25
 70
     1
102
RTVSPropertyOp26
 70
     1
102
RTVSPropertyOp27
 70
     1
  0
ENDSEC
  0
EOF
