  0
SECTION
  2
HEADER
  9
$ACADVER
  1
AC1015
  9
$ACADMAINTVER
 70
    20
  9
$DWGCODEPAGE
  3
ANSI_1252
  9
$INSBASE
 10
0.0
 20
0.0
 30
0.0
  9
$EXTMIN
 10
694.9900270974735
 20
914.314350513899
 30
0.0
  9
$EXTMAX
 10
697.4543955563087
 20
914.8687976814743
 30
0.0
  9
$LIMMIN
 10
0.0
 20
0.0
  9
$LIMMAX
 10
420.0
 20
297.0
  9
$ORTHOMODE
 70
     0
  9
$REGENMODE
 70
     1
  9
$FILLMODE
 70
     1
  9
$QTEXTMODE
 70
     0
  9
$MIRRTEXT
 70
     1
  9
$LTSCALE
 40
1.0
  9
$ATTMODE
 70
     1
  9
$TEXTSIZE
 40
2.5
  9
$TRACEWID
 40
1.0
  9
$TEXTSTYLE
  7
SANINDUSA
  9
$CLAYER
  8
0
  9
$CELTYPE
  6
ByLayer
  9
$CECOLOR
 62
   256
  9
$CELTSCALE
 40
1.0
  9
$DISPSILH
 70
     0
  9
$DIMSCALE
 40
1.0
  9
$DIMASZ
 40
2.0
  9
$DIMEXO
 40
1.0
  9
$DIMDLI
 40
1.0
  9
$DIMRND
 40
0.0
  9
$DIMDLE
 40
0.0
  9
$DIMEXE
 40
1.0
  9
$DIMTP
 40
0.0
  9
$DIMTM
 40
0.0
  9
$DIMTXT
 40
2.0
  9
$DIMCEN
 40
0.0
  9
$DIMTSZ
 40
0.0
  9
$DIMTOL
 70
     0
  9
$DIMLIM
 70
     0
  9
$DIMTIH
 70
     0
  9
$DIMTOH
 70
     0
  9
$DIMSE1
 70
     0
  9
$DIMSE2
 70
     0
  9
$DIMTAD
 70
     1
  9
$DIMZIN
 70
     8
  9
$DIMBLK
  1

  9
$DIMASO
 70
     1
  9
$DIMSHO
 70
     1
  9
$DIMPOST
  1

  9
$DIMAPOST
  1

  9
$DIMALT
 70
     0
  9
$DIMALTD
 70
     3
  9
$DIMALTF
 40
0.03937007874016
  9
$DIMLFAC
 40
1.0
  9
$DIMTOFL
 70
     1
  9
$DIMTVP
 40
0.0
  9
$DIMTIX
 70
     0
  9
$DIMSOXD
 70
     0
  9
$DIMSAH
 70
     0
  9
$DIMBLK1
  1

  9
$DIMBLK2
  1

  9
$DIMSTYLE
  2
SANINDUSA
  9
$DIMCLRD
 70
   256
  9
$DIMCLRE
 70
   256
  9
$DIMCLRT
 70
   256
  9
$DIMTFAC
 40
1.0
  9
$DIMGAP
 40
1.0
  9
$DIMJUST
 70
     0
  9
$DIMSD1
 70
     0
  9
$DIMSD2
 70
     0
  9
$DIMTOLJ
 70
     0
  9
$DIMTZIN
 70
     8
  9
$DIMALTZ
 70
     0
  9
$DIMALTTZ
 70
     0
  9
$DIMUPT
 70
     0
  9
$DIMDEC
 70
     1
  9
$DIMTDEC
 70
     1
  9
$DIMALTU
 70
     2
  9
$DIMALTTD
 70
     3
  9
$DIMTXSTY
  7
SANINDUSA
  9
$DIMAUNIT
 70
     0
  9
$DIMADEC
 70
     1
  9
$DIMALTRND
 40
0.0
  9
$DIMAZIN
 70
     0
  9
$DIMDSEP
 70
    44
  9
$DIMATFIT
 70
     3
  9
$DIMFRAC
 70
     0
  9
$DIMLDRBLK
  1

  9
$DIMLUNIT
 70
     2
  9
$DIMLWD
 70
    -1
  9
$DIMLWE
 70
    -1
  9
$DIMTMOVE
 70
     0
  9
$LUNITS
 70
     2
  9
$LUPREC
 70
     4
  9
$SKETCHINC
 40
1.0
  9
$FILLETRAD
 40
0.0
  9
$AUNITS
 70
     0
  9
$AUPREC
 70
     0
  9
$MENU
  1
.
  9
$ELEVATION
 40
0.0
  9
$PELEVATION
 40
0.0
  9
$THICKNESS
 40
0.0
  9
$LIMCHECK
 70
     0
  9
$CHAMFERA
 40
10.0
  9
$CHAMFERB
 40
10.0
  9
$CHAMFERC
 40
20.0
  9
$CHAMFERD
 40
0.0
  9
$SKPOLY
 70
     0
  9
$TDCREATE
 40
2453480.607913229
  9
$TDUCREATE
 40
2453480.566246563
  9
$TDUPDATE
 40
2456146.755270000
  9
$TDUUPDATE
 40
2456146.713603333
  9
$TDINDWG
 40
0.0018107986
  9
$TDUSRTIMER
 40
0.0018107986
  9
$USRTIMER
 70
     1
  9
$ANGBASE
 50
0.0
  9
$ANGDIR
 70
     0
  9
$PDMODE
 70
     0
  9
$PDSIZE
 40
0.0
  9
$PLINEWID
 40
0.0
  9
$SPLFRAME
 70
     0
  9
$SPLINETYPE
 70
     6
  9
$SPLINESEGS
 70
     8
  9
$HANDSEED
  5
3DDC
  9
$SURFTAB1
 70
     6
  9
$SURFTAB2
 70
     6
  9
$SURFTYPE
 70
     6
  9
$SURFU
 70
     6
  9
$SURFV
 70
     6
  9
$UCSBASE
  2

  9
$UCSNAME
  2

  9
$UCSORG
 10
0.0
 20
0.0
 30
0.0
  9
$UCSXDIR
 10
1.0
 20
0.0
 30
0.0
  9
$UCSYDIR
 10
0.0
 20
1.0
 30
0.0
  9
$UCSORTHOREF
  2

  9
$UCSORTHOVIEW
 70
     0
  9
$UCSORGTOP
 10
0.0
 20
0.0
 30
0.0
  9
$UCSORGBOTTOM
 10
0.0
 20
0.0
 30
0.0
  9
$UCSORGLEFT
 10
0.0
 20
0.0
 30
0.0
  9
$UCSORGRIGHT
 10
0.0
 20
0.0
 30
0.0
  9
$UCSORGFRONT
 10
0.0
 20
0.0
 30
0.0
  9
$UCSORGBACK
 10
0.0
 20
0.0
 30
0.0
  9
$PUCSBASE
  2

  9
$PUCSNAME
  2

  9
$PUCSORG
 10
0.0
 20
0.0
 30
0.0
  9
$PUCSXDIR
 10
1.0
 20
0.0
 30
0.0
  9
$PUCSYDIR
 10
0.0
 20
1.0
 30
0.0
  9
$PUCSORTHOREF
  2

  9
$PUCSORTHOVIEW
 70
     0
  9
$PUCSORGTOP
 10
0.0
 20
0.0
 30
0.0
  9
$PUCSORGBOTTOM
 10
0.0
 20
0.0
 30
0.0
  9
$PUCSORGLEFT
 10
0.0
 20
0.0
 30
0.0
  9
$PUCSORGRIGHT
 10
0.0
 20
0.0
 30
0.0
  9
$PUCSORGFRONT
 10
0.0
 20
0.0
 30
0.0
  9
$PUCSORGBACK
 10
0.0
 20
0.0
 30
0.0
  9
$USERI1
 70
     0
  9
$USERI2
 70
     0
  9
$USERI3
 70
     0
  9
$USERI4
 70
     0
  9
$USERI5
 70
     0
  9
$USERR1
 40
0.0
  9
$USERR2
 40
0.0
  9
$USERR3
 40
0.0
  9
$USERR4
 40
0.0
  9
$USERR5
 40
0.0
  9
$WORLDVIEW
 70
     1
  9
$SHADEDGE
 70
     3
  9
$SHADEDIF
 70
    70
  9
$TILEMODE
 70
     1
  9
$MAXACTVP
 70
    64
  9
$PINSBASE
 10
0.0
 20
0.0
 30
0.0
  9
$PLIMCHECK
 70
     0
  9
$PEXTMIN
 10
1.000000000000000E+20
 20
1.000000000000000E+20
 30
1.000000000000000E+20
  9
$PEXTMAX
 10
-1.000000000000000E+20
 20
-1.000000000000000E+20
 30
-1.000000000000000E+20
  9
$PLIMMIN
 10
0.0
 20
0.0
  9
$PLIMMAX
 10
420.0
 20
297.0
  9
$UNITMODE
 70
     0
  9
$VISRETAIN
 70
     1
  9
$PLINEGEN
 70
     0
  9
$PSLTSCALE
 70
     1
  9
$TREEDEPTH
 70
  3020
  9
$CMLSTYLE
  2
Standard
  9
$CMLJUST
 70
     0
  9
$CMLSCALE
 40
20.0
  9
$PROXYGRAPHICS
 70
     1
  9
$MEASUREMENT
 70
     1
  9
$CELWEIGHT
370
    -1
  9
$ENDCAPS
280
     0
  9
$JOINSTYLE
280
     0
  9
$LWDISPLAY
290
     0
  9
$INSUNITS
 70
     4
  9
$HYPERLINKBASE
  1

  9
$STYLESHEET
  1
monochrome.ctb
  9
$XEDIT
290
     1
  9
$CEPSNTYPE
380
     0
  9
$PSTYLEMODE
290
     1
  9
$FINGERPRINTGUID
  2
{B98A73AA-52AA-4C10-B469-C0E7150AC31F}
  9
$VERSIONGUID
  2
{860B0FCA-4F44-475B-AE32-F4B62EA98EEF}
  9
$EXTNAMES
290
     1
  9
$PSVPSCALE
 40
0.0
  9
$OLESTARTUP
290
     0
  0
ENDSEC
  0
SECTION
  2
CLASSES
  0
CLASS
  1
ACDBDICTIONARYWDFLT
  2
AcDbDictionaryWithDefault
  3
ObjectDBX Classes
 90
        0
280
     0
281
     0
  0
CLASS
  1
ACDBPLACEHOLDER
  2
AcDbPlaceHolder
  3
ObjectDBX Classes
 90
        0
280
     0
281
     0
  0
CLASS
  1
LAYOUT
  2
AcDbLayout
  3
ObjectDBX Classes
 90
        0
280
     0
281
     0
  0
CLASS
  1
DICTIONARYVAR
  2
AcDbDictionaryVar
  3
ObjectDBX Classes
 90
        0
280
     0
281
     0
  0
CLASS
  1
DIMASSOC
  2
AcDbDimAssoc
  3
"AcDbDimAssoc|Product Desc:     AcDim ARX App For Dimension|Company:          Autodesk, Inc.|WEB Address:      www.autodesk.com"
 90
    32768
280
     0
281
     0
  0
CLASS
  1
MATERIAL
  2
AcDbMaterial
  3
ObjectDBX Classes
 90
     1153
280
     0
281
     0
  0
CLASS
  1
VISUALSTYLE
  2
AcDbVisualStyle
  3
ObjectDBX Classes
 90
     4095
280
     0
281
     0
  0
CLASS
  1
TABLESTYLE
  2
AcDbTableStyle
  3
ObjectDBX Classes
 90
     4095
280
     0
281
     0
  0
CLASS
  1
SCALE
  2
AcDbScale
  3
ObjectDBX Classes
 90
     1153
280
     0
281
     0
  0
CLASS
  1
MLEADERSTYLE
  2
AcDbMLeaderStyle
  3
ACDB_MLEADERSTYLE_CLASS
 90
     4095
280
     0
281
     0
  0
CLASS
  1
CELLSTYLEMAP
  2
AcDbCellStyleMap
  3
ObjectDBX Classes
 90
     1152
280
     0
281
     0
  0
ENDSEC
  0
SECTION
  2
TABLES
  0
TABLE
  2
VPORT
  5
8
330
0
100
AcDbSymbolTable
 70
     1
  0
VPORT
  5
3D26
330
8
100
AcDbSymbolTableRecord
100
AcDbViewportTableRecord
  2
*Active
 70
     0
 10
0.0
 20
0.0
 11
1.0
 21
1.0
 12
696.274026889456
 22
914.4345889127196
 13
0.0
 23
0.0
 14
10.0
 24
10.0
 15
10.0
 25
10.0
 16
0.0
 26
0.0
 36
1.0
 17
0.0
 27
0.0
 37
0.0
 40
1.789198108777213
 41
1.645464025026068
 42
50.0
 43
0.0
 44
0.0
 50
0.0
 51
0.0
 71
     0
 72
   100
 73
     1
 74
     2
 75
     0
 76
     0
 77
     0
 78
     0
281
     0
 65
     1
110
0.0
120
0.0
130
0.0
111
1.0
121
0.0
131
0.0
112
0.0
122
1.0
132
0.0
 79
     0
146
0.0
  0
ENDTAB
  0
TABLE
  2
LTYPE
  5
5
330
0
100
AcDbSymbolTable
 70
     3
  0
LTYPE
  5
14
330
5
100
AcDbSymbolTableRecord
100
AcDbLinetypeTableRecord
  2
ByBlock
 70
     0
  3

 72
    65
 73
     0
 40
0.0
  0
LTYPE
  5
15
330
5
100
AcDbSymbolTableRecord
100
AcDbLinetypeTableRecord
  2
ByLayer
 70
     0
  3

 72
    65
 73
     0
 40
0.0
  0
LTYPE
  5
16
330
5
100
AcDbSymbolTableRecord
100
AcDbLinetypeTableRecord
  2
Continuous
 70
     0
  3
Solid line
 72
    65
 73
     0
 40
0.0
  0
LTYPE
  5
2D
330
5
100
AcDbSymbolTableRecord
100
AcDbLinetypeTableRecord
  2
DASHDOT
 70
     0
  3
Dash dot __ . __ . __ . __ . __ . __ . __ . __
 72
    65
 73
     4
 40
25.4
 49
12.7
 74
     0
 49
-6.349999999999999
 74
     0
 49
0.0
 74
     0
 49
-6.349999999999999
 74
     0
  0
LTYPE
  5
2E
330
5
100
AcDbSymbolTableRecord
100
AcDbLinetypeTableRecord
  2
HIDDEN
 70
     0
  3
Hidden __ __ __ __ __ __ __ __ __ __ __ __ __ _
 72
    65
 73
     2
 40
9.524999999999998
 49
6.349999999999999
 74
     0
 49
-3.174999999999999
 74
     0
  0
ENDTAB
  0
TABLE
  2
LAYER
  5
2
330
0
100
AcDbSymbolTable
 70
    17
  0
LAYER
  5
10
102
{ACAD_XDICTIONARY
360
3D71
102
}
330
2
100
AcDbSymbolTableRecord
100
AcDbLayerTableRecord
  2
0
 70
     0
 62
     7
  6
Continuous
370
    -3
390
F
  0
LAYER
  5
2F
102
{ACAD_XDICTIONARY
360
3D73
102
}
330
2
100
AcDbSymbolTableRecord
100
AcDbLayerTableRecord
  2
1
 70
     0
 62
     1
  6
Continuous
370
    -3
390
F
  0
LAYER
  5
30
102
{ACAD_XDICTIONARY
360
3D75
102
}
330
2
100
AcDbSymbolTableRecord
100
AcDbLayerTableRecord
  2
2
 70
     0
 62
     2
  6
Continuous
370
    -3
390
F
  0
LAYER
  5
31
102
{ACAD_XDICTIONARY
360
3D77
102
}
330
2
100
AcDbSymbolTableRecord
100
AcDbLayerTableRecord
  2
3
 70
     0
 62
     3
  6
Continuous
370
    -3
390
F
  0
LAYER
  5
32
102
{ACAD_XDICTIONARY
360
3D79
102
}
330
2
100
AcDbSymbolTableRecord
100
AcDbLayerTableRecord
  2
4
 70
     0
 62
     4
  6
Continuous
370
    -3
390
F
  0
LAYER
  5
33
102
{ACAD_XDICTIONARY
360
3D7B
102
}
330
2
100
AcDbSymbolTableRecord
100
AcDbLayerTableRecord
  2
5
 70
     0
 62
     5
  6
Continuous
370
    -3
390
F
  0
LAYER
  5
34
102
{ACAD_XDICTIONARY
360
3D7D
102
}
330
2
100
AcDbSymbolTableRecord
100
AcDbLayerTableRecord
  2
6
 70
     0
 62
     6
  6
Continuous
370
    -3
390
F
  0
LAYER
  5
35
102
{ACAD_XDICTIONARY
360
3D7F
102
}
330
2
100
AcDbSymbolTableRecord
100
AcDbLayerTableRecord
  2
7
 70
     0
 62
     7
  6
Continuous
370
    -3
390
F
  0
LAYER
  5
36
102
{ACAD_XDICTIONARY
360
3D81
102
}
330
2
100
AcDbSymbolTableRecord
100
AcDbLayerTableRecord
  2
cen
 70
     0
 62
     7
  6
DASHDOT
370
    -3
390
F
  0
LAYER
  5
37
102
{ACAD_XDICTIONARY
360
3D83
102
}
330
2
100
AcDbSymbolTableRecord
100
AcDbLayerTableRecord
  2
hid
 70
     0
 62
     7
  6
HIDDEN
370
    -3
390
F
  0
LAYER
  5
5D6
102
{ACAD_XDICTIONARY
360
3D85
102
}
330
2
100
AcDbSymbolTableRecord
100
AcDbLayerTableRecord
  2
hatch
 70
     0
 62
     9
  6
Continuous
370
    -3
390
F
  0
LAYER
  5
8AF
102
{ACAD_XDICTIONARY
360
3D87
102
}
330
2
100
AcDbSymbolTableRecord
100
AcDbLayerTableRecord
  2
9
 70
     0
 62
     9
  6
Continuous
370
    -3
390
F
  0
LAYER
  5
8F8
102
{ACAD_XDICTIONARY
360
3D89
102
}
330
2
100
AcDbSymbolTableRecord
100
AcDbLayerTableRecord
  2
leg fin
 70
     0
 62
     9
  6
Continuous
370
    -3
390
F
  0
LAYER
  5
91D
102
{ACAD_XDICTIONARY
360
3D8B
102
}
330
2
100
AcDbSymbolTableRecord
100
AcDbLayerTableRecord
  2
cotas
 70
     0
 62
     1
  6
Continuous
370
    -3
390
F
  0
LAYER
  5
92F
330
2
100
AcDbSymbolTableRecord
100
AcDbLayerTableRecord
  2
Defpoints
 70
     0
 62
     7
  6
Continuous
290
     0
370
    -3
390
F
  0
LAYER
  5
D92
102
{ACAD_XDICTIONARY
360
3D8D
102
}
330
2
100
AcDbSymbolTableRecord
100
AcDbLayerTableRecord
  2
indusa
 70
     0
 62
     3
  6
Continuous
370
    -3
390
F
  0
LAYER
  5
1633
102
{ACAD_XDICTIONARY
360
3D8F
102
}
330
2
100
AcDbSymbolTableRecord
100
AcDbLayerTableRecord
  2
SANINDUSA
 70
     0
 62
     3
  6
Continuous
370
    -3
390
F
  0
ENDTAB
  0
TABLE
  2
STYLE
  5
3
330
0
100
AcDbSymbolTable
 70
     3
  0
STYLE
  5
11
330
3
100
AcDbSymbolTableRecord
100
AcDbTextStyleTableRecord
  2
Standard
 70
     0
 40
0.0
 41
1.0
 50
0.0
 71
     0
 42
2.5
  3
Avgardn.ttf
  4

1001
ACAD
1000
AvantGarde Bk BT
1071
       34
  0
STYLE
  5
2C
330
3
100
AcDbSymbolTableRecord
100
AcDbTextStyleTableRecord
  2

 70
     1
 40
0.0
 41
1.0
 50
0.0
 71
     0
 42
2.5
  3
ltypeshp.shx
  4

  0
STYLE
  5
91F
330
3
100
AcDbSymbolTableRecord
100
AcDbTextStyleTableRecord
  2
SANINDUSA
 70
     0
 40
0.0
 41
1.0
 50
0.0
 71
     0
 42
2.5
  3
verdana.TTF
  4

1001
ACAD
1000
Verdana
1071
       34
  0
ENDTAB
  0
TABLE
  2
VIEW
  5
6
330
0
100
AcDbSymbolTable
 70
     0
  0
ENDTAB
  0
TABLE
  2
UCS
  5
7
330
0
100
AcDbSymbolTable
 70
     0
  0
ENDTAB
  0
TABLE
  2
APPID
  5
9
330
0
100
AcDbSymbolTable
 70
     3
  0
APPID
  5
12
330
9
100
AcDbSymbolTableRecord
100
AcDbRegAppTableRecord
  2
ACAD
 70
     0
  0
APPID
  5
3A
330
9
100
AcDbSymbolTableRecord
100
AcDbRegAppTableRecord
  2
DCO15
 70
     0
  0
APPID
  5
3DDB
330
9
100
AcDbSymbolTableRecord
100
AcDbRegAppTableRecord
  2
ACAD_MLEADERVER
 70
     0
  0
ENDTAB
  0
TABLE
  2
DIMSTYLE
  5
A
330
0
100
AcDbSymbolTable
 70
     2
100
AcDbDimStyleTable
 71
     1
340
921
  0
DIMSTYLE
105
45
330
A
100
AcDbSymbolTableRecord
100
AcDbDimStyleTableRecord
  2
STANDARD
 70
     0
289
     0
340
11
  0
DIMSTYLE
105
921
330
A
100
AcDbSymbolTableRecord
100
AcDbDimStyleTableRecord
  2
SANINDUSA
 70
     0
 41
2.0
 42
1.0
 43
1.0
 44
1.0
 73
     0
 74
     0
 77
     1
 78
     8
140
2.0
141
0.0
143
0.03937007874016
147
1.0
171
     3
172
     1
176
   256
177
   256
178
   256
179
     1
271
     1
272
     1
274
     3
278
    44
283
     0
284
     8
340
91F
371
    -1
372
    -1
  0
ENDTAB
  0
TABLE
  2
BLOCK_RECORD
  5
1
330
0
100
AcDbSymbolTable
 70
    88
  0
BLOCK_RECORD
  5
1F
330
1
100
AcDbSymbolTableRecord
100
AcDbBlockTableRecord
  2
*Model_Space
340
22
  0
BLOCK_RECORD
  5
1B
330
1
100
AcDbSymbolTableRecord
100
AcDbBlockTableRecord
  2
*Paper_Space
340
1E
  0
BLOCK_RECORD
  5
23
330
1
100
AcDbSymbolTableRecord
100
AcDbBlockTableRecord
  2
*Paper_Space0
340
26
  0
BLOCK_RECORD
  5
919
330
1
100
AcDbSymbolTableRecord
100
AcDbBlockTableRecord
  2
_DotSmall
340
0
  0
BLOCK_RECORD
  5
922
330
1
100
AcDbSymbolTableRecord
100
AcDbBlockTableRecord
  2
base para cotas
340
0
310
2800000020000000200000000100080000000000000400000000000000000000000000000000000000000000000080000080000000808000800000008000800080800000C0C0C000C0DCC000F0CAA6000020400000206000002080000020A0000020C0000020E00000400000004020000040400000406000004080000040A0
310
000040C0000040E00000600000006020000060400000606000006080000060A0000060C0000060E00000800000008020000080400000806000008080000080A0000080C0000080E00000A0000000A0200000A0400000A0600000A0800000A0A00000A0C00000A0E00000C0000000C0200000C0400000C0600000C0800000C0
310
A00000C0C00000C0E00000E0000000E0200000E0400000E0600000E0800000E0A00000E0C00000E0E00040000000400020004000400040006000400080004000A0004000C0004000E00040200000402020004020400040206000402080004020A0004020C0004020E000404000004040200040404000404060004040800040
310
40A0004040C0004040E00040600000406020004060400040606000406080004060A0004060C0004060E00040800000408020004080400040806000408080004080A0004080C0004080E00040A0000040A0200040A0400040A0600040A0800040A0A00040A0C00040A0E00040C0000040C0200040C0400040C0600040C08000
310
40C0A00040C0C00040C0E00040E0000040E0200040E0400040E0600040E0800040E0A00040E0C00040E0E00080000000800020008000400080006000800080008000A0008000C0008000E00080200000802020008020400080206000802080008020A0008020C0008020E00080400000804020008040400080406000804080
310
008040A0008040C0008040E00080600000806020008060400080606000806080008060A0008060C0008060E00080800000808020008080400080806000808080008080A0008080C0008080E00080A0000080A0200080A0400080A0600080A0800080A0A00080A0C00080A0E00080C0000080C0200080C0400080C0600080C0
310
800080C0A00080C0C00080C0E00080E0000080E0200080E0400080E0600080E0800080E0A00080E0C00080E0E000C0000000C0002000C0004000C0006000C0008000C000A000C000C000C000E000C0200000C0202000C0204000C0206000C0208000C020A000C020C000C020E000C0400000C0402000C0404000C0406000C0
310
408000C040A000C040C000C040E000C0600000C0602000C0604000C0606000C0608000C060A000C060C000C060E000C0800000C0802000C0804000C0806000C0808000C080A000C080C000C080E000C0A00000C0A02000C0A04000C0A06000C0A08000C0A0A000C0A0C000C0A0E000C0C00000C0C02000C0C04000C0C06000
310
C0C08000C0C0A000F0FBFF00A4A0A000808080000000FF0000FF000000FFFF00FF000000FF00FF00FFFF0000FFFFFF00A4A4A4A4A4A4A4A4A4A4A4A4A4A4A4A4A4A4A4A4A4A4A4A4A4A4A4A4A4A4A4A4A4A4A4A4A4A4A4A4A4A4A4A4A4A4A4A4A4A4A4A4A4A4A4A4A4A4A4A4A4A4A4A4A4A4A4A4A4A4A4A4A4A4A4A4A4A4A4
310
A4A4A4A4A4A4A4A4A4A4A4A4A4A4A4A4A4A4A4A4A4A4A4A4A4A4A4A4A4A4A4A4A4A4A4A4A4A4A4A4A4A4A4A4A4A4A4A4A4A4A4A4A4A4A4A4A4A4A4A4A4A4A4A4A4A4A4A4A4A4A4A4A4A4A4A4A4A4A4A4A4A4A4A4A4A4A4A4A4A4A4A4A4A4A4A4A4A4A4A4A4A4A4A4A4A4A4A4A4A4A4A4A4A4A4A4A4A4A4A4A4A4A4A4A4A4A4
310
A4A4A4A4A4A4A4A4A4A4A4A4A4A4A4A4A4A4A4A4A4A4A4A4A4A4A4A4A4A4A4A4A4A4A4A4A4A4A4A4A4A4A4A4A4A4A4A4A4A4A4A4A4A4A4A4A4A4A4A4A4A4A4A4A4A4A4A4A4A4A4A4A4A4A4A4A4A4A4A4A4A4A4A4A4A4A4A4A4A4A4A4A4A4A4A4A4A4A4A4A4A4A4A4A4A4A4A4A4A4A4A4A4A4A4A4A4A4A4A4A4A4A4A4A4A4A4
310
A4A4A4A4A4A4A4A4A4A4A4A4A4A4A4A4A4A4A4A4A4A4A4A4A4A4A4A4A4A4A4A4A4A4A4A4A4A4A4A4A4A4A4A4A4A4A4A4A4A4A4A4A4A4A4A4A4A4A4A4A4A4A4A4A4A4A4A4A4A4A4A4A4A4A4A4A4A4A4A4A4A4A4A4A4A4A4A4A4A4A4A4A4A4A4A4A4A4A4A4A4A4A4A4A4A4A4A4A4A4A4A4A4A4A4A4F9F9F9F9F9F9F9F9F9F9F9
310
F9F9F9F9F9F9F9F9F9F9F9F9F9F9F9F9F9F9F9A4A4F9F9F9F9F9F9F9F9F9F9F9F9F9F9F9F9F9F9F9F9F9F9F9F9F9F9F9F9F9F9A4A4F9F9F9F9F9F9F9F9F9F9F9F9F9F9F9F9F9F9F9F9F9F9F9F9F9F9F9F9F9F9A4A4F9A4A4A4A4A4A4A4A4A4A4A4A4A4A4A4A4A4A4A4A4A4A4A4A4A4A4A4A4F9A4A4A4A4A4A4A4A4A4A4A4A4
310
A4A4A4A4A4A4A4A4A4A4A4A4A4A4A4A4A4A4A4A4A4A4A4A4A4A4A4A4A4A4A4A4A4A4A4A4A4A4A4A4A4A4A4A4A4A4A4A4A4A4A4A4A4A4A4A4A4A4A4A4A4A4A4A4A4A4A4A4A4A4A4A4A4A4A4A4A4A4A4A4A4A4A4A4A4A4A4A4A4A4A4A4A4A4A4A4A4A4A4A4A4A4A4A4A4A4A4A4A4A4A4A4A4A4A4A4A4A4A4A4A4A4A4A4A4A4A4
310
A4A4A4A4A4A4A4A4A4A4A4A4A4A4A4A4A4A4A4A4A4A4A4A4A4A4A4A4A4A4A4A4A4A4A4A4A4A4A4A4A4A4A4A4A4A4A4A4A4A4A4A4A4A4A4A4A4A4A4A4A4A4A4A4A4A4A4A4A4A4A4A4A4A4A4A4A4A4A4A4A4A4A4A4A4A4A4A4A4A4A4A4A4A4A4A4A4A4A4A4A4A4A4A4A4A4A4A4A4A4A4A4A4A4A4A4A4A4A4A4A4A4A4A4A4A4A4
310
A4A4A4A4A4A4A4A4A4A4A4A4A4A4A4A4A4A4A4A4A4A4A4A4A4A4A4A4A4A4A4A4A4A4A4A4A4A4A4A4A4A4A4A4A4A4A4A4A4A4A4A4A4A4A4A4A4A4A4A4A4A4A4A4A4A4A4A4A4A4A4A4A4A4A4A4A4A4A4A4A4A4A4A4A4A4A4A4A4A4A4A4A4A4A4A4A4A4A4A4A4A4A4A4A4A4A4A4A4A4A4A4A4A4A4A4A4A4A4A4A4A4A4A4A4A4A4
310
A4A4A4A4A4A4A4A4A4A4A4A4A4A4A4A4A4A4A4A4A4A4A4A4A4A4A4A4A4A4A4A4A4A4A4A4A4A4A4A4A4A4A4A4A4A4A4A4A4A4A4A4A4A4A4A4
1001
ACAD
1000
DesignCenter Data
1002
{
1070
     1
1070
     4
1002
}
  0
BLOCK_RECORD
  5
AA8
330
1
100
AcDbSymbolTableRecord
100
AcDbBlockTableRecord
  2
_CLOSED
340
0
  0
ENDTAB
  0
ENDSEC
  0
SECTION
  2
BLOCKS
  0
BLOCK
  5
20
330
1F
100
AcDbEntity
  8
0
100
AcDbBlockBegin
  2
*Model_Space
 70
     0
 10
0.0
 20
0.0
 30
0.0
  3
*Model_Space
  1

  0
ENDBLK
  5
21
330
1F
100
AcDbEntity
  8
0
100
AcDbBlockEnd
  0
BLOCK
  5
1C
330
1B
100
AcDbEntity
 67
     1
  8
0
100
AcDbBlockBegin
  2
*Paper_Space
 70
     0
 10
0.0
 20
0.0
 30
0.0
  3
*Paper_Space
  1

  0
ENDBLK
  5
1D
330
1B
100
AcDbEntity
 67
     1
  8
0
100
AcDbBlockEnd
  0
BLOCK
  5
24
330
23
100
AcDbEntity
 67
     1
  8
0
100
AcDbBlockBegin
  2
*Paper_Space0
 70
     0
 10
0.0
 20
0.0
 30
0.0
  3
*Paper_Space0
  1

  0
ENDBLK
  5
25
330
23
100
AcDbEntity
 67
     1
  8
0
100
AcDbBlockEnd
  0
BLOCK
  5
91B
330
919
100
AcDbEntity
  8
0
100
AcDbBlockBegin
  2
_DotSmall
 70
     0
 10
0.0
 20
0.0
 30
0.0
  3
_DotSmall
  1

  0
LWPOLYLINE
  5
91A
330
919
100
AcDbEntity
  8
0
  6
ByBlock
 62
     0
100
AcDbPolyline
 90
        2
 70
     1
 43
0.5
 10
-0.0625
 20
0.0
 42
1.0
 10
0.0625
 20
0.0
 42
1.0
  0
ENDBLK
  5
91C
330
919
100
AcDbEntity
  8
0
100
AcDbBlockEnd
  0
BLOCK
  5
92A
330
922
100
AcDbEntity
  8
0
100
AcDbBlockBegin
  2
base para cotas
 70
     0
 10
0.0
 20
0.0
 30
0.0
  3
base para cotas
  1

  0
LINE
  5
B36
330
922
100
AcDbEntity
  8
cotas
100
AcDbLine
 10
0.0
 20
-30.0
 30
0.0
 11
327.1260136525398
 21
-30.0
 31
0.0
  0
LINE
  5
B37
330
922
100
AcDbEntity
  8
cotas
100
AcDbLine
 10
0.0
 20
-25.0
 30
0.0
 11
327.1260136525398
 21
-25.0
 31
0.0
  0
LINE
  5
B38
330
922
100
AcDbEntity
  8
cotas
100
AcDbLine
 10
0.0
 20
-20.0
 30
0.0
 11
327.1260136525398
 21
-20.0
 31
0.0
  0
LINE
  5
B39
330
922
100
AcDbEntity
  8
cotas
100
AcDbLine
 10
0.0
 20
-15.0
 30
0.0
 11
327.1260136525398
 21
-15.0
 31
0.0
  0
LINE
  5
B3A
330
922
100
AcDbEntity
  8
cotas
100
AcDbLine
 10
0.0
 20
-10.0
 30
0.0
 11
327.1260136525398
 21
-10.0
 31
0.0
  0
LINE
  5
B3B
330
922
100
AcDbEntity
  8
cotas
100
AcDbLine
 10
0.0
 20
0.0
 30
0.0
 11
0.0
 21
-30.0
 31
0.0
  0
LINE
  5
B3C
330
922
100
AcDbEntity
  8
cotas
100
AcDbLine
 10
327.1260136525398
 20
-30.0
 30
0.0
 11
327.1260136525398
 21
0.0
 31
0.0
  0
ENDBLK
  5
92B
330
922
100
AcDbEntity
  8
0
100
AcDbBlockEnd
  0
BLOCK
  5
AAD
330
AA8
100
AcDbEntity
  8
0
100
AcDbBlockBegin
  2
_CLOSED
 70
     0
 10
0.0
 20
0.0
 30
0.0
  3
_CLOSED
  1

  0
LINE
  5
AA9
330
AA8
100
AcDbEntity
  8
0
100
AcDbLine
 10
-1.0
 20
0.166667
 30
0.0
 11
0.0
 21
0.0
 31
0.0
  0
LINE
  5
AAA
330
AA8
100
AcDbEntity
  8
0
100
AcDbLine
 10
0.0
 20
0.0
 30
0.0
 11
-1.0
 21
-0.166667
 31
0.0
  0
LINE
  5
AAB
330
AA8
100
AcDbEntity
  8
0
100
AcDbLine
 10
-1.0
 20
0.166667
 30
0.0
 11
-1.0
 21
-0.166667
 31
0.0
  0
LINE
  5
AAC
330
AA8
100
AcDbEntity
  8
0
100
AcDbLine
 10
0.0
 20
0.0
 30
0.0
 11
-1.0
 21
0.0
 31
0.0
  0
ENDBLK
  5
AAE
330
AA8
100
AcDbEntity
  8
0
100
AcDbBlockEnd
  0
ENDSEC
  0
SECTION
  2
ENTITIES
  0
LINE
  5
FFC
330
1F
100
AcDbEntity
  8
SANINDUSA
100
AcDbLine
 10
695.9866529022105
 20
914.7112430953852
 30
0.0
 11
695.6534361083189
 21
914.7112430953852
 31
0.0
  0
LINE
  5
FFE
330
1F
100
AcDbEntity
  8
SANINDUSA
100
AcDbLine
 10
695.6556112792436
 20
914.6662430953851
 30
0.0
 11
695.9840499584957
 21
914.6662430953851
 31
0.0
  0
LINE
  5
1000
330
1F
100
AcDbEntity
  8
SANINDUSA
100
AcDbLine
 10
695.7249885541154
 20
914.3912430953852
 30
0.0
 11
695.8287447238198
 21
914.3912430953852
 31
0.0
  0
LWPOLYLINE
  5
1001
330
1F
100
AcDbEntity
  8
SANINDUSA
100
AcDbPolyline
 90
       16
 70
   128
 43
0.0
 10
695.7234797880523
 20
914.3919302264022
 10
695.711446315226
 20
914.4062438286912
 10
695.6999897841655
 20
914.4210206472225
 10
695.6891206767036
 20
914.4363932027301
 10
695.6789207267433
 20
914.4522176805921
 10
695.6696991319265
 20
914.4679421749609
 10
695.6611362129065
 20
914.4840348200194
 10
695.6531953761865
 20
914.5005839323056
 10
695.6459513374051
 20
914.5174496947765
 10
695.6374462962795
 20
914.5402477417668
 10
695.6302075821514
 20
914.5634984783731
 10
695.6242676389742
 20
914.5870952168406
 10
695.6205902822991
 20
914.6055077855942
 10
695.6177054641122
 20
914.6240783882179
 10
695.6156104892007
 20
914.6427553391987
 10
695.614302662352
 20
914.6614869530234
  0
ARC
  5
1005
330
1F
100
AcDbEntity
  8
SANINDUSA
100
AcDbCircle
 10
695.7249885541154
 20
914.3932430953851
 30
0.0
 40
0.002
100
AcDbArc
 50
221.0285104014751
 51
270.0
  0
LINE
  5
100A
330
1F
100
AcDbEntity
  8
SANINDUSA
100
AcDbLine
 10
695.6055973376894
 20
914.7112430953852
 30
0.0
 11
695.6534361083189
 21
914.7112430953852
 31
0.0
  0
LINE
  5
100C
330
1F
100
AcDbEntity
  8
SANINDUSA
100
AcDbLine
 10
695.6556112792436
 20
914.6662430953851
 30
0.0
 11
695.6086594409129
 21
914.6662430953851
 31
0.0
  0
LINE
  5
1010
330
1F
100
AcDbEntity
  8
SANINDUSA
100
AcDbLine
 10
695.600616364199
 20
914.7058073166714
 30
0.0
 11
695.6036784674223
 21
914.6708073166715
 31
0.0
  0
ARC
  5
1014
330
1F
100
AcDbEntity
  8
SANINDUSA
100
AcDbCircle
 10
695.6086594409129
 20
914.6712430953853
 30
0.0
 40
0.005
100
AcDbArc
 50
185.000000000012
 51
270.0
  0
ARC
  5
1015
330
1F
100
AcDbEntity
  8
SANINDUSA
100
AcDbCircle
 10
695.6093086125472
 20
914.6612430953851
 30
0.0
 40
0.0050000000000001
100
AcDbArc
 50
2.79551170492648
 51
90.0
  0
ARC
  5
1016
330
1F
100
AcDbEntity
  8
SANINDUSA
100
AcDbCircle
 10
695.6055973376894
 20
914.7062430953852
 30
0.0
 40
0.0050000000000001
100
AcDbArc
 50
90.0
 51
184.9999999999997
  0
LWPOLYLINE
  5
1017
330
1F
100
AcDbEntity
  8
SANINDUSA
100
AcDbPolyline
 90
       23
 70
   128
 43
0.0
 10
695.9768393014004
 20
914.6615116574457
 10
695.9749801950748
 20
914.6407248053765
 10
695.9721502544351
 20
914.620101682944
 10
695.9683827179779
 20
914.5996410013912
 10
695.9636580491605
 20
914.5793442992278
 10
695.9579678928276
 20
914.559240147647
 10
695.9513454151086
 20
914.5395227867908
 10
695.9437882832865
 20
914.5202373858115
 10
695.9352614831478
 20
914.5014012956258
 10
695.9277087390149
 20
914.4866721758655
 10
695.919449306292
 20
914.472272381093
 10
695.9104177706754
 20
914.4582366817342
 10
695.9006192995608
 20
914.4447635278154
 10
695.8900056812626
 20
914.4320321543201
 10
695.8829145156927
 20
914.4244919266022
 10
695.8754169545541
 20
914.417310636281
 10
695.8674411589892
 20
914.4105861426881
 10
695.8590158209515
 20
914.4045474643201
 10
695.8531058123639
 20
914.400988398
 10
695.8469168476366
 20
914.3978661410613
 10
695.8404439362681
 20
914.3952520152694
 10
695.8346425224308
 20
914.3934645369855
 10
695.8244383455924
 20
914.3912430953852
  0
LINE
  5
1018
330
1F
100
AcDbEntity
  8
SANINDUSA
100
AcDbLine
 10
696.1550445052647
 20
914.3932430953851
 30
0.0
 11
696.1550445052647
 21
914.7062430953852
 31
0.0
  0
LINE
  5
101C
330
1F
100
AcDbEntity
  8
SANINDUSA
100
AcDbLine
 10
695.8371264689422
 20
914.3912430953852
 30
0.0
 11
696.1530445052646
 21
914.3912430953852
 31
0.0
  0
LINE
  5
101D
330
1F
100
AcDbEntity
  8
SANINDUSA
100
AcDbLine
 10
695.8287447351969
 20
914.3912430953852
 30
0.0
 11
695.8371264689264
 21
914.3912430953852
 31
0.0
  0
ARC
  5
101F
330
1F
100
AcDbEntity
  8
SANINDUSA
100
AcDbCircle
 10
696.1530445052646
 20
914.3932430953851
 30
0.0
 40
0.0020000000000002
100
AcDbArc
 50
270.0
 51
0.0
  0
LINE
  5
1022
330
1F
100
AcDbEntity
  8
SANINDUSA
100
AcDbLine
 10
696.0802989275298
 20
914.6717430953852
 30
0.0
 11
696.1200445052647
 21
914.6717430953852
 31
0.0
  0
LINE
  5
1025
330
1F
100
AcDbEntity
  8
SANINDUSA
100
AcDbLine
 10
696.1200445052647
 20
914.5967430953852
 30
0.0
 11
696.0802989275298
 21
914.5967430953852
 31
0.0
  0
LINE
  5
1028
330
1F
100
AcDbEntity
  8
SANINDUSA
100
AcDbLine
 10
696.1230445052647
 20
914.6067430953852
 30
0.0
 11
696.078289670683
 21
914.6067430953852
 31
0.0
  0
LINE
  5
102A
330
1F
100
AcDbEntity
  8
SANINDUSA
100
AcDbLine
 10
696.078289670683
 20
914.6617430953851
 30
0.0
 11
696.1230445052647
 21
914.6617430953851
 31
0.0
  0
LINE
  5
102C
330
1F
100
AcDbEntity
  8
SANINDUSA
100
AcDbLine
 10
696.1530445052647
 20
914.7112430953852
 30
0.0
 11
696.0014564306052
 21
914.7112430953852
 31
0.0
  0
LINE
  5
102F
330
1F
100
AcDbEntity
  8
SANINDUSA
100
AcDbLine
 10
695.9965905206359
 20
914.7058073166714
 30
0.0
 11
695.9928718019104
 21
914.6708073166715
 31
0.0
  0
LWPOLYLINE
  5
1030
330
1F
100
AcDbEntity
  8
SANINDUSA
100
AcDbPolyline
 90
        9
 70
   128
 43
0.0
 10
695.9804247910081
 20
914.6662430953851
 10
695.9797479572142
 20
914.6661534634867
 10
695.9790953897794
 20
914.665887781342
 10
695.9784904850471
 20
914.6654555743891
 10
695.977954930521
 20
914.66487233844
 10
695.9775079273087
 20
914.6641589841129
 10
695.9771655017089
 20
914.6633410871286
 10
695.9769399306241
 20
914.6624479713512
 10
695.9768393014004
 20
914.6615116574457
  0
LWPOLYLINE
  5
1038
330
1F
100
AcDbEntity
  8
SANINDUSA
100
AcDbPolyline
 90
        7
 70
   128
 43
0.0
 10
695.9928718018717
 20
914.6708073166715
 10
695.9924259530315
 20
914.669591248494
 10
695.9922916519827
 20
914.6693817617254
 10
695.9911038885487
 20
914.6681767643766
 10
695.9893240118536
 20
914.6671898044603
 10
695.9867881826623
 20
914.6664737894688
 10
695.9847462838927
 20
914.6662574084842
  0
LINE
  5
103E
330
1F
100
AcDbEntity
  8
SANINDUSA
100
AcDbLine
 10
696.0753136497889
 20
914.6017430953852
 30
0.0
 11
696.0753136497889
 21
914.6667430953852
 31
0.0
  0
LWPOLYLINE
  5
103F
330
1F
100
AcDbEntity
  8
SANINDUSA
100
AcDbPolyline
 90
       27
 70
   128
 43
0.0
 10
696.0791756270161
 20
914.6597430953852
 10
696.0796081768377
 20
914.6595571716746
 10
696.0800344191088
 20
914.6590021117296
 10
696.0804481382574
 20
914.6580860095737
 10
696.0808433013267
 20
914.6568222240393
 10
696.0812141459491
 20
914.6552291839654
 10
696.0815552643753
 20
914.6533301194635
 10
696.0818616823303
 20
914.6511527231703
 10
696.0821289315503
 20
914.6487287464267
 10
696.0823531149399
 20
914.6460935362723
 10
696.0825309634006
 20
914.6432855200048
 10
696.0826598835011
 20
914.6403456448245
 10
696.0827379952964
 20
914.6373167807318
 10
696.0827641597402
 20
914.6342430953852
 10
696.0827379952964
 20
914.6311694100388
 10
696.0826598835011
 20
914.6281405459459
 10
696.0825309634006
 20
914.6252006707657
 10
696.0823531149399
 20
914.622392654498
 10
696.0821289315503
 20
914.6197574443435
 10
696.0818616823303
 20
914.6173334676001
 10
696.0815552643753
 20
914.6151560713068
 10
696.0812141459491
 20
914.6132570068049
 10
696.0808433013267
 20
914.611663966731
 10
696.0804481382574
 20
914.6104001811966
 10
696.0800344191088
 20
914.6094840790409
 10
696.0796081768377
 20
914.6089290190957
 10
696.0791756270161
 20
914.6087430953851
  0
LWPOLYLINE
  5
1044
330
1F
100
AcDbEntity
  8
SANINDUSA
100
AcDbPolyline
 90
        9
 70
   128
 43
0.0
 10
696.0802989275298
 20
914.5967430953852
 10
696.07932634809
 20
914.5968391689832
 10
696.0783911443327
 20
914.5971236977228
 10
696.0775292556136
 20
914.5975857473237
 10
696.0767738038331
 20
914.5982075614792
 10
696.0761538205794
 20
914.5989652442201
 10
696.0756931314611
 20
914.5998296782234
 10
696.0754094405029
 20
914.6007676437751
 10
696.0753136497889
 20
914.6017430953852
  0
LWPOLYLINE
  5
1047
330
1F
100
AcDbEntity
  8
SANINDUSA
100
AcDbPolyline
 90
       10
 70
   128
 43
0.0
 10
696.0757514309339
 20
914.6017430953852
 10
696.0758268727822
 20
914.6008748544968
 10
696.076050906065
 20
914.6000329946685
 10
696.076416723644
 20
914.5992430953851
 10
696.0769132103377
 20
914.5985291573367
 10
696.0775252806487
 20
914.5979128731696
 10
696.0782343371304
 20
914.5974129683663
 10
696.0790188354605
 20
914.5970446322813
 10
696.0798549390544
 20
914.5968190566202
 10
696.080717243327
 20
914.5967430953852
  0
LINE
  5
1048
330
1F
100
AcDbEntity
  8
SANINDUSA
100
AcDbLine
 10
696.0791756270161
 20
914.6087430953851
 30
0.0
 11
696.0763091853301
 21
914.6087430953851
 31
0.0
  0
LWPOLYLINE
  5
1049
330
1F
100
AcDbEntity
  8
SANINDUSA
100
AcDbPolyline
 90
        9
 70
   128
 43
0.0
 10
696.0763091853301
 20
914.6087430953851
 10
696.0762003728453
 20
914.6086662365069
 10
696.0760957419632
 20
914.6084386135154
 10
696.0759993135901
 20
914.6080689738344
 10
696.0759147934143
 20
914.60757152251
 10
696.0758454294984
 20
914.6069653763174
 10
696.0757938874592
 20
914.6062738291147
 10
696.0757621480281
 20
914.6055234566732
 10
696.0757514309339
 20
914.6047430953853
  0
LINE
  5
104A
330
1F
100
AcDbEntity
  8
SANINDUSA
100
AcDbLine
 10
696.0757514309339
 20
914.6047430953851
 30
0.0
 11
696.0757514309339
 21
914.6017430953852
 31
0.0
  0
LWPOLYLINE
  5
1050
330
1F
100
AcDbEntity
  8
SANINDUSA
100
AcDbPolyline
 90
        9
 70
   128
 43
0.0
 10
696.078289670683
 20
914.6067430953852
 10
696.0779032971578
 20
914.6067815248244
 10
696.0775317717505
 20
914.6068953363203
 10
696.077189371974
 20
914.6070801561606
 10
696.07688925606
 20
914.6073288818229
 10
696.0766429572944
 20
914.6076319549191
 10
696.0764599408009
 20
914.6079777285205
 10
696.0763472398008
 20
914.6083529147412
 10
696.0763091853301
 20
914.6087430953851
  0
LWPOLYLINE
  5
1054
330
1F
100
AcDbEntity
  8
SANINDUSA
100
AcDbPolyline
 90
       10
 70
   128
 43
0.0
 10
696.0753136497889
 20
914.6667430953852
 10
696.0753893873596
 20
914.6676113362735
 10
696.0756142988241
 20
914.6684531961017
 10
696.0759815503613
 20
914.6692430953851
 10
696.0764799832189
 20
914.6699570334336
 10
696.0770944527671
 20
914.6705733176009
 10
696.0778062886594
 20
914.6710732224041
 10
696.0785938621223
 20
914.6714415584892
 10
696.0794332431349
 20
914.6716671341502
 10
696.0802989275298
 20
914.6717430953852
  0
LWPOLYLINE
  5
1057
330
1F
100
AcDbEntity
  8
SANINDUSA
100
AcDbPolyline
 90
       10
 70
   128
 43
0.0
 10
696.080717243327
 20
914.6717430953852
 10
696.0798549390544
 20
914.6716671341502
 10
696.0790188354605
 20
914.6714415584892
 10
696.0782343371304
 20
914.6710732224041
 10
696.0775252806487
 20
914.6705733176009
 10
696.0769132103377
 20
914.6699570334336
 10
696.076416723644
 20
914.6692430953851
 10
696.076050906065
 20
914.6684531961017
 10
696.0758268727822
 20
914.6676113362735
 10
696.0757514309339
 20
914.6667430953852
  0
LINE
  5
1059
330
1F
100
AcDbEntity
  8
SANINDUSA
100
AcDbLine
 10
696.0757514309339
 20
914.6667430953852
 30
0.0
 11
696.0757514309339
 21
914.6637430953852
 31
0.0
  0
LWPOLYLINE
  5
105A
330
1F
100
AcDbEntity
  8
SANINDUSA
100
AcDbPolyline
 90
       10
 70
   128
 43
0.0
 10
696.0757514309339
 20
914.6637430953852
 10
696.0757599044764
 20
914.6630485026745
 10
696.0757850676396
 20
914.6623750148119
 10
696.0758261558538
 20
914.6617430953851
 10
696.0758819206741
 20
914.6611719449465
 10
696.075950667715
 20
914.6606789176129
 10
696.0760303081319
 20
914.66027899377
 10
696.0761184220915
 20
914.659984324902
 10
696.0762123322957
 20
914.6598038643732
 10
696.0763091853301
 20
914.6597430953852
  0
LINE
  5
105B
330
1F
100
AcDbEntity
  8
SANINDUSA
100
AcDbLine
 10
696.0763091853301
 20
914.6597430953852
 30
0.0
 11
696.0791756270161
 21
914.6597430953852
 31
0.0
  0
LWPOLYLINE
  5
1061
330
1F
100
AcDbEntity
  8
SANINDUSA
100
AcDbPolyline
 90
        9
 70
   128
 43
0.0
 10
696.078289670683
 20
914.6617430953851
 10
696.0779032971578
 20
914.6617046659461
 10
696.0775317717505
 20
914.6615908544502
 10
696.077189371974
 20
914.6614060346099
 10
696.07688925606
 20
914.6611573089476
 10
696.0766429572944
 20
914.6608542358512
 10
696.0764599408009
 20
914.66050846225
 10
696.0763472398008
 20
914.6601332760292
 10
696.0763091853301
 20
914.6597430953852
  0
LWPOLYLINE
  5
1066
330
1F
100
AcDbEntity
  8
SANINDUSA
100
AcDbPolyline
 90
        9
 70
   128
 43
0.0
 10
695.9928649330887
 20
914.7112430953852
 10
695.9936345025464
 20
914.7111360897127
 10
695.9943711326852
 20
914.7108196527808
 10
695.9950432940638
 20
914.7103073288082
 10
695.9956222166499
 20
914.7096210464233
 10
695.9960831212433
 20
914.7087901800693
 10
695.9964062800817
 20
914.7078502927117
 10
695.9965778612334
 20
914.7068416136617
 10
695.9965905206359
 20
914.7058073166716
  0
LINE
  5
1067
330
1F
100
AcDbEntity
  8
SANINDUSA
100
AcDbLine
 10
695.9928649330887
 20
914.7112430953852
 30
0.0
 11
695.9866529022105
 21
914.7112430953852
 31
0.0
  0
LINE
  5
1069
330
1F
100
AcDbEntity
  8
SANINDUSA
100
AcDbLine
 10
696.0014564306052
 20
914.7112430953852
 30
0.0
 11
695.9928649330887
 21
914.7112430953852
 31
0.0
  0
LINE
  5
1074
330
1F
100
AcDbEntity
  8
SANINDUSA
100
AcDbLine
 10
696.1250445052646
 20
914.6667430953852
 30
0.0
 11
696.1250445052646
 21
914.6017430953852
 31
0.0
  0
ARC
  5
107F
330
1F
100
AcDbEntity
  8
SANINDUSA
100
AcDbCircle
 10
696.1200445052647
 20
914.6017430953852
 30
0.0
 40
0.0049999999999997
100
AcDbArc
 50
270.0
 51
0.0
  0
ARC
  5
1084
330
1F
100
AcDbEntity
  8
SANINDUSA
100
AcDbCircle
 10
696.1230445052647
 20
914.6597430953852
 30
0.0
 40
0.0020000000000002
100
AcDbArc
 50
0.0
 51
90.0
  0
ARC
  5
108A
330
1F
100
AcDbEntity
  8
SANINDUSA
100
AcDbCircle
 10
696.1200445052647
 20
914.6667430953852
 30
0.0
 40
0.0050000000000004
100
AcDbArc
 50
0.0
 51
90.0
  0
LINE
  5
108D
330
1F
100
AcDbEntity
  8
SANINDUSA
100
AcDbLine
 10
696.1550445052647
 20
914.7062430953852
 30
0.0
 11
696.1550445052647
 21
914.7092430953852
 31
0.0
  0
ARC
  5
108F
330
1F
100
AcDbEntity
  8
SANINDUSA
100
AcDbCircle
 10
696.1530445052647
 20
914.7092430953852
 30
0.0
 40
0.0020000000000002
100
AcDbArc
 50
0.0
 51
90.0
  0
LINE
  5
1095
330
1F
100
AcDbEntity
  8
SANINDUSA
100
AcDbLine
 10
696.3598600581287
 20
914.7112430953852
 30
0.0
 11
696.4293208832217
 21
914.7112430953852
 31
0.0
  0
LINE
  5
1097
330
1F
100
AcDbEntity
  8
SANINDUSA
100
AcDbLine
 10
696.43147613439
 20
914.6662430953851
 30
0.0
 11
696.3629221613522
 21
914.6662430953851
 31
0.0
  0
LWPOLYLINE
  5
1099
330
1F
100
AcDbEntity
  8
SANINDUSA
100
AcDbPolyline
 90
       13
 70
   128
 43
0.0
 10
696.3684882806968
 20
914.6614004458887
 10
696.3696601757212
 20
914.6388690952267
 10
696.3720349782642
 20
914.6145977036004
 10
696.3755297264738
 20
914.5904910751324
 10
696.3801308224798
 20
914.5666089151927
 10
696.3858212488162
 20
914.5430062968376
 10
696.3925784273615
 20
914.5197427474467
 10
696.4003753945229
 20
914.4968737042002
 10
696.4091770471299
 20
914.4744589828196
 10
696.418941119419
 20
914.4525555051355
 10
696.4296107424661
 20
914.4312247586585
 10
696.4411131709578
 20
914.4105279329544
 10
696.4521646294813
 20
914.3924413664386
  0
LINE
  5
109D
330
1F
100
AcDbEntity
  8
SANINDUSA
100
AcDbLine
 10
696.3548790846383
 20
914.7058073166714
 30
0.0
 11
696.3579411878618
 21
914.6708073166715
 31
0.0
  0
ARC
  5
109F
330
1F
100
AcDbEntity
  8
SANINDUSA
100
AcDbCircle
 10
696.3629221613522
 20
914.6712430953853
 30
0.0
 40
0.0050000000000001
100
AcDbArc
 50
184.9999999999997
 51
270.0
  0
LWPOLYLINE
  5
10A0
330
1F
100
AcDbEntity
  8
SANINDUSA
100
AcDbPolyline
 90
        9
 70
   128
 43
0.0
 10
696.3684882806968
 20
914.6614004458887
 10
696.3683663458284
 20
914.6623515338779
 10
696.3680650992137
 20
914.6632618563158
 10
696.3675956199375
 20
914.6640979338561
 10
696.366975174255
 20
914.6648290176912
 10
696.3662265805817
 20
914.6654282204154
 10
696.3653773702909
 20
914.6658735048751
 10
696.3644587751794
 20
914.666148494639
 10
696.3635045788411
 20
914.6662430762825
  0
ARC
  5
10A1
330
1F
100
AcDbEntity
  8
SANINDUSA
100
AcDbCircle
 10
696.3598600581287
 20
914.7062430953852
 30
0.0
 40
0.0050000000000001
100
AcDbArc
 50
90.0
 51
184.9999999999997
  0
LWPOLYLINE
  5
10A5
330
1F
100
AcDbEntity
  8
SANINDUSA
100
AcDbPolyline
 90
       13
 70
   128
 43
0.0
 10
696.6389741752386
 20
914.3924413664386
 10
696.6500256337621
 20
914.4105279329544
 10
696.6615280622537
 20
914.4312247586585
 10
696.6721976853008
 20
914.4525555051355
 10
696.68196175759
 20
914.4744589828196
 10
696.690763410197
 20
914.4968737042002
 10
696.6985603773584
 20
914.5197427474467
 10
696.7053175559036
 20
914.5430062968376
 10
696.7110079822401
 20
914.5666089151927
 10
696.715609078246
 20
914.5904910751324
 10
696.7191038264557
 20
914.6145977036004
 10
696.7214786289987
 20
914.6388690952267
 10
696.722614891519
 20
914.6613990037655
  0
LINE
  5
10AF
330
1F
100
AcDbEntity
  8
SANINDUSA
100
AcDbLine
 10
696.5455694023599
 20
914.3912430953852
 30
0.0
 11
696.6371454225253
 21
914.3912430953852
 31
0.0
  0
LINE
  5
10B0
330
1F
100
AcDbEntity
  8
SANINDUSA
100
AcDbLine
 10
696.4183020290238
 20
914.4539891592295
 30
0.0
 11
696.4183020290238
 21
914.3932430953851
 31
0.0
  0
LINE
  5
10B2
330
1F
100
AcDbEntity
  8
SANINDUSA
100
AcDbLine
 10
696.5455694023599
 20
914.3912430953852
 30
0.0
 11
696.4539933821945
 21
914.3912430953852
 31
0.0
  0
LINE
  5
10B4
330
1F
100
AcDbEntity
  8
SANINDUSA
100
AcDbLine
 10
696.4535535978897
 20
914.3912430953852
 30
0.0
 11
696.4202910346635
 21
914.3912430953852
 31
0.0
  0
LWPOLYLINE
  5
10B5
330
1F
100
AcDbEntity
  8
SANINDUSA
100
AcDbPolyline
 90
        9
 70
   128
 43
0.0
 10
696.4183020290237
 20
914.3932430953853
 10
696.4183402472094
 20
914.3928529147412
 10
696.4184534330629
 20
914.3924777285205
 10
696.4186372369153
 20
914.3921319549193
 10
696.4188845952878
 20
914.3918288818229
 10
696.4191860023368
 20
914.3915801561606
 10
696.4195298751583
 20
914.3913953363203
 10
696.4199029989128
 20
914.3912815248244
 10
696.4202910346635
 20
914.3912430953852
  0
LINE
  5
10B6
330
1F
100
AcDbEntity
  8
SANINDUSA
100
AcDbLine
 10
696.4521585152109
 20
914.3924376387769
 30
0.0
 11
696.4523035786332
 21
914.3921751633184
 31
0.0
  0
ARC
  5
10B7
330
1F
100
AcDbEntity
  8
SANINDUSA
100
AcDbCircle
 10
696.4539934022225
 20
914.3932429456393
 30
0.0
 40
0.001999850254162
100
AcDbArc
 50
212.260462142971
 51
269.9994261978255
  0
LINE
  5
10B8
330
1F
100
AcDbEntity
  8
SANINDUSA
100
AcDbLine
 10
696.4539944188994
 20
914.3912430953852
 30
0.0
 11
696.4535535977407
 21
914.3912430953852
 31
0.0
  0
LINE
  5
10B9
330
1F
100
AcDbEntity
  8
SANINDUSA
100
AcDbLine
 10
696.6728367756961
 20
914.4539891592295
 30
0.0
 11
696.6728367756961
 21
914.3932430953851
 31
0.0
  0
LINE
  5
10BB
330
1F
100
AcDbEntity
  8
SANINDUSA
100
AcDbLine
 10
696.6375852068302
 20
914.3912430953852
 30
0.0
 11
696.6708477700564
 21
914.3912430953852
 31
0.0
  0
LINE
  5
10BC
330
1F
100
AcDbEntity
  8
SANINDUSA
100
AcDbLine
 10
696.638980289509
 20
914.3924376387769
 30
0.0
 11
696.6388352260866
 21
914.3921751633184
 31
0.0
  0
ARC
  5
10BD
330
1F
100
AcDbEntity
  8
SANINDUSA
100
AcDbCircle
 10
696.6371443658429
 20
914.3932429455334
 30
0.0
 40
0.0019998501586918
100
AcDbArc
 50
270.0302739893228
 51
327.7444265355502
  0
LINE
  5
10BE
330
1F
100
AcDbEntity
  8
SANINDUSA
100
AcDbLine
 10
696.6371443858205
 20
914.3912430953852
 30
0.0
 11
696.6375852069792
 21
914.3912430953852
 31
0.0
  0
LWPOLYLINE
  5
10BF
330
1F
100
AcDbEntity
  8
SANINDUSA
100
AcDbPolyline
 90
        9
 70
   128
 43
0.0
 10
696.6728367756961
 20
914.3932430953853
 10
696.6727985575105
 20
914.3928529147412
 10
696.672685371657
 20
914.3924777285205
 10
696.6725015678044
 20
914.3921319549193
 10
696.672254209432
 20
914.3918288818229
 10
696.6719528023831
 20
914.3915801561606
 10
696.6716089295616
 20
914.3913953363203
 10
696.6712358058071
 20
914.3912815248244
 10
696.6708477700564
 20
914.3912430953852
  0
LINE
  5
10C5
330
1F
100
AcDbEntity
  8
SANINDUSA
100
AcDbLine
 10
696.731278746591
 20
914.7112430953852
 30
0.0
 11
696.6618179214982
 21
914.7112430953852
 31
0.0
  0
LINE
  5
10C7
330
1F
100
AcDbEntity
  8
SANINDUSA
100
AcDbLine
 10
696.6596626703298
 20
914.6662430953851
 30
0.0
 11
696.7282166433676
 21
914.6662430953851
 31
0.0
  0
LINE
  5
10C8
330
1F
100
AcDbEntity
  8
SANINDUSA
100
AcDbLine
 10
696.4293208832217
 20
914.7112430953852
 30
0.0
 11
696.6618179214982
 21
914.7112430953852
 31
0.0
  0
LINE
  5
10CB
330
1F
100
AcDbEntity
  8
SANINDUSA
100
AcDbLine
 10
696.6596626703298
 20
914.6662430953851
 30
0.0
 11
696.43147613439
 21
914.6662430953851
 31
0.0
  0
LINE
  5
10D1
330
1F
100
AcDbEntity
  8
SANINDUSA
100
AcDbLine
 10
696.7331976168582
 20
914.6708073166715
 30
0.0
 11
696.7362597200815
 21
914.7058073166714
 31
0.0
  0
LWPOLYLINE
  5
10D2
330
1F
100
AcDbEntity
  8
SANINDUSA
100
AcDbPolyline
 90
        9
 70
   128
 43
0.0
 10
696.7276342258787
 20
914.6662430762825
 10
696.7266779192244
 20
914.6661480777234
 10
696.7257574509292
 20
914.6658718798402
 10
696.7249068248325
 20
914.6654246859048
 10
696.7241574646712
 20
914.6648230161069
 10
696.7235370532271
 20
914.6640890972671
 10
696.7230685096721
 20
914.663250041735
 10
696.7227691428913
 20
914.662336845809
 10
696.7226500120599
 20
914.6613832446737
  0
ARC
  5
10D3
330
1F
100
AcDbEntity
  8
SANINDUSA
100
AcDbCircle
 10
696.7282166433676
 20
914.6712430953853
 30
0.0
 40
0.0050000000000001
100
AcDbArc
 50
270.0
 51
355.0000000000003
  0
ARC
  5
10D4
330
1F
100
AcDbEntity
  8
SANINDUSA
100
AcDbCircle
 10
696.731278746591
 20
914.7062430953852
 30
0.0
 40
0.0050000000000001
100
AcDbArc
 50
355.0000000000003
 51
90.0
  0
LINE
  5
10D9
330
1F
100
AcDbEntity
  8
SANINDUSA
100
AcDbLine
 10
697.029180441519
 20
914.6757542469092
 30
0.0
 11
696.93187858974
 21
914.6723563913722
 31
0.0
  0
LWPOLYLINE
  5
10DB
330
1F
100
AcDbEntity
  8
SANINDUSA
100
AcDbPolyline
 90
        5
 70
   128
 43
0.0
 10
697.0536937569506
 20
914.5955199321793
 10
697.0439596300586
 20
914.5956118310621
 10
697.0040419438966
 20
914.5961208532142
 10
696.9669951597471
 20
914.5967121507583
 10
696.93187858974
 20
914.5973795673537
  0
LINE
  5
10E7
330
1F
100
AcDbEntity
  8
SANINDUSA
100
AcDbLine
 10
696.9019483887334
 20
914.6992889872677
 30
0.0
 11
696.9814483887334
 21
914.6992889872677
 31
0.0
  0
LINE
  5
10E8
330
1F
100
AcDbEntity
  8
SANINDUSA
100
AcDbLine
 10
696.9814483887334
 20
914.7112889872678
 30
0.0
 11
696.9019483887334
 21
914.7112889872678
 31
0.0
  0
LINE
  5
10EA
330
1F
100
AcDbEntity
  8
SANINDUSA
100
AcDbLine
 10
696.9897175720019
 20
914.3962409786798
 30
0.0
 11
696.9219478644482
 21
914.396286104043
 31
0.0
  0
LINE
  5
10EB
330
1F
100
AcDbEntity
  8
SANINDUSA
100
AcDbLine
 10
696.9874293800772
 20
914.4135836388118
 30
0.0
 11
696.9216700425315
 21
914.4043417666237
 31
0.0
  0
LINE
  5
10ED
330
1F
100
AcDbEntity
  8
SANINDUSA
100
AcDbLine
 10
696.9019483887334
 20
914.3912889872678
 30
0.0
 11
696.9901872247349
 21
914.3912889872678
 31
0.0
  0
LINE
  5
10F2
330
1F
100
AcDbEntity
  8
SANINDUSA
100
AcDbLine
 10
696.8999483887333
 20
914.7012889872678
 30
0.0
 11
696.8999483887333
 21
914.6942889872677
 31
0.0
  0
LINE
  5
10F4
330
1F
100
AcDbEntity
  8
SANINDUSA
100
AcDbLine
 10
696.8999483887333
 20
914.5969502933155
 30
0.0
 11
696.8999483887334
 21
914.403530860074
 31
0.0
  0
LWPOLYLINE
  5
10F8
330
1F
100
AcDbEntity
  8
SANINDUSA
100
AcDbPolyline
 90
       10
 70
   128
 43
0.0
 10
696.9025743718056
 20
914.3913953363203
 10
696.9062313494852
 20
914.3922522501073
 10
696.9095196552027
 20
914.3930417698426
 10
696.9124513684836
 20
914.3937621898484
 10
696.9149975982601
 20
914.3944021616682
 10
696.9171950120646
 20
914.3949670900452
 10
696.9189803615602
 20
914.3954372890283
 10
696.9203579936028
 20
914.3958104009922
 10
696.9213104958433
 20
914.3960787950172
 10
696.9219478644482
 20
914.396286104043
  0
LINE
  5
10FB
330
1F
100
AcDbEntity
  8
SANINDUSA
100
AcDbLine
 10
696.9028162200543
 20
914.4016920346754
 30
0.0
 11
696.9216700425315
 21
914.4043417666237
 31
0.0
  0
LWPOLYLINE
  5
1100
330
1F
100
AcDbEntity
  8
SANINDUSA
100
AcDbPolyline
 90
        4
 70
   128
 43
0.0
 10
696.9028162200543
 20
914.4016920346754
 10
696.9024775720518
 20
914.4016753073007
 10
696.9019137139622
 20
914.401805127278
 10
696.9016031874085
 20
914.4019966274536
  0
LINE
  5
1106
330
1F
100
AcDbEntity
  8
SANINDUSA
100
AcDbLine
 10
696.8999483887334
 20
914.403530860074
 30
0.0
 11
696.8999483887334
 21
914.4005005605894
 31
0.0
  0
LINE
  5
1108
330
1F
100
AcDbEntity
  8
SANINDUSA
100
AcDbLine
 10
696.8999483887334
 20
914.4005005605894
 30
0.0
 11
696.8999483887334
 21
914.3932938111998
 31
0.0
  0
ARC
  5
1109
330
1F
100
AcDbEntity
  8
SANINDUSA
100
AcDbCircle
 10
696.9019483887334
 20
914.3932889872678
 30
0.0
 40
0.002
100
AcDbArc
 50
180.0
 51
270.0
  0
ARC
  5
110A
330
1F
100
AcDbEntity
  8
SANINDUSA
100
AcDbCircle
 10
696.9219483913016
 20
914.3982861065417
 30
0.0
 40
0.0020000025681891
100
AcDbArc
 50
180.0
 51
269.9849067823253
  0
LINE
  5
110B
330
1F
100
AcDbEntity
  8
SANINDUSA
100
AcDbLine
 10
696.9199483887335
 20
914.3982861101587
 30
0.0
 11
696.9199483887335
 21
914.4023612304861
 31
0.0
  0
ARC
  5
110C
330
1F
100
AcDbEntity
  8
SANINDUSA
100
AcDbCircle
 10
696.9219483887334
 20
914.4023612304861
 30
0.0
 40
0.0020000000000002
100
AcDbArc
 50
97.99999999998766
 51
180.0
  0
LINE
  5
110E
330
1F
100
AcDbEntity
  8
SANINDUSA
100
AcDbLine
 10
696.9299483887335
 20
914.6703576097181
 30
0.0
 11
696.9299483887335
 21
914.5993175474476
 31
0.0
  0
LINE
  5
1111
330
1F
100
AcDbEntity
  8
SANINDUSA
100
AcDbLine
 10
696.8999483887333
 20
914.6598576097181
 30
0.0
 11
696.8999483887333
 21
914.6088580733886
 31
0.0
  0
LWPOLYLINE
  5
1113
330
1F
100
AcDbEntity
  8
SANINDUSA
100
AcDbPolyline
 90
        3
 70
   128
 43
0.0
 10
696.9280181877268
 20
914.6071184075507
 10
696.9099858314848
 20
914.6074637860378
 10
696.9018785897398
 20
914.6076300512541
  0
LWPOLYLINE
  5
1115
330
1F
100
AcDbEntity
  8
SANINDUSA
100
AcDbPolyline
 90
        9
 70
   128
 43
0.0
 10
696.9018785897398
 20
914.6076300512541
 10
696.9014984866246
 20
914.6076784436885
 10
696.9011349154471
 20
914.6077960840225
 10
696.9008012358606
 20
914.6079786494869
 10
696.9005097091327
 20
914.6082194315983
 10
696.9002710475974
 20
914.6085095826659
 10
696.9000940210242
 20
914.6088384409045
 10
696.8999851343665
 20
914.6091939222106
 10
696.8999483887333
 20
914.609562964198
  0
LINE
  5
1117
330
1F
100
AcDbEntity
  8
SANINDUSA
100
AcDbLine
 10
696.8999483887333
 20
914.6088580733886
 30
0.0
 11
696.8999483887333
 21
914.5969502933155
 31
0.0
  0
LWPOLYLINE
  5
1120
330
1F
100
AcDbEntity
  8
SANINDUSA
100
AcDbPolyline
 90
        9
 70
   128
 43
0.0
 10
696.9299483887335
 20
914.6052115382145
 10
696.9299116431003
 20
914.6055756078181
 10
696.9298027564426
 20
914.6059262994539
 10
696.9296257298694
 20
914.6062507267354
 10
696.929387068334
 20
914.6065369683766
 10
696.9290955416062
 20
914.6067745062474
 10
696.9287618620196
 20
914.6069546118685
 10
696.9283982908421
 20
914.6070706671444
 10
696.9280181877268
 20
914.6071184075507
  0
LWPOLYLINE
  5
1121
330
1F
100
AcDbEntity
  8
SANINDUSA
100
AcDbPolyline
 90
        9
 70
   128
 43
0.0
 10
696.9299483887335
 20
914.5993175474476
 10
696.9299851343666
 20
914.5989475380131
 10
696.9300940210242
 20
914.5985911248095
 10
696.9302710475975
 20
914.5982614044655
 10
696.9305097091328
 20
914.5979704927642
 10
696.9308012358607
 20
914.5977290794402
 10
696.9311349154472
 20
914.5975460353785
 10
696.9314984866248
 20
914.5974280866495
 10
696.93187858974
 20
914.5973795673537
  0
LINE
  5
1123
330
1F
100
AcDbEntity
  8
SANINDUSA
100
AcDbLine
 10
696.9280181877269
 20
914.662769206248
 30
0.0
 11
696.90187858974
 21
914.6618563913722
 31
0.0
  0
ARC
  5
1125
330
1F
100
AcDbEntity
  8
SANINDUSA
100
AcDbCircle
 10
696.9019483887333
 20
914.6598576097181
 30
0.0
 40
0.002
100
AcDbArc
 50
92.00000000000365
 51
180.0
  0
LINE
  5
1128
330
1F
100
AcDbEntity
  8
SANINDUSA
100
AcDbLine
 10
696.8999483887333
 20
914.6718210456903
 30
0.0
 11
696.8999483887333
 21
914.6598576097181
 31
0.0
  0
LINE
  5
112A
330
1F
100
AcDbEntity
  8
SANINDUSA
100
AcDbLine
 10
696.8999483887333
 20
914.6942889872677
 30
0.0
 11
696.8999483887333
 21
914.6718210456903
 31
0.0
  0
ARC
  5
1132
330
1F
100
AcDbEntity
  8
SANINDUSA
100
AcDbCircle
 10
696.9319483887335
 20
914.6703576097181
 30
0.0
 40
0.002
100
AcDbArc
 50
92.00000000000365
 51
180.0
  0
ARC
  5
1133
330
1F
100
AcDbEntity
  8
SANINDUSA
100
AcDbCircle
 10
696.9279483887334
 20
914.6647679879022
 30
0.0
 40
0.002
100
AcDbArc
 50
272.0000000000037
 51
0.0
  0
ARC
  5
1135
330
1F
100
AcDbEntity
  8
SANINDUSA
100
AcDbCircle
 10
696.9019483887334
 20
914.7012889872678
 30
0.0
 40
0.002
100
AcDbArc
 50
180.0
 51
270.0
  0
LINE
  5
1136
330
1F
100
AcDbEntity
  8
SANINDUSA
100
AcDbLine
 10
696.8999483887333
 20
914.7092889872677
 30
0.0
 11
696.8999483887333
 21
914.7012889872678
 31
0.0
  0
ARC
  5
1137
330
1F
100
AcDbEntity
  8
SANINDUSA
100
AcDbCircle
 10
696.9019483887334
 20
914.7092889872677
 30
0.0
 40
0.0020000000000002
100
AcDbArc
 50
90.0
 51
180.0
  0
LWPOLYLINE
  5
113A
330
1F
100
AcDbEntity
  8
SANINDUSA
100
AcDbPolyline
 90
       10
 70
   128
 43
0.0
 10
697.0276464468219
 20
914.6973251300806
 10
697.0285271800469
 20
914.680955264186
 10
697.0305538714263
 20
914.664819524777
 10
697.0336962947976
 20
914.6489696892139
 10
697.037924223999
 20
914.6334575348571
 10
697.0432074328677
 20
914.6183348390671
 10
697.0493942339962
 20
914.6039113788816
 10
697.0565411707959
 20
914.5899625897078
 10
697.0646196076202
 20
914.5765375243559
 10
697.0735231682425
 20
914.56379648281
  0
LWPOLYLINE
  5
113B
330
1F
100
AcDbEntity
  8
SANINDUSA
100
AcDbPolyline
 90
       19
 70
   128
 43
0.0
 10
697.1371473011417
 20
914.5159886543529
 10
697.1217705719383
 20
914.5271470385001
 10
697.1096615282935
 20
914.537322604962
 10
697.1006994490408
 20
914.5458802935475
 10
697.0922187741331
 20
914.5549284429291
 10
697.0842574021228
 20
914.5644243349847
 10
697.0768346897865
 20
914.5743460804547
 10
697.069964412269
 20
914.5846694372107
 10
697.0636770784278
 20
914.5953469173496
 10
697.0579885058084
 20
914.6063547243324
 10
697.0529092538495
 20
914.6176669266397
 10
697.0484622788257
 20
914.6292322280569
 10
697.0447010811751
 20
914.6408843836821
 10
697.0415756373007
 20
914.6527323020796
 10
697.039099790904
 20
914.6647235286039
 10
697.0367137850179
 20
914.6819400016411
 10
697.0357219753132
 20
914.6982282085634
 42
-0.4321404912006967
 10
697.036720126579
 20
914.6992889872677
 10
697.0416822427284
 20
914.6992889872677
  0
LINE
  5
113C
330
1F
100
AcDbEntity
  8
SANINDUSA
100
AcDbLine
 10
697.0426794587336
 20
914.6983635542806
 30
0.0
 11
697.0436277211493
 21
914.685682042416
 31
0.0
  0
LINE
  5
114A
330
1F
100
AcDbEntity
  8
SANINDUSA
100
AcDbLine
 10
697.4513144265757
 20
914.670853208554
 30
0.0
 11
697.4543765297992
 21
914.7058532085539
 31
0.0
  0
LWPOLYLINE
  5
114B
330
1F
100
AcDbEntity
  8
SANINDUSA
100
AcDbPolyline
 90
        3
 70
   128
 43
0.0
 10
697.0536637837478
 20
914.6859001927991
 10
697.0527174947766
 20
914.6973013392889
 10
697.0524318942467
 20
914.7063341582034
  0
LWPOLYLINE
  5
114C
330
1F
100
AcDbEntity
  8
SANINDUSA
100
AcDbPolyline
 90
       36
 70
   128
 43
0.0
 10
697.3309151089554
 20
914.4066206307345
 10
697.3451407701084
 20
914.4245299635446
 10
697.3583803759345
 20
914.4432016524318
 10
697.3706012643912
 20
914.4625368922067
 10
697.382067903266
 20
914.4830347912611
 10
697.3924073724805
 20
914.5041432784017
 10
697.401573294247
 20
914.5257681016909
 10
697.4081755947156
 20
914.5437952251267
 10
697.4139723620019
 20
914.5621173847953
 10
697.4189479660174
 20
914.5806794124537
 10
697.4230867766737
 20
914.5994261398588
 10
697.4263179694028
 20
914.6184816643682
 10
697.4286505938318
 20
914.6376850498242
 10
697.4302719591598
 20
914.6569746921498
 10
697.4308334181974
 20
914.6668562605031
 42
-0.3976856229573919
 10
697.4408173152859
 20
914.6762889872679
 10
697.4408354660412
 20
914.6762889872679
 42
0.3888787318529743
 10
697.4418316607392
 20
914.677201831525
 10
697.4438439000003
 20
914.700201831525
 42
0.4400105308918509
 10
697.4428477053022
 20
914.7012889872678
 10
697.4282858808918
 20
914.7012889872678
 42
0.3931831874918786
 10
697.4272884957237
 20
914.7003612563917
 10
697.426610864034
 20
914.6910092709264
 10
697.4252273263409
 20
914.6808190127771
 10
697.4232059192886
 20
914.6707598163519
 10
697.4195527956257
 20
914.6576528950353
 10
697.4148129075474
 20
914.6448910247679
 10
697.4090036808946
 20
914.6325372926552
 10
697.4021579748515
 20
914.6206763485791
 10
697.3943205103892
 20
914.6094095172911
 10
697.3855603663261
 20
914.5988484696017
 10
697.3759619386424
 20
914.5890765001491
 10
697.3656056668761
 20
914.5801673524809
 10
697.3545654468311
 20
914.5721801270807
 10
697.3430135347546
 20
914.5652148049347
 10
697.3309151089552
 20
914.5592262301548
  0
LWPOLYLINE
  5
114D
330
1F
100
AcDbEntity
  8
SANINDUSA
100
AcDbPolyline
 90
       23
 70
   128
 43
0.0
 10
697.417479613389
 20
914.7063247205144
 10
697.416762432465
 20
914.6930169640366
 10
697.4149068606338
 20
914.6798862774712
 10
697.4119263448271
 20
914.667006283112
 10
697.4078449521361
 20
914.6544424693361
 10
697.4026805260475
 20
914.6422575274042
 10
697.3964558433107
 20
914.6305230430678
 10
697.3892177400907
 20
914.6193457432485
 10
697.3817406428442
 20
914.6096852204998
 10
697.373522486005
 20
914.6006590388363
 10
697.364633450368
 20
914.592333412026
 10
697.3551379124039
 20
914.5847641168925
 10
697.3450915483108
 20
914.5779913533736
 10
697.3345420175727
 20
914.5720410415457
 10
697.3235349059043
 20
914.5669354088509
 10
697.3121156080281
 20
914.5626978945269
 10
697.300326201045
 20
914.5593829631465
 10
697.288338769726
 20
914.556691483094
 10
697.2762929614938
 20
914.5543000585981
 10
697.2641955415753
 20
914.5522079150932
 10
697.2450941965262
 20
914.5495226089257
 10
697.2259012541794
 20
914.5475635544121
 10
697.2066359919196
 20
914.5463667539248
  0
LWPOLYLINE
  5
114F
330
1F
100
AcDbEntity
  8
SANINDUSA
100
AcDbPolyline
 90
        4
 70
   128
 43
0.0
 10
697.2788818402224
 20
914.5446103284582
 10
697.2561567046717
 20
914.5408862217514
 10
697.2333058090826
 20
914.5381860132104
 10
697.2103204152585
 20
914.5365301012128
  0
LINE
  5
1151
330
1F
100
AcDbEntity
  8
SANINDUSA
100
AcDbLine
 10
697.2333088584775
 20
914.3912889872678
 30
0.0
 11
697.3019151089554
 21
914.3912889872678
 31
0.0
  0
LINE
  5
1163
330
1F
100
AcDbEntity
  8
SANINDUSA
100
AcDbLine
 10
696.992965522667
 20
914.3912889872678
 30
0.0
 11
697.213426586986
 21
914.3912889872678
 31
0.0
  0
LINE
  5
1164
330
1F
100
AcDbEntity
  8
SANINDUSA
100
AcDbLine
 10
696.9916531761639
 20
914.3977292953383
 30
0.0
 11
696.9978810169243
 21
914.4212566937666
 31
0.0
  0
ARC
  5
1166
330
1F
100
AcDbEntity
  8
SANINDUSA
100
AcDbCircle
 10
696.989719669261
 20
914.3982410675006
 30
0.0
 40
0.0020000899203312
100
AcDbArc
 50
269.9399206428933
 51
345.1745858881143
  0
LINE
  5
1169
330
1F
100
AcDbEntity
  8
SANINDUSA
100
AcDbLine
 10
696.9901872247349
 20
914.3912889872678
 30
0.0
 11
696.992965522667
 21
914.3912889872678
 31
0.0
  0
LINE
  5
116C
330
1F
100
AcDbEntity
  8
SANINDUSA
100
AcDbLine
 10
696.9899502672391
 20
914.3912960838447
 30
0.0
 11
696.9904108543198
 21
914.3930360794833
 31
0.0
  0
LINE
  5
1173
330
1F
100
AcDbEntity
  8
SANINDUSA
100
AcDbLine
 10
696.9909977051432
 20
914.4222802640078
 30
0.0
 11
696.9890844443311
 21
914.4150523898288
 31
0.0
  0
ARC
  5
1174
330
1F
100
AcDbEntity
  8
SANINDUSA
100
AcDbCircle
 10
696.9929311155989
 20
914.421768478887
 30
0.0
 40
0.002
100
AcDbArc
 50
90.0
 51
165.1735200296239
  0
ARC
  5
1175
330
1F
100
AcDbEntity
  8
SANINDUSA
100
AcDbCircle
 10
696.9871510338752
 20
914.4155641749492
 30
0.0
 40
0.002
100
AcDbArc
 50
277.9999999999877
 51
345.1735200296239
  0
LINE
  5
1179
330
1F
100
AcDbEntity
  8
SANINDUSA
100
AcDbLine
 10
696.9929311155989
 20
914.4237684788871
 30
0.0
 11
696.9959476064685
 21
914.4237684788871
 31
0.0
  0
ARC
  5
117A
330
1F
100
AcDbEntity
  8
SANINDUSA
100
AcDbCircle
 10
696.9959476064685
 20
914.421768478887
 30
0.0
 40
0.002
100
AcDbArc
 50
345.1735200296239
 51
90.0
  0
LINE
  5
117D
330
1F
100
AcDbEntity
  8
SANINDUSA
100
AcDbLine
 10
697.213426586986
 20
914.3912889872678
 30
0.0
 11
697.2333088584775
 21
914.3912889872678
 31
0.0
  0
ARC
  5
1182
330
1F
100
AcDbEntity
  8
SANINDUSA
100
AcDbCircle
 10
697.2518501551885
 20
914.7039550907761
 30
0.0
 40
0.229130088791037
100
AcDbArc
 50
221.2448627125005
 51
238.5840900047267
  0
LWPOLYLINE
  5
1183
330
1F
100
AcDbEntity
  8
SANINDUSA
100
AcDbPolyline
 90
       10
 70
   128
 43
0.0
 10
697.1348087092471
 20
914.5463904545261
 10
697.1225798011039
 20
914.5560302473173
 10
697.1112254980272
 20
914.5665049662637
 10
697.1007761864439
 20
914.577753838512
 10
697.0912622527808
 20
914.5897160912086
 10
697.0827140834646
 20
914.6023309514996
 10
697.0752880109622
 20
914.6152969749255
 10
697.0688516175486
 20
914.6287763099037
 10
697.0634336907018
 20
914.642711381478
 10
697.0590630179
 20
914.657044614692
  0
LWPOLYLINE
  5
1184
330
1F
100
AcDbEntity
  8
SANINDUSA
100
AcDbPolyline
 90
        9
 70
   128
 43
0.0
 10
697.1163464563674
 20
914.5482036912483
 10
697.1045374339995
 20
914.5590530281284
 10
697.0936556360832
 20
914.5706987278384
 10
697.083069128458
 20
914.5839783330677
 10
697.073618984595
 20
914.5980236438534
 10
697.0653428145388
 20
914.6127591765594
 10
697.0587777587357
 20
914.6269087029414
 10
697.0532746007209
 20
914.6415231001256
 10
697.0488630487835
 20
914.656543149859
  0
LINE
  5
1193
330
1F
100
AcDbEntity
  8
SANINDUSA
100
AcDbLine
 10
697.0766494808243
 20
914.5529900793587
 30
0.0
 11
697.0549328348728
 21
914.5312734334071
 31
0.0
  0
LINE
  5
1194
330
1F
100
AcDbEntity
  8
SANINDUSA
100
AcDbLine
 10
697.0464475534984
 20
914.534101860532
 30
0.0
 11
697.0733670241729
 21
914.5611435669005
 31
0.0
  0
ARC
  5
1195
330
1F
100
AcDbEntity
  8
SANINDUSA
100
AcDbCircle
 10
697.0535186213104
 20
914.5326876469695
 30
0.0
 40
0.0019999999999999
100
AcDbArc
 50
270.0
 51
315.0000000000092
  0
LINE
  5
1196
330
1F
100
AcDbEntity
  8
SANINDUSA
100
AcDbLine
 10
697.0535186213104
 20
914.5306876469694
 30
0.0
 11
697.0478617670607
 21
914.5306876469694
 31
0.0
  0
ARC
  5
1197
330
1F
100
AcDbEntity
  8
SANINDUSA
100
AcDbCircle
 10
697.0478617670607
 20
914.5326876469695
 30
0.0
 40
0.0020000000000002
100
AcDbArc
 50
135.0000000000092
 51
270.0
  0
LWPOLYLINE
  5
1198
330
1F
100
AcDbEntity
  8
SANINDUSA
100
AcDbPolyline
 90
        6
 70
   128
 43
0.0
 10
697.0733670241729
 20
914.5611435669005
 10
697.0737554517129
 20
914.5616914489851
 10
697.0739406298255
 20
914.5623370189083
 10
697.0739016744402
 20
914.5630074761577
 10
697.0736429920958
 20
914.5636272097288
 10
697.0735231682425
 20
914.56379648281
  0
ARC
  5
1199
330
1F
100
AcDbEntity
  8
SANINDUSA
100
AcDbCircle
 10
697.0780637606766
 20
914.5515758878596
 30
0.0
 40
0.0020000312739477
100
AcDbArc
 50
41.24894110803028
 51
135.001789754576
  0
ARC
  5
119B
330
1F
100
AcDbEntity
  8
SANINDUSA
100
AcDbCircle
 10
697.0580962425283
 20
914.6567889872668
 30
0.0
 40
0.0010000000000004
100
AcDbArc
 50
14.81076620912829
 51
89.99999999997395
  0
ARC
  5
119C
330
1F
100
AcDbEntity
  8
SANINDUSA
100
AcDbCircle
 10
697.052669986319
 20
914.6857889872674
 30
0.0
 40
0.0010000000000001
100
AcDbArc
 50
270.0
 51
6.384813847451568
  0
LINE
  5
119D
330
1F
100
AcDbEntity
  8
SANINDUSA
100
AcDbLine
 10
697.0446219861032
 20
914.6847889872672
 30
0.0
 11
697.052669986319
 21
914.6847889872672
 31
0.0
  0
ARC
  5
119E
330
1F
100
AcDbEntity
  8
SANINDUSA
100
AcDbCircle
 10
697.0446219861032
 20
914.6857889872674
 30
0.0
 40
0.001
100
AcDbArc
 50
186.1392293712974
 51
270.0
  0
ARC
  5
119F
330
1F
100
AcDbEntity
  8
SANINDUSA
100
AcDbCircle
 10
697.0498323598631
 20
914.6567889872668
 30
0.0
 40
0.0010000000000002
100
AcDbArc
 50
89.99999999997395
 51
194.2313273165481
  0
LWPOLYLINE
  5
11A0
330
1F
100
AcDbEntity
  8
SANINDUSA
100
AcDbPolyline
 90
       21
 70
   128
 43
0.0
 10
697.043713928909
 20
914.6853143324218
 10
697.0437694673883
 20
914.6850774389688
 10
697.0439714261871
 20
914.684207453992
 10
697.0442498268639
 20
914.6829900198762
 10
697.0445974207487
 20
914.6814384755584
 10
697.0449958249835
 20
914.6796121916084
 10
697.0454396077066
 20
914.6775082863412
 10
697.0459020916619
 20
914.6752266110681
 10
697.046415548057
 20
914.672563114674
 10
697.0469098542505
 20
914.6698457702296
 10
697.0473241883699
 20
914.6674203931668
 10
697.0476978352031
 20
914.6650946414638
 10
697.0480231010615
 20
914.6629348142239
 10
697.0482960803208
 20
914.6610063641411
 10
697.0485126666891
 20
914.6593836226658
 10
697.0486764327953
 20
914.658092892413
 10
697.0487873760488
 20
914.6571831398853
 10
697.048848896149
 20
914.6566639375679
 10
697.0488630487835
 20
914.6565431498592
 10
697.0488630487835
 20
914.656543149859
 10
697.0488630487835
 20
914.656543149859
  0
LINE
  5
11A1
330
1F
100
AcDbEntity
  8
SANINDUSA
100
AcDbLine
 10
697.0580962425283
 20
914.657788987267
 30
0.0
 11
697.0498323598631
 21
914.657788987267
 31
0.0
  0
LWPOLYLINE
  5
11A2
330
1F
100
AcDbEntity
  8
SANINDUSA
100
AcDbPolyline
 90
       21
 70
   128
 43
0.0
 10
697.0590630179
 20
914.657044614692
 10
697.0590630179
 20
914.6570446146922
 10
697.0590538190203
 20
914.6571226262635
 10
697.0590007285001
 20
914.6575684886808
 10
697.0588997528134
 20
914.6583924381735
 10
697.0587468656183
 20
914.6595907662911
 10
697.0585419260045
 20
914.661114866902
 10
697.0582820778096
 20
914.6629325232272
 10
697.0579697967708
 20
914.6649798049232
 10
697.0575771773965
 20
914.6673780130223
 10
697.0571350305432
 20
914.6698971738015
 10
697.0566705884432
 20
914.672373028709
 10
697.0561843357833
 20
914.6748188878698
 10
697.0556928491979
 20
914.677163401118
 10
697.0552144942035
 20
914.6793454565434
 10
697.0547690574173
 20
914.6813009115755
 10
697.0543761994706
 20
914.6829735560123
 10
697.0540606508242
 20
914.6842856780532
 10
697.0538294512598
 20
914.6852307092807
 10
697.053705970783
 20
914.6857304888541
 10
697.0536637837478
 20
914.6859001927991
  0
LWPOLYLINE
  5
11A6
330
1F
100
AcDbEntity
  8
SANINDUSA
100
AcDbPolyline
 90
       23
 70
   128
 43
0.0
 10
697.2066359919196
 20
914.5463667539248
 10
697.2066359919194
 20
914.5463667539248
 10
697.2060293037295
 20
914.5463717499151
 10
697.2044299185048
 20
914.5463850131561
 10
697.2018860687704
 20
914.5464062443362
 10
697.1983432939289
 20
914.5464358728956
 10
697.1939770327833
 20
914.5464714113698
 10
697.1889293316908
 20
914.5465097278195
 10
697.1833428896031
 20
914.5465456740893
 10
697.1767647877722
 20
914.5465747462283
 10
697.1699766052211
 20
914.5465855459882
 10
697.1648876479449
 20
914.5465784053923
 10
697.1599190476516
 20
914.5465596108426
 10
697.1544537410235
 20
914.546527429745
 10
697.1494226440663
 20
914.5464910719098
 10
697.1450276253264
 20
914.5464577861845
 10
697.1412998970497
 20
914.5464305081505
 10
697.1383550551167
 20
914.5464109397378
 10
697.1362575104367
 20
914.5463983547289
 10
697.1350368147574
 20
914.5463916538645
 10
697.1348132345492
 20
914.5463904781545
 10
697.1348087092471
 20
914.5463904545261
 10
697.134808709247
 20
914.5463904545261
  0
LINE
  5
11A8
330
1F
100
AcDbEntity
  8
SANINDUSA
100
AcDbLine
 10
697.1450798627078
 20
914.5377876711926
 30
0.0
 11
697.1948169147591
 21
914.5377876711926
 31
0.0
  0
LINE
  5
11AA
330
1F
100
AcDbEntity
  8
SANINDUSA
100
AcDbLine
 10
697.1940308528075
 20
914.4962889872676
 30
0.0
 11
697.1458659246594
 21
914.4962889872678
 31
0.0
  0
ARC
  5
11AC
330
1F
100
AcDbEntity
  8
SANINDUSA
100
AcDbCircle
 10
697.1458659250003
 20
914.5249835394919
 30
0.0
 40
0.0009999996591516
100
AcDbArc
 50
230.2903614678561
 51
0.0
  0
LWPOLYLINE
  5
11AE
330
1F
100
AcDbEntity
  8
SANINDUSA
100
AcDbPolyline
 90
        6
 70
   128
 43
0.0
 10
697.1343025864374
 20
914.5332870046198
 10
697.1343936330171
 20
914.5332113904613
 10
697.1347578173058
 20
914.5329089355046
 10
697.1362145543887
 20
914.5316991155912
 10
697.1420415009745
 20
914.5268598338354
 10
697.145227027978
 20
914.5242142476659
  0
LINE
  5
11AF
330
1F
100
AcDbEntity
  8
SANINDUSA
100
AcDbLine
 10
697.1359310859966
 20
914.4962889872678
 30
0.0
 11
697.1458659246594
 21
914.4962889872678
 31
0.0
  0
LWPOLYLINE
  5
11B0
330
1F
100
AcDbEntity
  8
SANINDUSA
100
AcDbPolyline
 90
        3
 70
   128
 43
0.0
 10
697.1463552178118
 20
914.5104928739641
 10
697.1404133199083
 20
914.5139496075398
 10
697.1371473011417
 20
914.5159886543529
  0
ARC
  5
11B1
330
1F
100
AcDbEntity
  8
SANINDUSA
100
AcDbCircle
 10
697.1359310859966
 20
914.4972889872677
 30
0.0
 40
0.0010000000000002
100
AcDbArc
 50
181.0000000000017
 51
269.9999999999739
  0
LINE
  5
11B2
330
1F
100
AcDbEntity
  8
SANINDUSA
100
AcDbLine
 10
697.1348097011575
 20
914.5042343931701
 30
0.0
 11
697.1349312383014
 21
914.4972715348613
 31
0.0
  0
ARC
  5
11B3
330
1F
100
AcDbEntity
  8
SANINDUSA
100
AcDbCircle
 10
697.1298104332579
 20
914.5041471367905
 30
0.0
 40
0.00500002932076
100
AcDbArc
 50
0.999929350820099
 51
58.58157202875155
  0
LWPOLYLINE
  5
11BC
330
1F
100
AcDbEntity
  8
SANINDUSA
100
AcDbPolyline
 90
        5
 70
   128
 43
0.0
 10
697.1463552178118
 20
914.5104928739641
 10
697.1466163121578
 20
914.5102817454729
 10
697.1467928042561
 20
914.5099960957034
 10
697.1468648008465
 20
914.5096681204504
 10
697.1468659246594
 20
914.509620722843
  0
LINE
  5
11BD
330
1F
100
AcDbEntity
  8
SANINDUSA
100
AcDbLine
 10
697.1468659246594
 20
914.5096207228428
 30
0.0
 11
697.1468659246594
 21
914.4972889872677
 31
0.0
  0
ARC
  5
11BE
330
1F
100
AcDbEntity
  8
SANINDUSA
100
AcDbCircle
 10
697.1458659246594
 20
914.4972889872677
 30
0.0
 40
0.0010000000000001
100
AcDbArc
 50
269.9999999999739
 51
0.0
  0
LINE
  5
11C6
330
1F
100
AcDbEntity
  8
SANINDUSA
100
AcDbLine
 10
697.1350822801858
 20
914.5461766389994
 30
0.0
 11
697.1450798627078
 21
914.5377876711926
 31
0.0
  0
ARC
  5
11C7
330
1F
100
AcDbEntity
  8
SANINDUSA
100
AcDbCircle
 10
697.1318683421373
 20
914.5423464167839
 30
0.0
 40
0.0049999999999999
100
AcDbArc
 50
49.99999999997906
 51
53.97958875774875
  0
LINE
  5
11C8
330
1F
100
AcDbEntity
  8
SANINDUSA
100
AcDbLine
 10
697.1343025859199
 20
914.5332870050495
 30
0.0
 11
697.1169184452135
 21
914.5477244560359
 31
0.0
  0
ARC
  5
11C9
330
1F
100
AcDbEntity
  8
SANINDUSA
100
AcDbCircle
 10
697.1487426016182
 20
914.5862889872677
 30
0.0
 40
0.05
100
AcDbArc
 50
229.6148197404447
 51
230.4699276950231
  0
ARC
  5
11CA
330
1F
100
AcDbEntity
  8
SANINDUSA
100
AcDbCircle
 10
697.1418659246594
 20
914.5339574489771
 30
0.0
 40
0.005
100
AcDbArc
 50
0.0
 51
50.00000000021946
  0
LINE
  5
11CB
330
1F
100
AcDbEntity
  8
SANINDUSA
100
AcDbLine
 10
697.1468659246594
 20
914.5339574489771
 30
0.0
 11
697.1468659246594
 21
914.5249835434103
 31
0.0
  0
LINE
  5
11CC
330
1F
100
AcDbEntity
  8
SANINDUSA
100
AcDbLine
 10
697.2049655391655
 20
914.4972715348613
 30
0.0
 11
697.2055651517911
 21
914.5316233191728
 31
0.0
  0
LINE
  5
11CD
330
1F
100
AcDbEntity
  8
SANINDUSA
100
AcDbLine
 10
697.1930308528075
 20
914.4972889872677
 30
0.0
 11
697.1930308528075
 21
914.5339574489771
 31
0.0
  0
ARC
  5
11CE
330
1F
100
AcDbEntity
  8
SANINDUSA
100
AcDbCircle
 10
697.2039656914703
 20
914.4972889872677
 30
0.0
 40
0.0010000000000001
100
AcDbArc
 50
269.9999999999739
 51
358.9999999993989
  0
ARC
  5
11CF
330
1F
100
AcDbEntity
  8
SANINDUSA
100
AcDbCircle
 10
697.1940308528075
 20
914.4972889872677
 30
0.0
 40
0.0009999999999999
100
AcDbArc
 50
180.0
 51
269.9999999999739
  0
LINE
  5
11D0
330
1F
100
AcDbEntity
  8
SANINDUSA
100
AcDbLine
 10
697.1940308528075
 20
914.4962889872676
 30
0.0
 11
697.2039656914703
 21
914.4962889872676
 31
0.0
  0
ARC
  5
11D1
330
1F
100
AcDbEntity
  8
SANINDUSA
100
AcDbCircle
 10
697.2105643902668
 20
914.5315360571407
 30
0.0
 40
0.0050000000000001
100
AcDbArc
 50
92.79685827064987
 51
178.9999999999851
  0
ARC
  5
11D2
330
1F
100
AcDbEntity
  8
SANINDUSA
100
AcDbCircle
 10
697.2068672982039
 20
914.54137210705
 30
0.0
 40
0.005
100
AcDbArc
 50
92.65152110235257
 51
129.9999999999932
  0
ARC
  5
11D3
330
1F
100
AcDbEntity
  8
SANINDUSA
100
AcDbCircle
 10
697.1980308528075
 20
914.5339574489771
 30
0.0
 40
0.0050000000000042
100
AcDbArc
 50
129.9999999999932
 51
180.0
  0
LINE
  5
11D4
330
1F
100
AcDbEntity
  8
SANINDUSA
100
AcDbLine
 10
697.1948169147591
 20
914.5377876711926
 30
0.0
 11
697.2036533601555
 21
914.5452023292657
 31
0.0
  0
LINE
  5
11D5
330
1F
100
AcDbEntity
  8
SANINDUSA
100
AcDbLine
 10
697.3006884521151
 20
914.3930309277601
 30
0.0
 11
697.2811885596271
 21
914.5428947142626
 31
0.0
  0
LWPOLYLINE
  5
11D6
330
1F
100
AcDbEntity
  8
SANINDUSA
100
AcDbPolyline
 90
        4
 70
   128
 43
0.0
 10
697.297473872244
 20
914.5484525966482
 10
697.2916400263287
 20
914.5472470604154
 42
0.3925903493880237
 10
697.2908507551538
 20
914.5461387214325
 10
697.3095849035593
 20
914.402159957514
  0
LWPOLYLINE
  5
11D7
330
1F
100
AcDbEntity
  8
SANINDUSA
100
AcDbPolyline
 90
       16
 70
   128
 43
0.0
 10
697.3315131059458
 20
914.3919761182848
 10
697.3435465787721
 20
914.4062897205738
 10
697.3550031098325
 20
914.4210665391051
 10
697.3658722172944
 20
914.4364390946126
 10
697.3760721672548
 20
914.4522635724745
 10
697.3852937620716
 20
914.4679880668435
 10
697.3938566810915
 20
914.4840807119019
 10
697.4017975178116
 20
914.5006298241881
 10
697.409041556593
 20
914.517495586659
 10
697.4175465977187
 20
914.5402936336493
 10
697.4247853118466
 20
914.5635443702557
 10
697.4307252550238
 20
914.5871411087233
 10
697.4344026116991
 20
914.6055536774767
 10
697.4372874298859
 20
914.6241242801005
 10
697.4393824047973
 20
914.6428012310813
 10
697.4406902316461
 20
914.661532844906
  0
LINE
  5
11D8
330
1F
100
AcDbEntity
  8
SANINDUSA
100
AcDbLine
 10
697.3009151089553
 20
914.3912889872678
 30
0.0
 11
697.3006525398411
 21
914.3933069266845
 31
0.0
  0
ARC
  5
11D9
330
1F
100
AcDbEntity
  8
SANINDUSA
100
AcDbCircle
 10
697.3105765442819
 20
914.4022889872678
 30
0.0
 40
0.001
100
AcDbArc
 50
187.4135291084233
 51
270.0
  0
ARC
  5
11DA
330
1F
100
AcDbEntity
  8
SANINDUSA
100
AcDbCircle
 10
697.3026717335602
 20
914.3932889872678
 30
0.0
 40
0.0019999999999999
100
AcDbArc
 50
187.4135291084233
 51
270.0
  0
ARC
  5
11DB
330
1F
100
AcDbEntity
  8
SANINDUSA
100
AcDbCircle
 10
697.3258956110352
 20
914.4022889872678
 30
0.0
 40
0.001
100
AcDbArc
 50
270.0
 51
319.4678397780108
  0
LINE
  5
11DC
330
1F
100
AcDbEntity
  8
SANINDUSA
100
AcDbLine
 10
697.3266556523447
 20
914.4016391125045
 30
0.0
 11
697.3309151089554
 21
914.4066206307345
 31
0.0
  0
ARC
  5
11DD
330
1F
100
AcDbEntity
  8
SANINDUSA
100
AcDbCircle
 10
697.3300043398827
 20
914.3932889872678
 30
0.0
 40
0.0020000000000005
100
AcDbArc
 50
270.0
 51
318.9714895985618
  0
LINE
  5
11DE
330
1F
100
AcDbEntity
  8
SANINDUSA
100
AcDbLine
 10
697.3258956110352
 20
914.4012889872678
 30
0.0
 11
697.3105765442819
 21
914.4012889872678
 31
0.0
  0
LINE
  5
11DF
330
1F
100
AcDbEntity
  8
SANINDUSA
100
AcDbLine
 10
697.3300043398827
 20
914.3912889872678
 30
0.0
 11
697.3019151089554
 21
914.3912889872678
 31
0.0
  0
LINE
  5
11E0
330
1F
100
AcDbEntity
  8
SANINDUSA
100
AcDbLine
 10
697.2809218293249
 20
914.544944633927
 30
0.0
 11
697.2788744986959
 21
914.5446091113278
 31
0.0
  0
LINE
  5
11E1
330
1F
100
AcDbEntity
  8
SANINDUSA
100
AcDbLine
 10
697.2811885596271
 20
914.5428947142626
 30
0.0
 11
697.2809218293249
 21
914.544944633927
 31
0.0
  0
ARC
  5
11E2
330
1F
100
AcDbEntity
  8
SANINDUSA
100
AcDbCircle
 10
697.2792052781819
 20
914.542636654755
 30
0.0
 40
0.002
100
AcDbArc
 50
7.413529108423342
 51
99.51987617558017
  0
ARC
  5
11E3
330
1F
100
AcDbEntity
  8
SANINDUSA
100
AcDbCircle
 10
697.2715633673272
 20
914.6826700672738
 30
0.0
 40
0.1366955876616967
100
AcDbArc
 50
280.9264625308927
 51
290.5383046020956
  0
LINE
  5
11E4
330
1F
100
AcDbEntity
  8
SANINDUSA
100
AcDbLine
 10
697.3309151089556
 20
914.5592262301548
 30
0.0
 11
697.3195207597532
 21
914.554663144813
 31
0.0
  0
LINE
  5
11E5
330
1F
100
AcDbEntity
  8
SANINDUSA
100
AcDbLine
 10
697.4463334530853
 20
914.6662889872677
 30
0.0
 11
697.4456842814508
 21
914.6662889872677
 31
0.0
  0
ARC
  5
11E6
330
1F
100
AcDbEntity
  8
SANINDUSA
100
AcDbCircle
 10
697.4456842814508
 20
914.6612889872677
 30
0.0
 40
0.0050000000000005
100
AcDbArc
 50
90.0
 51
177.2044882950735
  0
ARC
  5
11E8
330
1F
100
AcDbEntity
  8
SANINDUSA
100
AcDbCircle
 10
697.4463334530853
 20
914.6712889872677
 30
0.0
 40
0.0050000000000003
100
AcDbArc
 50
270.0
 51
355.0000000000003
  0
LINE
  5
11EE
330
1F
100
AcDbEntity
  8
SANINDUSA
100
AcDbLine
 10
697.4224794857009
 20
914.7112889872678
 30
0.0
 11
697.107129911487
 21
914.7112889872678
 31
0.0
  0
LINE
  5
11F0
330
1F
100
AcDbEntity
  8
SANINDUSA
100
AcDbLine
 10
697.107129911487
 20
914.7112889872678
 30
0.0
 11
697.0938404585902
 21
914.7112889872678
 31
0.0
  0
LINE
  5
11F1
330
1F
100
AcDbEntity
  8
SANINDUSA
100
AcDbLine
 10
697.0474320982922
 20
914.7112889872678
 30
0.0
 11
697.0184483887334
 21
914.7112889872678
 31
0.0
  0
LINE
  5
11F2
330
1F
100
AcDbEntity
  8
SANINDUSA
100
AcDbLine
 10
697.0184483887334
 20
914.6992889872677
 30
0.0
 11
696.9814483887334
 21
914.6992889872677
 31
0.0
  0
LINE
  5
11F3
330
1F
100
AcDbEntity
  8
SANINDUSA
100
AcDbLine
 10
696.9814483887334
 20
914.7112889872678
 30
0.0
 11
697.0184483887334
 21
914.7112889872678
 31
0.0
  0
ARC
  5
11F4
330
1F
100
AcDbEntity
  8
SANINDUSA
100
AcDbCircle
 10
696.9814483887334
 20
914.7102889872677
 30
0.0
 40
0.0010000000000002
100
AcDbArc
 50
0.0
 51
90.0
  0
LINE
  5
11F5
330
1F
100
AcDbEntity
  8
SANINDUSA
100
AcDbLine
 10
696.9824483887333
 20
914.7102889872677
 30
0.0
 11
696.9824483887333
 21
914.7002889872677
 31
0.0
  0
ARC
  5
11F6
330
1F
100
AcDbEntity
  8
SANINDUSA
100
AcDbCircle
 10
696.9814483887334
 20
914.7002889872677
 30
0.0
 40
0.0010000000000002
100
AcDbArc
 50
270.0
 51
0.0
  0
ARC
  5
11F7
330
1F
100
AcDbEntity
  8
SANINDUSA
100
AcDbCircle
 10
697.0256467732804
 20
914.6972889871213
 30
0.0
 40
0.0020000001465272
100
AcDbArc
 50
1.035475806095339
 51
90.00000521472061
  0
LINE
  5
11F8
330
1F
100
AcDbEntity
  8
SANINDUSA
100
AcDbLine
 10
697.0184483887334
 20
914.6992889872677
 30
0.0
 11
697.0256467730982
 21
914.6992889872677
 31
0.0
  0
ARC
  5
11F9
330
1F
100
AcDbEntity
  8
SANINDUSA
100
AcDbCircle
 10
697.0184483887334
 20
914.7002889872677
 30
0.0
 40
0.0009999999999999
100
AcDbArc
 50
180.0
 51
270.0
  0
LINE
  5
11FA
330
1F
100
AcDbEntity
  8
SANINDUSA
100
AcDbLine
 10
697.0174483887334
 20
914.7002889872677
 30
0.0
 11
697.0174483887334
 21
914.7102889872677
 31
0.0
  0
ARC
  5
11FB
330
1F
100
AcDbEntity
  8
SANINDUSA
100
AcDbCircle
 10
697.0184483887334
 20
914.7102889872677
 30
0.0
 40
0.0010000000000001
100
AcDbArc
 50
90.0
 51
180.0
  0
LINE
  5
11FD
330
1F
100
AcDbEntity
  8
SANINDUSA
100
AcDbLine
 10
697.0938404585902
 20
914.7112889872678
 30
0.0
 11
697.0474320982922
 21
914.7112889872678
 31
0.0
  0
ARC
  5
11FE
330
1F
100
AcDbEntity
  8
SANINDUSA
100
AcDbCircle
 10
697.0416822427286
 20
914.6982889872678
 30
0.0
 40
0.0010000000000001
100
AcDbArc
 50
4.276344303280388
 51
90.0
  0
ARC
  5
11FF
330
1F
100
AcDbEntity
  8
SANINDUSA
100
AcDbCircle
 10
697.0474320982922
 20
914.7062889872678
 30
0.0
 40
0.005
100
AcDbArc
 50
0.5176278361626878
 51
90.0
  0
LINE
  5
1203
330
1F
100
AcDbEntity
  8
SANINDUSA
100
AcDbLine
 10
697.4493955563087
 20
914.7112889872678
 30
0.0
 11
697.4224794857009
 21
914.7112889872678
 31
0.0
  0
ARC
  5
1204
330
1F
100
AcDbEntity
  8
SANINDUSA
100
AcDbCircle
 10
697.4224794857009
 20
914.7062889872678
 30
0.0
 40
0.0050000000000004
100
AcDbArc
 50
90.0
 51
179.5905236692316
  0
ARC
  5
1205
330
1F
100
AcDbEntity
  8
SANINDUSA
100
AcDbCircle
 10
697.4493955563087
 20
914.7062889872678
 30
0.0
 40
0.005
100
AcDbArc
 50
354.9999999999602
 51
90.0
  0
LWPOLYLINE
  5
1209
330
1F
100
AcDbEntity
  8
SANINDUSA
  6
Continuous
100
AcDbPolyline
 90
       31
 70
   128
 43
0.0
 10
695.0747410252146
 20
914.6571420453719
 10
695.0688217557278
 20
914.648450370567
 10
695.0634131213876
 20
914.6394314849702
 10
695.0563939009979
 20
914.6256694407352
 10
695.0504429335664
 20
914.6113456155919
 10
695.0455616844859
 20
914.596591922406
 10
695.0417516191499
 20
914.5815402740428
 10
695.0390142029511
 20
914.5663225833679
 10
695.0372065909615
 20
914.5492146264537
 10
695.0366856403267
 20
914.5319704401854
 10
695.0374517985299
 20
914.5147356337037
 10
695.0395055130545
 20
914.4976558161486
 10
695.0420914597818
 20
914.4841224388489
 10
695.045529288092
 20
914.4707332281923
 10
695.0498187520284
 20
914.4575813432611
 10
695.054959605634
 20
914.4447599431378
 10
695.0609516029522
 20
914.4323621869043
 10
695.067271569902
 20
914.4213103632672
 10
695.0743422864016
 20
914.4107243224297
 10
695.0810871360734
 20
914.401982987321
 10
695.0884136111888
 20
914.393688113434
 10
695.0962931938066
 20
914.3859234980695
 10
695.1046973659859
 20
914.3787729385278
 10
695.1134288097746
 20
914.3724316829935
 10
695.122662454024
 20
914.3667779574105
 10
695.1323209994635
 20
914.3618980342845
 10
695.1423271468225
 20
914.3578781861217
 10
695.1516735696353
 20
914.3550313306635
 10
695.1612572428855
 20
914.3529600790216
 10
695.1709781918246
 20
914.3516949486039
 10
695.1807364417046
 20
914.3512664568188
  0
LWPOLYLINE
  5
120A
330
1F
100
AcDbEntity
  8
SANINDUSA
  6
Continuous
100
AcDbPolyline
 90
       31
 70
   128
 43
0.0
 10
695.2867318581946
 20
914.6571420453719
 10
695.2926511276814
 20
914.648450370567
 10
695.2980597620218
 20
914.6394314849702
 10
695.3050789824114
 20
914.6256694407352
 10
695.311029949843
 20
914.6113456155919
 10
695.3159111989235
 20
914.596591922406
 10
695.3197212642595
 20
914.5815402740428
 10
695.3224586804582
 20
914.5663225833679
 10
695.3242662924479
 20
914.5492146264537
 10
695.3247872430827
 20
914.5319704401854
 10
695.3240210848794
 20
914.5147356337037
 10
695.3219673703548
 20
914.4976558161486
 10
695.3193814236275
 20
914.4841224388489
 10
695.3159435953173
 20
914.4707332281923
 10
695.311654131381
 20
914.4575813432611
 10
695.3065132777753
 20
914.4447599431378
 10
695.3005212804571
 20
914.4323621869043
 10
695.2942013135071
 20
914.4213103632672
 10
695.2871305970077
 20
914.4107243224297
 10
695.2803857473359
 20
914.401982987321
 10
695.2730592722206
 20
914.393688113434
 10
695.2651796896027
 20
914.3859234980695
 10
695.2567755174235
 20
914.3787729385278
 10
695.2480440736348
 20
914.3724316829935
 10
695.2388104293853
 20
914.3667779574105
 10
695.2291518839457
 20
914.3618980342845
 10
695.2191457365868
 20
914.3578781861217
 10
695.2097993137741
 20
914.3550313306635
 10
695.2002156405239
 20
914.3529600790216
 10
695.1904946915846
 20
914.3516949486039
 10
695.1807364417046
 20
914.3512664568188
  0
ARC
  5
120B
330
1F
100
AcDbEntity
  8
SANINDUSA
  6
Continuous
100
AcDbCircle
 10
695.1319023284411
 20
914.5337976814742
 30
0.0
 40
0.2395434574946537
100
AcDbArc
 50
314.7364437244721
 51
45.26355627552792
  0
ARC
  5
120D
330
1F
100
AcDbEntity
  8
SANINDUSA
  6
Continuous
100
AcDbCircle
 10
695.2295705549682
 20
914.5337976814742
 30
0.0
 40
0.2395434574946537
100
AcDbArc
 50
134.7364437244721
 51
225.2635562755279
  0
ARC
  5
1212
330
1F
100
AcDbEntity
  8
SANINDUSA
  6
Continuous
100
AcDbCircle
 10
695.1807364417046
 20
914.4845122223758
 30
0.0
 40
0.1701617084767671
100
AcDbArc
 50
270.0
 51
314.7364437244721
  0
ARC
  5
1213
330
1F
100
AcDbEntity
  8
SANINDUSA
  6
Continuous
100
AcDbCircle
 10
695.1807364417046
 20
914.4845122223758
 30
0.0
 40
0.1701617084767671
100
AcDbArc
 50
225.2635562755279
 51
270.0
  0
LINE
  5
121C
330
1F
100
AcDbEntity
  8
SANINDUSA
  6
Continuous
100
AcDbLine
 10
695.2916242040474
 20
914.7148682351117
 30
0.0
 11
695.3030742145547
 21
914.8666472315678
 31
0.0
  0
LINE
  5
121D
330
1F
100
AcDbEntity
  8
SANINDUSA
  6
Continuous
100
AcDbLine
 10
695.0698486793619
 20
914.7148682351117
 30
0.0
 11
695.0583986688546
 21
914.8666472315678
 31
0.0
  0
CIRCLE
  5
1220
330
1F
100
AcDbEntity
  8
SANINDUSA
  6
Continuous
100
AcDbCircle
 10
695.1807364417046
 20
914.5987976814742
 30
0.0
 40
0.0230824640740568
  0
LWPOLYLINE
  5
1222
330
1F
100
AcDbEntity
  8
SANINDUSA
  6
Continuous
100
AcDbPolyline
 90
       21
 70
   128
 43
0.0
 10
695.1807364417046
 20
914.6336637900217
 10
695.1812982591397
 20
914.6336592289898
 10
695.1847186489904
 20
914.633433876518
 10
695.1906814314745
 20
914.6322033043556
 10
695.1960355856293
 20
914.63009031582
 10
695.2009657127422
 20
914.6271200056228
 10
695.2053107278251
 20
914.6233751337259
 10
695.208971914956
 20
914.6189597999764
 10
695.2118447829923
 20
914.6139626995191
 10
695.2138382828302
 20
914.6085545188455
 10
695.2147918245826
 20
914.6037269055769
 10
695.2150455088322
 20
914.5988125014637
 10
695.214301873725
 20
914.5924030542637
 10
695.2123862395297
 20
914.586241104617
 10
695.2097148563385
 20
914.5811113767695
 10
695.2062301320827
 20
914.576495285827
 10
695.2020400715276
 20
914.572549236548
 10
695.197254094567
 20
914.5693520831926
 10
695.1921780513622
 20
914.5670700715792
 10
695.1868007074503
 20
914.5656357084673
 10
695.1807364417046
 20
914.5650927100524
  0
LWPOLYLINE
  5
1224
330
1F
100
AcDbEntity
  8
SANINDUSA
  6
Continuous
100
AcDbPolyline
 90
       12
 70
   128
 43
0.0
 10
695.1807364417046
 20
914.7163141759609
 10
695.1837422906341
 20
914.716274107425
 10
695.194405485911
 20
914.7154711679606
 10
695.2049919650858
 20
914.7136644043607
 10
695.2153746290037
 20
914.7109042752266
 10
695.2254263785105
 20
914.707241239159
 10
695.235537200504
 20
914.702485413167
 10
695.2452334473069
 20
914.6968536052929
 10
695.2544425085027
 20
914.6904443792843
 10
695.2630917736745
 20
914.6833562988893
 10
695.2696463562708
 20
914.6771923789611
 10
695.2758357087284
 20
914.6706612234352
  0
LWPOLYLINE
  5
1228
330
1F
100
AcDbEntity
  8
SANINDUSA
  6
Continuous
100
AcDbPolyline
 90
        3
 70
   128
 43
0.0
 10
695.2758357087284
 20
914.6706612234352
 10
695.282281846496
 20
914.6630104978026
 10
695.2867318581946
 20
914.6571420453719
  0
ARC
  5
122D
330
1F
100
AcDbEntity
  8
SANINDUSA
  6
Continuous
100
AcDbCircle
 10
695.1807364417046
 20
914.5830831405728
 30
0.0
 40
0.170161708476767
100
AcDbArc
 50
45.26355627552792
 51
48.57611244520388
  0
LWPOLYLINE
  5
122E
330
1F
100
AcDbEntity
  8
SANINDUSA
  6
Continuous
100
AcDbPolyline
 90
        6
 70
   128
 43
0.0
 10
695.2933319949283
 20
914.710688772773
 10
695.2929582234028
 20
914.7110296926982
 10
695.2922910428268
 20
914.7119355580677
 10
695.2917995178466
 20
914.7131027367491
 10
695.2916119352562
 20
914.714356964277
 10
695.2916373197729
 20
914.714776711771
  0
LWPOLYLINE
  5
1230
330
1F
100
AcDbEntity
  8
SANINDUSA
  6
Continuous
100
AcDbPolyline
 90
       21
 70
   128
 43
0.0
 10
695.1807364417046
 20
914.6336637900217
 10
695.1801746242697
 20
914.6336592289898
 10
695.1767542344189
 20
914.633433876518
 10
695.1707914519347
 20
914.6322033043556
 10
695.16543729778
 20
914.63009031582
 10
695.1605071706672
 20
914.6271200056228
 10
695.1561621555843
 20
914.6233751337259
 10
695.1525009684534
 20
914.6189597999764
 10
695.149628100417
 20
914.6139626995191
 10
695.147634600579
 20
914.6085545188455
 10
695.1466810588267
 20
914.6037269055769
 10
695.1464273745772
 20
914.5988125014637
 10
695.1471710096842
 20
914.5924030542637
 10
695.1490866438795
 20
914.586241104617
 10
695.1517580270707
 20
914.5811113767695
 10
695.1552427513266
 20
914.576495285827
 10
695.1594328118818
 20
914.572549236548
 10
695.1642187888422
 20
914.5693520831926
 10
695.169294832047
 20
914.5670700715792
 10
695.1746721759588
 20
914.5656357084673
 10
695.1807364417046
 20
914.5650927100524
  0
LWPOLYLINE
  5
1234
330
1F
100
AcDbEntity
  8
SANINDUSA
  6
Continuous
100
AcDbPolyline
 90
       12
 70
   128
 43
0.0
 10
695.1807364417046
 20
914.7163141759609
 10
695.1777305927753
 20
914.716274107425
 10
695.1670673974984
 20
914.7154711679606
 10
695.1564809183236
 20
914.7136644043607
 10
695.1460982544055
 20
914.7109042752266
 10
695.1360465048988
 20
914.707241239159
 10
695.1259356829052
 20
914.702485413167
 10
695.1162394361023
 20
914.6968536052929
 10
695.1070303749067
 20
914.6904443792843
 10
695.0983811097347
 20
914.6833562988893
 10
695.0918265271384
 20
914.6771923789611
 10
695.085637174681
 20
914.6706612234352
  0
LWPOLYLINE
  5
1236
330
1F
100
AcDbEntity
  8
SANINDUSA
  6
Continuous
100
AcDbPolyline
 90
       11
 70
   128
 43
0.0
 10
695.1672831670066
 20
914.712881746157
 10
695.1673171907328
 20
914.7125825492725
 10
695.1677932390258
 20
914.7121385247183
 10
695.1686805908067
 20
914.7117445266211
 10
695.1698571543045
 20
914.7114313656624
 10
695.1713381179206
 20
914.7111710974604
 10
695.173080822319
 20
914.7109658997239
 10
695.1750387944225
 20
914.710813017704
 10
695.1771367799224
 20
914.7107120560841
 10
695.1793343928023
 20
914.7106590186309
 10
695.1807364417046
 20
914.7106498276794
  0
LWPOLYLINE
  5
1238
330
1F
100
AcDbEntity
  8
SANINDUSA
  6
Continuous
100
AcDbPolyline
 90
       11
 70
   128
 43
0.0
 10
695.1941900044478
 20
914.7128842791602
 10
695.1941556926765
 20
914.7125825492725
 10
695.1936796443836
 20
914.7121385247183
 10
695.1927922926026
 20
914.7117445266211
 10
695.1916157291048
 20
914.7114313656624
 10
695.1901347654888
 20
914.7111710974604
 10
695.1883920610903
 20
914.7109658997239
 10
695.1864340889868
 20
914.710813017704
 10
695.1843361034869
 20
914.7107120560841
 10
695.1821384906071
 20
914.7106590186309
 10
695.1807364417046
 20
914.7106498276794
  0
CIRCLE
  5
123A
330
1F
100
AcDbEntity
  8
SANINDUSA
  6
Continuous
100
AcDbCircle
 10
695.1807364417046
 20
914.7687976814744
 30
0.0
 40
0.0175000000000106
  0
LWPOLYLINE
  5
1243
330
1F
100
AcDbEntity
  8
SANINDUSA
  6
Continuous
100
AcDbPolyline
 90
        3
 70
   128
 43
0.0
 10
695.085637174681
 20
914.6706612234352
 10
695.0791910369133
 20
914.6630104978026
 10
695.0747410252146
 20
914.6571420453719
  0
LWPOLYLINE
  5
1248
330
1F
100
AcDbEntity
  8
SANINDUSA
  6
Continuous
100
AcDbPolyline
 90
        6
 70
   128
 43
0.0
 10
695.0698340043998
 20
914.7148670983652
 10
695.069862254477
 20
914.7144229656809
 10
695.0697106804831
 20
914.7132434511544
 10
695.0692542117812
 20
914.712065891077
 10
695.0685277081311
 20
914.7110438507098
 10
695.0682052205361
 20
914.7107490863019
  0
ARC
  5
1249
330
1F
100
AcDbEntity
  8
SANINDUSA
  6
Continuous
100
AcDbCircle
 10
695.1807364417046
 20
914.5830831405728
 30
0.0
 40
0.1701617084767669
100
AcDbArc
 50
131.4241091554617
 51
134.7364437244721
  0
LINE
  5
124B
330
1F
100
AcDbEntity
  8
SANINDUSA
  6
Continuous
100
AcDbLine
 10
695.0634015264187
 20
914.8687976814743
 30
0.0
 11
695.2980713569907
 21
914.8687976814743
 31
0.0
  0
LINE
  5
124D
330
1F
100
AcDbEntity
  8
SANINDUSA
  6
Continuous
100
AcDbLine
 10
695.3010798813765
 20
914.8687976814743
 30
0.0
 11
695.2980713569907
 21
914.8687976814743
 31
0.0
  0
ARC
  5
1250
330
1F
100
AcDbEntity
  8
SANINDUSA
  6
Continuous
100
AcDbCircle
 10
695.3010798813765
 20
914.8667976814744
 30
0.0
 40
0.002
100
AcDbArc
 50
355.6858523064437
 51
90.00000000002605
  0
LINE
  5
1251
330
1F
100
AcDbEntity
  8
SANINDUSA
  6
Continuous
100
AcDbLine
 10
695.0603930020329
 20
914.8687976814743
 30
0.0
 11
695.0634015264187
 21
914.8687976814743
 31
0.0
  0
ARC
  5
1254
330
1F
100
AcDbEntity
  8
SANINDUSA
  6
Continuous
100
AcDbCircle
 10
695.0603930020329
 20
914.8667976814744
 30
0.0
 40
0.002
100
AcDbArc
 50
89.99999999997395
 51
184.3141476935563
  0
ENDSEC
  0
SECTION
  2
OBJECTS
  0
DICTIONARY
  5
C
330
0
100
AcDbDictionary
281
     1
  3
ACAD_COLOR
350
3D55
  3
ACAD_GROUP
350
D
  3
ACAD_LAYOUT
350
1A
  3
ACAD_MATERIAL
350
3D28
  3
ACAD_MLEADERSTYLE
350
3D6A
  3
ACAD_MLINESTYLE
350
17
  3
ACAD_PLOTSETTINGS
350
19
  3
ACAD_PLOTSTYLENAME
350
E
  3
ACAD_SCALELIST
350
3D58
  3
ACAD_TABLESTYLE
350
3D56
  3
ACAD_VISUALSTYLE
350
3D41
  3
ACDB_RECOMPOSE_DATA
350
3D99
  3
AcDbVariableDictionary
350
3D
  3
ASE_INDEX_DICTIONARY
350
3D24
  3
DWGPROPS
350
3D9A
  0
DICTIONARY
  5
3D71
330
10
100
AcDbDictionary
280
     1
281
     1
  3
ADSK_XREC_LAYER_RECONCILED
360
3D72
  0
DICTIONARY
  5
3D73
330
2F
100
AcDbDictionary
280
     1
281
     1
  3
ADSK_XREC_LAYER_RECONCILED
360
3D74
  0
DICTIONARY
  5
3D75
330
30
100
AcDbDictionary
280
     1
281
     1
  3
ADSK_XREC_LAYER_RECONCILED
360
3D76
  0
DICTIONARY
  5
3D77
330
31
100
AcDbDictionary
280
     1
281
     1
  3
ADSK_XREC_LAYER_RECONCILED
360
3D78
  0
DICTIONARY
  5
3D79
330
32
100
AcDbDictionary
280
     1
281
     1
  3
ADSK_XREC_LAYER_RECONCILED
360
3D7A
  0
DICTIONARY
  5
3D7B
330
33
100
AcDbDictionary
280
     1
281
     1
  3
ADSK_XREC_LAYER_RECONCILED
360
3D7C
  0
DICTIONARY
  5
3D7D
330
34
100
AcDbDictionary
280
     1
281
     1
  3
ADSK_XREC_LAYER_RECONCILED
360
3D7E
  0
DICTIONARY
  5
3D7F
330
35
100
AcDbDictionary
280
     1
281
     1
  3
ADSK_XREC_LAYER_RECONCILED
360
3D80
  0
DICTIONARY
  5
3D81
330
36
100
AcDbDictionary
280
     1
281
     1
  3
ADSK_XREC_LAYER_RECONCILED
360
3D82
  0
DICTIONARY
  5
3D83
330
37
100
AcDbDictionary
280
     1
281
     1
  3
ADSK_XREC_LAYER_RECONCILED
360
3D84
  0
DICTIONARY
  5
3D85
330
5D6
100
AcDbDictionary
280
     1
281
     1
  3
ADSK_XREC_LAYER_RECONCILED
360
3D86
  0
DICTIONARY
  5
3D87
330
8AF
100
AcDbDictionary
280
     1
281
     1
  3
ADSK_XREC_LAYER_RECONCILED
360
3D88
  0
DICTIONARY
  5
3D89
330
8F8
100
AcDbDictionary
280
     1
281
     1
  3
ADSK_XREC_LAYER_RECONCILED
360
3D8A
  0
DICTIONARY
  5
3D8B
330
91D
100
AcDbDictionary
280
     1
281
     1
  3
ADSK_XREC_LAYER_RECONCILED
360
3D8C
  0
DICTIONARY
  5
3D8D
330
D92
100
AcDbDictionary
280
     1
281
     1
  3
ADSK_XREC_LAYER_RECONCILED
360
3D8E
  0
DICTIONARY
  5
3D8F
330
1633
100
AcDbDictionary
280
     1
281
     1
  3
ADSK_XREC_LAYER_RECONCILED
360
3D90
  0
DICTIONARY
  5
3D55
102
{ACAD_REACTORS
330
C
102
}
330
C
100
AcDbDictionary
281
     1
  0
DICTIONARY
  5
D
102
{ACAD_REACTORS
330
C
102
}
330
C
100
AcDbDictionary
281
     1
  0
DICTIONARY
  5
1A
102
{ACAD_REACTORS
330
C
102
}
330
C
100
AcDbDictionary
281
     1
  3
Layout1
350
1E
  3
Layout2
350
26
  3
Model
350
22
  0
DICTIONARY
  5
3D28
102
{ACAD_REACTORS
330
C
102
}
330
C
100
AcDbDictionary
281
     1
  3
ByBlock
350
3D31
  3
ByLayer
350
3D29
  3
Global
350
3D39
  0
DICTIONARY
  5
3D6A
102
{ACAD_REACTORS
330
C
102
}
330
C
100
AcDbDictionary
281
     1
  3
Standard
350
3D6B
  0
DICTIONARY
  5
17
102
{ACAD_REACTORS
330
C
102
}
330
C
100
AcDbDictionary
281
     1
  3
Standard
350
18
  0
DICTIONARY
  5
19
102
{ACAD_REACTORS
330
C
102
}
330
C
100
AcDbDictionary
281
     1
  0
ACDBDICTIONARYWDFLT
  5
E
102
{ACAD_REACTORS
330
C
102
}
330
C
100
AcDbDictionary
281
     1
  3
Normal
350
F
100
AcDbDictionaryWithDefault
340
F
  0
DICTIONARY
  5
3D58
102
{ACAD_REACTORS
330
C
102
}
330
C
100
AcDbDictionary
281
     1
  3
A0
350
3D59
  3
A1
350
3D5A
  3
A2
350
3D5B
  3
A3
350
3D5C
  3
A4
350
3D5D
  3
A5
350
3D5E
  3
A6
350
3D5F
  3
A7
350
3D60
  3
A8
350
3D61
  3
A9
350
3D62
  3
B0
350
3D63
  3
B1
350
3D64
  3
B2
350
3D65
  3
B3
350
3D66
  3
B4
350
3D67
  3
B5
350
3D68
  3
B6
350
3D69
  0
DICTIONARY
  5
3D56
102
{ACAD_REACTORS
330
C
102
}
330
C
100
AcDbDictionary
281
     1
  3
Standard
350
3D57
  0
DICTIONARY
  5
3D41
102
{ACAD_REACTORS
330
C
102
}
330
C
100
AcDbDictionary
281
     1
  3
2dWireframe
350
3D47
  3
3D Hidden
350
3D49
  3
3dWireframe
350
3D48
  3
Basic
350
3D46
  3
Brighten
350
3D4D
  3
ColorChange
350
3D51
  3
Conceptual
350
3D4A
  3
Dim
350
3D4C
  3
EdgeColorOff
350
3D54
  3
Facepattern
350
3D50
  3
Flat
350
3D42
  3
FlatWithEdges
350
3D43
  3
Gouraud
350
3D44
  3
GouraudWithEdges
350
3D45
  3
JitterOff
350
3D52
  3
Linepattern
350
3D4F
  3
OverhangOff
350
3D53
  3
Realistic
350
3D4B
  3
Thicken
350
3D4E
  0
XRECORD
  5
3D99
102
{ACAD_REACTORS
330
C
102
}
330
C
100
AcDbXrecord
280
     1
 90
        1
330
3D57
  0
DICTIONARY
  5
3D
102
{ACAD_REACTORS
330
C
102
}
330
C
100
AcDbDictionary
281
     1
  3
CANNOSCALE
350
3D93
  3
CMLEADERSTYLE
350
3D92
  3
CTABLESTYLE
350
3D91
  3
DIMASSOC
350
3F
  3
HIDETEXT
350
3E
  3
INDEXCTL
350
3D95
  3
SORTENTS
350
3D94
  3
XCLIPFRAME
350
3D96
  0
DICTIONARY
  5
3D24
102
{ACAD_REACTORS
330
C
102
}
330
C
100
AcDbDictionary
281
     1
  3
ASEBlockHierarchyIndexRecord
350
3D25
1001
DCO15
1040
1757682151.328
  0
XRECORD
  5
3D9A
102
{ACAD_REACTORS
330
C
102
}
330
C
100
AcDbXrecord
280
     1
  1
DWGPROPS COOKIE
  2

  3

  4

  6

  7

  8
Julio
  9

300
=
301
=
302
=
303
=
304
=
305
=
306
=
307
=
308
=
309
=
 40
0.0018104398148148
 41
2453480.607913229
 42
2456146.75527
  1

 90
        0
  0
XRECORD
  5
3D72
102
{ACAD_REACTORS
330
3D71
102
}
330
3D71
100
AcDbXrecord
280
     1
290
     1
  0
XRECORD
  5
3D74
102
{ACAD_REACTORS
330
3D73
102
}
330
3D73
100
AcDbXrecord
280
     1
290
     1
  0
XRECORD
  5
3D76
102
{ACAD_REACTORS
330
3D75
102
}
330
3D75
100
AcDbXrecord
280
     1
290
     1
  0
XRECORD
  5
3D78
102
{ACAD_REACTORS
330
3D77
102
}
330
3D77
100
AcDbXrecord
280
     1
290
     1
  0
XRECORD
  5
3D7A
102
{ACAD_REACTORS
330
3D79
102
}
330
3D79
100
AcDbXrecord
280
     1
290
     1
  0
XRECORD
  5
3D7C
102
{ACAD_REACTORS
330
3D7B
102
}
330
3D7B
100
AcDbXrecord
280
     1
290
     1
  0
XRECORD
  5
3D7E
102
{ACAD_REACTORS
330
3D7D
102
}
330
3D7D
100
AcDbXrecord
280
     1
290
     1
  0
XRECORD
  5
3D80
102
{ACAD_REACTORS
330
3D7F
102
}
330
3D7F
100
AcDbXrecord
280
     1
290
     1
  0
XRECORD
  5
3D82
102
{ACAD_REACTORS
330
3D81
102
}
330
3D81
100
AcDbXrecord
280
     1
290
     1
  0
XRECORD
  5
3D84
102
{ACAD_REACTORS
330
3D83
102
}
330
3D83
100
AcDbXrecord
280
     1
290
     1
  0
XRECORD
  5
3D86
102
{ACAD_REACTORS
330
3D85
102
}
330
3D85
100
AcDbXrecord
280
     1
290
     1
  0
XRECORD
  5
3D88
102
{ACAD_REACTORS
330
3D87
102
}
330
3D87
100
AcDbXrecord
280
     1
290
     1
  0
XRECORD
  5
3D8A
102
{ACAD_REACTORS
330
3D89
102
}
330
3D89
100
AcDbXrecord
280
     1
290
     1
  0
XRECORD
  5
3D8C
102
{ACAD_REACTORS
330
3D8B
102
}
330
3D8B
100
AcDbXrecord
280
     1
290
     1
  0
XRECORD
  5
3D8E
102
{ACAD_REACTORS
330
3D8D
102
}
330
3D8D
100
AcDbXrecord
280
     1
290
     1
  0
XRECORD
  5
3D90
102
{ACAD_REACTORS
330
3D8F
102
}
330
3D8F
100
AcDbXrecord
280
     1
290
     1
  0
LAYOUT
  5
1E
102
{ACAD_XDICTIONARY
360
3D9B
102
}
102
{ACAD_REACTORS
330
1A
102
}
330
1A
100
AcDbPlotSettings
  1

  2
Ploter HP500
  4

  6

 40
0.0
 41
0.0
 42
0.0
 43
0.0
 44
0.0
 45
0.0
 46
0.0
 47
0.0
 48
0.0
 49
0.0
140
0.0
141
0.0
142
1.0
143
1.0
 70
   688
 72
     0
 73
     0
 74
     5
  7
monochrome.ctb
 75
    16
147
1.0
148
0.0
149
0.0
100
AcDbLayout
  1
Layout1
 70
     1
 71
     1
 10
0.0
 20
0.0
 11
420.0
 21
297.0
 12
0.0
 22
0.0
 32
0.0
 14
1.000000000000000E+20
 24
1.000000000000000E+20
 34
1.000000000000000E+20
 15
-1.000000000000000E+20
 25
-1.000000000000000E+20
 35
-1.000000000000000E+20
146
0.0
 13
0.0
 23
0.0
 33
0.0
 16
1.0
 26
0.0
 36
0.0
 17
0.0
 27
1.0
 37
0.0
 76
     0
330
1B
  0
LAYOUT
  5
26
102
{ACAD_XDICTIONARY
360
3D9F
102
}
102
{ACAD_REACTORS
330
1A
102
}
330
1A
100
AcDbPlotSettings
  1

  2
Ploter HP500
  4

  6

 40
0.0
 41
0.0
 42
0.0
 43
0.0
 44
0.0
 45
0.0
 46
0.0
 47
0.0
 48
0.0
 49
0.0
140
0.0
141
0.0
142
1.0
143
1.0
 70
   688
 72
     0
 73
     0
 74
     5
  7
monochrome.ctb
 75
    16
147
1.0
148
0.0
149
0.0
100
AcDbLayout
  1
Layout2
 70
     1
 71
     2
 10
0.0
 20
0.0
 11
12.0
 21
9.0
 12
0.0
 22
0.0
 32
0.0
 14
0.0
 24
0.0
 34
0.0
 15
0.0
 25
0.0
 35
0.0
146
0.0
 13
0.0
 23
0.0
 33
0.0
 16
1.0
 26
0.0
 36
0.0
 17
0.0
 27
1.0
 37
0.0
 76
     0
330
23
  0
LAYOUT
  5
22
102
{ACAD_XDICTIONARY
360
3D9D
102
}
102
{ACAD_REACTORS
330
1A
102
}
330
1A
100
AcDbPlotSettings
  1

  2
Ploter HP500
  4
User268
  6

 40
4.995333194732666
 41
16.97565841674804
 42
4.995330810546875
 43
16.97567749023437
 44
209.9733276367187
 45
296.9259948730469
 46
0.0
 47
0.0
 48
0.0
 49
0.0
140
0.0
141
0.0
142
1.0
143
1.0
 70
 11952
 72
     1
 73
     1
 74
     0
  7

 75
     0
147
1.0
148
-427.5957866592534
149
7.362384574453926
100
AcDbLayout
  1
Model
 70
     1
 71
     0
 10
0.0
 20
0.0
 11
12.0
 21
9.0
 12
0.0
 22
0.0
 32
0.0
 14
0.0
 24
0.0
 34
0.0
 15
0.0
 25
0.0
 35
0.0
146
0.0
 13
0.0
 23
0.0
 33
0.0
 16
1.0
 26
0.0
 36
0.0
 17
0.0
 27
1.0
 37
0.0
 76
     0
330
1F
331
3D26
  0
MATERIAL
  5
3D31
102
{ACAD_XDICTIONARY
360
3D32
102
}
102
{ACAD_REACTORS
330
3D28
102
}
330
3D28
100
AcDbMaterial
  1
ByBlock
 72
     0
 43
0.0008202099737533
 43
0.0
 43
0.0
 43
0.0
 43
0.0
 43
0.0008202099737533
 43
0.0
 43
0.0
 43
0.0
 43
0.0
 43
1.0
 43
0.0
 43
0.0
 43
0.0
 43
0.0
 43
1.0
 77
     0
 47
0.0008202099737533
 47
0.0
 47
0.0
 47
0.0
 47
0.0
 47
0.0008202099737533
 47
0.0
 47
0.0
 47
0.0
 47
0.0
 47
1.0
 47
0.0
 47
0.0
 47
0.0
 47
0.0
 47
1.0
171
     0
 49
0.0008202099737533
 49
0.0
 49
0.0
 49
0.0
 49
0.0
 49
0.0008202099737533
 49
0.0
 49
0.0
 49
0.0
 49
0.0
 49
1.0
 49
0.0
 49
0.0
 49
0.0
 49
0.0
 49
1.0
175
     0
142
0.0008202099737533
142
0.0
142
0.0
142
0.0
142
0.0
142
0.0008202099737533
142
0.0
142
0.0
142
0.0
142
0.0
142
1.0
142
0.0
142
0.0
142
0.0
142
0.0
142
1.0
179
     0
144
0.0008202099737533
144
0.0
144
0.0
144
0.0
144
0.0
144
0.0008202099737533
144
0.0
144
0.0
144
0.0
144
0.0
144
1.0
144
0.0
144
0.0
144
0.0
144
0.0
144
1.0
147
0.0008202099737533
147
0.0
147
0.0
147
0.0
147
0.0
147
0.0008202099737533
147
0.0
147
0.0
147
0.0
147
0.0
147
1.0
147
0.0
147
0.0
147
0.0
147
0.0
147
1.0
  0
MATERIAL
  5
3D29
102
{ACAD_XDICTIONARY
360
3D2A
102
}
102
{ACAD_REACTORS
330
3D28
102
}
330
3D28
100
AcDbMaterial
  1
ByLayer
 72
     0
 43
0.0008202099737533
 43
0.0
 43
0.0
 43
0.0
 43
0.0
 43
0.0008202099737533
 43
0.0
 43
0.0
 43
0.0
 43
0.0
 43
1.0
 43
0.0
 43
0.0
 43
0.0
 43
0.0
 43
1.0
 77
     0
 47
0.0008202099737533
 47
0.0
 47
0.0
 47
0.0
 47
0.0
 47
0.0008202099737533
 47
0.0
 47
0.0
 47
0.0
 47
0.0
 47
1.0
 47
0.0
 47
0.0
 47
0.0
 47
0.0
 47
1.0
171
     0
 49
0.0008202099737533
 49
0.0
 49
0.0
 49
0.0
 49
0.0
 49
0.0008202099737533
 49
0.0
 49
0.0
 49
0.0
 49
0.0
 49
1.0
 49
0.0
 49
0.0
 49
0.0
 49
0.0
 49
1.0
175
     0
142
0.0008202099737533
142
0.0
142
0.0
142
0.0
142
0.0
142
0.0008202099737533
142
0.0
142
0.0
142
0.0
142
0.0
142
1.0
142
0.0
142
0.0
142
0.0
142
0.0
142
1.0
179
     0
144
0.0008202099737533
144
0.0
144
0.0
144
0.0
144
0.0
144
0.0008202099737533
144
0.0
144
0.0
144
0.0
144
0.0
144
1.0
144
0.0
144
0.0
144
0.0
144
0.0
144
1.0
147
0.0008202099737533
147
0.0
147
0.0
147
0.0
147
0.0
147
0.0008202099737533
147
0.0
147
0.0
147
0.0
147
0.0
147
1.0
147
0.0
147
0.0
147
0.0
147
0.0
147
1.0
  0
MATERIAL
  5
3D39
102
{ACAD_XDICTIONARY
360
3D3A
102
}
102
{ACAD_REACTORS
330
3D28
102
}
330
3D28
100
AcDbMaterial
  1
Global
 72
     0
 43
0.0008202099737533
 43
0.0
 43
0.0
 43
0.0
 43
0.0
 43
0.0008202099737533
 43
0.0
 43
0.0
 43
0.0
 43
0.0
 43
1.0
 43
0.0
 43
0.0
 43
0.0
 43
0.0
 43
1.0
 77
     0
 47
0.0008202099737533
 47
0.0
 47
0.0
 47
0.0
 47
0.0
 47
0.0008202099737533
 47
0.0
 47
0.0
 47
0.0
 47
0.0
 47
1.0
 47
0.0
 47
0.0
 47
0.0
 47
0.0
 47
1.0
171
     0
 49
0.0008202099737533
 49
0.0
 49
0.0
 49
0.0
 49
0.0
 49
0.0008202099737533
 49
0.0
 49
0.0
 49
0.0
 49
0.0
 49
1.0
 49
0.0
 49
0.0
 49
0.0
 49
0.0
 49
1.0
175
     0
142
0.0008202099737533
142
0.0
142
0.0
142
0.0
142
0.0
142
0.0008202099737533
142
0.0
142
0.0
142
0.0
142
0.0
142
1.0
142
0.0
142
0.0
142
0.0
142
0.0
142
1.0
179
     0
144
0.0008202099737533
144
0.0
144
0.0
144
0.0
144
0.0
144
0.0008202099737533
144
0.0
144
0.0
144
0.0
144
0.0
144
1.0
144
0.0
144
0.0
144
0.0
144
0.0
144
1.0
147
0.0008202099737533
147
0.0
147
0.0
147
0.0
147
0.0
147
0.0008202099737533
147
0.0
147
0.0
147
0.0
147
0.0
147
1.0
147
0.0
147
0.0
147
0.0
147
0.0
147
1.0
  0
MLEADERSTYLE
  5
3D6B
102
{ACAD_REACTORS
330
3D6A
102
}
330
3D6A
100
AcDbMLeaderStyle
170
     2
171
     1
172
     0
 90
        2
 40
0.0
 41
0.0
173
     1
 91
-1056964608
340
14
 92
       -2
290
     1
 42
2.0
291
     1
 43
0.36
  3
Standard
 44
4.0
300

342
11
174
     1
178
     6
175
     1
176
     0
 93
-1056964608
 45
4.0
292
     0
297
     0
 46
4.0
 94
-1056964608
 47
1.0
 49
1.0
140
1.0
293
     1
141
0.0
294
     1
177
     0
142
1.0
295
     0
296
     0
143
0.125
1001
ACAD_MLEADERVER
1070
     2
  0
MLINESTYLE
  5
18
102
{ACAD_REACTORS
330
17
102
}
330
17
100
AcDbMlineStyle
  2
STANDARD
 70
     0
  3

 62
   256
 51
90.0
 52
90.0
 71
     2
 49
0.5
 62
   256
  6
BYLAYER
 49
-0.5
 62
   256
  6
BYLAYER
  0
ACDBPLACEHOLDER
  5
F
102
{ACAD_REACTORS
330
E
102
}
330
E
  0
SCALE
  5
3D59
102
{ACAD_REACTORS
330
3D58
102
}
330
3D58
100
AcDbScale
 70
     0
300
1:1
140
1.0
141
1.0
290
     1
  0
SCALE
  5
3D5A
102
{ACAD_REACTORS
330
3D58
102
}
330
3D58
100
AcDbScale
 70
     0
300
1:2
140
1.0
141
2.0
290
     0
  0
SCALE
  5
3D5B
102
{ACAD_REACTORS
330
3D58
102
}
330
3D58
100
AcDbScale
 70
     0
300
1:4
140
1.0
141
4.0
290
     0
  0
SCALE
  5
3D5C
102
{ACAD_REACTORS
330
3D58
102
}
330
3D58
100
AcDbScale
 70
     0
300
1:5
140
1.0
141
5.0
290
     0
  0
SCALE
  5
3D5D
102
{ACAD_REACTORS
330
3D58
102
}
330
3D58
100
AcDbScale
 70
     0
300
1:8
140
1.0
141
8.0
290
     0
  0
SCALE
  5
3D5E
102
{ACAD_REACTORS
330
3D58
102
}
330
3D58
100
AcDbScale
 70
     0
300
1:10
140
1.0
141
10.0
290
     0
  0
SCALE
  5
3D5F
102
{ACAD_REACTORS
330
3D58
102
}
330
3D58
100
AcDbScale
 70
     0
300
1:16
140
1.0
141
16.0
290
     0
  0
SCALE
  5
3D60
102
{ACAD_REACTORS
330
3D58
102
}
330
3D58
100
AcDbScale
 70
     0
300
1:20
140
1.0
141
20.0
290
     0
  0
SCALE
  5
3D61
102
{ACAD_REACTORS
330
3D58
102
}
330
3D58
100
AcDbScale
 70
     0
300
1:30
140
1.0
141
30.0
290
     0
  0
SCALE
  5
3D62
102
{ACAD_REACTORS
330
3D58
102
}
330
3D58
100
AcDbScale
 70
     0
300
1:40
140
1.0
141
40.0
290
     0
  0
SCALE
  5
3D63
102
{ACAD_REACTORS
330
3D58
102
}
330
3D58
100
AcDbScale
 70
     0
300
1:50
140
1.0
141
50.0
290
     0
  0
SCALE
  5
3D64
102
{ACAD_REACTORS
330
3D58
102
}
330
3D58
100
AcDbScale
 70
     0
300
1:100
140
1.0
141
100.0
290
     0
  0
SCALE
  5
3D65
102
{ACAD_REACTORS
330
3D58
102
}
330
3D58
100
AcDbScale
 70
     0
300
2:1
140
2.0
141
1.0
290
     0
  0
SCALE
  5
3D66
102
{ACAD_REACTORS
330
3D58
102
}
330
3D58
100
AcDbScale
 70
     0
300
4:1
140
4.0
141
1.0
290
     0
  0
SCALE
  5
3D67
102
{ACAD_REACTORS
330
3D58
102
}
330
3D58
100
AcDbScale
 70
     0
300
8:1
140
8.0
141
1.0
290
     0
  0
SCALE
  5
3D68
102
{ACAD_REACTORS
330
3D58
102
}
330
3D58
100
AcDbScale
 70
     0
300
10:1
140
10.0
141
1.0
290
     0
  0
SCALE
  5
3D69
102
{ACAD_REACTORS
330
3D58
102
}
330
3D58
100
AcDbScale
 70
     0
300
100:1
140
100.0
141
1.0
290
     0
  0
TABLESTYLE
  5
3D57
102
{ACAD_XDICTIONARY
360
3D97
102
}
102
{ACAD_REACTORS
330
3D56
102
}
330
3D56
100
AcDbTableStyle
  3
Standard
 70
     0
 71
     0
 40
1.5
 41
1.5
280
     0
281
     0
  7
Standard
140
4.5
170
     2
 62
     0
 63
     7
283
     0
274
    -2
284
     1
 64
     0
275
    -2
285
     1
 65
     0
276
    -2
286
     1
 66
     0
277
    -2
287
     1
 67
     0
278
    -2
288
     1
 68
     0
279
    -2
289
     1
 69
     0
  7
Standard
140
6.0
170
     5
 62
     0
 63
     7
283
     0
274
    -2
284
     1
 64
     0
275
    -2
285
     1
 65
     0
276
    -2
286
     1
 66
     0
277
    -2
287
     1
 67
     0
278
    -2
288
     1
 68
     0
279
    -2
289
     1
 69
     0
  7
Standard
140
4.5
170
     5
 62
     0
 63
     7
283
     0
274
    -2
284
     1
 64
     0
275
    -2
285
     1
 65
     0
276
    -2
286
     1
 66
     0
277
    -2
287
     1
 67
     0
278
    -2
288
     1
 68
     0
279
    -2
289
     1
 69
     0
  0
VISUALSTYLE
  5
3D47
102
{ACAD_XDICTIONARY
360
3DBE
102
}
102
{ACAD_REACTORS
330
3D41
102
}
330
3D41
100
AcDbVisualStyle
  2
2dWireframe
 70
     4
 71
     0
 72
     2
 73
     0
 90
        0
 40
-0.6
 41
-30.0
 62
     5
 63
     7
 74
     1
 91
        4
 64
     7
 65
   257
 75
     1
175
     1
 42
1.0
 92
        0
 66
   257
 43
1.0
 76
     1
 77
     6
 78
     2
 67
     7
 79
     5
170
     0
171
     0
290
     0
174
     0
 93
        1
 44
0.0
173
     0
291
     0
 45
0.0
1001
ACAD
1000
AcDbSavedByObjectVersion
1070
     0
  0
VISUALSTYLE
  5
3D49
102
{ACAD_XDICTIONARY
360
3DC2
102
}
102
{ACAD_REACTORS
330
3D41
102
}
330
3D41
100
AcDbVisualStyle
  2
3D Hidden
 70
     6
 71
     1
 72
     2
 73
     2
 90
        0
 40
-0.6
 41
-30.0
 62
     5
 63
     7
 74
     2
 91
        2
 64
     7
 65
   257
 75
     2
175
     1
 42
179.0
 92
        0
 66
   257
 43
1.0
 76
     1
 77
     6
 78
     2
 67
     7
 79
     3
170
     0
171
     0
290
     0
174
     0
 93
        1
 44
0.0
173
     0
291
     0
 45
0.0
1001
ACAD
1000
AcDbSavedByObjectVersion
1070
     0
  0
VISUALSTYLE
  5
3D48
102
{ACAD_XDICTIONARY
360
3DC0
102
}
102
{ACAD_REACTORS
330
3D41
102
}
330
3D41
100
AcDbVisualStyle
  2
3dWireframe
 70
     5
 71
     0
 72
     2
 73
     0
 90
        0
 40
-0.6
 41
-30.0
 62
     5
 63
     7
 74
     1
 91
        4
 64
     7
 65
   257
 75
     1
175
     1
 42
1.0
 92
        0
 66
   257
 43
1.0
 76
     1
 77
     6
 78
     2
 67
     7
 79
     5
170
     0
171
     0
290
     0
174
     0
 93
        1
 44
0.0
173
     0
291
     0
 45
0.0
1001
ACAD
1000
AcDbSavedByObjectVersion
1070
     0
  0
VISUALSTYLE
  5
3D46
102
{ACAD_XDICTIONARY
360
3DBC
102
}
102
{ACAD_REACTORS
330
3D41
102
}
330
3D41
100
AcDbVisualStyle
  2
Basic
 70
     7
 71
     1
 72
     0
 73
     1
 90
        0
 40
-0.6
 41
-30.0
 62
     5
 63
     7
 74
     0
 91
        4
 64
     7
 65
   257
 75
     1
175
     1
 42
1.0
 92
        8
 66
     7
 43
1.0
 76
     1
 77
     6
 78
     2
 67
     7
 79
     5
170
     0
171
     0
290
     0
174
     0
 93
        1
 44
0.0
173
     0
291
     1
 45
0.0
1001
ACAD
1000
AcDbSavedByObjectVersion
1070
     0
  0
VISUALSTYLE
  5
3D4D
102
{ACAD_XDICTIONARY
360
3DCA
102
}
102
{ACAD_REACTORS
330
3D41
102
}
330
3D41
100
AcDbVisualStyle
  2
Brighten
 70
    12
 71
     2
 72
     2
 73
     0
 90
        0
 40
-0.6
 41
-30.0
 62
     5
 63
     7
 74
     1
 91
        4
 64
     7
 65
   257
 75
     1
175
     1
 42
1.0
 92
        8
 66
     7
 43
1.0
 76
     1
 77
     6
 78
     2
 67
     7
 79
     5
170
     0
171
     0
290
     0
174
     0
 93
        1
 44
50.0
173
     0
291
     1
 45
0.0
1001
ACAD
1000
AcDbSavedByObjectVersion
1070
     0
  0
VISUALSTYLE
  5
3D51
102
{ACAD_XDICTIONARY
360
3DD2
102
}
102
{ACAD_REACTORS
330
3D41
102
}
330
3D41
100
AcDbVisualStyle
  2
ColorChange
 70
    16
 71
     2
 72
     2
 73
     3
 90
        0
 40
-0.6
 41
-30.0
 62
     5
 63
     8
 74
     1
 91
        4
 64
     7
 65
   257
 75
     1
175
     1
 42
1.0
 92
        8
 66
     8
 43
1.0
 76
     1
 77
     6
 78
     2
 67
     7
 79
     5
170
     0
171
     0
290
     0
174
     0
 93
        1
 44
0.0
173
     0
291
     1
 45
0.0
1001
ACAD
1000
AcDbSavedByObjectVersion
1070
     0
  0
VISUALSTYLE
  5
3D4A
102
{ACAD_XDICTIONARY
360
3DC4
102
}
102
{ACAD_REACTORS
330
3D41
102
}
330
3D41
100
AcDbVisualStyle
  2
Conceptual
 70
     9
 71
     3
 72
     2
 73
     0
 90
        0
 40
-0.6
 41
-30.0
 62
     5
 63
     7
 74
     2
 91
        2
 64
     7
 65
   257
 75
     1
175
     1
 42
179.0
 92
        8
 66
     7
 43
1.0
 76
     1
 77
     6
 78
     2
 67
     7
 79
     3
170
     0
171
     0
290
     0
174
     0
 93
        1
 44
0.0
173
     0
291
     0
 45
0.0
1001
ACAD
1000
AcDbSavedByObjectVersion
1070
     0
  0
VISUALSTYLE
  5
3D4C
102
{ACAD_XDICTIONARY
360
3DC8
102
}
102
{ACAD_REACTORS
330
3D41
102
}
330
3D41
100
AcDbVisualStyle
  2
Dim
 70
    11
 71
     2
 72
     2
 73
     0
 90
        0
 40
-0.6
 41
-30.0
 62
     5
 63
     7
 74
     1
 91
        4
 64
     7
 65
   257
 75
     1
175
     1
 42
1.0
 92
        8
 66
     7
 43
1.0
 76
     1
 77
     6
 78
     2
 67
     7
 79
     5
170
     0
171
     0
290
     0
174
     0
 93
        1
 44
-50.0
173
     0
291
     1
 45
0.0
1001
ACAD
1000
AcDbSavedByObjectVersion
1070
     0
  0
VISUALSTYLE
  5
3D54
102
{ACAD_XDICTIONARY
360
3DD8
102
}
102
{ACAD_REACTORS
330
3D41
102
}
330
3D41
100
AcDbVisualStyle
  2
EdgeColorOff
 70
    22
 71
     2
 72
     2
 73
     0
 90
        0
 40
-0.6
 41
-30.0
 62
     5
 63
     7
 74
     1
 91
        4
 64
     7
 65
   257
 75
     1
175
     1
 42
1.0
 92
        8
 66
     7
 43
1.0
 76
     1
 77
     6
 78
     2
 67
     7
 79
     5
170
     0
171
     0
290
     0
174
     0
 93
        1
 44
0.0
173
     0
291
     1
 45
0.0
1001
ACAD
1000
AcDbSavedByObjectVersion
1070
     0
  0
VISUALSTYLE
  5
3D50
102
{ACAD_XDICTIONARY
360
3DD0
102
}
102
{ACAD_REACTORS
330
3D41
102
}
330
3D41
100
AcDbVisualStyle
  2
Facepattern
 70
    15
 71
     2
 72
     2
 73
     0
 90
        0
 40
-0.6
 41
-30.0
 62
     5
 63
     7
 74
     1
 91
        4
 64
     7
 65
   257
 75
     1
175
     1
 42
1.0
 92
        8
 66
     7
 43
1.0
 76
     1
 77
     6
 78
     2
 67
     7
 79
     5
170
     0
171
     0
290
     0
174
     0
 93
        1
 44
0.0
173
     0
291
     1
 45
0.0
1001
ACAD
1000
AcDbSavedByObjectVersion
1070
     0
  0
VISUALSTYLE
  5
3D42
102
{ACAD_XDICTIONARY
360
3DB4
102
}
102
{ACAD_REACTORS
330
3D41
102
}
330
3D41
100
AcDbVisualStyle
  2
Flat
 70
     0
 71
     2
 72
     1
 73
     1
 90
        2
 40
-0.6
 41
30.0
 62
     5
 63
     7
 74
     0
 91
        4
 64
     7
 65
   257
 75
     1
175
     1
 42
1.0
 92
        8
 66
     7
 43
1.0
 76
     1
 77
     6
 78
     2
 67
     7
 79
     5
170
     0
171
     0
290
     0
174
     0
 93
       13
 44
0.0
173
     0
291
     1
 45
0.0
1001
ACAD
1000
AcDbSavedByObjectVersion
1070
     0
  0
VISUALSTYLE
  5
3D43
102
{ACAD_XDICTIONARY
360
3DB6
102
}
102
{ACAD_REACTORS
330
3D41
102
}
330
3D41
100
AcDbVisualStyle
  2
FlatWithEdges
 70
     1
 71
     2
 72
     1
 73
     1
 90
        2
 40
-0.6
 41
30.0
 62
     5
 63
     7
 74
     1
 91
        4
 64
     7
 65
   257
 75
     1
175
     1
 42
1.0
 92
        0
 66
   257
 43
1.0
 76
     1
 77
     6
 78
     2
 67
     7
 79
     5
170
     0
171
     0
290
     0
174
     0
 93
       13
 44
0.0
173
     0
291
     1
 45
0.0
1001
ACAD
1000
AcDbSavedByObjectVersion
1070
     0
  0
VISUALSTYLE
  5
3D44
102
{ACAD_XDICTIONARY
360
3DB8
102
}
102
{ACAD_REACTORS
330
3D41
102
}
330
3D41
100
AcDbVisualStyle
  2
Gouraud
 70
     2
 71
     2
 72
     2
 73
     1
 90
        2
 40
-0.6
 41
30.0
 62
     5
 63
     7
 74
     0
 91
        4
 64
     7
 65
   257
 75
     1
175
     1
 42
1.0
 92
        0
 66
     7
 43
1.0
 76
     1
 77
     6
 78
     2
 67
     7
 79
     5
170
     0
171
     0
290
     0
174
     0
 93
       13
 44
0.0
173
     0
291
     1
 45
0.0
1001
ACAD
1000
AcDbSavedByObjectVersion
1070
     0
  0
VISUALSTYLE
  5
3D45
102
{ACAD_XDICTIONARY
360
3DBA
102
}
102
{ACAD_REACTORS
330
3D41
102
}
330
3D41
100
AcDbVisualStyle
  2
GouraudWithEdges
 70
     3
 71
     2
 72
     2
 73
     1
 90
        2
 40
-0.6
 41
30.0
 62
     5
 63
     7
 74
     1
 91
        4
 64
     7
 65
   257
 75
     1
175
     1
 42
1.0
 92
        0
 66
   257
 43
1.0
 76
     1
 77
     6
 78
     2
 67
     7
 79
     5
170
     0
171
     0
290
     0
174
     0
 93
       13
 44
0.0
173
     0
291
     1
 45
0.0
1001
ACAD
1000
AcDbSavedByObjectVersion
1070
     0
  0
VISUALSTYLE
  5
3D52
102
{ACAD_XDICTIONARY
360
3DD4
102
}
102
{ACAD_REACTORS
330
3D41
102
}
330
3D41
100
AcDbVisualStyle
  2
JitterOff
 70
    20
 71
     2
 72
     2
 73
     0
 90
        0
 40
-0.6
 41
-30.0
 62
     5
 63
     7
 74
     1
 91
        4
 64
     7
 65
   257
 75
     1
175
     1
 42
1.0
 92
       10
 66
     7
 43
1.0
 76
     1
 77
     6
 78
     2
 67
     7
 79
     5
170
     0
171
     0
290
     0
174
     0
 93
        1
 44
0.0
173
     0
291
     1
 45
0.0
1001
ACAD
1000
AcDbSavedByObjectVersion
1070
     0
  0
VISUALSTYLE
  5
3D4F
102
{ACAD_XDICTIONARY
360
3DCE
102
}
102
{ACAD_REACTORS
330
3D41
102
}
330
3D41
100
AcDbVisualStyle
  2
Linepattern
 70
    14
 71
     2
 72
     2
 73
     0
 90
        0
 40
-0.6
 41
-30.0
 62
     5
 63
     7
 74
     1
 91
        4
 64
     7
 65
   257
 75
     7
175
     7
 42
1.0
 92
        8
 66
     7
 43
1.0
 76
     1
 77
     6
 78
     2
 67
     7
 79
     5
170
     0
171
     0
290
     0
174
     0
 93
        1
 44
0.0
173
     0
291
     1
 45
0.0
1001
ACAD
1000
AcDbSavedByObjectVersion
1070
     0
  0
VISUALSTYLE
  5
3D53
102
{ACAD_XDICTIONARY
360
3DD6
102
}
102
{ACAD_REACTORS
330
3D41
102
}
330
3D41
100
AcDbVisualStyle
  2
OverhangOff
 70
    21
 71
     2
 72
     2
 73
     0
 90
        0
 40
-0.6
 41
-30.0
 62
     5
 63
     7
 74
     1
 91
        4
 64
     7
 65
   257
 75
     1
175
     1
 42
1.0
 92
        9
 66
     7
 43
1.0
 76
     1
 77
     6
 78
     2
 67
     7
 79
     5
170
     0
171
     0
290
     0
174
     0
 93
        1
 44
0.0
173
     0
291
     1
 45
0.0
1001
ACAD
1000
AcDbSavedByObjectVersion
1070
     0
  0
VISUALSTYLE
  5
3D4B
102
{ACAD_XDICTIONARY
360
3DC6
102
}
102
{ACAD_REACTORS
330
3D41
102
}
330
3D41
100
AcDbVisualStyle
  2
Realistic
 70
     8
 71
     2
 72
     2
 73
     0
 90
        0
 40
-0.6
 41
-30.0
 62
     5
 63
     7
 74
     1
 91
        0
 64
     7
 65
   257
 75
     1
175
     1
 42
1.0
 92
        8
 66
     8
 43
1.0
 76
     1
 77
     6
 78
     2
 67
     7
 79
     5
170
     0
171
     0
290
     0
174
     0
 93
       13
 44
0.0
173
     0
291
     0
 45
0.0
1001
ACAD
1000
AcDbSavedByObjectVersion
1070
     0
  0
VISUALSTYLE
  5
3D4E
102
{ACAD_XDICTIONARY
360
3DCC
102
}
102
{ACAD_REACTORS
330
3D41
102
}
330
3D41
100
AcDbVisualStyle
  2
Thicken
 70
    13
 71
     2
 72
     2
 73
     0
 90
        0
 40
-0.6
 41
-30.0
 62
     5
 63
     7
 74
     1
 91
        4
 64
     7
 65
   257
 75
     1
175
     1
 42
1.0
 92
       12
 66
     7
 43
1.0
 76
     1
 77
     6
 78
     2
 67
     7
 79
     5
170
     0
171
     0
290
     0
174
     0
 93
        1
 44
0.0
173
     0
291
     1
 45
0.0
1001
ACAD
1000
AcDbSavedByObjectVersion
1070
     0
  0
DICTIONARYVAR
  5
3D93
102
{ACAD_REACTORS
330
3D
102
}
330
3D
100
DictionaryVariables
280
     0
  1
1:1
  0
DICTIONARYVAR
  5
3D92
102
{ACAD_REACTORS
330
3D
102
}
330
3D
100
DictionaryVariables
280
     0
  1
STANDARD
  0
DICTIONARYVAR
  5
3D91
102
{ACAD_REACTORS
330
3D
102
}
330
3D
100
DictionaryVariables
280
     0
  1
STANDARD
  0
DICTIONARYVAR
  5
3F
102
{ACAD_REACTORS
330
3D
102
}
330
3D
100
DictionaryVariables
280
     0
  1
2
  0
DICTIONARYVAR
  5
3E
102
{ACAD_REACTORS
330
3D
102
}
330
3D
100
DictionaryVariables
280
     0
  1
1
  0
DICTIONARYVAR
  5
3D95
102
{ACAD_REACTORS
330
3D
102
}
330
3D
100
DictionaryVariables
280
     0
  1
0
  0
DICTIONARYVAR
  5
3D94
102
{ACAD_REACTORS
330
3D
102
}
330
3D
100
DictionaryVariables
280
     0
  1
127
  0
DICTIONARYVAR
  5
3D96
102
{ACAD_REACTORS
330
3D
102
}
330
3D
100
DictionaryVariables
280
     0
  1
2
  0
XRECORD
  5
3D25
102
{ACAD_REACTORS
330
3D24
102
}
330
3D24
100
AcDbXrecord
280
     1
  0
DICTIONARY
  5
3D9B
330
1E
100
AcDbDictionary
280
     1
281
     1
  3
ACAD_XREC_ROUNDTRIP
360
3D9C
  0
DICTIONARY
  5
3D9F
330
26
100
AcDbDictionary
280
     1
281
     1
  3
ACAD_XREC_ROUNDTRIP
360
3DA0
  0
DICTIONARY
  5
3D9D
330
22
100
AcDbDictionary
280
     1
281
     1
  3
ACAD_XREC_ROUNDTRIP
360
3D9E
  0
DICTIONARY
  5
3D32
330
3D31
100
AcDbDictionary
280
     1
281
     1
  3
ACAD_XREC_ROUNDTRIP
360
3DB2
  3
BUMPTILE
360
3D34
  3
DIFFUSETILE
360
3D33
  3
OPACITYTILE
360
3D37
  3
REFLECTIONTILE
360
3D36
  3
REFRACTIONTILE
360
3D38
  3
SPECULARTILE
360
3D35
  0
DICTIONARY
  5
3D2A
330
3D29
100
AcDbDictionary
280
     1
281
     1
  3
ACAD_XREC_ROUNDTRIP
360
3DB1
  3
BUMPTILE
360
3D2C
  3
DIFFUSETILE
360
3D2B
  3
OPACITYTILE
360
3D2F
  3
REFLECTIONTILE
360
3D2E
  3
REFRACTIONTILE
360
3D30
  3
SPECULARTILE
360
3D2D
  0
DICTIONARY
  5
3D3A
330
3D39
100
AcDbDictionary
280
     1
281
     1
  3
ACAD_XREC_ROUNDTRIP
360
3DB3
  3
BUMPTILE
360
3D3C
  3
DIFFUSETILE
360
3D3B
  3
OPACITYTILE
360
3D3F
  3
REFLECTIONTILE
360
3D3E
  3
REFRACTIONTILE
360
3D40
  3
SPECULARTILE
360
3D3D
  0
DICTIONARY
  5
3D97
330
3D57
100
AcDbDictionary
280
     1
281
     1
  3
ACAD_ROUNDTRIP_2008_TABLESTYLE_CELLSTYLEMAP
360
3D98
  3
ACAD_XREC_ROUNDTRIP
360
3DDA
  0
DICTIONARY
  5
3DBE
330
3D47
100
AcDbDictionary
280
     1
281
     1
  3
ACAD_XREC_ROUNDTRIP
360
3DBF
  0
DICTIONARY
  5
3DC2
330
3D49
100
AcDbDictionary
280
     1
281
     1
  3
ACAD_XREC_ROUNDTRIP
360
3DC3
  0
DICTIONARY
  5
3DC0
330
3D48
100
AcDbDictionary
280
     1
281
     1
  3
ACAD_XREC_ROUNDTRIP
360
3DC1
  0
DICTIONARY
  5
3DBC
330
3D46
100
AcDbDictionary
280
     1
281
     1
  3
ACAD_XREC_ROUNDTRIP
360
3DBD
  0
DICTIONARY
  5
3DCA
330
3D4D
100
AcDbDictionary
280
     1
281
     1
  3
ACAD_XREC_ROUNDTRIP
360
3DCB
  0
DICTIONARY
  5
3DD2
330
3D51
100
AcDbDictionary
280
     1
281
     1
  3
ACAD_XREC_ROUNDTRIP
360
3DD3
  0
DICTIONARY
  5
3DC4
330
3D4A
100
AcDbDictionary
280
     1
281
     1
  3
ACAD_XREC_ROUNDTRIP
360
3DC5
  0
DICTIONARY
  5
3DC8
330
3D4C
100
AcDbDictionary
280
     1
281
     1
  3
ACAD_XREC_ROUNDTRIP
360
3DC9
  0
DICTIONARY
  5
3DD8
330
3D54
100
AcDbDictionary
280
     1
281
     1
  3
ACAD_XREC_ROUNDTRIP
360
3DD9
  0
DICTIONARY
  5
3DD0
330
3D50
100
AcDbDictionary
280
     1
281
     1
  3
ACAD_XREC_ROUNDTRIP
360
3DD1
  0
DICTIONARY
  5
3DB4
330
3D42
100
AcDbDictionary
280
     1
281
     1
  3
ACAD_XREC_ROUNDTRIP
360
3DB5
  0
DICTIONARY
  5
3DB6
330
3D43
100
AcDbDictionary
280
     1
281
     1
  3
ACAD_XREC_ROUNDTRIP
360
3DB7
  0
DICTIONARY
  5
3DB8
330
3D44
100
AcDbDictionary
280
     1
281
     1
  3
ACAD_XREC_ROUNDTRIP
360
3DB9
  0
DICTIONARY
  5
3DBA
330
3D45
100
AcDbDictionary
280
     1
281
     1
  3
ACAD_XREC_ROUNDTRIP
360
3DBB
  0
DICTIONARY
  5
3DD4
330
3D52
100
AcDbDictionary
280
     1
281
     1
  3
ACAD_XREC_ROUNDTRIP
360
3DD5
  0
DICTIONARY
  5
3DCE
330
3D4F
100
AcDbDictionary
280
     1
281
     1
  3
ACAD_XREC_ROUNDTRIP
360
3DCF
  0
DICTIONARY
  5
3DD6
330
3D53
100
AcDbDictionary
280
     1
281
     1
  3
ACAD_XREC_ROUNDTRIP
360
3DD7
  0
DICTIONARY
  5
3DC6
330
3D4B
100
AcDbDictionary
280
     1
281
     1
  3
ACAD_XREC_ROUNDTRIP
360
3DC7
  0
DICTIONARY
  5
3DCC
330
3D4E
100
AcDbDictionary
280
     1
281
     1
  3
ACAD_XREC_ROUNDTRIP
360
3DCD
  0
XRECORD
  5
3D9C
102
{ACAD_REACTORS
330
3D9B
102
}
330
3D9B
100
AcDbXrecord
280
     1
102
SHADEPLOT
 70
     0
102
SHADEPLOTRESLEVEL
 70
     2
102
SHADEPLOTCUSTOMDPI
 70
   300
  0
XRECORD
  5
3DA0
102
{ACAD_REACTORS
330
3D9F
102
}
330
3D9F
100
AcDbXrecord
280
     1
102
SHADEPLOT
 70
     0
102
SHADEPLOTRESLEVEL
 70
     2
102
SHADEPLOTCUSTOMDPI
 70
   300
  0
XRECORD
  5
3D9E
102
{ACAD_REACTORS
330
3D9D
102
}
330
3D9D
100
AcDbXrecord
280
     1
102
SHADEPLOT
 70
     0
102
SHADEPLOTRESLEVEL
 70
     2
102
SHADEPLOTCUSTOMDPI
 70
   300
  0
XRECORD
  5
3DB2
102
{ACAD_REACTORS
330
3D32
102
}
330
3D32
100
AcDbXrecord
280
     1
102
MATERIAL
148
0.0
149
0.0
149
0.0
 93
        0
 94
      127
282
     0
 72
     0
 77
     0
171
     0
175
     0
179
     0
273
     0
  0
XRECORD
  5
3D34
102
{ACAD_REACTORS
330
3D32
102
}
330
3D32
100
AcDbXrecord
280
     1
270
     1
271
     1
  0
XRECORD
  5
3D33
102
{ACAD_REACTORS
330
3D32
102
}
330
3D32
100
AcDbXrecord
280
     1
270
     1
271
     1
  0
XRECORD
  5
3D37
102
{ACAD_REACTORS
330
3D32
102
}
330
3D32
100
AcDbXrecord
280
     1
270
     1
271
     1
  0
XRECORD
  5
3D36
102
{ACAD_REACTORS
330
3D32
102
}
330
3D32
100
AcDbXrecord
280
     1
270
     1
271
     1
  0
XRECORD
  5
3D38
102
{ACAD_REACTORS
330
3D32
102
}
330
3D32
100
AcDbXrecord
280
     1
270
     1
271
     1
  0
XRECORD
  5
3D35
102
{ACAD_REACTORS
330
3D32
102
}
330
3D32
100
AcDbXrecord
280
     1
270
     1
271
     1
  0
XRECORD
  5
3DB1
102
{ACAD_REACTORS
330
3D2A
102
}
330
3D2A
100
AcDbXrecord
280
     1
102
MATERIAL
148
0.0
149
0.0
149
0.0
 93
        0
 94
      127
282
     0
 72
     0
 77
     0
171
     0
175
     0
179
     0
273
     0
  0
XRECORD
  5
3D2C
102
{ACAD_REACTORS
330
3D2A
102
}
330
3D2A
100
AcDbXrecord
280
     1
270
     1
271
     1
  0
XRECORD
  5
3D2B
102
{ACAD_REACTORS
330
3D2A
102
}
330
3D2A
100
AcDbXrecord
280
     1
270
     1
271
     1
  0
XRECORD
  5
3D2F
102
{ACAD_REACTORS
330
3D2A
102
}
330
3D2A
100
AcDbXrecord
280
     1
270
     1
271
     1
  0
XRECORD
  5
3D2E
102
{ACAD_REACTORS
330
3D2A
102
}
330
3D2A
100
AcDbXrecord
280
     1
270
     1
271
     1
  0
XRECORD
  5
3D30
102
{ACAD_REACTORS
330
3D2A
102
}
330
3D2A
100
AcDbXrecord
280
     1
270
     1
271
     1
  0
XRECORD
  5
3D2D
102
{ACAD_REACTORS
330
3D2A
102
}
330
3D2A
100
AcDbXrecord
280
     1
270
     1
271
     1
  0
XRECORD
  5
3DB3
102
{ACAD_REACTORS
330
3D3A
102
}
330
3D3A
100
AcDbXrecord
280
     1
102
MATERIAL
148
0.0
149
0.0
149
0.0
 93
        0
 94
      127
282
     0
 72
     0
 77
     0
171
     0
175
     0
179
     0
273
     0
  0
XRECORD
  5
3D3C
102
{ACAD_REACTORS
330
3D3A
102
}
330
3D3A
100
AcDbXrecord
280
     1
270
     1
271
     1
  0
XRECORD
  5
3D3B
102
{ACAD_REACTORS
330
3D3A
102
}
330
3D3A
100
AcDbXrecord
280
     1
270
     1
271
     1
  0
XRECORD
  5
3D3F
102
{ACAD_REACTORS
330
3D3A
102
}
330
3D3A
100
AcDbXrecord
280
     1
270
     1
271
     1
  0
XRECORD
  5
3D3E
102
{ACAD_REACTORS
330
3D3A
102
}
330
3D3A
100
AcDbXrecord
280
     1
270
     1
271
     1
  0
XRECORD
  5
3D40
102
{ACAD_REACTORS
330
3D3A
102
}
330
3D3A
100
AcDbXrecord
280
     1
270
     1
271
     1
  0
XRECORD
  5
3D3D
102
{ACAD_REACTORS
330
3D3A
102
}
330
3D3A
100
AcDbXrecord
280
     1
270
     1
271
     1
  0
CELLSTYLEMAP
  5
3D98
102
{ACAD_REACTORS
330
3D97
102
}
330
3D97
100
AcDbCellStyleMap
 90
        3
300
CELLSTYLE
  1
TABLEFORMAT_BEGIN
 90
        5
170
     1
 91
        0
 92
    32768
 62
   257
 93
        1
300
CONTENTFORMAT
  1
CONTENTFORMAT_BEGIN
 90
        0
 91
        0
 92
      512
 93
        0
300

 40
0.0
140
1.0
 94
        5
 62
     0
340
11
144
6.0
309
CONTENTFORMAT_END
171
     1
301
MARGIN
  1
CELLMARGIN_BEGIN
 40
1.5
 40
1.5
 40
1.5
 40
1.5
 40
4.5
 40
4.5
309
CELLMARGIN_END
 94
        6
 95
        1
302
GRIDFORMAT
  1
GRIDFORMAT_BEGIN
 90
        0
 91
        1
 62
     0
 92
       -2
340
0
 93
        0
 40
1.125
309
GRIDFORMAT_END
 95
        2
302
GRIDFORMAT
  1
GRIDFORMAT_BEGIN
 90
        0
 91
        1
 62
     0
 92
       -2
340
0
 93
        0
 40
1.125
309
GRIDFORMAT_END
 95
        4
302
GRIDFORMAT
  1
GRIDFORMAT_BEGIN
 90
        0
 91
        1
 62
     0
 92
       -2
340
0
 93
        0
 40
1.125
309
GRIDFORMAT_END
 95
        8
302
GRIDFORMAT
  1
GRIDFORMAT_BEGIN
 90
        0
 91
        1
 62
     0
 92
       -2
340
0
 93
        0
 40
1.125
309
GRIDFORMAT_END
 95
       16
302
GRIDFORMAT
  1
GRIDFORMAT_BEGIN
 90
        0
 91
        1
 62
     0
 92
       -2
340
0
 93
        0
 40
1.125
309
GRIDFORMAT_END
 95
       32
302
GRIDFORMAT
  1
GRIDFORMAT_BEGIN
 90
        0
 91
        1
 62
     0
 92
       -2
340
0
 93
        0
 40
1.125
309
GRIDFORMAT_END
309
TABLEFORMAT_END
  1
CELLSTYLE_BEGIN
 90
        1
 91
        1
300
_TITLE
309
CELLSTYLE_END
300
CELLSTYLE
  1
TABLEFORMAT_BEGIN
 90
        5
170
     1
 91
        0
 92
        0
 62
   257
 93
        1
300
CONTENTFORMAT
  1
CONTENTFORMAT_BEGIN
 90
        0
 91
        0
 92
      512
 93
        0
300

 40
0.0
140
1.0
 94
        5
 62
     0
340
11
144
4.5
309
CONTENTFORMAT_END
171
     1
301
MARGIN
  1
CELLMARGIN_BEGIN
 40
1.5
 40
1.5
 40
1.5
 40
1.5
 40
4.5
 40
4.5
309
CELLMARGIN_END
 94
        6
 95
        1
302
GRIDFORMAT
  1
GRIDFORMAT_BEGIN
 90
        0
 91
        1
 62
     0
 92
       -2
340
0
 93
        0
 40
1.125
309
GRIDFORMAT_END
 95
        2
302
GRIDFORMAT
  1
GRIDFORMAT_BEGIN
 90
        0
 91
        1
 62
     0
 92
       -2
340
0
 93
        0
 40
1.125
309
GRIDFORMAT_END
 95
        4
302
GRIDFORMAT
  1
GRIDFORMAT_BEGIN
 90
        0
 91
        1
 62
     0
 92
       -2
340
0
 93
        0
 40
1.125
309
GRIDFORMAT_END
 95
        8
302
GRIDFORMAT
  1
GRIDFORMAT_BEGIN
 90
        0
 91
        1
 62
     0
 92
       -2
340
0
 93
        0
 40
1.125
309
GRIDFORMAT_END
 95
       16
302
GRIDFORMAT
  1
GRIDFORMAT_BEGIN
 90
        0
 91
        1
 62
     0
 92
       -2
340
0
 93
        0
 40
1.125
309
GRIDFORMAT_END
 95
       32
302
GRIDFORMAT
  1
GRIDFORMAT_BEGIN
 90
        0
 91
        1
 62
     0
 92
       -2
340
0
 93
        0
 40
1.125
309
GRIDFORMAT_END
309
TABLEFORMAT_END
  1
CELLSTYLE_BEGIN
 90
        2
 91
        1
300
_HEADER
309
CELLSTYLE_END
300
CELLSTYLE
  1
TABLEFORMAT_BEGIN
 90
        5
170
     1
 91
        0
 92
        0
 62
   257
 93
        1
300
CONTENTFORMAT
  1
CONTENTFORMAT_BEGIN
 90
        0
 91
        0
 92
      512
 93
        0
300

 40
0.0
140
1.0
 94
        2
 62
     0
340
11
144
4.5
309
CONTENTFORMAT_END
171
     1
301
MARGIN
  1
CELLMARGIN_BEGIN
 40
1.5
 40
1.5
 40
1.5
 40
1.5
 40
4.5
 40
4.5
309
CELLMARGIN_END
 94
        6
 95
        1
302
GRIDFORMAT
  1
GRIDFORMAT_BEGIN
 90
        0
 91
        1
 62
     0
 92
       -2
340
0
 93
        0
 40
1.125
309
GRIDFORMAT_END
 95
        2
302
GRIDFORMAT
  1
GRIDFORMAT_BEGIN
 90
        0
 91
        1
 62
     0
 92
       -2
340
0
 93
        0
 40
1.125
309
GRIDFORMAT_END
 95
        4
302
GRIDFORMAT
  1
GRIDFORMAT_BEGIN
 90
        0
 91
        1
 62
     0
 92
       -2
340
0
 93
        0
 40
1.125
309
GRIDFORMAT_END
 95
        8
302
GRIDFORMAT
  1
GRIDFORMAT_BEGIN
 90
        0
 91
        1
 62
     0
 92
       -2
340
0
 93
        0
 40
1.125
309
GRIDFORMAT_END
 95
       16
302
GRIDFORMAT
  1
GRIDFORMAT_BEGIN
 90
        0
 91
        1
 62
     0
 92
       -2
340
0
 93
        0
 40
1.125
309
GRIDFORMAT_END
 95
       32
302
GRIDFORMAT
  1
GRIDFORMAT_BEGIN
 90
        0
 91
        1
 62
     0
 92
       -2
340
0
 93
        0
 40
1.125
309
GRIDFORMAT_END
309
TABLEFORMAT_END
  1
CELLSTYLE_BEGIN
 90
        3
 91
        2
300
_DATA
309
CELLSTYLE_END
  0
XRECORD
  5
3DDA
102
{ACAD_REACTORS
330
3D97
102
}
330
3D97
100
AcDbXrecord
280
     1
102
ACAD_ROUNDTRIP_PRE2007_TABLESTYLE
 90
      512
 91
        0
  1

 92
      512
 93
        0
  2

 94
      512
 95
        0
  3

  0
XRECORD
  5
3DBF
102
{ACAD_REACTORS
330
3DBE
102
}
330
3DBE
100
AcDbXrecord
280
     1
102
RTVSPropertyOp0
 70
     1
102
RTVSPropertyOp1
 70
     1
102
RTVSPropertyOp2
 70
     1
102
RTVSPropertyOp3
 70
     1
102
RTVSPropertyOp4
 70
     1
102
RTVSPropertyOp5
 70
     1
102
RTVSPropertyOp6
 70
     1
102
RTVSPropertyOp7
 70
     1
102
RTVSPropertyOp8
 70
     1
102
RTVSPropertyOp9
 70
     1
102
RTVSPropertyOp10
 70
     1
102
RTVSPropertyOp11
 70
     1
102
RTVSPropertyOp12
 70
     1
102
RTVSPropertyOp13
 70
     1
102
RTVSPropertyOp14
 70
     1
102
RTVSPropertyOp15
 70
     1
102
RTVSPropertyOp16
 70
     1
102
RTVSPropertyOp17
 70
     1
102
RTVSPropertyOp18
 70
     1
102
RTVSPropertyOp19
 70
     1
102
RTVSPropertyOp20
 70
     1
102
RTVSPropertyOp21
 70
     1
102
RTVSPropertyOp22
 70
     1
102
RTVSPropertyOp23
 70
     1
102
RTVSPropertyOp24
 70
     1
102
RTVSPropertyOp25
 70
     1
102
RTVSPropertyOp26
 70
     1
102
RTVSPropertyOp27
 70
     1
  0
XRECORD
  5
3DC3
102
{ACAD_REACTORS
330
3DC2
102
}
330
3DC2
100
AcDbXrecord
280
     1
102
RTVSPropertyOp0
 70
     1
102
RTVSPropertyOp1
 70
     1
102
RTVSPropertyOp2
 70
     1
102
RTVSPropertyOp3
 70
     1
102
RTVSPropertyOp4
 70
     1
102
RTVSPropertyOp5
 70
     1
102
RTVSPropertyOp6
 70
     1
102
RTVSPropertyOp7
 70
     1
102
RTVSPropertyOp8
 70
     1
102
RTVSPropertyOp9
 70
     1
102
RTVSPropertyOp10
 70
     1
102
RTVSPropertyOp11
 70
     1
102
RTVSPropertyOp12
 70
     1
102
RTVSPropertyOp13
 70
     1
102
RTVSPropertyOp14
 70
     1
102
RTVSPropertyOp15
 70
     1
102
RTVSPropertyOp16
 70
     1
102
RTVSPropertyOp17
 70
     1
102
RTVSPropertyOp18
 70
     1
102
RTVSPropertyOp19
 70
     1
102
RTVSPropertyOp20
 70
     1
102
RTVSPropertyOp21
 70
     1
102
RTVSPropertyOp22
 70
     1
102
RTVSPropertyOp23
 70
     1
102
RTVSPropertyOp24
 70
     1
102
RTVSPropertyOp25
 70
     1
102
RTVSPropertyOp26
 70
     1
102
RTVSPropertyOp27
 70
     1
  0
XRECORD
  5
3DC1
102
{ACAD_REACTORS
330
3DC0
102
}
330
3DC0
100
AcDbXrecord
280
     1
102
RTVSPropertyOp0
 70
     1
102
RTVSPropertyOp1
 70
     1
102
RTVSPropertyOp2
 70
     1
102
RTVSPropertyOp3
 70
     1
102
RTVSPropertyOp4
 70
     1
102
RTVSPropertyOp5
 70
     1
102
RTVSPropertyOp6
 70
     1
102
RTVSPropertyOp7
 70
     1
102
RTVSPropertyOp8
 70
     1
102
RTVSPropertyOp9
 70
     1
102
RTVSPropertyOp10
 70
     1
102
RTVSPropertyOp11
 70
     1
102
RTVSPropertyOp12
 70
     1
102
RTVSPropertyOp13
 70
     1
102
RTVSPropertyOp14
 70
     1
102
RTVSPropertyOp15
 70
     1
102
RTVSPropertyOp16
 70
     1
102
RTVSPropertyOp17
 70
     1
102
RTVSPropertyOp18
 70
     1
102
RTVSPropertyOp19
 70
     1
102
RTVSPropertyOp20
 70
     1
102
RTVSPropertyOp21
 70
     1
102
RTVSPropertyOp22
 70
     1
102
RTVSPropertyOp23
 70
     1
102
RTVSPropertyOp24
 70
     1
102
RTVSPropertyOp25
 70
     1
102
RTVSPropertyOp26
 70
     1
102
RTVSPropertyOp27
 70
     1
  0
XRECORD
  5
3DBD
102
{ACAD_REACTORS
330
3DBC
102
}
330
3DBC
100
AcDbXrecord
280
     1
102
RTVSPropertyOp0
 70
     1
102
RTVSPropertyOp1
 70
     1
102
RTVSPropertyOp2
 70
     1
102
RTVSPropertyOp3
 70
     1
102
RTVSPropertyOp4
 70
     1
102
RTVSPropertyOp5
 70
     1
102
RTVSPropertyOp6
 70
     1
102
RTVSPropertyOp7
 70
     1
102
RTVSPropertyOp8
 70
     1
102
RTVSPropertyOp9
 70
     1
102
RTVSPropertyOp10
 70
     1
102
RTVSPropertyOp11
 70
     1
102
RTVSPropertyOp12
 70
     1
102
RTVSPropertyOp13
 70
     1
102
RTVSPropertyOp14
 70
     1
102
RTVSPropertyOp15
 70
     1
102
RTVSPropertyOp16
 70
     1
102
RTVSPropertyOp17
 70
     1
102
RTVSPropertyOp18
 70
     1
102
RTVSPropertyOp19
 70
     1
102
RTVSPropertyOp20
 70
     1
102
RTVSPropertyOp21
 70
     1
102
RTVSPropertyOp22
 70
     1
102
RTVSPropertyOp23
 70
     1
102
RTVSPropertyOp24
 70
     1
102
RTVSPropertyOp25
 70
     1
102
RTVSPropertyOp26
 70
     1
102
RTVSPropertyOp27
 70
     1
  0
XRECORD
  5
3DCB
102
{ACAD_REACTORS
330
3DCA
102
}
330
3DCA
100
AcDbXrecord
280
     1
102
RTVSPropertyOp0
 70
     1
102
RTVSPropertyOp1
 70
     1
102
RTVSPropertyOp2
 70
     1
102
RTVSPropertyOp3
 70
     1
102
RTVSPropertyOp4
 70
     1
102
RTVSPropertyOp5
 70
     1
102
RTVSPropertyOp6
 70
     1
102
RTVSPropertyOp7
 70
     1
102
RTVSPropertyOp8
 70
     1
102
RTVSPropertyOp9
 70
     1
102
RTVSPropertyOp10
 70
     1
102
RTVSPropertyOp11
 70
     1
102
RTVSPropertyOp12
 70
     1
102
RTVSPropertyOp13
 70
     1
102
RTVSPropertyOp14
 70
     1
102
RTVSPropertyOp15
 70
     1
102
RTVSPropertyOp16
 70
     1
102
RTVSPropertyOp17
 70
     1
102
RTVSPropertyOp18
 70
     1
102
RTVSPropertyOp19
 70
     1
102
RTVSPropertyOp20
 70
     1
102
RTVSPropertyOp21
 70
     1
102
RTVSPropertyOp22
 70
     1
102
RTVSPropertyOp23
 70
     1
102
RTVSPropertyOp24
 70
     1
102
RTVSPropertyOp25
 70
     1
102
RTVSPropertyOp26
 70
     1
102
RTVSPropertyOp27
 70
     1
  0
XRECORD
  5
3DD3
102
{ACAD_REACTORS
330
3DD2
102
}
330
3DD2
100
AcDbXrecord
280
     1
102
RTVSPropertyOp0
 70
     1
102
RTVSPropertyOp1
 70
     1
102
RTVSPropertyOp2
 70
     1
102
RTVSPropertyOp3
 70
     1
102
RTVSPropertyOp4
 70
     1
102
RTVSPropertyOp5
 70
     1
102
RTVSPropertyOp6
 70
     1
102
RTVSPropertyOp7
 70
     1
102
RTVSPropertyOp8
 70
     1
102
RTVSPropertyOp9
 70
     1
102
RTVSPropertyOp10
 70
     1
102
RTVSPropertyOp11
 70
     1
102
RTVSPropertyOp12
 70
     1
102
RTVSPropertyOp13
 70
     1
102
RTVSPropertyOp14
 70
     1
102
RTVSPropertyOp15
 70
     1
102
RTVSPropertyOp16
 70
     1
102
RTVSPropertyOp17
 70
     1
102
RTVSPropertyOp18
 70
     1
102
RTVSPropertyOp19
 70
     1
102
RTVSPropertyOp20
 70
     1
102
RTVSPropertyOp21
 70
     1
102
RTVSPropertyOp22
 70
     1
102
RTVSPropertyOp23
 70
     1
102
RTVSPropertyOp24
 70
     1
102
RTVSPropertyOp25
 70
     1
102
RTVSPropertyOp26
 70
     1
102
RTVSPropertyOp27
 70
     1
  0
XRECORD
  5
3DC5
102
{ACAD_REACTORS
330
3DC4
102
}
330
3DC4
100
AcDbXrecord
280
     1
102
RTVSPropertyOp0
 70
     1
102
RTVSPropertyOp1
 70
     1
102
RTVSPropertyOp2
 70
     1
102
RTVSPropertyOp3
 70
     1
102
RTVSPropertyOp4
 70
     1
102
RTVSPropertyOp5
 70
     1
102
RTVSPropertyOp6
 70
     1
102
RTVSPropertyOp7
 70
     1
102
RTVSPropertyOp8
 70
     1
102
RTVSPropertyOp9
 70
     1
102
RTVSPropertyOp10
 70
     1
102
RTVSPropertyOp11
 70
     1
102
RTVSPropertyOp12
 70
     1
102
RTVSPropertyOp13
 70
     1
102
RTVSPropertyOp14
 70
     1
102
RTVSPropertyOp15
 70
     1
102
RTVSPropertyOp16
 70
     1
102
RTVSPropertyOp17
 70
     1
102
RTVSPropertyOp18
 70
     1
102
RTVSPropertyOp19
 70
     1
102
RTVSPropertyOp20
 70
     1
102
RTVSPropertyOp21
 70
     1
102
RTVSPropertyOp22
 70
     1
102
RTVSPropertyOp23
 70
     1
102
RTVSPropertyOp24
 70
     1
102
RTVSPropertyOp25
 70
     1
102
RTVSPropertyOp26
 70
     1
102
RTVSPropertyOp27
 70
     1
  0
XRECORD
  5
3DC9
102
{ACAD_REACTORS
330
3DC8
102
}
330
3DC8
100
AcDbXrecord
280
     1
102
RTVSPropertyOp0
 70
     1
102
RTVSPropertyOp1
 70
     1
102
RTVSPropertyOp2
 70
     1
102
RTVSPropertyOp3
 70
     1
102
RTVSPropertyOp4
 70
     1
102
RTVSPropertyOp5
 70
     1
102
RTVSPropertyOp6
 70
     1
102
RTVSPropertyOp7
 70
     1
102
RTVSPropertyOp8
 70
     1
102
RTVSPropertyOp9
 70
     1
102
RTVSPropertyOp10
 70
     1
102
RTVSPropertyOp11
 70
     1
102
RTVSPropertyOp12
 70
     1
102
RTVSPropertyOp13
 70
     1
102
RTVSPropertyOp14
 70
     1
102
RTVSPropertyOp15
 70
     1
102
RTVSPropertyOp16
 70
     1
102
RTVSPropertyOp17
 70
     1
102
RTVSPropertyOp18
 70
     1
102
RTVSPropertyOp19
 70
     1
102
RTVSPropertyOp20
 70
     1
102
RTVSPropertyOp21
 70
     1
102
RTVSPropertyOp22
 70
     1
102
RTVSPropertyOp23
 70
     1
102
RTVSPropertyOp24
 70
     1
102
RTVSPropertyOp25
 70
     1
102
RTVSPropertyOp26
 70
     1
102
RTVSPropertyOp27
 70
     1
  0
XRECORD
  5
3DD9
102
{ACAD_REACTORS
330
3DD8
102
}
330
3DD8
100
AcDbXrecord
280
     1
102
RTVSPropertyOp0
 70
     0
102
RTVSPropertyOp1
 70
     0
102
RTVSPropertyOp2
 70
     0
102
RTVSPropertyOp3
 70
     0
102
RTVSPropertyOp4
 70
     0
102
RTVSPropertyOp5
 70
     0
102
RTVSPropertyOp6
 70
     0
102
RTVSPropertyOp7
 70
     0
102
RTVSPropertyOp8
 70
     0
102
RTVSPropertyOp9
 70
     0
102
RTVSPropertyOp10
 70
     0
102
RTVSPropertyOp11
 70
     0
102
RTVSPropertyOp12
 70
     0
102
RTVSPropertyOp13
 70
     0
102
RTVSPropertyOp14
 70
     2
102
RTVSPropertyOp15
 70
     0
102
RTVSPropertyOp16
 70
     0
102
RTVSPropertyOp17
 70
     0
102
RTVSPropertyOp18
 70
     0
102
RTVSPropertyOp19
 70
     0
102
RTVSPropertyOp20
 70
     0
102
RTVSPropertyOp21
 70
     0
102
RTVSPropertyOp22
 70
     0
102
RTVSPropertyOp23
 70
     0
102
RTVSPropertyOp24
 70
     0
102
RTVSPropertyOp25
 70
     0
102
RTVSPropertyOp26
 70
     0
102
RTVSPropertyOp27
 70
     0
  0
XRECORD
  5
3DD1
102
{ACAD_REACTORS
330
3DD0
102
}
330
3DD0
100
AcDbXrecord
280
     1
102
RTVSPropertyOp0
 70
     1
102
RTVSPropertyOp1
 70
     1
102
RTVSPropertyOp2
 70
     1
102
RTVSPropertyOp3
 70
     1
102
RTVSPropertyOp4
 70
     1
102
RTVSPropertyOp5
 70
     1
102
RTVSPropertyOp6
 70
     1
102
RTVSPropertyOp7
 70
     1
102
RTVSPropertyOp8
 70
     1
102
RTVSPropertyOp9
 70
     1
102
RTVSPropertyOp10
 70
     1
102
RTVSPropertyOp11
 70
     1
102
RTVSPropertyOp12
 70
     1
102
RTVSPropertyOp13
 70
     1
102
RTVSPropertyOp14
 70
     1
102
RTVSPropertyOp15
 70
     1
102
RTVSPropertyOp16
 70
     1
102
RTVSPropertyOp17
 70
     1
102
RTVSPropertyOp18
 70
     1
102
RTVSPropertyOp19
 70
     1
102
RTVSPropertyOp20
 70
     1
102
RTVSPropertyOp21
 70
     1
102
RTVSPropertyOp22
 70
     1
102
RTVSPropertyOp23
 70
     1
102
RTVSPropertyOp24
 70
     1
102
RTVSPropertyOp25
 70
     1
102
RTVSPropertyOp26
 70
     1
102
RTVSPropertyOp27
 70
     1
  0
XRECORD
  5
3DB5
102
{ACAD_REACTORS
330
3DB4
102
}
330
3DB4
100
AcDbXrecord
280
     1
102
RTVSPropertyOp0
 70
     1
102
RTVSPropertyOp1
 70
     1
102
RTVSPropertyOp2
 70
     1
102
RTVSPropertyOp3
 70
     1
102
RTVSPropertyOp4
 70
     1
102
RTVSPropertyOp5
 70
     1
102
RTVSPropertyOp6
 70
     1
102
RTVSPropertyOp7
 70
     1
102
RTVSPropertyOp8
 70
     1
102
RTVSPropertyOp9
 70
     1
102
RTVSPropertyOp10
 70
     1
102
RTVSPropertyOp11
 70
     1
102
RTVSPropertyOp12
 70
     1
102
RTVSPropertyOp13
 70
     1
102
RTVSPropertyOp14
 70
     1
102
RTVSPropertyOp15
 70
     1
102
RTVSPropertyOp16
 70
     1
102
RTVSPropertyOp17
 70
     1
102
RTVSPropertyOp18
 70
     1
102
RTVSPropertyOp19
 70
     1
102
RTVSPropertyOp20
 70
     1
102
RTVSPropertyOp21
 70
     1
102
RTVSPropertyOp22
 70
     1
102
RTVSPropertyOp23
 70
     1
102
RTVSPropertyOp24
 70
     1
102
RTVSPropertyOp25
 70
     1
102
RTVSPropertyOp26
 70
     1
102
RTVSPropertyOp27
 70
     1
  0
XRECORD
  5
3DB7
102
{ACAD_REACTORS
330
3DB6
102
}
330
3DB6
100
AcDbXrecord
280
     1
102
RTVSPropertyOp0
 70
     1
102
RTVSPropertyOp1
 70
     1
102
RTVSPropertyOp2
 70
     1
102
RTVSPropertyOp3
 70
     1
102
RTVSPropertyOp4
 70
     1
102
RTVSPropertyOp5
 70
     1
102
RTVSPropertyOp6
 70
     1
102
RTVSPropertyOp7
 70
     1
102
RTVSPropertyOp8
 70
     1
102
RTVSPropertyOp9
 70
     1
102
RTVSPropertyOp10
 70
     1
102
RTVSPropertyOp11
 70
     1
102
RTVSPropertyOp12
 70
     1
102
RTVSPropertyOp13
 70
     1
102
RTVSPropertyOp14
 70
     1
102
RTVSPropertyOp15
 70
     1
102
RTVSPropertyOp16
 70
     1
102
RTVSPropertyOp17
 70
     1
102
RTVSPropertyOp18
 70
     1
102
RTVSPropertyOp19
 70
     1
102
RTVSPropertyOp20
 70
     1
102
RTVSPropertyOp21
 70
     1
102
RTVSPropertyOp22
 70
     1
102
RTVSPropertyOp23
 70
     1
102
RTVSPropertyOp24
 70
     1
102
RTVSPropertyOp25
 70
     1
102
RTVSPropertyOp26
 70
     1
102
RTVSPropertyOp27
 70
     1
  0
XRECORD
  5
3DB9
102
{ACAD_REACTORS
330
3DB8
102
}
330
3DB8
100
AcDbXrecord
280
     1
102
RTVSPropertyOp0
 70
     1
102
RTVSPropertyOp1
 70
     1
102
RTVSPropertyOp2
 70
     1
102
RTVSPropertyOp3
 70
     1
102
RTVSPropertyOp4
 70
     1
102
RTVSPropertyOp5
 70
     1
102
RTVSPropertyOp6
 70
     1
102
RTVSPropertyOp7
 70
     1
102
RTVSPropertyOp8
 70
     1
102
RTVSPropertyOp9
 70
     1
102
RTVSPropertyOp10
 70
     1
102
RTVSPropertyOp11
 70
     1
102
RTVSPropertyOp12
 70
     1
102
RTVSPropertyOp13
 70
     1
102
RTVSPropertyOp14
 70
     1
102
RTVSPropertyOp15
 70
     1
102
RTVSPropertyOp16
 70
     1
102
RTVSPropertyOp17
 70
     1
102
RTVSPropertyOp18
 70
     1
102
RTVSPropertyOp19
 70
     1
102
RTVSPropertyOp20
 70
     1
102
RTVSPropertyOp21
 70
     1
102
RTVSPropertyOp22
 70
     1
102
RTVSPropertyOp23
 70
     1
102
RTVSPropertyOp24
 70
     1
102
RTVSPropertyOp25
 70
     1
102
RTVSPropertyOp26
 70
     1
102
RTVSPropertyOp27
 70
     1
  0
XRECORD
  5
3DBB
102
{ACAD_REACTORS
330
3DBA
102
}
330
3DBA
100
AcDbXrecord
280
     1
102
RTVSPropertyOp0
 70
     1
102
RTVSPropertyOp1
 70
     1
102
RTVSPropertyOp2
 70
     1
102
RTVSPropertyOp3
 70
     1
102
RTVSPropertyOp4
 70
     1
102
RTVSPropertyOp5
 70
     1
102
RTVSPropertyOp6
 70
     1
102
RTVSPropertyOp7
 70
     1
102
RTVSPropertyOp8
 70
     1
102
RTVSPropertyOp9
 70
     1
102
RTVSPropertyOp10
 70
     1
102
RTVSPropertyOp11
 70
     1
102
RTVSPropertyOp12
 70
     1
102
RTVSPropertyOp13
 70
     1
102
RTVSPropertyOp14
 70
     1
102
RTVSPropertyOp15
 70
     1
102
RTVSPropertyOp16
 70
     1
102
RTVSPropertyOp17
 70
     1
102
RTVSPropertyOp18
 70
     1
102
RTVSPropertyOp19
 70
     1
102
RTVSPropertyOp20
 70
     1
102
RTVSPropertyOp21
 70
     1
102
RTVSPropertyOp22
 70
     1
102
RTVSPropertyOp23
 70
     1
102
RTVSPropertyOp24
 70
     1
102
RTVSPropertyOp25
 70
     1
102
RTVSPropertyOp26
 70
     1
102
RTVSPropertyOp27
 70
     1
  0
XRECORD
  5
3DD5
102
{ACAD_REACTORS
330
3DD4
102
}
330
3DD4
100
AcDbXrecord
280
     1
102
RTVSPropertyOp0
 70
     0
102
RTVSPropertyOp1
 70
     0
102
RTVSPropertyOp2
 70
     0
102
RTVSPropertyOp3
 70
     0
102
RTVSPropertyOp4
 70
     0
102
RTVSPropertyOp5
 70
     0
102
RTVSPropertyOp6
 70
     0
102
RTVSPropertyOp7
 70
     0
102
RTVSPropertyOp8
 70
     0
102
RTVSPropertyOp9
 70
     0
102
RTVSPropertyOp10
 70
     0
102
RTVSPropertyOp11
 70
     0
102
RTVSPropertyOp12
 70
     0
102
RTVSPropertyOp13
 70
     0
102
RTVSPropertyOp14
 70
     2
102
RTVSPropertyOp15
 70
     0
102
RTVSPropertyOp16
 70
     0
102
RTVSPropertyOp17
 70
     0
102
RTVSPropertyOp18
 70
     0
102
RTVSPropertyOp19
 70
     0
102
RTVSPropertyOp20
 70
     0
102
RTVSPropertyOp21
 70
     0
102
RTVSPropertyOp22
 70
     0
102
RTVSPropertyOp23
 70
     0
102
RTVSPropertyOp24
 70
     0
102
RTVSPropertyOp25
 70
     0
102
RTVSPropertyOp26
 70
     0
102
RTVSPropertyOp27
 70
     0
  0
XRECORD
  5
3DCF
102
{ACAD_REACTORS
330
3DCE
102
}
330
3DCE
100
AcDbXrecord
280
     1
102
RTVSPropertyOp0
 70
     1
102
RTVSPropertyOp1
 70
     1
102
RTVSPropertyOp2
 70
     1
102
RTVSPropertyOp3
 70
     1
102
RTVSPropertyOp4
 70
     1
102
RTVSPropertyOp5
 70
     1
102
RTVSPropertyOp6
 70
     1
102
RTVSPropertyOp7
 70
     1
102
RTVSPropertyOp8
 70
     1
102
RTVSPropertyOp9
 70
     1
102
RTVSPropertyOp10
 70
     1
102
RTVSPropertyOp11
 70
     1
102
RTVSPropertyOp12
 70
     1
102
RTVSPropertyOp13
 70
     1
102
RTVSPropertyOp14
 70
     1
102
RTVSPropertyOp15
 70
     1
102
RTVSPropertyOp16
 70
     1
102
RTVSPropertyOp17
 70
     1
102
RTVSPropertyOp18
 70
     1
102
RTVSPropertyOp19
 70
     1
102
RTVSPropertyOp20
 70
     1
102
RTVSPropertyOp21
 70
     1
102
RTVSPropertyOp22
 70
     1
102
RTVSPropertyOp23
 70
     1
102
RTVSPropertyOp24
 70
     1
102
RTVSPropertyOp25
 70
     1
102
RTVSPropertyOp26
 70
     1
102
RTVSPropertyOp27
 70
     1
  0
XRECORD
  5
3DD7
102
{ACAD_REACTORS
330
3DD6
102
}
330
3DD6
100
AcDbXrecord
280
     1
102
RTVSPropertyOp0
 70
     0
102
RTVSPropertyOp1
 70
     0
102
RTVSPropertyOp2
 70
     0
102
RTVSPropertyOp3
 70
     0
102
RTVSPropertyOp4
 70
     0
102
RTVSPropertyOp5
 70
     0
102
RTVSPropertyOp6
 70
     0
102
RTVSPropertyOp7
 70
     0
102
RTVSPropertyOp8
 70
     0
102
RTVSPropertyOp9
 70
     0
102
RTVSPropertyOp10
 70
     0
102
RTVSPropertyOp11
 70
     0
102
RTVSPropertyOp12
 70
     0
102
RTVSPropertyOp13
 70
     0
102
RTVSPropertyOp14
 70
     2
102
RTVSPropertyOp15
 70
     0
102
RTVSPropertyOp16
 70
     0
102
RTVSPropertyOp17
 70
     0
102
RTVSPropertyOp18
 70
     0
102
RTVSPropertyOp19
 70
     0
102
RTVSPropertyOp20
 70
     0
102
RTVSPropertyOp21
 70
     0
102
RTVSPropertyOp22
 70
     0
102
RTVSPropertyOp23
 70
     0
102
RTVSPropertyOp24
 70
     0
102
RTVSPropertyOp25
 70
     0
102
RTVSPropertyOp26
 70
     0
102
RTVSPropertyOp27
 70
     0
  0
XRECORD
  5
3DC7
102
{ACAD_REACTORS
330
3DC6
102
}
330
3DC6
100
AcDbXrecord
280
     1
102
RTVSPropertyOp0
 70
     1
102
RTVSPropertyOp1
 70
     1
102
RTVSPropertyOp2
 70
     1
102
RTVSPropertyOp3
 70
     1
102
RTVSPropertyOp4
 70
     1
102
RTVSPropertyOp5
 70
     1
102
RTVSPropertyOp6
 70
     1
102
RTVSPropertyOp7
 70
     1
102
RTVSPropertyOp8
 70
     1
102
RTVSPropertyOp9
 70
     1
102
RTVSPropertyOp10
 70
     1
102
RTVSPropertyOp11
 70
     1
102
RTVSPropertyOp12
 70
     1
102
RTVSPropertyOp13
 70
     1
102
RTVSPropertyOp14
 70
     1
102
RTVSPropertyOp15
 70
     1
102
RTVSPropertyOp16
 70
     1
102
RTVSPropertyOp17
 70
     1
102
RTVSPropertyOp18
 70
     1
102
RTVSPropertyOp19
 70
     1
102
RTVSPropertyOp20
 70
     1
102
RTVSPropertyOp21
 70
     1
102
RTVSPropertyOp22
 70
     1
102
RTVSPropertyOp23
 70
     1
102
RTVSPropertyOp24
 70
     1
102
RTVSPropertyOp25
 70
     1
102
RTVSPropertyOp26
 70
     1
102
RTVSPropertyOp27
 70
     1
  0
XRECORD
  5
3DCD
102
{ACAD_REACTORS
330
3DCC
102
}
330
3DCC
100
AcDbXrecord
280
     1
102
RTVSPropertyOp0
 70
     1
102
RTVSPropertyOp1
 70
     1
102
RTVSPropertyOp2
 70
     1
102
RTVSPropertyOp3
 70
     1
102
RTVSPropertyOp4
 70
     1
102
RTVSPropertyOp5
 70
     1
102
RTVSPropertyOp6
 70
     1
102
RTVSPropertyOp7
 70
     1
102
RTVSPropertyOp8
 70
     1
102
RTVSPropertyOp9
 70
     1
102
RTVSPropertyOp10
 70
     1
102
RTVSPropertyOp11
 70
     1
102
RTVSPropertyOp12
 70
     1
102
RTVSPropertyOp13
 70
     1
102
RTVSPropertyOp14
 70
     1
102
RTVSPropertyOp15
 70
     1
102
RTVSPropertyOp16
 70
     1
102
RTVSPropertyOp17
 70
     1
102
RTVSPropertyOp18
 70
     1
102
RTVSPropertyOp19
 70
     1
102
RTVSPropertyOp20
 70
     1
102
RTVSPropertyOp21
 70
     1
102
RTVSPropertyOp22
 70
     1
102
RTVSPropertyOp23
 70
     1
102
RTVSPropertyOp24
 70
     1
102
RTVSPropertyOp25
 70
     1
102
RTVSPropertyOp26
 70
     1
102
RTVSPropertyOp27
 70
     1
  0
ENDSEC
  0
EOF
