  0
SECTION
  2
HEADER
  9
$ACADVER
  1
AC1015
  9
$ACADMAINTVER
 70
    20
  9
$DWGCODEPAGE
  3
ANSI_1252
  9
$INSBASE
 10
0.0
 20
0.0
 30
0.0
  9
$EXTMIN
 10
4410.897129345172
 20
1878.480496062546
 30
0.0
  9
$EXTMAX
 10
4413.454963396295
 20
1879.035039520041
 30
0.0
  9
$LIMMIN
 10
0.0
 20
0.0
  9
$LIMMAX
 10
420.0
 20
297.0
  9
$ORTHOMODE
 70
     0
  9
$REGENMODE
 70
     1
  9
$FILLMODE
 70
     1
  9
$QTEXTMODE
 70
     0
  9
$MIRRTEXT
 70
     1
  9
$LTSCALE
 40
1.0
  9
$ATTMODE
 70
     1
  9
$TEXTSIZE
 40
2.5
  9
$TRACEWID
 40
1.0
  9
$TEXTSTYLE
  7
SANINDUSA
  9
$CLAYER
  8
cotas
  9
$CELTYPE
  6
ByLayer
  9
$CECOLOR
 62
   256
  9
$CELTSCALE
 40
1.0
  9
$DISPSILH
 70
     0
  9
$DIMSCALE
 40
1.0
  9
$DIMASZ
 40
2.0
  9
$DIMEXO
 40
1.0
  9
$DIMDLI
 40
1.0
  9
$DIMRND
 40
0.0
  9
$DIMDLE
 40
0.0
  9
$DIMEXE
 40
1.0
  9
$DIMTP
 40
0.0
  9
$DIMTM
 40
0.0
  9
$DIMTXT
 40
2.0
  9
$DIMCEN
 40
0.0
  9
$DIMTSZ
 40
0.0
  9
$DIMTOL
 70
     0
  9
$DIMLIM
 70
     0
  9
$DIMTIH
 70
     0
  9
$DIMTOH
 70
     0
  9
$DIMSE1
 70
     0
  9
$DIMSE2
 70
     0
  9
$DIMTAD
 70
     1
  9
$DIMZIN
 70
     8
  9
$DIMBLK
  1

  9
$DIMASO
 70
     1
  9
$DIMSHO
 70
     1
  9
$DIMPOST
  1

  9
$DIMAPOST
  1

  9
$DIMALT
 70
     0
  9
$DIMALTD
 70
     3
  9
$DIMALTF
 40
0.03937007874016
  9
$DIMLFAC
 40
1.0
  9
$DIMTOFL
 70
     1
  9
$DIMTVP
 40
0.0
  9
$DIMTIX
 70
     0
  9
$DIMSOXD
 70
     0
  9
$DIMSAH
 70
     0
  9
$DIMBLK1
  1

  9
$DIMBLK2
  1

  9
$DIMSTYLE
  2
SANINDUSA
  9
$DIMCLRD
 70
   256
  9
$DIMCLRE
 70
   256
  9
$DIMCLRT
 70
   256
  9
$DIMTFAC
 40
1.0
  9
$DIMGAP
 40
1.0
  9
$DIMJUST
 70
     0
  9
$DIMSD1
 70
     0
  9
$DIMSD2
 70
     0
  9
$DIMTOLJ
 70
     0
  9
$DIMTZIN
 70
     8
  9
$DIMALTZ
 70
     0
  9
$DIMALTTZ
 70
     0
  9
$DIMUPT
 70
     0
  9
$DIMDEC
 70
     1
  9
$DIMTDEC
 70
     1
  9
$DIMALTU
 70
     2
  9
$DIMALTTD
 70
     3
  9
$DIMTXSTY
  7
SANINDUSA
  9
$DIMAUNIT
 70
     0
  9
$DIMADEC
 70
     1
  9
$DIMALTRND
 40
0.0
  9
$DIMAZIN
 70
     0
  9
$DIMDSEP
 70
    44
  9
$DIMATFIT
 70
     3
  9
$DIMFRAC
 70
     0
  9
$DIMLDRBLK
  1

  9
$DIMLUNIT
 70
     2
  9
$DIMLWD
 70
    -1
  9
$DIMLWE
 70
    -1
  9
$DIMTMOVE
 70
     0
  9
$LUNITS
 70
     2
  9
$LUPREC
 70
     4
  9
$SKETCHINC
 40
1.0
  9
$FILLETRAD
 40
0.0
  9
$AUNITS
 70
     0
  9
$AUPREC
 70
     0
  9
$MENU
  1
.
  9
$ELEVATION
 40
0.0
  9
$PELEVATION
 40
0.0
  9
$THICKNESS
 40
0.0
  9
$LIMCHECK
 70
     0
  9
$CHAMFERA
 40
10.0
  9
$CHAMFERB
 40
10.0
  9
$CHAMFERC
 40
20.0
  9
$CHAMFERD
 40
0.0
  9
$SKPOLY
 70
     0
  9
$TDCREATE
 40
2453021.554998912
  9
$TDUCREATE
 40
2453021.513332245
  9
$TDUPDATE
 40
2456146.741883681
  9
$TDUUPDATE
 40
2456146.700217014
  9
$TDINDWG
 40
0.0043397338
  9
$TDUSRTIMER
 40
0.0043395486
  9
$USRTIMER
 70
     1
  9
$ANGBASE
 50
0.0
  9
$ANGDIR
 70
     0
  9
$PDMODE
 70
     0
  9
$PDSIZE
 40
0.0
  9
$PLINEWID
 40
0.0
  9
$SPLFRAME
 70
     0
  9
$SPLINETYPE
 70
     6
  9
$SPLINESEGS
 70
     8
  9
$HANDSEED
  5
1499
  9
$SURFTAB1
 70
     6
  9
$SURFTAB2
 70
     6
  9
$SURFTYPE
 70
     6
  9
$SURFU
 70
     6
  9
$SURFV
 70
     6
  9
$UCSBASE
  2

  9
$UCSNAME
  2

  9
$UCSORG
 10
0.0
 20
0.0
 30
0.0
  9
$UCSXDIR
 10
1.0
 20
0.0
 30
0.0
  9
$UCSYDIR
 10
0.0
 20
1.0
 30
0.0
  9
$UCSORTHOREF
  2

  9
$UCSORTHOVIEW
 70
     0
  9
$UCSORGTOP
 10
0.0
 20
0.0
 30
0.0
  9
$UCSORGBOTTOM
 10
0.0
 20
0.0
 30
0.0
  9
$UCSORGLEFT
 10
0.0
 20
0.0
 30
0.0
  9
$UCSORGRIGHT
 10
0.0
 20
0.0
 30
0.0
  9
$UCSORGFRONT
 10
0.0
 20
0.0
 30
0.0
  9
$UCSORGBACK
 10
0.0
 20
0.0
 30
0.0
  9
$PUCSBASE
  2

  9
$PUCSNAME
  2

  9
$PUCSORG
 10
0.0
 20
0.0
 30
0.0
  9
$PUCSXDIR
 10
1.0
 20
0.0
 30
0.0
  9
$PUCSYDIR
 10
0.0
 20
1.0
 30
0.0
  9
$PUCSORTHOREF
  2

  9
$PUCSORTHOVIEW
 70
     0
  9
$PUCSORGTOP
 10
0.0
 20
0.0
 30
0.0
  9
$PUCSORGBOTTOM
 10
0.0
 20
0.0
 30
0.0
  9
$PUCSORGLEFT
 10
0.0
 20
0.0
 30
0.0
  9
$PUCSORGRIGHT
 10
0.0
 20
0.0
 30
0.0
  9
$PUCSORGFRONT
 10
0.0
 20
0.0
 30
0.0
  9
$PUCSORGBACK
 10
0.0
 20
0.0
 30
0.0
  9
$USERI1
 70
     0
  9
$USERI2
 70
     0
  9
$USERI3
 70
     0
  9
$USERI4
 70
     0
  9
$USERI5
 70
     0
  9
$USERR1
 40
0.0
  9
$USERR2
 40
0.0
  9
$USERR3
 40
0.0
  9
$USERR4
 40
0.0
  9
$USERR5
 40
0.0
  9
$WORLDVIEW
 70
     1
  9
$SHADEDGE
 70
     3
  9
$SHADEDIF
 70
    70
  9
$TILEMODE
 70
     1
  9
$MAXACTVP
 70
    64
  9
$PINSBASE
 10
0.0
 20
0.0
 30
0.0
  9
$PLIMCHECK
 70
     0
  9
$PEXTMIN
 10
1.000000000000000E+20
 20
1.000000000000000E+20
 30
1.000000000000000E+20
  9
$PEXTMAX
 10
-1.000000000000000E+20
 20
-1.000000000000000E+20
 30
-1.000000000000000E+20
  9
$PLIMMIN
 10
0.0
 20
0.0
  9
$PLIMMAX
 10
420.0
 20
297.0
  9
$UNITMODE
 70
     0
  9
$VISRETAIN
 70
     1
  9
$PLINEGEN
 70
     0
  9
$PSLTSCALE
 70
     1
  9
$TREEDEPTH
 70
  3020
  9
$CMLSTYLE
  2
Standard
  9
$CMLJUST
 70
     0
  9
$CMLSCALE
 40
20.0
  9
$PROXYGRAPHICS
 70
     1
  9
$MEASUREMENT
 70
     1
  9
$CELWEIGHT
370
    -1
  9
$ENDCAPS
280
     0
  9
$JOINSTYLE
280
     0
  9
$LWDISPLAY
290
     0
  9
$INSUNITS
 70
     4
  9
$HYPERLINKBASE
  1

  9
$STYLESHEET
  1
monochrome.ctb
  9
$XEDIT
290
     1
  9
$CEPSNTYPE
380
     0
  9
$PSTYLEMODE
290
     1
  9
$FINGERPRINTGUID
  2
{B98A73AA-52AA-4C10-B469-C0E7150AC31F}
  9
$VERSIONGUID
  2
{3ADE938A-7A6C-4DAC-A74B-FEE6D4685F50}
  9
$EXTNAMES
290
     1
  9
$PSVPSCALE
 40
0.0
  9
$OLESTARTUP
290
     0
  0
ENDSEC
  0
SECTION
  2
CLASSES
  0
CLASS
  1
ACDBDICTIONARYWDFLT
  2
AcDbDictionaryWithDefault
  3
ObjectDBX Classes
 90
        0
280
     0
281
     0
  0
CLASS
  1
ACDBPLACEHOLDER
  2
AcDbPlaceHolder
  3
ObjectDBX Classes
 90
        0
280
     0
281
     0
  0
CLASS
  1
LAYOUT
  2
AcDbLayout
  3
ObjectDBX Classes
 90
        0
280
     0
281
     0
  0
CLASS
  1
DICTIONARYVAR
  2
AcDbDictionaryVar
  3
ObjectDBX Classes
 90
        0
280
     0
281
     0
  0
CLASS
  1
DIMASSOC
  2
AcDbDimAssoc
  3
"AcDbDimAssoc|Product Desc:     AcDim ARX App For Dimension|Company:          Autodesk, Inc.|WEB Address:      www.autodesk.com"
 90
    32768
280
     0
281
     0
  0
CLASS
  1
MATERIAL
  2
AcDbMaterial
  3
ObjectDBX Classes
 90
     1153
280
     0
281
     0
  0
CLASS
  1
VISUALSTYLE
  2
AcDbVisualStyle
  3
ObjectDBX Classes
 90
     4095
280
     0
281
     0
  0
CLASS
  1
TABLESTYLE
  2
AcDbTableStyle
  3
ObjectDBX Classes
 90
     4095
280
     0
281
     0
  0
CLASS
  1
SCALE
  2
AcDbScale
  3
ObjectDBX Classes
 90
     1153
280
     0
281
     0
  0
CLASS
  1
MLEADERSTYLE
  2
AcDbMLeaderStyle
  3
ACDB_MLEADERSTYLE_CLASS
 90
     4095
280
     0
281
     0
  0
CLASS
  1
AEC_REFEDIT_STATUS_TRACKER
  2
AecDbRefEditStatusTracker
  3
AecArchBase60|Product Desc: Autodesk Architectural Desktop 2007 |Company: Autodesk,Inc. |WEB Address: www.autodesk.com
 90
      129
280
     0
281
     0
  0
CLASS
  1
NPOCOLLECTION
  2
AcDbImpNonPersistentObjectsCollection
  3
ObjectDBX Classes
 90
     1153
280
     0
281
     0
  0
CLASS
  1
CELLSTYLEMAP
  2
AcDbCellStyleMap
  3
ObjectDBX Classes
 90
     1152
280
     0
281
     0
  0
ENDSEC
  0
SECTION
  2
TABLES
  0
TABLE
  2
VPORT
  5
8
330
0
100
AcDbSymbolTable
 70
     1
  0
VPORT
  5
13A1
330
8
100
AcDbSymbolTableRecord
100
AcDbViewportTableRecord
  2
*Active
 70
     0
 10
0.0
 20
0.0
 11
1.0
 21
1.0
 12
4412.176046370733
 22
1878.757767791294
 13
0.0
 23
0.0
 14
10.0
 24
10.0
 15
10.0
 25
10.0
 16
0.0
 26
0.0
 36
1.0
 17
0.0
 27
0.0
 37
0.0
 40
1.56038022466201
 41
1.645464025026068
 42
50.0
 43
0.0
 44
0.0
 50
0.0
 51
0.0
 71
     0
 72
   100
 73
     1
 74
     2
 75
     0
 76
     0
 77
     0
 78
     0
281
     0
 65
     1
110
0.0
120
0.0
130
0.0
111
1.0
121
0.0
131
0.0
112
0.0
122
1.0
132
0.0
 79
     0
146
0.0
  0
ENDTAB
  0
TABLE
  2
LTYPE
  5
5
330
0
100
AcDbSymbolTable
 70
     4
  0
LTYPE
  5
14
330
5
100
AcDbSymbolTableRecord
100
AcDbLinetypeTableRecord
  2
ByBlock
 70
     0
  3

 72
    65
 73
     0
 40
0.0
  0
LTYPE
  5
15
330
5
100
AcDbSymbolTableRecord
100
AcDbLinetypeTableRecord
  2
ByLayer
 70
     0
  3

 72
    65
 73
     0
 40
0.0
  0
LTYPE
  5
16
330
5
100
AcDbSymbolTableRecord
100
AcDbLinetypeTableRecord
  2
Continuous
 70
     0
  3
Solid line
 72
    65
 73
     0
 40
0.0
  0
LTYPE
  5
2D
330
5
100
AcDbSymbolTableRecord
100
AcDbLinetypeTableRecord
  2
DASHDOT
 70
     0
  3
Dash dot __ . __ . __ . __ . __ . __ . __ . __
 72
    65
 73
     4
 40
25.4
 49
12.7
 74
     0
 49
-6.349999999999999
 74
     0
 49
0.0
 74
     0
 49
-6.349999999999999
 74
     0
  0
LTYPE
  5
2E
330
5
100
AcDbSymbolTableRecord
100
AcDbLinetypeTableRecord
  2
HIDDEN
 70
     0
  3
Hidden __ __ __ __ __ __ __ __ __ __ __ __ __ _
 72
    65
 73
     2
 40
9.524999999999998
 49
6.349999999999999
 74
     0
 49
-3.174999999999999
 74
     0
  0
ENDTAB
  0
TABLE
  2
LAYER
  5
2
102
{ACAD_XDICTIONARY
360
1385
102
}
330
0
100
AcDbSymbolTable
 70
    17
  0
LAYER
  5
10
102
{ACAD_XDICTIONARY
360
13F7
102
}
330
2
100
AcDbSymbolTableRecord
100
AcDbLayerTableRecord
  2
0
 70
     0
 62
     7
  6
Continuous
370
    -3
390
F
  0
LAYER
  5
2F
102
{ACAD_XDICTIONARY
360
13F9
102
}
330
2
100
AcDbSymbolTableRecord
100
AcDbLayerTableRecord
  2
1
 70
     0
 62
     1
  6
Continuous
370
    -3
390
F
  0
LAYER
  5
30
102
{ACAD_XDICTIONARY
360
13FB
102
}
330
2
100
AcDbSymbolTableRecord
100
AcDbLayerTableRecord
  2
2
 70
     0
 62
     2
  6
Continuous
370
    -3
390
F
  0
LAYER
  5
31
102
{ACAD_XDICTIONARY
360
13FD
102
}
330
2
100
AcDbSymbolTableRecord
100
AcDbLayerTableRecord
  2
3
 70
     0
 62
     3
  6
Continuous
370
    -3
390
F
  0
LAYER
  5
32
102
{ACAD_XDICTIONARY
360
13FF
102
}
330
2
100
AcDbSymbolTableRecord
100
AcDbLayerTableRecord
  2
4
 70
     0
 62
     4
  6
Continuous
370
    -3
390
F
  0
LAYER
  5
33
102
{ACAD_XDICTIONARY
360
1401
102
}
330
2
100
AcDbSymbolTableRecord
100
AcDbLayerTableRecord
  2
5
 70
     0
 62
     5
  6
Continuous
370
    -3
390
F
  0
LAYER
  5
34
102
{ACAD_XDICTIONARY
360
1403
102
}
330
2
100
AcDbSymbolTableRecord
100
AcDbLayerTableRecord
  2
6
 70
     0
 62
     6
  6
Continuous
370
    -3
390
F
  0
LAYER
  5
35
102
{ACAD_XDICTIONARY
360
1405
102
}
330
2
100
AcDbSymbolTableRecord
100
AcDbLayerTableRecord
  2
7
 70
     0
 62
     7
  6
Continuous
370
    -3
390
F
  0
LAYER
  5
36
102
{ACAD_XDICTIONARY
360
1407
102
}
330
2
100
AcDbSymbolTableRecord
100
AcDbLayerTableRecord
  2
cen
 70
     0
 62
     7
  6
DASHDOT
370
    -3
390
F
  0
LAYER
  5
37
102
{ACAD_XDICTIONARY
360
1409
102
}
330
2
100
AcDbSymbolTableRecord
100
AcDbLayerTableRecord
  2
hid
 70
     0
 62
     7
  6
HIDDEN
370
    -3
390
F
  0
LAYER
  5
5D6
102
{ACAD_XDICTIONARY
360
140B
102
}
330
2
100
AcDbSymbolTableRecord
100
AcDbLayerTableRecord
  2
hatch
 70
     0
 62
     9
  6
Continuous
370
    -3
390
F
  0
LAYER
  5
8AF
102
{ACAD_XDICTIONARY
360
140D
102
}
330
2
100
AcDbSymbolTableRecord
100
AcDbLayerTableRecord
  2
9
 70
     0
 62
     9
  6
Continuous
370
    -3
390
F
  0
LAYER
  5
8F8
102
{ACAD_XDICTIONARY
360
140F
102
}
330
2
100
AcDbSymbolTableRecord
100
AcDbLayerTableRecord
  2
leg fin
 70
     0
 62
     9
  6
Continuous
370
    -3
390
F
  0
LAYER
  5
91D
102
{ACAD_XDICTIONARY
360
1411
102
}
330
2
100
AcDbSymbolTableRecord
100
AcDbLayerTableRecord
  2
cotas
 70
     0
 62
     1
  6
Continuous
370
    -3
390
F
  0
LAYER
  5
92F
330
2
100
AcDbSymbolTableRecord
100
AcDbLayerTableRecord
  2
Defpoints
 70
     0
 62
     7
  6
Continuous
290
     0
370
    -3
390
F
  0
LAYER
  5
B5B
102
{ACAD_XDICTIONARY
360
1413
102
}
330
2
100
AcDbSymbolTableRecord
100
AcDbLayerTableRecord
  2
indusa
 70
     0
 62
     3
  6
Continuous
370
    -3
390
F
  0
LAYER
  5
1383
102
{ACAD_XDICTIONARY
360
1415
102
}
330
2
100
AcDbSymbolTableRecord
100
AcDbLayerTableRecord
  2
SANINDUSA
 70
     0
 62
     3
  6
Continuous
370
    -3
390
F
  0
ENDTAB
  0
TABLE
  2
STYLE
  5
3
330
0
100
AcDbSymbolTable
 70
     4
  0
STYLE
  5
11
330
3
100
AcDbSymbolTableRecord
100
AcDbTextStyleTableRecord
  2
Standard
 70
     0
 40
0.0
 41
1.0
 50
0.0
 71
     0
 42
2.5
  3
Avgardn.ttf
  4

1001
ACAD
1000
AvantGarde Bk BT
1071
       34
  0
STYLE
  5
2C
330
3
100
AcDbSymbolTableRecord
100
AcDbTextStyleTableRecord
  2

 70
     1
 40
0.0
 41
1.0
 50
0.0
 71
     0
 42
2.5
  3
ltypeshp.shx
  4

  0
STYLE
  5
91F
330
3
100
AcDbSymbolTableRecord
100
AcDbTextStyleTableRecord
  2
SANINDUSA
 70
     0
 40
0.0
 41
1.0
 50
0.0
 71
     0
 42
2.5
  3
verdana.TTF
  4

1001
ACAD
1000
Verdana
1071
       34
  0
STYLE
  5
1384
330
3
100
AcDbSymbolTableRecord
100
AcDbTextStyleTableRecord
  2
cotas
 70
     0
 40
2.0
 41
0.8
 50
0.0
 71
     0
 42
2.0
  3
ISOCP.shx
  4

  0
ENDTAB
  0
TABLE
  2
VIEW
  5
6
330
0
100
AcDbSymbolTable
 70
     0
  0
ENDTAB
  0
TABLE
  2
UCS
  5
7
330
0
100
AcDbSymbolTable
 70
     0
  0
ENDTAB
  0
TABLE
  2
APPID
  5
9
330
0
100
AcDbSymbolTable
 70
     4
  0
APPID
  5
12
330
9
100
AcDbSymbolTableRecord
100
AcDbRegAppTableRecord
  2
ACAD
 70
     0
  0
APPID
  5
3A
330
9
100
AcDbSymbolTableRecord
100
AcDbRegAppTableRecord
  2
DCO15
 70
     0
  0
APPID
  5
13EC
330
9
100
AcDbSymbolTableRecord
100
AcDbRegAppTableRecord
  2
ACAD_EXEMPT_FROM_CAD_STANDARDS
 70
     0
  0
APPID
  5
1498
330
9
100
AcDbSymbolTableRecord
100
AcDbRegAppTableRecord
  2
ACAD_MLEADERVER
 70
     0
  0
ENDTAB
  0
TABLE
  2
DIMSTYLE
  5
A
330
0
100
AcDbSymbolTable
 70
     3
100
AcDbDimStyleTable
 71
     1
340
921
  0
DIMSTYLE
105
45
330
A
100
AcDbSymbolTableRecord
100
AcDbDimStyleTableRecord
  2
STANDARD
 70
     0
289
     0
340
11
  0
DIMSTYLE
105
921
330
A
100
AcDbSymbolTableRecord
100
AcDbDimStyleTableRecord
  2
SANINDUSA
 70
     0
 41
2.0
 42
1.0
 43
1.0
 44
1.0
 73
     0
 74
     0
 77
     1
 78
     8
140
2.0
141
0.0
143
0.03937007874016
147
1.0
171
     3
172
     1
176
   256
177
   256
178
   256
179
     1
271
     1
272
     1
274
     3
278
    44
283
     0
284
     8
340
91F
371
    -1
372
    -1
  0
ENDTAB
  0
TABLE
  2
BLOCK_RECORD
  5
1
330
0
100
AcDbSymbolTable
 70
    76
  0
BLOCK_RECORD
  5
1F
330
1
100
AcDbSymbolTableRecord
100
AcDbBlockTableRecord
  2
*Model_Space
340
22
  0
BLOCK_RECORD
  5
1B
330
1
100
AcDbSymbolTableRecord
100
AcDbBlockTableRecord
  2
*Paper_Space
340
1E
  0
BLOCK_RECORD
  5
23
330
1
100
AcDbSymbolTableRecord
100
AcDbBlockTableRecord
  2
*Paper_Space0
340
26
  0
BLOCK_RECORD
  5
919
330
1
100
AcDbSymbolTableRecord
100
AcDbBlockTableRecord
  2
_DotSmall
340
0
  0
BLOCK_RECORD
  5
922
330
1
100
AcDbSymbolTableRecord
100
AcDbBlockTableRecord
  2
base para cotas
340
0
310
2800000020000000200000000100080000000000000400000000000000000000000000000000000000000000000080000080000000808000800000008000800080800000C0C0C000C0DCC000F0CAA6000020400000206000002080000020A0000020C0000020E00000400000004020000040400000406000004080000040A0
310
000040C0000040E00000600000006020000060400000606000006080000060A0000060C0000060E00000800000008020000080400000806000008080000080A0000080C0000080E00000A0000000A0200000A0400000A0600000A0800000A0A00000A0C00000A0E00000C0000000C0200000C0400000C0600000C0800000C0
310
A00000C0C00000C0E00000E0000000E0200000E0400000E0600000E0800000E0A00000E0C00000E0E00040000000400020004000400040006000400080004000A0004000C0004000E00040200000402020004020400040206000402080004020A0004020C0004020E000404000004040200040404000404060004040800040
310
40A0004040C0004040E00040600000406020004060400040606000406080004060A0004060C0004060E00040800000408020004080400040806000408080004080A0004080C0004080E00040A0000040A0200040A0400040A0600040A0800040A0A00040A0C00040A0E00040C0000040C0200040C0400040C0600040C08000
310
40C0A00040C0C00040C0E00040E0000040E0200040E0400040E0600040E0800040E0A00040E0C00040E0E00080000000800020008000400080006000800080008000A0008000C0008000E00080200000802020008020400080206000802080008020A0008020C0008020E00080400000804020008040400080406000804080
310
008040A0008040C0008040E00080600000806020008060400080606000806080008060A0008060C0008060E00080800000808020008080400080806000808080008080A0008080C0008080E00080A0000080A0200080A0400080A0600080A0800080A0A00080A0C00080A0E00080C0000080C0200080C0400080C0600080C0
310
800080C0A00080C0C00080C0E00080E0000080E0200080E0400080E0600080E0800080E0A00080E0C00080E0E000C0000000C0002000C0004000C0006000C0008000C000A000C000C000C000E000C0200000C0202000C0204000C0206000C0208000C020A000C020C000C020E000C0400000C0402000C0404000C0406000C0
310
408000C040A000C040C000C040E000C0600000C0602000C0604000C0606000C0608000C060A000C060C000C060E000C0800000C0802000C0804000C0806000C0808000C080A000C080C000C080E000C0A00000C0A02000C0A04000C0A06000C0A08000C0A0A000C0A0C000C0A0E000C0C00000C0C02000C0C04000C0C06000
310
C0C08000C0C0A000F0FBFF00A4A0A000808080000000FF0000FF000000FFFF00FF000000FF00FF00FFFF0000FFFFFF00A4A4A4A4A4A4A4A4A4A4A4A4A4A4A4A4A4A4A4A4A4A4A4A4A4A4A4A4A4A4A4A4A4A4A4A4A4A4A4A4A4A4A4A4A4A4A4A4A4A4A4A4A4A4A4A4A4A4A4A4A4A4A4A4A4A4A4A4A4A4A4A4A4A4A4A4A4A4A4
310
A4A4A4A4A4A4A4A4A4A4A4A4A4A4A4A4A4A4A4A4A4A4A4A4A4A4A4A4A4A4A4A4A4A4A4A4A4A4A4A4A4A4A4A4A4A4A4A4A4A4A4A4A4A4A4A4A4A4A4A4A4A4A4A4A4A4A4A4A4A4A4A4A4A4A4A4A4A4A4A4A4A4A4A4A4A4A4A4A4A4A4A4A4A4A4A4A4A4A4A4A4A4A4A4A4A4A4A4A4A4A4A4A4A4A4A4A4A4A4A4A4A4A4A4A4A4A4
310
A4A4A4A4A4A4A4A4A4A4A4A4A4A4A4A4A4A4A4A4A4A4A4A4A4A4A4A4A4A4A4A4A4A4A4A4A4A4A4A4A4A4A4A4A4A4A4A4A4A4A4A4A4A4A4A4A4A4A4A4A4A4A4A4A4A4A4A4A4A4A4A4A4A4A4A4A4A4A4A4A4A4A4A4A4A4A4A4A4A4A4A4A4A4A4A4A4A4A4A4A4A4A4A4A4A4A4A4A4A4A4A4A4A4A4A4A4A4A4A4A4A4A4A4A4A4A4
310
A4A4A4A4A4A4A4A4A4A4A4A4A4A4A4A4A4A4A4A4A4A4A4A4A4A4A4A4A4A4A4A4A4A4A4A4A4A4A4A4A4A4A4A4A4A4A4A4A4A4A4A4A4A4A4A4A4A4A4A4A4A4A4A4A4A4A4A4A4A4A4A4A4A4A4A4A4A4A4A4A4A4A4A4A4A4A4A4A4A4A4A4A4A4A4A4A4A4A4A4A4A4A4A4A4A4A4A4A4A4A4A4A4A4A4A4F9F9F9F9F9F9F9F9F9F9F9
310
F9F9F9F9F9F9F9F9F9F9F9F9F9F9F9F9F9F9F9A4A4F9F9F9F9F9F9F9F9F9F9F9F9F9F9F9F9F9F9F9F9F9F9F9F9F9F9F9F9F9F9A4A4F9F9F9F9F9F9F9F9F9F9F9F9F9F9F9F9F9F9F9F9F9F9F9F9F9F9F9F9F9F9A4A4F9A4A4A4A4A4A4A4A4A4A4A4A4A4A4A4A4A4A4A4A4A4A4A4A4A4A4A4A4F9A4A4A4A4A4A4A4A4A4A4A4A4
310
A4A4A4A4A4A4A4A4A4A4A4A4A4A4A4A4A4A4A4A4A4A4A4A4A4A4A4A4A4A4A4A4A4A4A4A4A4A4A4A4A4A4A4A4A4A4A4A4A4A4A4A4A4A4A4A4A4A4A4A4A4A4A4A4A4A4A4A4A4A4A4A4A4A4A4A4A4A4A4A4A4A4A4A4A4A4A4A4A4A4A4A4A4A4A4A4A4A4A4A4A4A4A4A4A4A4A4A4A4A4A4A4A4A4A4A4A4A4A4A4A4A4A4A4A4A4A4
310
A4A4A4A4A4A4A4A4A4A4A4A4A4A4A4A4A4A4A4A4A4A4A4A4A4A4A4A4A4A4A4A4A4A4A4A4A4A4A4A4A4A4A4A4A4A4A4A4A4A4A4A4A4A4A4A4A4A4A4A4A4A4A4A4A4A4A4A4A4A4A4A4A4A4A4A4A4A4A4A4A4A4A4A4A4A4A4A4A4A4A4A4A4A4A4A4A4A4A4A4A4A4A4A4A4A4A4A4A4A4A4A4A4A4A4A4A4A4A4A4A4A4A4A4A4A4A4
310
A4A4A4A4A4A4A4A4A4A4A4A4A4A4A4A4A4A4A4A4A4A4A4A4A4A4A4A4A4A4A4A4A4A4A4A4A4A4A4A4A4A4A4A4A4A4A4A4A4A4A4A4A4A4A4A4A4A4A4A4A4A4A4A4A4A4A4A4A4A4A4A4A4A4A4A4A4A4A4A4A4A4A4A4A4A4A4A4A4A4A4A4A4A4A4A4A4A4A4A4A4A4A4A4A4A4A4A4A4A4A4A4A4A4A4A4A4A4A4A4A4A4A4A4A4A4A4
310
A4A4A4A4A4A4A4A4A4A4A4A4A4A4A4A4A4A4A4A4A4A4A4A4A4A4A4A4A4A4A4A4A4A4A4A4A4A4A4A4A4A4A4A4A4A4A4A4A4A4A4A4A4A4A4A4
1001
ACAD
1000
DesignCenter Data
1002
{
1070
     1
1070
     4
1002
}
  0
BLOCK_RECORD
  5
AA8
330
1
100
AcDbSymbolTableRecord
100
AcDbBlockTableRecord
  2
_CLOSED
340
0
  0
BLOCK_RECORD
  5
1387
330
1
100
AcDbSymbolTableRecord
100
AcDbBlockTableRecord
  2
111410AL
340
0
  0
ENDTAB
  0
ENDSEC
  0
SECTION
  2
BLOCKS
  0
BLOCK
  5
20
330
1F
100
AcDbEntity
  8
0
100
AcDbBlockBegin
  2
*Model_Space
 70
     0
 10
0.0
 20
0.0
 30
0.0
  3
*Model_Space
  1

  0
ENDBLK
  5
21
330
1F
100
AcDbEntity
  8
0
100
AcDbBlockEnd
  0
BLOCK
  5
1C
330
1B
100
AcDbEntity
 67
     1
  8
0
100
AcDbBlockBegin
  2
*Paper_Space
 70
     0
 10
0.0
 20
0.0
 30
0.0
  3
*Paper_Space
  1

  0
ENDBLK
  5
1D
330
1B
100
AcDbEntity
 67
     1
  8
0
100
AcDbBlockEnd
  0
BLOCK
  5
24
330
23
100
AcDbEntity
 67
     1
  8
0
100
AcDbBlockBegin
  2
*Paper_Space0
 70
     0
 10
0.0
 20
0.0
 30
0.0
  3
*Paper_Space0
  1

  0
ENDBLK
  5
25
330
23
100
AcDbEntity
 67
     1
  8
0
100
AcDbBlockEnd
  0
BLOCK
  5
91B
330
919
100
AcDbEntity
  8
0
100
AcDbBlockBegin
  2
_DotSmall
 70
     0
 10
0.0
 20
0.0
 30
0.0
  3
_DotSmall
  1

  0
LWPOLYLINE
  5
91A
330
919
100
AcDbEntity
  8
0
  6
ByBlock
 62
     0
100
AcDbPolyline
 90
        2
 70
     1
 43
0.5
 10
-0.0625
 20
0.0
 42
1.0
 10
0.0625
 20
0.0
 42
1.0
  0
ENDBLK
  5
91C
330
919
100
AcDbEntity
  8
0
100
AcDbBlockEnd
  0
BLOCK
  5
92A
330
922
100
AcDbEntity
  8
0
100
AcDbBlockBegin
  2
base para cotas
 70
     0
 10
0.0
 20
0.0
 30
0.0
  3
base para cotas
  1

  0
LINE
  5
B36
330
922
100
AcDbEntity
  8
cotas
100
AcDbLine
 10
0.0
 20
-30.0
 30
0.0
 11
327.1260136525398
 21
-30.0
 31
0.0
  0
LINE
  5
B37
330
922
100
AcDbEntity
  8
cotas
100
AcDbLine
 10
0.0
 20
-25.0
 30
0.0
 11
327.1260136525398
 21
-25.0
 31
0.0
  0
LINE
  5
B38
330
922
100
AcDbEntity
  8
cotas
100
AcDbLine
 10
0.0
 20
-20.0
 30
0.0
 11
327.1260136525398
 21
-20.0
 31
0.0
  0
LINE
  5
B39
330
922
100
AcDbEntity
  8
cotas
100
AcDbLine
 10
0.0
 20
-15.0
 30
0.0
 11
327.1260136525398
 21
-15.0
 31
0.0
  0
LINE
  5
B3A
330
922
100
AcDbEntity
  8
cotas
100
AcDbLine
 10
0.0
 20
-10.0
 30
0.0
 11
327.1260136525398
 21
-10.0
 31
0.0
  0
LINE
  5
B3B
330
922
100
AcDbEntity
  8
cotas
100
AcDbLine
 10
0.0
 20
0.0
 30
0.0
 11
0.0
 21
-30.0
 31
0.0
  0
LINE
  5
B3C
330
922
100
AcDbEntity
  8
cotas
100
AcDbLine
 10
327.1260136525398
 20
-30.0
 30
0.0
 11
327.1260136525398
 21
0.0
 31
0.0
  0
ENDBLK
  5
92B
330
922
100
AcDbEntity
  8
0
100
AcDbBlockEnd
  0
BLOCK
  5
AAD
330
AA8
100
AcDbEntity
  8
0
100
AcDbBlockBegin
  2
_CLOSED
 70
     0
 10
0.0
 20
0.0
 30
0.0
  3
_CLOSED
  1

  0
LINE
  5
AA9
330
AA8
100
AcDbEntity
  8
0
100
AcDbLine
 10
-1.0
 20
0.166667
 30
0.0
 11
0.0
 21
0.0
 31
0.0
  0
LINE
  5
AAA
330
AA8
100
AcDbEntity
  8
0
100
AcDbLine
 10
0.0
 20
0.0
 30
0.0
 11
-1.0
 21
-0.166667
 31
0.0
  0
LINE
  5
AAB
330
AA8
100
AcDbEntity
  8
0
100
AcDbLine
 10
-1.0
 20
0.166667
 30
0.0
 11
-1.0
 21
-0.166667
 31
0.0
  0
LINE
  5
AAC
330
AA8
100
AcDbEntity
  8
0
100
AcDbLine
 10
0.0
 20
0.0
 30
0.0
 11
-1.0
 21
0.0
 31
0.0
  0
ENDBLK
  5
AAE
330
AA8
100
AcDbEntity
  8
0
100
AcDbBlockEnd
  0
BLOCK
  5
139B
330
1387
100
AcDbEntity
  8
0
100
AcDbBlockBegin
  2
111410AL
 70
     0
 10
0.0
 20
0.0
 30
0.0
  3
111410AL
  1

  0
ARC
  5
1388
330
1387
100
AcDbEntity
  8
SANINDUSA
  6
Continuous
100
AcDbCircle
 10
0.5229999999999678
 20
0.3950000000000034
 30
0.0
 40
0.005
100
AcDbArc
 50
0.0
 51
90.0000000000004
  0
LINE
  5
1389
330
1387
100
AcDbEntity
  8
SANINDUSA
  6
Continuous
100
AcDbLine
 10
0.3580000000000041
 20
0.0020000000000016
 30
0.0
 11
0.3579999998509606
 21
0.0131407618522701
 31
0.0
  0
ARC
  5
138A
330
1387
100
AcDbEntity
  8
SANINDUSA
  6
Continuous
100
AcDbCircle
 10
0.3559999999999945
 20
0.0020000000000016
 30
0.0
 40
0.002
100
AcDbArc
 50
270.0
 51
0.0
  0
LWPOLYLINE
  5
138B
330
1387
100
AcDbEntity
  8
SANINDUSA
  6
Continuous
100
AcDbPolyline
 90
       16
 70
   128
 43
0.0
 10
0.2576429628133656
 20
0.0266193985939071
 10
0.2681843087375046
 20
0.0265598833560989
 10
0.2786624662876011
 20
0.0261512339115188
 10
0.2888854600787045
 20
0.0254857480526016
 10
0.2987863652706028
 20
0.024590694904332
 10
0.3082517374604822
 20
0.0234721839427994
 10
0.31711987390368
 20
0.0221830844879196
 10
0.3255437024235607
 20
0.0207311153411911
 10
0.3331916116475941
 20
0.0192260086536453
 10
0.3399321025535346
 20
0.0177531778812454
 10
0.3458184505179406
 20
0.016356104612355
 10
0.3506350860297562
 20
0.0151363551616714
 10
0.3542830933183314
 20
0.0141665875911758
 10
0.3563353129029156
 20
0.0136059463024185
 10
0.3575806457847239
 20
0.013259375095372
 10
0.3579999998509766
 20
0.013140761852269
  0
LINE
  5
138C
330
1387
100
AcDbEntity
  8
SANINDUSA
  6
Continuous
100
AcDbLine
 10
0.3559999999999945
 20
0.0
 30
0.0
 11
0.2577007120185613
 21
0.0000000000000068
 31
0.0
  0
ARC
  5
138D
330
1387
100
AcDbEntity
  8
SANINDUSA
  6
Continuous
100
AcDbCircle
 10
0.1380064131984682
 20
0.3950000000000034
 30
0.0
 40
0.0050000000000006
100
AcDbArc
 50
90.0000000000004
 51
179.2717529154371
  0
LWPOLYLINE
  5
138E
330
1387
100
AcDbEntity
  8
SANINDUSA
  6
Continuous
100
AcDbPolyline
 90
       21
 70
   128
 43
0.0
 10
0.066999994993198
 20
0.3799999669194267
 10
0.066999994993198
 20
0.3799999669194267
 10
0.0671075515746952
 20
0.3799901545047806
 10
0.067703896045673
 20
0.3799368306994484
 10
0.0688011579513432
 20
0.3798446595668838
 10
0.0703695647716404
 20
0.3797250423580454
 10
0.0723629527091862
 20
0.3795938022434757
 10
0.074736618280399
 20
0.3794677477330015
 10
0.0774165027141453
 20
0.3793631527572916
 10
0.0803171627521397
 20
0.3792945440858648
 10
0.0833646439313771
 20
0.3792682640254543
 10
0.0869020305871845
 20
0.3792938418686436
 10
0.0903867118358494
 20
0.3793697521090553
 10
0.0933042399883152
 20
0.3794678594917105
 10
0.0960011415481449
 20
0.3795814268291042
 10
0.0984086476564289
 20
0.3796978551894472
 10
0.1004515819549442
 20
0.3798051528632687
 10
0.1020685814618946
 20
0.3798936247825668
 10
0.1032175056934238
 20
0.3799578133970545
 10
0.1038022570609928
 20
0.3799906332045839
 10
0.103999980568874
 20
0.38000175505877
  0
LWPOLYLINE
  5
138F
330
1387
100
AcDbEntity
  8
SANINDUSA
  6
Continuous
100
AcDbPolyline
 90
       10
 70
   128
 43
0.0
 10
0.133006819367397
 20
0.3950635498389647
 10
0.1323605560064198
 20
0.3906538594514177
 10
0.1305334203243138
 20
0.3867561990395234
 10
0.1277102314233662
 20
0.3835707359015987
 10
0.1248157255649448
 20
0.3816368501633451
 10
0.1215000681877018
 20
0.3804109986871527
 10
0.1178701900243641
 20
0.3799954351037786
 10
0.1141233377456547
 20
0.3799988195300148
 10
0.11037754344939
 20
0.3799984041601465
 10
0.103999980568874
 20
0.38000175505877
  0
ARC
  5
1390
330
1387
100
AcDbEntity
  8
SANINDUSA
  6
Continuous
100
AcDbCircle
 10
0.0
 20
0.3780005177281612
 30
0.0
 40
0.002
100
AcDbArc
 50
90.0000000000004
 51
180.0000000000008
  0
LINE
  5
1391
330
1387
100
AcDbEntity
  8
SANINDUSA
  6
Continuous
100
AcDbLine
 10
0.0669999949931821
 20
0.3799999669194278
 30
0.0
 11
0.0000002087148232
 21
0.3800005177172705
 31
0.0
  0
LINE
  5
1392
330
1387
100
AcDbEntity
  8
SANINDUSA
  6
Continuous
100
AcDbLine
 10
-0.0020000107288638
 20
0.0238980591297207
 30
0.0
 11
-0.0020000000000096
 21
0.0020000000000016
 31
0.0
  0
ARC
  5
1393
330
1387
100
AcDbEntity
  8
SANINDUSA
  6
Continuous
100
AcDbCircle
 10
0.0
 20
0.0020000000000016
 30
0.0
 40
0.002
100
AcDbArc
 50
180.0000000000008
 51
270.0
  0
LINE
  5
1394
330
1387
100
AcDbEntity
  8
SANINDUSA
  6
Continuous
100
AcDbLine
 10
-0.0000577337742129
 20
0.0226994991302547
 30
0.0
 11
0.000001066207858
 21
0.0226994693279323
 31
0.0
  0
LWPOLYLINE
  5
1395
330
1387
100
AcDbEntity
  8
SANINDUSA
  6
Continuous
100
AcDbPolyline
 90
        7
 70
   128
 43
0.0
 10
-0.0020000107288479
 20
0.0238980591297195
 10
-0.0019999809265255
 20
0.0238931417465256
 10
-0.0018949873447536
 20
0.0235136985778854
 10
-0.0015928215980648
 20
0.0231718957424209
 10
-0.0011690325737118
 20
0.0229245066642807
 10
-0.0006510086059689
 20
0.0227640807628677
 10
-0.000057733774197
 20
0.0226994991302536
  0
LINE
  5
1396
330
1387
100
AcDbEntity
  8
SANINDUSA
  6
Continuous
100
AcDbLine
 10
-0.0020000000000096
 20
0.3780005177281612
 30
0.0
 11
-0.0020000107288638
 21
0.0238980591297207
 31
0.0
  0
LWPOLYLINE
  5
1397
330
1387
100
AcDbEntity
  8
SANINDUSA
  6
Continuous
100
AcDbPolyline
 90
        3
 70
   128
 43
0.0
 10
0.0000010662078739
 20
0.0226994693279312
 10
0.0929103277921559
 20
0.0241720914840744
 10
0.2576429628133656
 20
0.0266193985939071
  0
LINE
  5
1398
330
1387
100
AcDbEntity
  8
SANINDUSA
  6
Continuous
100
AcDbLine
 10
0.0
 20
0.0000000000000068
 30
0.0
 11
0.2577007120185613
 21
0.0000000000000068
 31
0.0
  0
LINE
  5
1399
330
1387
100
AcDbEntity
  8
SANINDUSA
  6
Continuous
100
AcDbLine
 10
0.5229999999999678
 20
0.4000000000000057
 30
0.0
 11
0.1380064131984682
 21
0.4000000000000057
 31
0.0
  0
LWPOLYLINE
  5
139A
330
1387
100
AcDbEntity
  8
SANINDUSA
  6
Continuous
100
AcDbPolyline
 90
       24
 70
   128
 43
0.0
 10
0.3579999998509766
 20
0.013140761852269
 10
0.3737590171694638
 20
0.0190582215786026
 10
0.3890918836295487
 20
0.026031786203389
 10
0.4039522566199185
 20
0.034046763181691
 10
0.4177843563556553
 20
0.0427413225173996
 10
0.4310578115582348
 20
0.0523427367210434
 10
0.4436989285349728
 20
0.0628057062625931
 10
0.4556340210437657
 20
0.0740848720073746
 10
0.466795258998859
 20
0.0861290931701706
 10
0.477133565425861
 20
0.0988684237003372
 10
0.486603625893581
 20
0.1122292220592544
 10
0.49596383500098
 20
0.1275559008121536
 10
0.5041692041158558
 20
0.1434581816196487
 10
0.5111979179382206
 20
0.159876430034642
 10
0.5170324079990269
 20
0.1767553478479431
 10
0.5216548972129704
 20
0.1940393686294601
 10
0.5247221075296284
 20
0.2096621930599258
 10
0.5267961852550389
 20
0.225508445501332
 10
0.527856313467014
 20
0.2415309637785003
 10
0.5280000053644062
 20
0.2576717078685806
 10
0.5280000053644062
 20
0.2738279789686249
 10
0.5280000053644062
 20
0.2899842500686691
 10
0.5280000053644062
 20
0.3061405211687134
 10
0.5280000053644062
 20
0.3950000001117633
  0
ENDBLK
  5
139C
330
1387
100
AcDbEntity
  8
0
100
AcDbBlockEnd
  0
ENDSEC
  0
SECTION
  2
ENTITIES
  0
LWPOLYLINE
  5
F3D
330
1F
100
AcDbEntity
  8
indusa
100
AcDbPolyline
 90
       14
 70
   128
 43
0.0
 10
4412.312892295455
 20
1878.901849307197
 10
4412.314133621612
 20
1878.880807387566
 10
4412.316446667975
 20
1878.858444434218
 10
4412.319647175978
 20
1878.836599300669
 10
4412.323679243262
 20
1878.815308691085
 10
4412.328482366177
 20
1878.794601233351
 10
4412.333997821299
 20
1878.77450393259
 10
4412.340166201125
 20
1878.755039402189
 10
4412.348108720326
 20
1878.733154728634
 10
4412.356764106607
 20
1878.71218219314
 10
4412.366036012516
 20
1878.692139575684
 10
4412.375825026262
 20
1878.673043792413
 10
4412.38602563651
 20
1878.654903229753
 10
4412.395122899389
 20
1878.639967763412
  0
LWPOLYLINE
  5
F3E
330
1F
100
AcDbEntity
  8
indusa
100
AcDbPolyline
 90
       14
 70
   128
 43
0.0
 10
4412.584661363442
 20
1878.639967763412
 10
4412.593758626323
 20
1878.654903229753
 10
4412.60395923657
 20
1878.673043792413
 10
4412.613748250316
 20
1878.692139575684
 10
4412.623020156225
 20
1878.71218219314
 10
4412.631675542505
 20
1878.733154728634
 10
4412.639618061706
 20
1878.755039402189
 10
4412.645786441533
 20
1878.77450393259
 10
4412.651301896655
 20
1878.794601233351
 10
4412.656105019571
 20
1878.815308691085
 10
4412.660137086855
 20
1878.836599300669
 10
4412.663337594858
 20
1878.858444434218
 10
4412.665650641221
 20
1878.880807387566
 10
4412.666891967378
 20
1878.901849307197
  0
LWPOLYLINE
  5
F43
330
1F
100
AcDbEntity
  8
indusa
100
AcDbPolyline
 90
       19
 70
   128
 43
0.0
 10
4412.583577080396
 20
1878.639105931673
 10
4412.582266879218
 20
1878.639130462129
 10
4412.580177486718
 20
1878.639156643749
 10
4412.577335108605
 20
1878.639183968559
 10
4412.573765950585
 20
1878.639211928588
 10
4412.569461719045
 20
1878.639240297037
 10
4412.56445423846
 20
1878.63926876091
 10
4412.558799781217
 20
1878.639296898633
 10
4412.5525546197
 20
1878.639324288633
 10
4412.545723147998
 20
1878.639351074538
 10
4412.538347516808
 20
1878.639377001071
 10
4412.530505176768
 20
1878.63940119441
 10
4412.522273578517
 20
1878.639422780739
 10
4412.519439230485
 20
1878.639429984588
 10
4412.513827907456
 20
1878.639439142515
 10
4412.508184107771
 20
1878.639446138222
 10
4412.502410982508
 20
1878.639451130249
 10
4412.496176647439
 20
1878.639454321616
 10
4412.489892131416
 20
1878.639455380174
  0
LINE
  5
F46
330
1F
100
AcDbEntity
  8
indusa
100
AcDbLine
 10
4412.58001221313
 20
1878.551640740521
 30
0.0
 11
4412.581309187969
 21
1878.551640740521
 31
0.0
  0
LINE
  5
F49
330
1F
100
AcDbEntity
  8
indusa
100
AcDbLine
 10
4412.396485752837
 20
1878.553640740521
 30
0.0
 11
4412.396485752837
 21
1878.634821240693
 31
0.0
  0
LINE
  5
F4B
330
1F
100
AcDbEntity
  8
indusa
100
AcDbLine
 10
4412.363120187489
 20
1878.698442569496
 30
0.0
 11
4412.363120187489
 21
1878.553640740521
 31
0.0
  0
LWPOLYLINE
  5
F4C
330
1F
100
AcDbEntity
  8
indusa
100
AcDbPolyline
 90
       31
 70
   128
 43
0.0
 10
4412.375631813132
 20
1878.595139129296
 10
4412.375611073414
 20
1878.595062892175
 10
4412.375488793054
 20
1878.59474708625
 10
4412.375362680839
 20
1878.594640740521
 10
4412.375236568624
 20
1878.59474708625
 10
4412.375114288263
 20
1878.595062892175
 10
4412.374999555185
 20
1878.595578562694
 10
4412.374895855498
 20
1878.596278429419
 10
4412.374806340062
 20
1878.597141227253
 10
4412.374733728759
 20
1878.598140740521
 10
4412.374680227847
 20
1878.599246599518
 10
4412.374647462922
 20
1878.600425203277
 10
4412.374636429532
 20
1878.601640740521
 10
4412.374647462922
 20
1878.602856277765
 10
4412.374680227847
 20
1878.604034881524
 10
4412.374733728759
 20
1878.605140740521
 10
4412.374806340062
 20
1878.606140253789
 10
4412.374895855498
 20
1878.607003051623
 10
4412.374999555185
 20
1878.607702918347
 10
4412.375114288263
 20
1878.608218588867
 10
4412.375236568624
 20
1878.608534394792
 10
4412.375362680839
 20
1878.608640740521
 10
4412.375488793054
 20
1878.608534394792
 10
4412.375611073414
 20
1878.608218588867
 10
4412.375725806492
 20
1878.607702918347
 10
4412.37582950618
 20
1878.607003051623
 10
4412.375919021616
 20
1878.606140253789
 10
4412.375991632919
 20
1878.605140740521
 10
4412.376045133831
 20
1878.604034881524
 10
4412.376077898755
 20
1878.602856277765
 10
4412.376088932144
 20
1878.601640740521
  0
LINE
  5
F4D
330
1F
100
AcDbEntity
  8
indusa
100
AcDbLine
 10
4412.489892131416
 20
1878.551640740521
 30
0.0
 11
4412.399772049701
 21
1878.551640740521
 31
0.0
  0
LINE
  5
F50
330
1F
100
AcDbEntity
  8
indusa
100
AcDbLine
 10
4412.398475074863
 20
1878.551640740521
 30
0.0
 11
4412.365120187489
 21
1878.551640740521
 31
0.0
  0
ARC
  5
F51
330
1F
100
AcDbEntity
  8
indusa
100
AcDbCircle
 10
4412.365120187489
 20
1878.553640740521
 30
0.0
 40
0.0020000000000002
100
AcDbArc
 50
180.0
 51
270.0000000000782
  0
LWPOLYLINE
  5
F53
330
1F
100
AcDbEntity
  8
indusa
100
AcDbPolyline
 90
        9
 70
   128
 43
0.0
 10
4412.376088932144
 20
1878.601640740521
 10
4412.376079206231
 20
1878.60087825701
 10
4412.37604669057
 20
1878.599455033989
 10
4412.375984044054
 20
1878.598133972644
 10
4412.375895088731
 20
1878.596983317968
 10
4412.375786670827
 20
1878.596066583261
 10
4412.375686087845
 20
1878.595504600322
 10
4412.375631813132
 20
1878.595139129296
 10
4412.375631813132
 20
1878.595139129296
  0
LWPOLYLINE
  5
F56
330
1F
100
AcDbEntity
  8
indusa
100
AcDbPolyline
 90
        9
 70
   128
 43
0.0
 10
4412.398475074864
 20
1878.551640740521
 10
4412.398086977389
 20
1878.55167916996
 10
4412.397713794283
 20
1878.551792981456
 10
4412.397369866762
 20
1878.551977801296
 10
4412.397068411769
 20
1878.552226526959
 10
4412.39682101405
 20
1878.552529600055
 10
4412.39663718096
 20
1878.552875373656
 10
4412.396523977102
 20
1878.553250559877
 10
4412.396485752839
 20
1878.553640740521
  0
LINE
  5
F57
330
1F
100
AcDbEntity
  8
indusa
100
AcDbLine
 10
4412.399772049701
 20
1878.551640740521
 30
0.0
 11
4412.398475074863
 21
1878.551640740521
 31
0.0
  0
LINE
  5
F58
330
1F
100
AcDbEntity
  8
indusa
100
AcDbLine
 10
4412.489892131416
 20
1878.551640740521
 30
0.0
 11
4412.58001221313
 21
1878.551640740521
 31
0.0
  0
LWPOLYLINE
  5
F59
330
1F
100
AcDbEntity
  8
indusa
100
AcDbPolyline
 90
       19
 70
   128
 43
0.0
 10
4412.396207182437
 20
1878.639105931673
 10
4412.397517383614
 20
1878.639130462129
 10
4412.399606776113
 20
1878.639156643749
 10
4412.402449154227
 20
1878.639183968559
 10
4412.406018312247
 20
1878.639211928588
 10
4412.410322543787
 20
1878.639240297037
 10
4412.415330024372
 20
1878.63926876091
 10
4412.420984481616
 20
1878.639296898633
 10
4412.427229643133
 20
1878.639324288633
 10
4412.434061114835
 20
1878.639351074538
 10
4412.441436746024
 20
1878.639377001071
 10
4412.449279086064
 20
1878.63940119441
 10
4412.457510684316
 20
1878.639422780739
 10
4412.460345032347
 20
1878.639429984588
 10
4412.465956355376
 20
1878.639439142515
 10
4412.471600155061
 20
1878.639446138222
 10
4412.477373280323
 20
1878.639451130249
 10
4412.483607615394
 20
1878.639454321616
 10
4412.489892131416
 20
1878.639455380174
  0
LWPOLYLINE
  5
F5B
330
1F
100
AcDbEntity
  8
indusa
100
AcDbPolyline
 90
        5
 70
   128
 43
0.0
 10
4412.395122899389
 20
1878.639967763412
 10
4412.395314658643
 20
1878.639682588287
 10
4412.395616490565
 20
1878.639358051208
 10
4412.39591465162
 20
1878.639165136922
 10
4412.396207182437
 20
1878.639105931673
  0
LWPOLYLINE
  5
F5E
330
1F
100
AcDbEntity
  8
indusa
100
AcDbPolyline
 90
        3
 70
   128
 43
0.0
 10
4412.394980324578
 20
1878.640201836157
 10
4412.396134355034
 20
1878.637591116136
 10
4412.396485752839
 20
1878.634821240693
  0
LINE
  5
F63
330
1F
100
AcDbEntity
  8
indusa
100
AcDbLine
 10
4412.616664075343
 20
1878.553640740521
 30
0.0
 11
4412.616664075343
 21
1878.698442569496
 31
0.0
  0
LWPOLYLINE
  5
F64
330
1F
100
AcDbEntity
  8
indusa
100
AcDbPolyline
 90
       31
 70
   128
 43
0.0
 10
4412.603932912975
 20
1878.596462382881
 10
4412.604173189418
 20
1878.595062892175
 10
4412.604295469779
 20
1878.59474708625
 10
4412.604421581994
 20
1878.594640740521
 10
4412.60454769421
 20
1878.59474708625
 10
4412.604669974569
 20
1878.595062892175
 10
4412.604784707647
 20
1878.595578562694
 10
4412.604888407336
 20
1878.596278429419
 10
4412.604977922771
 20
1878.597141227253
 10
4412.605050534074
 20
1878.598140740521
 10
4412.605104034986
 20
1878.599246599518
 10
4412.605136799911
 20
1878.600425203277
 10
4412.605147833299
 20
1878.601640740521
 10
4412.605136799911
 20
1878.602856277765
 10
4412.605104034986
 20
1878.604034881524
 10
4412.605050534074
 20
1878.605140740521
 10
4412.604977922771
 20
1878.606140253789
 10
4412.604888407336
 20
1878.607003051623
 10
4412.604784707647
 20
1878.607702918347
 10
4412.604669974569
 20
1878.608218588867
 10
4412.60454769421
 20
1878.608534394792
 10
4412.604421581994
 20
1878.608640740521
 10
4412.604295469779
 20
1878.608534394792
 10
4412.604173189418
 20
1878.608218588867
 10
4412.604058456341
 20
1878.607702918347
 10
4412.603954756654
 20
1878.607003051623
 10
4412.603865241217
 20
1878.606140253789
 10
4412.603792629914
 20
1878.605140740521
 10
4412.603739129002
 20
1878.604034881524
 10
4412.603706364078
 20
1878.602856277765
 10
4412.603695330688
 20
1878.601640740521
  0
LINE
  5
F67
330
1F
100
AcDbEntity
  8
indusa
100
AcDbLine
 10
4412.583298509994
 20
1878.553640740521
 30
0.0
 11
4412.583298509994
 21
1878.634821240693
 31
0.0
  0
ARC
  5
F68
330
1F
100
AcDbEntity
  8
indusa
100
AcDbCircle
 10
4412.614664075343
 20
1878.553640740521
 30
0.0
 40
0.0020000000000002
100
AcDbArc
 50
270.0
 51
0.0
  0
LWPOLYLINE
  5
F6A
330
1F
100
AcDbEntity
  8
indusa
100
AcDbPolyline
 90
        6
 70
   128
 43
0.0
 10
4412.603695330688
 20
1878.601640740521
 10
4412.603706364078
 20
1878.600425203277
 10
4412.603739129002
 20
1878.599246599518
 10
4412.603792629914
 20
1878.598140740521
 10
4412.603865241217
 20
1878.597141227253
 10
4412.603932912975
 20
1878.596462382881
  0
LWPOLYLINE
  5
F6C
330
1F
100
AcDbEntity
  8
indusa
100
AcDbPolyline
 90
        9
 70
   128
 43
0.0
 10
4412.581309187969
 20
1878.551640740521
 10
4412.581697285443
 20
1878.55167916996
 10
4412.58207046855
 20
1878.551792981456
 10
4412.58241439607
 20
1878.551977801296
 10
4412.582715851064
 20
1878.552226526959
 10
4412.582963248783
 20
1878.552529600055
 10
4412.583147081872
 20
1878.552875373656
 10
4412.58326028573
 20
1878.553250559877
 10
4412.583298509995
 20
1878.553640740521
  0
LINE
  5
F6E
330
1F
100
AcDbEntity
  8
indusa
100
AcDbLine
 10
4412.581309187969
 20
1878.551640740521
 30
0.0
 11
4412.614664075343
 21
1878.551640740521
 31
0.0
  0
LWPOLYLINE
  5
F6F
330
1F
100
AcDbEntity
  8
indusa
100
AcDbPolyline
 90
        5
 70
   128
 43
0.0
 10
4412.584661363442
 20
1878.639967763412
 10
4412.58446960419
 20
1878.639682588287
 10
4412.584167772268
 20
1878.639358051208
 10
4412.583869611213
 20
1878.639165136922
 10
4412.583577080396
 20
1878.639105931673
  0
LWPOLYLINE
  5
F72
330
1F
100
AcDbEntity
  8
indusa
100
AcDbPolyline
 90
        3
 70
   128
 43
0.0
 10
4412.584803938254
 20
1878.640201836157
 10
4412.583649907798
 20
1878.637591116136
 10
4412.583298509995
 20
1878.634821240693
  0
LINE
  5
F77
330
1F
100
AcDbEntity
  8
indusa
100
AcDbLine
 10
4412.373714852395
 20
1878.951640740521
 30
0.0
 11
4412.606069410435
 21
1878.951640740521
 31
0.0
  0
LINE
  5
F79
330
1F
100
AcDbEntity
  8
indusa
100
AcDbLine
 10
4412.603915044703
 20
1878.906640740521
 30
0.0
 11
4412.375869218129
 21
1878.906640740521
 31
0.0
  0
LINE
  5
F80
330
1F
100
AcDbEntity
  8
indusa
100
AcDbLine
 10
4412.299205233416
 20
1878.946204961807
 30
0.0
 11
4412.302267336638
 21
1878.911204961807
 31
0.0
  0
LINE
  5
F82
330
1F
100
AcDbEntity
  8
indusa
100
AcDbLine
 10
4412.375869218129
 20
1878.906640740521
 30
0.0
 11
4412.307248310129
 21
1878.906640740521
 31
0.0
  0
LWPOLYLINE
  5
F83
330
1F
100
AcDbEntity
  8
indusa
100
AcDbPolyline
 90
        9
 70
   128
 43
0.0
 10
4412.312859873177
 20
1878.901853461258
 10
4412.3127311834
 20
1878.902787223189
 10
4412.312429533638
 20
1878.903680240391
 10
4412.311965644192
 20
1878.904500776016
 10
4412.311356001182
 20
1878.905219669135
 10
4412.310622270647
 20
1878.905811371079
 10
4412.30979052856
 20
1878.906254853412
 10
4412.308890334119
 20
1878.906534355263
 10
4412.307953679241
 20
1878.906639943443
  0
ARC
  5
F84
330
1F
100
AcDbEntity
  8
indusa
100
AcDbCircle
 10
4412.307248310129
 20
1878.911640740521
 30
0.0
 40
0.005
100
AcDbArc
 50
185.000000000033
 51
270.0
  0
LINE
  5
F87
330
1F
100
AcDbEntity
  8
indusa
100
AcDbLine
 10
4412.304186206905
 20
1878.951640740521
 30
0.0
 11
4412.373714852395
 21
1878.951640740521
 31
0.0
  0
ARC
  5
F88
330
1F
100
AcDbEntity
  8
indusa
100
AcDbCircle
 10
4412.304186206905
 20
1878.946640740521
 30
0.0
 40
0.0050000000000001
100
AcDbArc
 50
90.0
 51
185.0000000000071
  0
LINE
  5
F8D
330
1F
100
AcDbEntity
  8
indusa
100
AcDbLine
 10
4412.677516926192
 20
1878.911204961807
 30
0.0
 11
4412.680579029416
 21
1878.946204961807
 31
0.0
  0
LINE
  5
F8F
330
1F
100
AcDbEntity
  8
indusa
100
AcDbLine
 10
4412.603915044703
 20
1878.906640740521
 30
0.0
 11
4412.672535952703
 21
1878.906640740521
 31
0.0
  0
LWPOLYLINE
  5
F90
330
1F
100
AcDbEntity
  8
indusa
100
AcDbPolyline
 90
        9
 70
   128
 43
0.0
 10
4412.671830583592
 20
1878.906639943443
 10
4412.670892552299
 20
1878.906534066499
 10
4412.669991138901
 20
1878.906253769136
 10
4412.669158473876
 20
1878.905809042427
 10
4412.668424237198
 20
1878.905215738458
 10
4412.667814600403
 20
1878.904495005284
 10
4412.667351293726
 20
1878.903672533116
 10
4412.667050831523
 20
1878.902777638609
 10
4412.666923923637
 20
1878.901842219877
  0
ARC
  5
F91
330
1F
100
AcDbEntity
  8
indusa
100
AcDbCircle
 10
4412.672535952703
 20
1878.911640740521
 30
0.0
 40
0.005
100
AcDbArc
 50
270.0
 51
354.999999999967
  0
LINE
  5
F94
330
1F
100
AcDbEntity
  8
indusa
100
AcDbLine
 10
4412.675598055926
 20
1878.951640740521
 30
0.0
 11
4412.606069410435
 21
1878.951640740521
 31
0.0
  0
ARC
  5
F95
330
1F
100
AcDbEntity
  8
indusa
100
AcDbCircle
 10
4412.675598055926
 20
1878.946640740521
 30
0.0
 40
0.0050000000000001
100
AcDbArc
 50
354.999999999993
 51
90.0
  0
LINE
  5
FA4
330
1F
100
AcDbEntity
  8
indusa
100
AcDbLine
 10
4413.320095864558
 20
1878.636640740521
 30
0.0
 11
4413.320095864558
 21
1878.553640740521
 31
0.0
  0
LINE
  5
FA5
330
1F
100
AcDbEntity
  8
indusa
100
AcDbLine
 10
4413.331501975451
 20
1878.632896637639
 30
0.0
 11
4413.331501975451
 21
1878.553640740521
 31
0.0
  0
LINE
  5
FA8
330
1F
100
AcDbEntity
  8
indusa
100
AcDbLine
 10
4412.926363366233
 20
1878.566510685498
 30
0.0
 11
4412.931990277538
 21
1878.657031436538
 31
0.0
  0
LINE
  5
FA9
330
1F
100
AcDbEntity
  8
indusa
100
AcDbLine
 10
4412.919311986097
 20
1878.646119266541
 30
0.0
 11
4412.914379000439
 21
1878.566762183694
 31
0.0
  0
LINE
  5
FAD
330
1F
100
AcDbEntity
  8
indusa
100
AcDbLine
 10
4412.90043896531
 20
1878.934640740521
 30
0.0
 11
4412.90043896531
 21
1878.577553025336
 31
0.0
  0
LINE
  5
FAF
330
1F
100
AcDbEntity
  8
indusa
100
AcDbLine
 10
4412.914742633506
 20
1878.551640740521
 30
0.0
 11
4413.199139941045
 21
1878.551640740521
 31
0.0
  0
LINE
  5
FB1
330
1F
100
AcDbEntity
  8
indusa
100
AcDbLine
 10
4412.91637447789
 20
1878.564638084094
 30
0.0
 11
4412.924366213497
 21
1878.564634751544
 31
0.0
  0
ARC
  5
FB3
330
1F
100
AcDbEntity
  8
indusa
100
AcDbCircle
 10
4412.916375148681
 20
1878.566638085993
 30
0.0
 40
0.0020000020109088
100
AcDbArc
 50
176.4425811170764
 51
269.9807832483141
  0
LWPOLYLINE
  5
FB4
330
1F
100
AcDbEntity
  8
indusa
100
AcDbPolyline
 90
        9
 70
   128
 43
0.0
 10
4412.914921342909
 20
1878.565392790871
 10
4412.914694526544
 20
1878.565137086796
 10
4412.914027461783
 20
1878.564468901142
 10
4412.912914069794
 20
1878.563385729458
 10
4412.911363249571
 20
1878.56189966954
 10
4412.909414307065
 20
1878.560051231542
 10
4412.907055723004
 20
1878.557832267823
 10
4412.904325433611
 20
1878.555281330731
 10
4412.901031988804
 20
1878.552223386283
  0
LINE
  5
FBD
330
1F
100
AcDbEntity
  8
indusa
100
AcDbLine
 10
4412.903235951748
 20
1878.551640740521
 30
0.0
 11
4412.911717425362
 21
1878.551640740521
 31
0.0
  0
LINE
  5
FC1
330
1F
100
AcDbEntity
  8
indusa
100
AcDbLine
 10
4412.911717425362
 20
1878.551640740521
 30
0.0
 11
4412.914742633506
 21
1878.551640740521
 31
0.0
  0
LINE
  5
FC6
330
1F
100
AcDbEntity
  8
indusa
100
AcDbLine
 10
4412.90243896531
 20
1878.551640740521
 30
0.0
 11
4412.903235951748
 21
1878.551640740521
 31
0.0
  0
LWPOLYLINE
  5
FC7
330
1F
100
AcDbEntity
  8
indusa
100
AcDbPolyline
 90
        7
 70
   128
 43
0.0
 10
4412.901002781967
 20
1878.552248843467
 10
4412.901256211118
 20
1878.55202795023
 10
4412.901550817067
 20
1878.551848760416
 10
4412.901851512712
 20
1878.55172896139
 10
4412.902174053925
 20
1878.551658362666
 10
4412.902306248539
 20
1878.551645148814
 10
4412.90243896531
 20
1878.551640740521
  0
ARC
  5
FCA
330
1F
100
AcDbEntity
  8
indusa
100
AcDbCircle
 10
4412.90243896531
 20
1878.553640740521
 30
0.0
 40
0.0019999999999985
100
AcDbArc
 50
180.0
 51
224.1028507986966
  0
LINE
  5
FCB
330
1F
100
AcDbEntity
  8
indusa
100
AcDbLine
 10
4412.90043896531
 20
1878.563069317522
 30
0.0
 11
4412.90043896531
 21
1878.55376611945
 31
0.0
  0
LINE
  5
FCC
330
1F
100
AcDbEntity
  8
indusa
100
AcDbLine
 10
4412.90043896531
 20
1878.55376611945
 30
0.0
 11
4412.90043896531
 21
1878.553640740521
 31
0.0
  0
LINE
  5
FCE
330
1F
100
AcDbEntity
  8
indusa
100
AcDbLine
 10
4412.90043896531
 20
1878.577553025336
 30
0.0
 11
4412.90043896531
 21
1878.563069317522
 31
0.0
  0
LWPOLYLINE
  5
FCF
330
1F
100
AcDbEntity
  8
indusa
100
AcDbPolyline
 90
        6
 70
   128
 43
0.0
 10
4412.926363366233
 20
1878.566510685498
 10
4412.92620976331
 20
1878.565856931206
 10
4412.925848422547
 20
1878.565290873322
 10
4412.925320084039
 20
1878.564876333977
 10
4412.924684319808
 20
1878.564660050495
 10
4412.924366213497
 20
1878.564634751544
  0
LINE
  5
FD1
330
1F
100
AcDbEntity
  8
indusa
100
AcDbLine
 10
4413.239251253526
 20
1878.551640740521
 30
0.0
 11
4413.322095864558
 21
1878.551640740521
 31
0.0
  0
LINE
  5
FD3
330
1F
100
AcDbEntity
  8
indusa
100
AcDbLine
 10
4413.199139941045
 20
1878.551640740521
 30
0.0
 11
4413.239251253526
 21
1878.551640740521
 31
0.0
  0
ARC
  5
FD6
330
1F
100
AcDbEntity
  8
indusa
100
AcDbCircle
 10
4413.322095864558
 20
1878.553640740521
 30
0.0
 40
0.0020000000000073
100
AcDbArc
 50
180.0
 51
270.0
  0
ARC
  5
FD7
330
1F
100
AcDbEntity
  8
indusa
100
AcDbCircle
 10
4413.329501975451
 20
1878.553640740521
 30
0.0
 40
0.002
100
AcDbArc
 50
270.0
 51
0.0
  0
LINE
  5
FD8
330
1F
100
AcDbEntity
  8
indusa
100
AcDbLine
 10
4413.329501975451
 20
1878.551640740521
 30
0.0
 11
4413.322095864558
 21
1878.551640740521
 31
0.0
  0
LWPOLYLINE
  5
FE0
330
1F
100
AcDbEntity
  8
indusa
100
AcDbPolyline
 90
       31
 70
   128
 43
0.0
 10
4413.110469583485
 20
1878.947610311184
 10
4413.119121018421
 20
1878.947674873457
 10
4413.128111610131
 20
1878.947730847951
 10
4413.141830787806
 20
1878.947796476985
 10
4413.15613066775
 20
1878.947842888386
 10
4413.170876694166
 20
1878.947870605976
 10
4413.18593431126
 20
1878.947880153575
 10
4413.201168963236
 20
1878.947872055003
 10
4413.218350981898
 20
1878.947843081249
 10
4413.235682129449
 20
1878.947794280022
 10
4413.25301522797
 20
1878.947726736632
 10
4413.270203099542
 20
1878.947641536385
 10
4413.283828191053
 20
1878.947560854819
 10
4413.2973156495
 20
1878.947469412117
 10
4413.310572702913
 20
1878.947368145627
 10
4413.323506579318
 20
1878.947257992697
 10
4413.336024506743
 20
1878.947139890676
 10
4413.347880741376
 20
1878.947016791873
 10
4413.359214254728
 20
1878.946888370848
 10
4413.367946502317
 20
1878.946781600544
 10
4413.376236912592
 20
1878.946673618959
 10
4413.384002398869
 20
1878.946566394932
 10
4413.391159874466
 20
1878.946461897301
 10
4413.397707979003
 20
1878.946361032648
 10
4413.403527423386
 20
1878.94626707007
 10
4413.40852302988
 20
1878.94618304794
 10
4413.412599620751
 20
1878.946112004634
 10
4413.415303286425
 20
1878.946063645923
 10
4413.417269086933
 20
1878.946027831999
 10
4413.418469067446
 20
1878.946005590238
 10
4413.418875273134
 20
1878.945997948012
  0
LINE
  5
FE1
330
1F
100
AcDbEntity
  8
indusa
100
AcDbLine
 10
4413.423833782768
 20
1878.951640740521
 30
0.0
 11
4413.107542143696
 21
1878.951640740521
 31
0.0
  0
ARC
  5
FEB
330
1F
100
AcDbEntity
  8
indusa
100
AcDbCircle
 10
4413.296607217912
 20
1878.950779174218
 30
0.0
 40
0.2335052770597162
100
AcDbArc
 50
193.4151512476882
 51
224.662749964795
  0
ARC
  5
FEC
330
1F
100
AcDbEntity
  8
indusa
100
AcDbCircle
 10
4413.299993895284
 20
1878.952823871389
 30
0.0
 40
0.2468716484846608
100
AcDbArc
 50
193.3842793268175
 51
229.8527480460942
  0
ARC
  5
FED
330
1F
100
AcDbEntity
  8
indusa
100
AcDbCircle
 10
4413.259597145037
 20
1878.942064200884
 30
0.0
 40
0.2342575423868936
100
AcDbArc
 50
181.081974441691
 51
216.7569168264598
  0
ARC
  5
FEE
330
1F
100
AcDbEntity
  8
indusa
100
AcDbCircle
 10
4413.263214183456
 20
1878.943047941267
 30
0.0
 40
0.2277920066895995
100
AcDbArc
 50
180.8570340353272
 51
234.8557137555612
  0
ARC
  5
FF0
330
1F
100
AcDbEntity
  8
indusa
100
AcDbCircle
 10
4413.037610538185
 20
1878.76229759477
 30
0.0
 40
0.0020000000000003
100
AcDbArc
 50
135.0000000000092
 51
224.9999999999908
  0
LINE
  5
FF5
330
1F
100
AcDbEntity
  8
indusa
100
AcDbLine
 10
4412.91989392158
 20
1878.64740940529
 30
0.0
 11
4412.930285096038
 21
1878.657800579748
 31
0.0
  0
ARC
  5
FF6
330
1F
100
AcDbEntity
  8
indusa
100
AcDbCircle
 10
4412.921308138545
 20
1878.645995188034
 30
0.0
 40
0.0020000050177875
100
AcDbArc
 50
134.999994131426
 51
176.4431374242129
  0
LWPOLYLINE
  5
1000
330
1F
100
AcDbEntity
  8
indusa
100
AcDbPolyline
 90
        9
 70
   128
 43
0.0
 10
4412.930285096038
 20
1878.657800579748
 10
4412.930559013694
 20
1878.657994776244
 10
4412.930881770424
 20
1878.658087357351
 10
4412.931216977531
 20
1878.658067885127
 10
4412.931526842556
 20
1878.657938555191
 10
4412.931776430659
 20
1878.657713948944
 10
4412.931937603095
 20
1878.657419389192
 10
4412.931992189244
 20
1878.657088085039
 10
4412.93199027754
 20
1878.657031436539
  0
CIRCLE
  5
1003
330
1F
100
AcDbEntity
  8
indusa
100
AcDbCircle
 10
4413.02043896531
 20
1878.601640740521
 30
0.0
 40
0.0060000000000079
  0
ARC
  5
1005
330
1F
100
AcDbEntity
  8
indusa
100
AcDbCircle
 10
4413.259597145037
 20
1878.942064200884
 30
0.0
 40
0.2342575423868936
100
AcDbArc
 50
219.6829034726041
 51
236.2887454327258
  0
LINE
  5
1006
330
1F
100
AcDbEntity
  8
indusa
100
AcDbLine
 10
4413.076392231105
 20
1878.792582744587
 30
0.0
 11
4413.040438965309
 21
1878.756640740521
 31
0.0
  0
LINE
  5
1008
330
1F
100
AcDbEntity
  8
indusa
100
AcDbLine
 10
4413.040438965309
 20
1878.756640740521
 30
0.0
 11
4413.036196324622
 21
1878.760883381208
 31
0.0
  0
ARC
  5
100C
330
1F
100
AcDbEntity
  8
indusa
100
AcDbCircle
 10
4413.070275567334
 20
1878.800732977183
 30
0.0
 40
0.0020000000000002
100
AcDbArc
 50
315.0000000000092
 51
38.50602455809508
  0
LINE
  5
100E
330
1F
100
AcDbEntity
  8
indusa
100
AcDbLine
 10
4413.036196324622
 20
1878.763711808333
 30
0.0
 11
4413.071689780895
 21
1878.799318763621
 31
0.0
  0
ARC
  5
100F
330
1F
100
AcDbEntity
  8
indusa
100
AcDbCircle
 10
4413.077806444667
 20
1878.791168531025
 30
0.0
 40
0.0019999999999999
100
AcDbArc
 50
41.04407019341785
 51
135.0000000000092
  0
LWPOLYLINE
  5
1015
330
1F
100
AcDbEntity
  8
indusa
100
AcDbPolyline
 90
        3
 70
   128
 43
0.0
 10
4413.132088570978
 20
1878.756781272044
 10
4413.138589750096
 20
1878.752736145504
 10
4413.141886429791
 20
1878.750916692387
  0
LINE
  5
1017
330
1F
100
AcDbEntity
  8
indusa
100
AcDbLine
 10
4413.1424425784
 20
1878.750020539925
 30
0.0
 11
4413.1424425784
 21
1878.737640740521
 31
0.0
  0
ARC
  5
1018
330
1F
100
AcDbEntity
  8
indusa
100
AcDbCircle
 10
4413.141442578401
 20
1878.737640740521
 30
0.0
 40
0.0009999999999999
100
AcDbArc
 50
269.9999999999739
 51
0.0
  0
LINE
  5
1019
330
1F
100
AcDbEntity
  8
indusa
100
AcDbLine
 10
4413.131507739737
 20
1878.736640740521
 30
0.0
 11
4413.141442578401
 21
1878.736640740521
 31
0.0
  0
ARC
  5
101A
330
1F
100
AcDbEntity
  8
indusa
100
AcDbCircle
 10
4413.131507739737
 20
1878.737640740521
 30
0.0
 40
0.0010000000000001
100
AcDbArc
 50
181.0000000015457
 51
269.9999999999739
  0
LINE
  5
101B
330
1F
100
AcDbEntity
  8
indusa
100
AcDbLine
 10
4413.130367892732
 20
1878.745643843263
 30
0.0
 11
4413.130507892042
 21
1878.737623288114
 31
0.0
  0
LWPOLYLINE
  5
101C
330
1F
100
AcDbEntity
  8
indusa
100
AcDbPolyline
 90
        5
 70
   128
 43
0.0
 10
4413.141886429791
 20
1878.750916692387
 10
4413.142158022258
 20
1878.750719251371
 10
4413.142348951627
 20
1878.750443043096
 10
4413.14243770078
 20
1878.750119194009
 10
4413.142442578401
 20
1878.750020539925
  0
ARC
  5
1028
330
1F
100
AcDbEntity
  8
indusa
100
AcDbCircle
 10
4413.12836819734
 20
1878.74560893845
 30
0.0
 40
0.002
100
AcDbArc
 50
1.000000000275298
 51
59.89466741803803
  0
LINE
  5
1029
330
1F
100
AcDbEntity
  8
indusa
100
AcDbLine
 10
4413.130525042474
 20
1878.786640740521
 30
0.0
 11
4413.140656516449
 21
1878.778139424446
 31
0.0
  0
LINE
  5
102B
330
1F
100
AcDbEntity
  8
indusa
100
AcDbLine
 10
4413.1424425784
 20
1878.77430920223
 30
0.0
 11
4413.1424425784
 21
1878.764902096168
 31
0.0
  0
ARC
  5
102C
330
1F
100
AcDbEntity
  8
indusa
100
AcDbCircle
 10
4413.141442578881
 20
1878.764902091329
 30
0.0
 40
0.0009999995190458
100
AcDbArc
 50
228.0234316642423
 51
0.0
  0
ARC
  5
102E
330
1F
100
AcDbEntity
  8
indusa
100
AcDbCircle
 10
4413.137442578401
 20
1878.77430920223
 30
0.0
 40
0.0049999999999957
100
AcDbArc
 50
0.0
 51
50.00000000001158
  0
LINE
  5
102F
330
1F
100
AcDbEntity
  8
indusa
100
AcDbLine
 10
4413.058138544127
 20
1878.951640740521
 30
0.0
 11
4413.018925042474
 21
1878.951640740521
 31
0.0
  0
LINE
  5
1030
330
1F
100
AcDbEntity
  8
indusa
100
AcDbLine
 10
4413.035447659808
 20
1878.939640740521
 30
0.0
 11
4413.053474492627
 21
1878.939640740521
 31
0.0
  0
LINE
  5
1033
330
1F
100
AcDbEntity
  8
indusa
100
AcDbLine
 10
4412.90043896531
 20
1878.940640740521
 30
0.0
 11
4412.90043896531
 21
1878.934640740521
 31
0.0
  0
LINE
  5
103A
330
1F
100
AcDbEntity
  8
indusa
100
AcDbLine
 10
4412.981925042474
 20
1878.951640740521
 30
0.0
 11
4412.905438965309
 21
1878.951640740521
 31
0.0
  0
LINE
  5
103B
330
1F
100
AcDbEntity
  8
indusa
100
AcDbLine
 10
4412.90143896531
 20
1878.939640740521
 30
0.0
 11
4412.981925042474
 21
1878.939640740521
 31
0.0
  0
LINE
  5
103C
330
1F
100
AcDbEntity
  8
indusa
100
AcDbLine
 10
4412.90043896531
 20
1878.940640740521
 30
0.0
 11
4412.90043896531
 21
1878.946640740521
 31
0.0
  0
ARC
  5
103D
330
1F
100
AcDbEntity
  8
indusa
100
AcDbCircle
 10
4412.905438965309
 20
1878.946640740521
 30
0.0
 40
0.005
100
AcDbArc
 50
90.0
 51
180.0
  0
ARC
  5
103E
330
1F
100
AcDbEntity
  8
indusa
100
AcDbCircle
 10
4412.90143896531
 20
1878.940640740521
 30
0.0
 40
0.0010000000000002
100
AcDbArc
 50
180.0
 51
270.0
  0
LINE
  5
103F
330
1F
100
AcDbEntity
  8
indusa
100
AcDbLine
 10
4412.981925042474
 20
1878.951640740521
 30
0.0
 11
4413.018925042474
 21
1878.951640740521
 31
0.0
  0
ARC
  5
1041
330
1F
100
AcDbEntity
  8
indusa
100
AcDbCircle
 10
4412.981925042474
 20
1878.950640740521
 30
0.0
 40
0.0010000000000001
100
AcDbArc
 50
0.0
 51
90.0
  0
LINE
  5
1042
330
1F
100
AcDbEntity
  8
indusa
100
AcDbLine
 10
4412.982925042475
 20
1878.950640740521
 30
0.0
 11
4412.982925042475
 21
1878.940640740521
 31
0.0
  0
ARC
  5
1043
330
1F
100
AcDbEntity
  8
indusa
100
AcDbCircle
 10
4412.981925042474
 20
1878.940640740521
 30
0.0
 40
0.0010000000000001
100
AcDbArc
 50
270.0
 51
0.0
  0
LINE
  5
1044
330
1F
100
AcDbEntity
  8
indusa
100
AcDbLine
 10
4413.017925042474
 20
1878.940640740521
 30
0.0
 11
4413.017925042474
 21
1878.950640740521
 31
0.0
  0
ARC
  5
1045
330
1F
100
AcDbEntity
  8
indusa
100
AcDbCircle
 10
4413.018925042474
 20
1878.950640740521
 30
0.0
 40
0.0010000000000001
100
AcDbArc
 50
90.0
 51
180.0
  0
LINE
  5
1046
330
1F
100
AcDbEntity
  8
indusa
100
AcDbLine
 10
4413.018925042474
 20
1878.939640740521
 30
0.0
 11
4413.023381370241
 21
1878.939640740521
 31
0.0
  0
ARC
  5
1047
330
1F
100
AcDbEntity
  8
indusa
100
AcDbCircle
 10
4413.023381370241
 20
1878.937640740521
 30
0.0
 40
0.0019999999999999
100
AcDbArc
 50
359.882925069781
 51
90.0
  0
ARC
  5
1048
330
1F
100
AcDbEntity
  8
indusa
100
AcDbCircle
 10
4413.018925042474
 20
1878.940640740521
 30
0.0
 40
0.0010000000000001
100
AcDbArc
 50
180.0
 51
270.0
  0
ARC
  5
104C
330
1F
100
AcDbEntity
  8
indusa
100
AcDbCircle
 10
4413.299993895284
 20
1878.952823871389
 30
0.0
 40
0.2468716484846608
100
AcDbArc
 50
183.0610935581092
 51
186.0204863797014
  0
ARC
  5
104D
330
1F
100
AcDbEntity
  8
indusa
100
AcDbCircle
 10
4413.296607217912
 20
1878.950779174218
 30
0.0
 40
0.2335052770597162
100
AcDbArc
 50
180.9739631737981
 51
185.760665161227
  0
ARC
  5
1051
330
1F
100
AcDbEntity
  8
indusa
100
AcDbCircle
 10
4413.067527805729
 20
1878.896140740521
 30
0.0
 40
0.002
100
AcDbArc
 50
13.41515124770057
 51
90.0
  0
ARC
  5
1052
330
1F
100
AcDbEntity
  8
indusa
100
AcDbCircle
 10
4413.061773100838
 20
1878.896140740521
 30
0.0
 40
0.002
100
AcDbArc
 50
90.0
 51
193.3842793268238
  0
ARC
  5
1053
330
1F
100
AcDbEntity
  8
indusa
100
AcDbCircle
 10
4413.062291277406
 20
1878.927140740521
 30
0.0
 40
0.002
100
AcDbArc
 50
270.0
 51
5.760665161217837
  0
ARC
  5
1054
330
1F
100
AcDbEntity
  8
indusa
100
AcDbCircle
 10
4413.056472846871
 20
1878.927140740521
 30
0.0
 40
0.002
100
AcDbArc
 50
186.020486379695
 51
270.0
  0
LINE
  5
1055
330
1F
100
AcDbEntity
  8
indusa
100
AcDbLine
 10
4413.061773100838
 20
1878.898140740521
 30
0.0
 11
4413.067527805729
 21
1878.898140740521
 31
0.0
  0
LINE
  5
1056
330
1F
100
AcDbEntity
  8
indusa
100
AcDbLine
 10
4413.056472846871
 20
1878.925140740521
 30
0.0
 11
4413.062291277406
 21
1878.925140740521
 31
0.0
  0
LWPOLYLINE
  5
1057
330
1F
100
AcDbEntity
  8
indusa
100
AcDbPolyline
 90
        7
 70
   128
 43
0.0
 10
4413.063125007463
 20
1878.947008413489
 10
4413.066671622403
 20
1878.947072172845
 10
4413.072224712563
 20
1878.947164114469
 10
4413.078551063267
 20
1878.947259530589
 10
4413.085553622035
 20
1878.947354138816
 10
4413.091410540579
 20
1878.94742487465
 10
4413.097607958651
 20
1878.947492304756
  0
LINE
  5
1058
330
1F
100
AcDbEntity
  8
indusa
100
AcDbLine
 10
4413.094288991238
 20
1878.951640740521
 30
0.0
 11
4413.058138544127
 21
1878.951640740521
 31
0.0
  0
ARC
  5
1059
330
1F
100
AcDbEntity
  8
indusa
100
AcDbCircle
 10
4413.058138544127
 20
1878.946640740521
 30
0.0
 40
0.0050000000000003
100
AcDbArc
 50
1.940410221007893
 51
90.0
  0
LWPOLYLINE
  5
105A
330
1F
100
AcDbEntity
  8
indusa
100
AcDbPolyline
 90
        3
 70
   128
 43
0.0
 10
4413.097607958651
 20
1878.947492304756
 10
4413.105195439716
 20
1878.947565289359
 10
4413.110469583485
 20
1878.947610311184
  0
LINE
  5
105B
330
1F
100
AcDbEntity
  8
indusa
100
AcDbLine
 10
4413.107542143696
 20
1878.951640740521
 30
0.0
 11
4413.094288991238
 21
1878.951640740521
 31
0.0
  0
ARC
  5
105F
330
1F
100
AcDbEntity
  8
indusa
100
AcDbCircle
 10
4413.257668241199
 20
1878.947027490215
 30
0.0
 40
0.1719442451178303
100
AcDbArc
 50
298.0939902421831
 51
357.8447449299338
  0
ARC
  5
1060
330
1F
100
AcDbEntity
  8
indusa
100
AcDbCircle
 10
4413.259501968201
 20
1878.945093285074
 30
0.0
 40
0.1593758725170723
100
AcDbArc
 50
297.8548907796145
 51
0.3252289429065322
  0
LWPOLYLINE
  5
1061
330
1F
100
AcDbEntity
  8
indusa
100
AcDbPolyline
 90
       15
 70
   128
 43
0.0
 10
4413.333272013089
 20
1878.654077210687
 10
4413.343084290027
 20
1878.666385082459
 10
4413.352438765527
 20
1878.679044749921
 10
4413.362144915407
 20
1878.693284838839
 10
4413.371271048087
 20
1878.707903527131
 10
4413.38275771569
 20
1878.728406337663
 10
4413.393116170534
 20
1878.749521226636
 10
4413.402299963554
 20
1878.771153757509
 10
4413.410491903398
 20
1878.793887390531
 10
4413.417400983258
 20
1878.817063163955
 10
4413.422995548461
 20
1878.840571249786
 10
4413.426472067913
 20
1878.85935580631
 10
4413.429115991633
 20
1878.878275842028
 10
4413.430839726602
 20
1878.89696323423
 10
4413.43201346599
 20
1878.915698985698
  0
LWPOLYLINE
  5
1062
330
1F
100
AcDbEntity
  8
indusa
100
AcDbPolyline
 90
       15
 70
   128
 43
0.0
 10
4413.333953273817
 20
1878.639455380174
 10
4413.344888165164
 20
1878.652522313655
 10
4413.355315226421
 20
1878.665997465625
 10
4413.366329593271
 20
1878.681520246629
 10
4413.376660800426
 20
1878.697505851837
 10
4413.385897381527
 20
1878.713220514008
 10
4413.394475636573
 20
1878.729303981258
 10
4413.402432348885
 20
1878.745844470361
 10
4413.409692654814
 20
1878.762702258067
 10
4413.418217035203
 20
1878.785483050889
 10
4413.425476562966
 20
1878.808717437945
 10
4413.431439061452
 20
1878.83229882019
 10
4413.435933979223
 20
1878.855322877056
 10
4413.43919329053
 20
1878.878571492374
 10
4413.44122429991
 20
1878.901943453346
  0
LINE
  5
1064
330
1F
100
AcDbEntity
  8
indusa
100
AcDbLine
 10
4413.320095864558
 20
1878.636640740521
 30
0.0
 11
4413.320095864558
 21
1878.786914247486
 31
0.0
  0
LINE
  5
1065
330
1F
100
AcDbEntity
  8
indusa
100
AcDbLine
 10
4413.331501975451
 20
1878.65471520915
 30
0.0
 11
4413.331501975451
 21
1878.791975236244
 31
0.0
  0
ARC
  5
1067
330
1F
100
AcDbEntity
  8
indusa
100
AcDbCircle
 10
4413.341501975451
 20
1878.632896637639
 30
0.0
 40
0.01
100
AcDbArc
 50
139.0140262319342
 51
180.0
  0
ARC
  5
1069
330
1F
100
AcDbEntity
  8
indusa
100
AcDbCircle
 10
4413.332501975451
 20
1878.65471520915
 30
0.0
 40
0.0010000000000002
100
AcDbArc
 50
180.0
 51
320.3572687051504
  0
LWPOLYLINE
  5
106A
330
1F
100
AcDbEntity
  8
indusa
100
AcDbPolyline
 90
        9
 70
   128
 43
0.0
 10
4413.333967774973
 20
1878.804183695755
 10
4413.321981720504
 20
1878.8002550686
 10
4413.309614052282
 20
1878.797360323818
 10
4413.297143202072
 20
1878.794896694128
 10
4413.28462238625
 20
1878.79274583008
 10
4413.27205171419
 20
1878.790923319811
 10
4413.248907166559
 20
1878.788409442122
 10
4413.22566692654
 20
1878.786973664838
 10
4413.202366711363
 20
1878.786624681484
  0
LWPOLYLINE
  5
106B
330
1F
100
AcDbEntity
  8
indusa
100
AcDbPolyline
 90
        7
 70
   128
 43
0.0
 10
4413.317653138579
 20
1878.78886463045
 10
4413.304263308275
 20
1878.786074596706
 10
4413.29084795039
 20
1878.783629177528
 10
4413.277369192194
 20
1878.781554585453
 10
4413.253723168334
 20
1878.778799292552
 10
4413.229968250005
 20
1878.77714626437
 10
4413.206141925964
 20
1878.776604975547
  0
LINE
  5
106C
330
1F
100
AcDbEntity
  8
indusa
100
AcDbLine
 10
4413.200542192906
 20
1878.737623288114
 30
0.0
 11
4413.201136868689
 21
1878.771692240965
 31
0.0
  0
LINE
  5
106D
330
1F
100
AcDbEntity
  8
indusa
100
AcDbLine
 10
4413.188607506548
 20
1878.737640740521
 30
0.0
 11
4413.188607506548
 21
1878.77430920223
 31
0.0
  0
ARC
  5
106E
330
1F
100
AcDbEntity
  8
indusa
100
AcDbCircle
 10
4413.199542345211
 20
1878.737640740521
 30
0.0
 40
0.0010000000000001
100
AcDbArc
 50
269.9999999999739
 51
358.9999999993926
  0
LINE
  5
106F
330
1F
100
AcDbEntity
  8
indusa
100
AcDbLine
 10
4413.189607506548
 20
1878.736640740521
 30
0.0
 11
4413.199542345211
 21
1878.736640740521
 31
0.0
  0
ARC
  5
1070
330
1F
100
AcDbEntity
  8
indusa
100
AcDbCircle
 10
4413.189607506548
 20
1878.737640740521
 30
0.0
 40
0.0010000000000001
100
AcDbArc
 50
180.0
 51
270.0
  0
LINE
  5
1071
330
1F
100
AcDbEntity
  8
indusa
100
AcDbLine
 10
4413.190393568499
 20
1878.778139424446
 30
0.0
 11
4413.199112015163
 21
1878.785455069824
 31
0.0
  0
ARC
  5
1072
330
1F
100
AcDbEntity
  8
indusa
100
AcDbCircle
 10
4413.20232595321
 20
1878.781624847609
 30
0.0
 40
0.005
100
AcDbArc
 50
89.53294080586896
 51
129.9999999999884
  0
ARC
  5
1073
330
1F
100
AcDbEntity
  8
indusa
100
AcDbCircle
 10
4413.206136107166
 20
1878.771604978933
 30
0.0
 40
0.0050000000000007
100
AcDbArc
 50
89.93332148028896
 51
178.9999999999852
  0
ARC
  5
1074
330
1F
100
AcDbEntity
  8
indusa
100
AcDbCircle
 10
4413.193607506548
 20
1878.77430920223
 30
0.0
 40
0.0050000000000013
100
AcDbArc
 50
130.0000000000534
 51
180.0
  0
LWPOLYLINE
  5
1075
330
1F
100
AcDbEntity
  8
indusa
100
AcDbPolyline
 90
        2
 70
   128
 43
0.0
 10
4413.338644894439
 20
1878.795344910269
 10
4413.332183254888
 20
1878.792923084967
  0
ARC
  5
1076
330
1F
100
AcDbEntity
  8
indusa
100
AcDbCircle
 10
4413.318095864558
 20
1878.786914247486
 30
0.0
 40
0.0019999999999999
100
AcDbArc
 50
0.0
 51
102.7891005311991
  0
ARC
  5
1077
330
1F
100
AcDbEntity
  8
indusa
100
AcDbCircle
 10
4413.332501975451
 20
1878.791975236244
 30
0.0
 40
0.0009999999999999
100
AcDbArc
 50
108.5855676420042
 51
180.0
  0
LINE
  5
1079
330
1F
100
AcDbEntity
  8
indusa
100
AcDbLine
 10
4413.451901293071
 20
1878.911204961807
 30
0.0
 11
4413.454963396295
 21
1878.946204961807
 31
0.0
  0
LINE
  5
107A
330
1F
100
AcDbEntity
  8
indusa
100
AcDbLine
 10
4413.442418527234
 20
1878.917553584778
 30
0.0
 11
4413.444430766496
 21
1878.940553584778
 31
0.0
  0
ARC
  5
107B
330
1F
100
AcDbEntity
  8
indusa
100
AcDbCircle
 10
4413.446215127993
 20
1878.901640740521
 30
0.0
 40
0.005
100
AcDbArc
 50
90.0
 51
176.529043933297
  0
ARC
  5
107D
330
1F
100
AcDbEntity
  8
indusa
100
AcDbCircle
 10
4413.433011768297
 20
1878.915640740521
 30
0.0
 40
0.001
100
AcDbArc
 50
90.0
 51
176.6609073470236
  0
ARC
  5
107F
330
1F
100
AcDbEntity
  8
indusa
100
AcDbCircle
 10
4413.441422332536
 20
1878.917640740521
 30
0.0
 40
0.0010000000000001
100
AcDbArc
 50
270.0
 51
354.9999999995429
  0
LINE
  5
1080
330
1F
100
AcDbEntity
  8
indusa
100
AcDbLine
 10
4413.441422332536
 20
1878.916640740521
 30
0.0
 11
4413.433011768297
 21
1878.916640740521
 31
0.0
  0
LINE
  5
1081
330
1F
100
AcDbEntity
  8
indusa
100
AcDbLine
 10
4413.446920319581
 20
1878.906640740521
 30
0.0
 11
4413.446215127993
 21
1878.906640740521
 31
0.0
  0
ARC
  5
1083
330
1F
100
AcDbEntity
  8
indusa
100
AcDbCircle
 10
4413.446920319581
 20
1878.911640740521
 30
0.0
 40
0.005
100
AcDbArc
 50
270.0
 51
354.999999999967
  0
ARC
  5
1087
330
1F
100
AcDbEntity
  8
indusa
100
AcDbCircle
 10
4413.449982422804
 20
1878.946640740521
 30
0.0
 40
0.005
100
AcDbArc
 50
354.999999999967
 51
90.0
  0
ARC
  5
1088
330
1F
100
AcDbEntity
  8
indusa
100
AcDbCircle
 10
4413.430487675744
 20
1878.940640740521
 30
0.0
 40
0.0010000000000001
100
AcDbArc
 50
90.0
 51
184.5673505041262
  0
ARC
  5
1089
330
1F
100
AcDbEntity
  8
indusa
100
AcDbCircle
 10
4413.443434571798
 20
1878.940640740521
 30
0.0
 40
0.0009999999999999
100
AcDbArc
 50
355.0000000000059
 51
90.0
  0
LINE
  5
108A
330
1F
100
AcDbEntity
  8
indusa
100
AcDbLine
 10
4413.443434571798
 20
1878.941640740521
 30
0.0
 11
4413.430487675744
 21
1878.941640740521
 31
0.0
  0
LINE
  5
108C
330
1F
100
AcDbEntity
  8
indusa
100
AcDbLine
 10
4413.449982422804
 20
1878.951640740521
 30
0.0
 11
4413.423833782768
 21
1878.951640740521
 31
0.0
  0
ARC
  5
108D
330
1F
100
AcDbEntity
  8
indusa
100
AcDbCircle
 10
4413.423833782768
 20
1878.946640740521
 30
0.0
 40
0.005
100
AcDbArc
 50
90.0
 51
187.3863015892673
  0
LWPOLYLINE
  5
10ED
330
1F
100
AcDbEntity
  8
indusa
  6
Continuous
100
AcDbPolyline
 90
       32
 70
   128
 43
0.0
 10
4410.983452698347
 20
1878.822183254226
 10
4410.975920928526
 20
1878.811605137008
 10
4410.96918509026
 20
1878.800501925907
 10
4410.963665963016
 20
1878.789830920894
 10
4410.958823134243
 20
1878.778822825092
 10
4410.954663115076
 20
1878.767550379572
 10
4410.951071725139
 20
1878.755650355923
 10
4410.948196231893
 20
1878.743545545784
 10
4410.946038070124
 20
1878.731303153784
 10
4410.944276636089
 20
1878.714875070692
 10
4410.943768703606
 20
1878.698312316977
 10
4410.944514488454
 20
1878.681758769145
 10
4410.94651420641
 20
1878.665358303704
 10
4410.949738103521
 20
1878.649332588754
 10
4410.954203181727
 20
1878.633608411607
 10
4410.957981852502
 20
1878.623074804458
 10
4410.962353461438
 20
1878.612763772887
 10
4410.967313553128
 20
1878.602733643504
 10
4410.972992708686
 20
1878.592819162211
 10
4410.979291533116
 20
1878.583287081255
 10
4410.986057097507
 20
1878.574385741733
 10
4410.993427363561
 20
1878.565941824549
 10
4411.001369794601
 20
1878.558040036689
 10
4411.009851853944
 20
1878.550765085136
 10
4411.019014214239
 20
1878.544084243875
 10
4411.028727331361
 20
1878.538154529246
 10
4411.038901316177
 20
1878.533069253226
 10
4411.049446279558
 20
1878.528921727791
 10
4411.058800797163
 20
1878.526152096639
 10
4411.068380534961
 20
1878.524140315123
 10
4411.078090392589
 20
1878.522913419573
 10
4411.087835269682
 20
1878.522498446316
  0
LWPOLYLINE
  5
10F0
330
1F
100
AcDbEntity
  8
indusa
  6
Continuous
100
AcDbPolyline
 90
       32
 70
   128
 43
0.0
 10
4411.192217841016
 20
1878.822183254226
 10
4411.199749610836
 20
1878.811605137008
 10
4411.206485449103
 20
1878.800501925907
 10
4411.211990247976
 20
1878.789862274721
 10
4411.21681787533
 20
1878.778898121324
 10
4411.221007424287
 20
1878.767550379572
 10
4411.224449384329
 20
1878.75620491782
 10
4411.227415431905
 20
1878.743832127854
 10
4411.229632469239
 20
1878.731303153784
 10
4411.231385887503
 20
1878.715044223245
 10
4411.231911658861
 20
1878.698699249272
 10
4411.231177708599
 20
1878.681975399299
 10
4411.229156332953
 20
1878.665358303704
 10
4411.225932435841
 20
1878.649332588754
 10
4411.221467357635
 20
1878.633608411607
 10
4411.217688686861
 20
1878.623074804458
 10
4411.213317077925
 20
1878.612763772887
 10
4411.208356986234
 20
1878.602733643504
 10
4411.202677830676
 20
1878.592819162211
 10
4411.196379006247
 20
1878.583287081255
 10
4411.189678209072
 20
1878.57446020201
 10
4411.182401876518
 20
1878.566102340756
 10
4411.174396040403
 20
1878.558124049046
 10
4411.165818685418
 20
1878.550765085136
 10
4411.156781990597
 20
1878.544159020771
 10
4411.147243007579
 20
1878.538303509971
 10
4411.13694437601
 20
1878.533139127805
 10
4411.126224259804
 20
1878.528921727791
 10
4411.116984012345
 20
1878.526173753635
 10
4411.107554602708
 20
1878.524170667861
 10
4411.097730093881
 20
1878.522919012739
 10
4411.087835269682
 20
1878.522498446316
  0
ARC
  5
10F6
330
1F
100
AcDbEntity
  8
indusa
100
AcDbCircle
 10
4411.136672802665
 20
1878.699953442876
 30
0.0
 40
0.2395434574946537
100
AcDbArc
 50
180.0
 51
225.2868746636924
  0
ARC
  5
10F8
330
1F
100
AcDbEntity
  8
indusa
100
AcDbCircle
 10
4411.038997736697
 20
1878.699953442876
 30
0.0
 40
0.2395434574946537
100
AcDbArc
 50
314.7131253363077
 51
45.2868746636923
  0
ARC
  5
10FA
330
1F
100
AcDbEntity
  8
indusa
100
AcDbCircle
 10
4411.087835269681
 20
1878.650624394801
 30
0.0
 40
0.1701283322550892
100
AcDbArc
 50
225.2868746636924
 51
314.7131253363077
  0
LINE
  5
1104
330
1F
100
AcDbEntity
  8
indusa
100
AcDbLine
 10
4410.976820316637
 20
1878.881061709635
 30
0.0
 11
4410.961074003727
 21
1879.03283312751
 31
0.0
  0
CIRCLE
  5
1106
330
1F
100
AcDbEntity
  8
indusa
100
AcDbCircle
 10
4411.087835269681
 20
1878.935053442877
 30
0.0
 40
0.0174999999999997
  0
LINE
  5
1108
330
1F
100
AcDbEntity
  8
indusa
100
AcDbLine
 10
4411.198850222723
 20
1878.881061709635
 30
0.0
 11
4411.214596535634
 21
1879.03283312751
 31
0.0
  0
LWPOLYLINE
  5
110A
330
1F
100
AcDbEntity
  8
indusa
  6
Continuous
100
AcDbPolyline
 90
       12
 70
   128
 43
0.0
 10
4411.087835269682
 20
1878.877599040601
 10
4411.087372667973
 20
1878.877598117691
 10
4411.076263718488
 20
1878.877006953614
 10
4411.065212251535
 20
1878.875353850768
 10
4411.05435730472
 20
1878.87268662677
 10
4411.043837915651
 20
1878.869053099237
 10
4411.033610811045
 20
1878.864441576562
 10
4411.023783941556
 20
1878.858947386147
 10
4411.014434717244
 20
1878.852664086799
 10
4411.005640548159
 20
1878.845685237324
 10
4410.999731725075
 20
1878.8403291152
 10
4410.994108706401
 20
1878.834673338631
  0
CIRCLE
  5
1115
330
1F
100
AcDbEntity
  8
indusa
100
AcDbCircle
 10
4411.087835269681
 20
1878.770053442877
 30
0.0
 40
0.0230824640740568
  0
LWPOLYLINE
  5
1118
330
1F
100
AcDbEntity
  8
indusa
  6
Continuous
100
AcDbPolyline
 90
       12
 70
   128
 43
0.0
 10
4411.087835269682
 20
1878.877599040601
 10
4411.08829787139
 20
1878.877598117691
 10
4411.099235896299
 20
1878.877036110235
 10
4411.110073742317
 20
1878.87545379873
 10
4411.121102196574
 20
1878.87276154698
 10
4411.13183262371
 20
1878.869053099237
 10
4411.14194136833
 20
1878.864508351272
 10
4411.151628523557
 20
1878.859121081426
 10
4411.161098482517
 20
1878.852772830751
 10
4411.170029991203
 20
1878.845685237324
 10
4411.175938814287
 20
1878.8403291152
 10
4411.18156183296
 20
1878.834673338631
  0
LWPOLYLINE
  5
111A
330
1F
100
AcDbEntity
  8
indusa
  6
Continuous
100
AcDbPolyline
 90
        3
 70
   128
 43
0.0
 10
4411.18156183296
 20
1878.834673338631
 10
4411.188202906772
 20
1878.827190855723
 10
4411.192217841016
 20
1878.822183254226
  0
ARC
  5
111D
330
1F
100
AcDbEntity
  8
indusa
100
AcDbCircle
 10
4411.087835269681
 20
1878.749282490952
 30
0.0
 40
0.1701283322550892
100
AcDbArc
 50
45.2868746636923
 51
48.5171110906507
  0
LWPOLYLINE
  5
1120
330
1F
100
AcDbEntity
  8
indusa
100
AcDbPolyline
 90
        6
 70
   128
 43
0.0
 10
4411.200538737417
 20
1878.876747395558
 10
4411.200175471698
 20
1878.877078733513
 10
4411.199504001239
 20
1878.877988509486
 10
4411.199012626035
 20
1878.879154764782
 10
4411.198825615886
 20
1878.880406276503
 10
4411.19886746954
 20
1878.880969454807
  0
LWPOLYLINE
  5
1125
330
1F
100
AcDbEntity
  8
indusa
  6
Continuous
100
AcDbPolyline
 90
       11
 70
   128
 43
0.0
 10
4411.074398099581
 20
1878.874155761645
 10
4411.07441736826
 20
1878.874003660751
 10
4411.074888214957
 20
1878.873593773363
 10
4411.075761524285
 20
1878.873232680262
 10
4411.076934495517
 20
1878.872944310801
 10
4411.078412809674
 20
1878.872706785639
 10
4411.080155555055
 20
1878.872520994766
 10
4411.082114446273
 20
1878.87238368486
 10
4411.084217044607
 20
1878.872293434667
 10
4411.086420007486
 20
1878.872246188377
 10
4411.087835269682
 20
1878.872237935365
  0
LWPOLYLINE
  5
1126
330
1F
100
AcDbEntity
  8
indusa
  6
Continuous
100
AcDbPolyline
 90
       11
 70
   128
 43
0.0
 10
4411.101272269145
 20
1878.874154414687
 10
4411.101253171103
 20
1878.874003660751
 10
4411.100782324405
 20
1878.873593773363
 10
4411.099909015077
 20
1878.873232680262
 10
4411.098736043846
 20
1878.872944310801
 10
4411.097257729688
 20
1878.872706785639
 10
4411.095514984308
 20
1878.872520994766
 10
4411.093556093089
 20
1878.87238368486
 10
4411.091453494755
 20
1878.872293434667
 10
4411.089250531875
 20
1878.872246188377
 10
4411.087835269682
 20
1878.872237935365
  0
LWPOLYLINE
  5
1128
330
1F
100
AcDbEntity
  8
indusa
  6
Continuous
100
AcDbPolyline
 90
        3
 70
   128
 43
0.0
 10
4411.074398099581
 20
1878.874155761645
 10
4411.074688536753
 20
1878.874345081218
 10
4411.075625965326
 20
1878.874788249269
  0
LWPOLYLINE
  5
1129
330
1F
100
AcDbEntity
  8
indusa
  6
Continuous
100
AcDbPolyline
 90
        3
 70
   128
 43
0.0
 10
4411.100502720006
 20
1878.874606733161
 10
4411.101212569021
 20
1878.87420359529
 10
4411.101272269145
 20
1878.874154414687
  0
ARC
  5
112B
330
1F
100
AcDbEntity
  8
indusa
100
AcDbCircle
 10
4411.136672802665
 20
1878.699953442876
 30
0.0
 40
0.2395434574946537
100
AcDbArc
 50
134.7131253363076
 51
180.0
  0
LWPOLYLINE
  5
112C
330
1F
100
AcDbEntity
  8
indusa
  6
Continuous
100
AcDbPolyline
 90
        3
 70
   128
 43
0.0
 10
4410.994108706401
 20
1878.834673338631
 10
4410.98746763259
 20
1878.827190855723
 10
4410.983452698347
 20
1878.822183254226
  0
ARC
  5
112F
330
1F
100
AcDbEntity
  8
indusa
100
AcDbCircle
 10
4411.087835269681
 20
1878.749282490952
 30
0.0
 40
0.1701283322550892
100
AcDbArc
 50
131.4825122120475
 51
134.7131253363076
  0
LWPOLYLINE
  5
1132
330
1F
100
AcDbEntity
  8
indusa
100
AcDbPolyline
 90
        6
 70
   128
 43
0.0
 10
4410.976805732089
 20
1878.881060166645
 10
4410.976846195022
 20
1878.880619901334
 10
4410.976727670305
 20
1878.879434163231
 10
4410.976305174163
 20
1878.878246487758
 10
4410.975608437702
 20
1878.877205027504
 10
4410.975191661561
 20
1878.876813216385
  0
LINE
  5
1138
330
1F
100
AcDbEntity
  8
indusa
100
AcDbLine
 10
4410.963063325754
 20
1879.035039520041
 30
0.0
 11
4411.212607213608
 21
1879.035039520041
 31
0.0
  0
ARC
  5
113B
330
1F
100
AcDbEntity
  8
indusa
100
AcDbCircle
 10
4411.212607213608
 20
1879.033039520041
 30
0.0
 40
0.002
100
AcDbArc
 50
354.0767443677868
 51
90.0
  0
ARC
  5
113D
330
1F
100
AcDbEntity
  8
indusa
100
AcDbCircle
 10
4410.963063325754
 20
1879.033039520041
 30
0.0
 40
0.0020000000000002
100
AcDbArc
 50
90.0
 51
185.9232556322131
  0
LINE
  5
133B
330
1F
100
AcDbEntity
  8
indusa
100
AcDbLine
 10
4411.526277493135
 20
1878.951640740521
 30
0.0
 11
4411.674739321815
 21
1878.951640740521
 31
0.0
  0
LINE
  5
133D
330
1F
100
AcDbEntity
  8
indusa
100
AcDbLine
 10
4411.844769805581
 20
1878.551640740521
 30
0.0
 11
4411.523277493135
 21
1878.551640740521
 31
0.0
  0
LWPOLYLINE
  5
133E
330
1F
100
AcDbEntity
  8
indusa
100
AcDbPolyline
 90
       15
 70
   128
 43
0.0
 10
4411.954791801642
 20
1878.639455380174
 10
4411.965726692989
 20
1878.652522313655
 10
4411.976153754248
 20
1878.665997465625
 10
4411.987168121097
 20
1878.681520246629
 10
4411.997499328251
 20
1878.697505851837
 10
4412.006735909352
 20
1878.713220514008
 10
4412.015314164398
 20
1878.729303981258
 10
4412.02327087671
 20
1878.745844470361
 10
4412.030531182639
 20
1878.762702258067
 10
4412.039055563028
 20
1878.785483050889
 10
4412.046315090791
 20
1878.808717437945
 10
4412.052277589277
 20
1878.83229882019
 10
4412.056772507049
 20
1878.855322877056
 10
4412.060031818355
 20
1878.878571492374
 10
4412.062062827735
 20
1878.901943453346
  0
LWPOLYLINE
  5
133F
330
1F
100
AcDbEntity
  8
indusa
100
AcDbPolyline
 90
       20
 70
   128
 43
0.0
 10
4411.699220818262
 20
1878.901957229345
 10
4411.701599091055
 20
1878.879336302021
 10
4411.705163556231
 20
1878.856926416309
 10
4411.709885527425
 20
1878.834733347346
 10
4411.715776532161
 20
1878.812761878305
 10
4411.722807575663
 20
1878.791176600355
 10
4411.730946602673
 20
1878.7701233832
 10
4411.74021845198
 20
1878.74961999973
 10
4411.747407517307
 20
1878.735609407978
 10
4411.755212899924
 20
1878.721901686884
 10
4411.763684248986
 20
1878.708518595402
 10
4411.772839349885
 20
1878.695576000353
 10
4411.782670177029
 20
1878.683268803441
 10
4411.791449466027
 20
1878.67357722984
 10
4411.800869428101
 20
1878.664497954934
 10
4411.811036270757
 20
1878.656209271145
 10
4411.81911643245
 20
1878.650759009132
 10
4411.827654371169
 20
1878.646138180946
 10
4411.836707691484
 20
1878.642519851332
 10
4411.846062044015
 20
1878.640137502659
  0
LWPOLYLINE
  5
1341
330
1F
100
AcDbEntity
  8
indusa
100
AcDbPolyline
 90
       19
 70
   128
 43
0.0
 10
4411.857737065928
 20
1878.639105931673
 10
4411.867016144157
 20
1878.639130462129
 10
4411.876185347975
 20
1878.639156643749
 10
4411.885149824358
 20
1878.639183968559
 10
4411.893814720282
 20
1878.639211928588
 10
4411.902166033721
 20
1878.639240297037
 10
4411.910155084082
 20
1878.63926876091
 10
4411.917700100867
 20
1878.639296898633
 10
4411.924719313587
 20
1878.639324288633
 10
4411.93119535296
 20
1878.639351074538
 10
4411.937098128359
 20
1878.639377001071
 10
4411.942363370928
 20
1878.63940119441
 10
4411.946926811817
 20
1878.639422780739
 10
4411.948281994495
 20
1878.639429984588
 10
4411.950592958757
 20
1878.639439142515
 10
4411.952370750525
 20
1878.639446138222
 10
4411.953668489724
 20
1878.639451130249
 10
4411.954509807637
 20
1878.639454321616
 10
4411.954791801642
 20
1878.639455380174
  0
LINE
  5
1344
330
1F
100
AcDbEntity
  8
indusa
100
AcDbLine
 10
4411.950340503277
 20
1878.551640740521
 30
0.0
 11
4411.857348202782
 21
1878.551640740521
 31
0.0
  0
LINE
  5
1345
330
1F
100
AcDbEntity
  8
indusa
100
AcDbLine
 10
4411.952340503277
 20
1878.632896637639
 30
0.0
 11
4411.952340503277
 21
1878.553640740521
 31
0.0
  0
ARC
  5
1346
330
1F
100
AcDbEntity
  8
indusa
100
AcDbCircle
 10
4411.950340503277
 20
1878.553640740521
 30
0.0
 40
0.002
100
AcDbArc
 50
270.0
 51
0.000000000000007
  0
ARC
  5
1347
330
1F
100
AcDbEntity
  8
indusa
100
AcDbCircle
 10
4411.962340503276
 20
1878.632896637639
 30
0.0
 40
0.01
100
AcDbArc
 50
139.0140262319342
 51
180.0
  0
CIRCLE
  5
134A
330
1F
100
AcDbEntity
  8
indusa
100
AcDbCircle
 10
4411.641277493134
 20
1878.601640740521
 30
0.0
 40
0.0060000000000079
  0
LINE
  5
134E
330
1F
100
AcDbEntity
  8
indusa
100
AcDbLine
 10
4411.857348202782
 20
1878.551640740521
 30
0.0
 11
4411.844769805581
 21
1878.551640740521
 31
0.0
  0
ARC
  5
1351
330
1F
100
AcDbEntity
  8
indusa
100
AcDbCircle
 10
4411.85754970355
 20
1878.703568463771
 30
0.0
 40
0.0644628043847605
100
AcDbArc
 50
259.7347172960825
 51
270.1665315168336
  0
LINE
  5
1358
330
1F
100
AcDbEntity
  8
indusa
100
AcDbLine
 10
4411.689688001387
 20
1878.951640740521
 30
0.0
 11
4412.023039139213
 21
1878.951640740521
 31
0.0
  0
LINE
  5
135A
330
1F
100
AcDbEntity
  8
indusa
100
AcDbLine
 10
4412.020863091318
 20
1878.906640740521
 30
0.0
 11
4411.692129942117
 21
1878.906640740521
 31
0.0
  0
LINE
  5
135B
330
1F
100
AcDbEntity
  8
indusa
100
AcDbLine
 10
4412.07580192412
 20
1878.946204961807
 30
0.0
 11
4412.072739820896
 21
1878.911204961807
 31
0.0
  0
LINE
  5
135C
330
1F
100
AcDbEntity
  8
indusa
100
AcDbLine
 10
4412.020863091318
 20
1878.906640740521
 30
0.0
 11
4412.067758847406
 21
1878.906640740521
 31
0.0
  0
ARC
  5
135D
330
1F
100
AcDbEntity
  8
indusa
100
AcDbCircle
 10
4412.067053655817
 20
1878.901640740521
 30
0.0
 40
0.005
100
AcDbArc
 50
90.0
 51
176.529043933297
  0
ARC
  5
135F
330
1F
100
AcDbEntity
  8
indusa
100
AcDbCircle
 10
4412.067758847406
 20
1878.911640740521
 30
0.0
 40
0.005
100
AcDbArc
 50
270.0
 51
354.9999999999994
  0
LINE
  5
1360
330
1F
100
AcDbEntity
  8
indusa
100
AcDbLine
 10
4412.07082095063
 20
1878.951640740521
 30
0.0
 11
4412.023039139213
 21
1878.951640740521
 31
0.0
  0
ARC
  5
1362
330
1F
100
AcDbEntity
  8
indusa
100
AcDbCircle
 10
4412.07082095063
 20
1878.946640740521
 30
0.0
 40
0.005
100
AcDbArc
 50
354.9999999999994
 51
90.0
  0
LINE
  5
1364
330
1F
100
AcDbEntity
  8
indusa
100
AcDbLine
 10
4411.679596033872
 20
1878.946204961807
 30
0.0
 11
4411.683314690974
 21
1878.911204961807
 31
0.0
  0
LWPOLYLINE
  5
1367
330
1F
100
AcDbEntity
  8
indusa
100
AcDbPolyline
 90
        9
 70
   128
 43
0.0
 10
4411.695636649271
 20
1878.906640740521
 10
4411.696309380928
 20
1878.906552236288
 10
4411.696958296747
 20
1878.90628985679
 10
4411.697560424006
 20
1878.905862890704
 10
4411.698094446385
 20
1878.905286453354
 10
4411.698541458583
 20
1878.904580951596
 10
4411.698885635613
 20
1878.903771361389
 10
4411.699114793026
 20
1878.902886343596
 10
4411.699220818262
 20
1878.901957229345
  0
LINE
  5
136E
330
1F
100
AcDbEntity
  8
indusa
100
AcDbLine
 10
4411.691697219625
 20
1878.906646254801
 30
0.0
 11
4411.692129942117
 21
1878.906640740521
 31
0.0
  0
LWPOLYLINE
  5
1370
330
1F
100
AcDbEntity
  8
indusa
100
AcDbPolyline
 90
        7
 70
   128
 43
0.0
 10
4411.683314691013
 20
1878.911204961807
 10
4411.683760320206
 20
1878.909988705045
 10
4411.683894519871
 20
1878.909779243949
 10
4411.685081710674
 20
1878.908574086627
 10
4411.686860690658
 20
1878.907587080957
 10
4411.68939490049
 20
1878.906871214807
 10
4411.691697219625
 20
1878.906646254801
  0
LWPOLYLINE
  5
1373
330
1F
100
AcDbEntity
  8
indusa
100
AcDbPolyline
 90
        9
 70
   128
 43
0.0
 10
4411.683327562429
 20
1878.951640740521
 10
4411.682556765777
 20
1878.951533734849
 10
4411.68181896097
 20
1878.951217297916
 10
4411.68114572773
 20
1878.950704973943
 10
4411.680565881964
 20
1878.950018691559
 10
4411.680104242389
 20
1878.949187825205
 10
4411.679780568226
 20
1878.948247937847
 10
4411.679608713462
 20
1878.947239258797
 10
4411.679596033872
 20
1878.946204961807
  0
LINE
  5
1375
330
1F
100
AcDbEntity
  8
indusa
100
AcDbLine
 10
4411.674739321815
 20
1878.951640740521
 30
0.0
 11
4411.683327562428
 21
1878.951640740521
 31
0.0
  0
LINE
  5
1377
330
1F
100
AcDbEntity
  8
indusa
100
AcDbLine
 10
4411.683327562428
 20
1878.951640740521
 30
0.0
 11
4411.689688001387
 21
1878.951640740521
 31
0.0
  0
LINE
  5
1378
330
1F
100
AcDbEntity
  8
indusa
100
AcDbLine
 10
4411.521277493135
 20
1878.553640740521
 30
0.0
 11
4411.521277493135
 21
1878.946640740521
 31
0.0
  0
ARC
  5
137C
330
1F
100
AcDbEntity
  8
indusa
100
AcDbCircle
 10
4411.523277493135
 20
1878.553640740521
 30
0.0
 40
0.0019999999999999
100
AcDbArc
 50
180.0
 51
270.0
  0
ARC
  5
137F
330
1F
100
AcDbEntity
  8
indusa
100
AcDbCircle
 10
4411.526277493135
 20
1878.946640740521
 30
0.0
 40
0.0050000000000006
100
AcDbArc
 50
90.0
 51
180.0
  0
LINE
  5
1380
330
1F
100
AcDbEntity
  8
indusa
100
AcDbLine
 10
4413.141442578401
 20
1878.736640740521
 30
0.0
 11
4413.189607506548
 21
1878.736640740521
 31
0.0
  0
LWPOLYLINE
  5
1381
330
1F
100
AcDbEntity
  8
indusa
  6
Continuous
100
AcDbPolyline
 90
        8
 70
   128
 43
0.0
 10
4411.100502720006
 20
1878.874606733161
 10
4411.099892766655
 20
1878.874848394914
 10
4411.09837774909
 20
1878.875275998587
 10
4411.096546116828
 20
1878.875654701228
 10
4411.094477596126
 20
1878.875960755258
 10
4411.092207836042
 20
1878.876186035943
 10
4411.090049426587
 20
1878.87630827679
 10
4411.087835269682
 20
1878.876350084675
  0
LWPOLYLINE
  5
1382
330
1F
100
AcDbEntity
  8
indusa
  6
Continuous
100
AcDbPolyline
 90
        8
 70
   128
 43
0.0
 10
4411.075625965326
 20
1878.874788249269
 10
4411.075777772708
 20
1878.874848394914
 10
4411.077292790271
 20
1878.875275998587
 10
4411.079124422534
 20
1878.875654701228
 10
4411.081192943236
 20
1878.875960755258
 10
4411.083462703319
 20
1878.876186035943
 10
4411.085621112774
 20
1878.87630827679
 10
4411.087835269682
 20
1878.876350084675
  0
LINE
  5
13F3
330
1F
100
AcDbEntity
  8
SANINDUSA
100
AcDbLine
 10
4413.20232595321
 20
1878.786624847609
 30
0.0
 11
4413.130543982909
 21
1878.786624847609
 31
0.0
  0
ARC
  5
13F6
330
1F
100
AcDbEntity
  8
SANINDUSA
100
AcDbCircle
 10
4413.192892974462
 20
1878.933259736368
 30
0.0
 40
0.1287478935492847
100
AcDbArc
 50
182.6346857456704
 51
196.5411306632701
  0
ENDSEC
  0
SECTION
  2
OBJECTS
  0
DICTIONARY
  5
C
330
0
100
AcDbDictionary
281
     1
  3
ACAD_COLOR
350
13D0
  3
ACAD_GROUP
350
D
  3
ACAD_LAYOUT
350
1A
  3
ACAD_MATERIAL
350
13A3
  3
ACAD_MLEADERSTYLE
350
13E5
  3
ACAD_MLINESTYLE
350
17
  3
ACAD_PLOTSETTINGS
350
19
  3
ACAD_PLOTSTYLENAME
350
E
  3
ACAD_SCALELIST
350
13D3
  3
ACAD_TABLESTYLE
350
13D1
  3
ACAD_VISUALSTYLE
350
13BC
  3
ACDB_RECOMPOSE_DATA
350
1462
  3
AcDbVariableDictionary
350
3D
  3
ASE_INDEX_DICTIONARY
350
1417
  3
DWGPROPS
350
1463
  0
DICTIONARY
  5
1385
330
2
100
AcDbDictionary
280
     1
281
     1
  3
ACAD_LAYERSTATES
360
1386
  0
DICTIONARY
  5
13F7
330
10
100
AcDbDictionary
280
     1
281
     1
  3
ADSK_XREC_LAYER_RECONCILED
360
13F8
  0
DICTIONARY
  5
13F9
330
2F
100
AcDbDictionary
280
     1
281
     1
  3
ADSK_XREC_LAYER_RECONCILED
360
13FA
  0
DICTIONARY
  5
13FB
330
30
100
AcDbDictionary
280
     1
281
     1
  3
ADSK_XREC_LAYER_RECONCILED
360
13FC
  0
DICTIONARY
  5
13FD
330
31
100
AcDbDictionary
280
     1
281
     1
  3
ADSK_XREC_LAYER_RECONCILED
360
13FE
  0
DICTIONARY
  5
13FF
330
32
100
AcDbDictionary
280
     1
281
     1
  3
ADSK_XREC_LAYER_RECONCILED
360
1400
  0
DICTIONARY
  5
1401
330
33
100
AcDbDictionary
280
     1
281
     1
  3
ADSK_XREC_LAYER_RECONCILED
360
1402
  0
DICTIONARY
  5
1403
330
34
100
AcDbDictionary
280
     1
281
     1
  3
ADSK_XREC_LAYER_RECONCILED
360
1404
  0
DICTIONARY
  5
1405
330
35
100
AcDbDictionary
280
     1
281
     1
  3
ADSK_XREC_LAYER_RECONCILED
360
1406
  0
DICTIONARY
  5
1407
330
36
100
AcDbDictionary
280
     1
281
     1
  3
ADSK_XREC_LAYER_RECONCILED
360
1408
  0
DICTIONARY
  5
1409
330
37
100
AcDbDictionary
280
     1
281
     1
  3
ADSK_XREC_LAYER_RECONCILED
360
140A
  0
DICTIONARY
  5
140B
330
5D6
100
AcDbDictionary
280
     1
281
     1
  3
ADSK_XREC_LAYER_RECONCILED
360
140C
  0
DICTIONARY
  5
140D
330
8AF
100
AcDbDictionary
280
     1
281
     1
  3
ADSK_XREC_LAYER_RECONCILED
360
140E
  0
DICTIONARY
  5
140F
330
8F8
100
AcDbDictionary
280
     1
281
     1
  3
ADSK_XREC_LAYER_RECONCILED
360
1410
  0
DICTIONARY
  5
1411
330
91D
100
AcDbDictionary
280
     1
281
     1
  3
ADSK_XREC_LAYER_RECONCILED
360
1412
  0
DICTIONARY
  5
1413
330
B5B
100
AcDbDictionary
280
     1
281
     1
  3
ADSK_XREC_LAYER_RECONCILED
360
1414
  0
DICTIONARY
  5
1415
330
1383
100
AcDbDictionary
280
     1
281
     1
  3
ADSK_XREC_LAYER_RECONCILED
360
1416
  0
DICTIONARY
  5
13D0
102
{ACAD_REACTORS
330
C
102
}
330
C
100
AcDbDictionary
281
     1
  0
DICTIONARY
  5
D
102
{ACAD_REACTORS
330
C
102
}
330
C
100
AcDbDictionary
281
     1
  0
DICTIONARY
  5
1A
102
{ACAD_REACTORS
330
C
102
}
330
C
100
AcDbDictionary
281
     1
  3
Layout1
350
1E
  3
Layout2
350
26
  3
Model
350
22
  0
DICTIONARY
  5
13A3
102
{ACAD_REACTORS
330
C
102
}
330
C
100
AcDbDictionary
281
     1
  3
ByBlock
350
13AC
  3
ByLayer
350
13A4
  3
Global
350
13B4
  0
DICTIONARY
  5
13E5
102
{ACAD_REACTORS
330
C
102
}
330
C
100
AcDbDictionary
281
     1
  3
Standard
350
13E6
  0
DICTIONARY
  5
17
102
{ACAD_REACTORS
330
C
102
}
330
C
100
AcDbDictionary
281
     1
  3
Standard
350
18
  0
DICTIONARY
  5
19
102
{ACAD_REACTORS
330
C
102
}
330
C
100
AcDbDictionary
281
     1
  0
ACDBDICTIONARYWDFLT
  5
E
102
{ACAD_REACTORS
330
C
102
}
330
C
100
AcDbDictionary
281
     1
  3
Normal
350
F
100
AcDbDictionaryWithDefault
340
F
  0
DICTIONARY
  5
13D3
102
{ACAD_REACTORS
330
C
102
}
330
C
100
AcDbDictionary
281
     1
  3
A0
350
13D4
  3
A1
350
13D5
  3
A2
350
13D6
  3
A3
350
13D7
  3
A4
350
13D8
  3
A5
350
13D9
  3
A6
350
13DA
  3
A7
350
13DB
  3
A8
350
13DC
  3
A9
350
13DD
  3
B0
350
13DE
  3
B1
350
13DF
  3
B2
350
13E0
  3
B3
350
13E1
  3
B4
350
13E2
  3
B5
350
13E3
  3
B6
350
13E4
  0
DICTIONARY
  5
13D1
102
{ACAD_REACTORS
330
C
102
}
330
C
100
AcDbDictionary
281
     1
  3
Standard
350
13D2
  0
DICTIONARY
  5
13BC
102
{ACAD_REACTORS
330
C
102
}
330
C
100
AcDbDictionary
281
     1
  3
2dWireframe
350
13C2
  3
3D Hidden
350
13C4
  3
3dWireframe
350
13C3
  3
Basic
350
13C1
  3
Brighten
350
13C8
  3
ColorChange
350
13CC
  3
Conceptual
350
13C5
  3
Dim
350
13C7
  3
EdgeColorOff
350
13CF
  3
Facepattern
350
13CB
  3
Flat
350
13BD
  3
FlatWithEdges
350
13BE
  3
Gouraud
350
13BF
  3
GouraudWithEdges
350
13C0
  3
JitterOff
350
13CD
  3
Linepattern
350
13CA
  3
OverhangOff
350
13CE
  3
Realistic
350
13C6
  3
Thicken
350
13C9
  0
XRECORD
  5
1462
102
{ACAD_REACTORS
330
C
102
}
330
C
100
AcDbXrecord
280
     1
 90
        1
330
13D2
  0
DICTIONARY
  5
3D
102
{ACAD_REACTORS
330
C
102
}
330
C
100
AcDbDictionary
281
     1
  3
CANNOSCALE
350
145C
  3
CMLEADERSTYLE
350
145B
  3
CTABLESTYLE
350
145A
  3
DIMASSOC
350
3F
  3
HIDETEXT
350
3E
  3
INDEXCTL
350
145E
  3
SORTENTS
350
145D
  3
XCLIPFRAME
350
145F
  0
DICTIONARY
  5
1417
102
{ACAD_REACTORS
330
C
102
}
330
C
100
AcDbDictionary
281
     1
  3
ASEBlockHierarchyIndexRecord
350
1418
1001
DCO15
1040
1757680994.75
  0
XRECORD
  5
1463
102
{ACAD_REACTORS
330
C
102
}
330
C
100
AcDbXrecord
280
     1
  1
DWGPROPS COOKIE
  2

  3

  4

  6

  7

  8
Julio
  9

300
=
301
=
302
=
303
=
304
=
305
=
306
=
307
=
308
=
309
=
 40
0.004339375
 41
2453021.554998912
 42
2456146.741883681
  1

 90
        0
  0
DICTIONARY
  5
1386
102
{ACAD_REACTORS
330
1385
102
}
330
1385
100
AcDbDictionary
281
     1
  0
XRECORD
  5
13F8
102
{ACAD_REACTORS
330
13F7
102
}
330
13F7
100
AcDbXrecord
280
     1
290
     1
  0
XRECORD
  5
13FA
102
{ACAD_REACTORS
330
13F9
102
}
330
13F9
100
AcDbXrecord
280
     1
290
     1
  0
XRECORD
  5
13FC
102
{ACAD_REACTORS
330
13FB
102
}
330
13FB
100
AcDbXrecord
280
     1
290
     1
  0
XRECORD
  5
13FE
102
{ACAD_REACTORS
330
13FD
102
}
330
13FD
100
AcDbXrecord
280
     1
290
     1
  0
XRECORD
  5
1400
102
{ACAD_REACTORS
330
13FF
102
}
330
13FF
100
AcDbXrecord
280
     1
290
     1
  0
XRECORD
  5
1402
102
{ACAD_REACTORS
330
1401
102
}
330
1401
100
AcDbXrecord
280
     1
290
     1
  0
XRECORD
  5
1404
102
{ACAD_REACTORS
330
1403
102
}
330
1403
100
AcDbXrecord
280
     1
290
     1
  0
XRECORD
  5
1406
102
{ACAD_REACTORS
330
1405
102
}
330
1405
100
AcDbXrecord
280
     1
290
     1
  0
XRECORD
  5
1408
102
{ACAD_REACTORS
330
1407
102
}
330
1407
100
AcDbXrecord
280
     1
290
     1
  0
XRECORD
  5
140A
102
{ACAD_REACTORS
330
1409
102
}
330
1409
100
AcDbXrecord
280
     1
290
     1
  0
XRECORD
  5
140C
102
{ACAD_REACTORS
330
140B
102
}
330
140B
100
AcDbXrecord
280
     1
290
     1
  0
XRECORD
  5
140E
102
{ACAD_REACTORS
330
140D
102
}
330
140D
100
AcDbXrecord
280
     1
290
     1
  0
XRECORD
  5
1410
102
{ACAD_REACTORS
330
140F
102
}
330
140F
100
AcDbXrecord
280
     1
290
     1
  0
XRECORD
  5
1412
102
{ACAD_REACTORS
330
1411
102
}
330
1411
100
AcDbXrecord
280
     1
290
     1
  0
XRECORD
  5
1414
102
{ACAD_REACTORS
330
1413
102
}
330
1413
100
AcDbXrecord
280
     1
290
     1
  0
XRECORD
  5
1416
102
{ACAD_REACTORS
330
1415
102
}
330
1415
100
AcDbXrecord
280
     1
290
     1
  0
LAYOUT
  5
1E
102
{ACAD_XDICTIONARY
360
1464
102
}
102
{ACAD_REACTORS
330
1A
102
}
330
1A
100
AcDbPlotSettings
  1

  2
Ploter HP500
  4

  6

 40
0.0
 41
0.0
 42
0.0
 43
0.0
 44
0.0
 45
0.0
 46
0.0
 47
0.0
 48
0.0
 49
0.0
140
0.0
141
0.0
142
1.0
143
1.0
 70
   688
 72
     0
 73
     0
 74
     5
  7
monochrome.ctb
 75
    16
147
1.0
148
0.0
149
0.0
100
AcDbLayout
  1
Layout1
 70
     1
 71
     1
 10
0.0
 20
0.0
 11
420.0
 21
297.0
 12
0.0
 22
0.0
 32
0.0
 14
1.000000000000000E+20
 24
1.000000000000000E+20
 34
1.000000000000000E+20
 15
-1.000000000000000E+20
 25
-1.000000000000000E+20
 35
-1.000000000000000E+20
146
0.0
 13
0.0
 23
0.0
 33
0.0
 16
1.0
 26
0.0
 36
0.0
 17
0.0
 27
1.0
 37
0.0
 76
     0
330
1B
  0
LAYOUT
  5
26
102
{ACAD_XDICTIONARY
360
1468
102
}
102
{ACAD_REACTORS
330
1A
102
}
330
1A
100
AcDbPlotSettings
  1

  2
Ploter HP500
  4

  6

 40
0.0
 41
0.0
 42
0.0
 43
0.0
 44
0.0
 45
0.0
 46
0.0
 47
0.0
 48
0.0
 49
0.0
140
0.0
141
0.0
142
1.0
143
1.0
 70
   688
 72
     0
 73
     0
 74
     5
  7
monochrome.ctb
 75
    16
147
1.0
148
0.0
149
0.0
100
AcDbLayout
  1
Layout2
 70
     1
 71
     2
 10
0.0
 20
0.0
 11
12.0
 21
9.0
 12
0.0
 22
0.0
 32
0.0
 14
0.0
 24
0.0
 34
0.0
 15
0.0
 25
0.0
 35
0.0
146
0.0
 13
0.0
 23
0.0
 33
0.0
 16
1.0
 26
0.0
 36
0.0
 17
0.0
 27
1.0
 37
0.0
 76
     0
330
23
  0
LAYOUT
  5
22
102
{ACAD_XDICTIONARY
360
1466
102
}
102
{ACAD_REACTORS
330
1A
102
}
330
1A
100
AcDbPlotSettings
  1

  2
Ploter HP500
  4
User268
  6

 40
4.995333194732666
 41
16.97565841674804
 42
4.995330810546875
 43
16.97567749023437
 44
209.9733276367187
 45
296.9259948730469
 46
0.0
 47
0.0
 48
0.0
 49
0.0
140
0.0
141
0.0
142
1.0
143
1.0
 70
 11952
 72
     1
 73
     1
 74
     0
  7

 75
     0
147
1.0
148
-427.5957866592534
149
7.362384574453926
100
AcDbLayout
  1
Model
 70
     1
 71
     0
 10
0.0
 20
0.0
 11
12.0
 21
9.0
 12
0.0
 22
0.0
 32
0.0
 14
0.0
 24
0.0
 34
0.0
 15
0.0
 25
0.0
 35
0.0
146
0.0
 13
0.0
 23
0.0
 33
0.0
 16
1.0
 26
0.0
 36
0.0
 17
0.0
 27
1.0
 37
0.0
 76
     0
330
1F
331
13A1
  0
MATERIAL
  5
13AC
102
{ACAD_XDICTIONARY
360
13AD
102
}
102
{ACAD_REACTORS
330
13A3
102
}
330
13A3
100
AcDbMaterial
  1
ByBlock
 72
     0
 43
0.0008202099737533
 43
0.0
 43
0.0
 43
0.0
 43
0.0
 43
0.0008202099737533
 43
0.0
 43
0.0
 43
0.0
 43
0.0
 43
1.0
 43
0.0
 43
0.0
 43
0.0
 43
0.0
 43
1.0
 77
     0
 47
0.0008202099737533
 47
0.0
 47
0.0
 47
0.0
 47
0.0
 47
0.0008202099737533
 47
0.0
 47
0.0
 47
0.0
 47
0.0
 47
1.0
 47
0.0
 47
0.0
 47
0.0
 47
0.0
 47
1.0
171
     0
 49
0.0008202099737533
 49
0.0
 49
0.0
 49
0.0
 49
0.0
 49
0.0008202099737533
 49
0.0
 49
0.0
 49
0.0
 49
0.0
 49
1.0
 49
0.0
 49
0.0
 49
0.0
 49
0.0
 49
1.0
175
     0
142
0.0008202099737533
142
0.0
142
0.0
142
0.0
142
0.0
142
0.0008202099737533
142
0.0
142
0.0
142
0.0
142
0.0
142
1.0
142
0.0
142
0.0
142
0.0
142
0.0
142
1.0
179
     0
144
0.0008202099737533
144
0.0
144
0.0
144
0.0
144
0.0
144
0.0008202099737533
144
0.0
144
0.0
144
0.0
144
0.0
144
1.0
144
0.0
144
0.0
144
0.0
144
0.0
144
1.0
147
0.0008202099737533
147
0.0
147
0.0
147
0.0
147
0.0
147
0.0008202099737533
147
0.0
147
0.0
147
0.0
147
0.0
147
1.0
147
0.0
147
0.0
147
0.0
147
0.0
147
1.0
  0
MATERIAL
  5
13A4
102
{ACAD_XDICTIONARY
360
13A5
102
}
102
{ACAD_REACTORS
330
13A3
102
}
330
13A3
100
AcDbMaterial
  1
ByLayer
 72
     0
 43
0.0008202099737533
 43
0.0
 43
0.0
 43
0.0
 43
0.0
 43
0.0008202099737533
 43
0.0
 43
0.0
 43
0.0
 43
0.0
 43
1.0
 43
0.0
 43
0.0
 43
0.0
 43
0.0
 43
1.0
 77
     0
 47
0.0008202099737533
 47
0.0
 47
0.0
 47
0.0
 47
0.0
 47
0.0008202099737533
 47
0.0
 47
0.0
 47
0.0
 47
0.0
 47
1.0
 47
0.0
 47
0.0
 47
0.0
 47
0.0
 47
1.0
171
     0
 49
0.0008202099737533
 49
0.0
 49
0.0
 49
0.0
 49
0.0
 49
0.0008202099737533
 49
0.0
 49
0.0
 49
0.0
 49
0.0
 49
1.0
 49
0.0
 49
0.0
 49
0.0
 49
0.0
 49
1.0
175
     0
142
0.0008202099737533
142
0.0
142
0.0
142
0.0
142
0.0
142
0.0008202099737533
142
0.0
142
0.0
142
0.0
142
0.0
142
1.0
142
0.0
142
0.0
142
0.0
142
0.0
142
1.0
179
     0
144
0.0008202099737533
144
0.0
144
0.0
144
0.0
144
0.0
144
0.0008202099737533
144
0.0
144
0.0
144
0.0
144
0.0
144
1.0
144
0.0
144
0.0
144
0.0
144
0.0
144
1.0
147
0.0008202099737533
147
0.0
147
0.0
147
0.0
147
0.0
147
0.0008202099737533
147
0.0
147
0.0
147
0.0
147
0.0
147
1.0
147
0.0
147
0.0
147
0.0
147
0.0
147
1.0
  0
MATERIAL
  5
13B4
102
{ACAD_XDICTIONARY
360
13B5
102
}
102
{ACAD_REACTORS
330
13A3
102
}
330
13A3
100
AcDbMaterial
  1
Global
 72
     0
 43
0.0008202099737533
 43
0.0
 43
0.0
 43
0.0
 43
0.0
 43
0.0008202099737533
 43
0.0
 43
0.0
 43
0.0
 43
0.0
 43
1.0
 43
0.0
 43
0.0
 43
0.0
 43
0.0
 43
1.0
 77
     0
 47
0.0008202099737533
 47
0.0
 47
0.0
 47
0.0
 47
0.0
 47
0.0008202099737533
 47
0.0
 47
0.0
 47
0.0
 47
0.0
 47
1.0
 47
0.0
 47
0.0
 47
0.0
 47
0.0
 47
1.0
171
     0
 49
0.0008202099737533
 49
0.0
 49
0.0
 49
0.0
 49
0.0
 49
0.0008202099737533
 49
0.0
 49
0.0
 49
0.0
 49
0.0
 49
1.0
 49
0.0
 49
0.0
 49
0.0
 49
0.0
 49
1.0
175
     0
142
0.0008202099737533
142
0.0
142
0.0
142
0.0
142
0.0
142
0.0008202099737533
142
0.0
142
0.0
142
0.0
142
0.0
142
1.0
142
0.0
142
0.0
142
0.0
142
0.0
142
1.0
179
     0
144
0.0008202099737533
144
0.0
144
0.0
144
0.0
144
0.0
144
0.0008202099737533
144
0.0
144
0.0
144
0.0
144
0.0
144
1.0
144
0.0
144
0.0
144
0.0
144
0.0
144
1.0
147
0.0008202099737533
147
0.0
147
0.0
147
0.0
147
0.0
147
0.0008202099737533
147
0.0
147
0.0
147
0.0
147
0.0
147
1.0
147
0.0
147
0.0
147
0.0
147
0.0
147
1.0
  0
MLEADERSTYLE
  5
13E6
102
{ACAD_REACTORS
330
13E5
102
}
330
13E5
100
AcDbMLeaderStyle
170
     2
171
     1
172
     0
 90
        2
 40
0.0
 41
0.0
173
     1
 91
-1056964608
340
14
 92
       -2
290
     1
 42
2.0
291
     1
 43
0.36
  3
Standard
 44
4.0
300

342
11
174
     1
178
     6
175
     1
176
     0
 93
-1056964608
 45
4.0
292
     0
297
     0
 46
4.0
 94
-1056964608
 47
1.0
 49
1.0
140
1.0
293
     1
141
0.0
294
     1
177
     0
142
1.0
295
     0
296
     0
143
0.125
1001
ACAD_MLEADERVER
1070
     2
  0
MLINESTYLE
  5
18
102
{ACAD_REACTORS
330
17
102
}
330
17
100
AcDbMlineStyle
  2
STANDARD
 70
     0
  3

 62
   256
 51
90.0
 52
90.0
 71
     2
 49
0.5
 62
   256
  6
BYLAYER
 49
-0.5
 62
   256
  6
BYLAYER
  0
ACDBPLACEHOLDER
  5
F
102
{ACAD_REACTORS
330
E
102
}
330
E
  0
SCALE
  5
13D4
102
{ACAD_REACTORS
330
13D3
102
}
330
13D3
100
AcDbScale
 70
     0
300
1:1
140
1.0
141
1.0
290
     1
  0
SCALE
  5
13D5
102
{ACAD_REACTORS
330
13D3
102
}
330
13D3
100
AcDbScale
 70
     0
300
1:2
140
1.0
141
2.0
290
     0
  0
SCALE
  5
13D6
102
{ACAD_REACTORS
330
13D3
102
}
330
13D3
100
AcDbScale
 70
     0
300
1:4
140
1.0
141
4.0
290
     0
  0
SCALE
  5
13D7
102
{ACAD_REACTORS
330
13D3
102
}
330
13D3
100
AcDbScale
 70
     0
300
1:5
140
1.0
141
5.0
290
     0
  0
SCALE
  5
13D8
102
{ACAD_REACTORS
330
13D3
102
}
330
13D3
100
AcDbScale
 70
     0
300
1:8
140
1.0
141
8.0
290
     0
  0
SCALE
  5
13D9
102
{ACAD_REACTORS
330
13D3
102
}
330
13D3
100
AcDbScale
 70
     0
300
1:10
140
1.0
141
10.0
290
     0
  0
SCALE
  5
13DA
102
{ACAD_REACTORS
330
13D3
102
}
330
13D3
100
AcDbScale
 70
     0
300
1:16
140
1.0
141
16.0
290
     0
  0
SCALE
  5
13DB
102
{ACAD_REACTORS
330
13D3
102
}
330
13D3
100
AcDbScale
 70
     0
300
1:20
140
1.0
141
20.0
290
     0
  0
SCALE
  5
13DC
102
{ACAD_REACTORS
330
13D3
102
}
330
13D3
100
AcDbScale
 70
     0
300
1:30
140
1.0
141
30.0
290
     0
  0
SCALE
  5
13DD
102
{ACAD_REACTORS
330
13D3
102
}
330
13D3
100
AcDbScale
 70
     0
300
1:40
140
1.0
141
40.0
290
     0
  0
SCALE
  5
13DE
102
{ACAD_REACTORS
330
13D3
102
}
330
13D3
100
AcDbScale
 70
     0
300
1:50
140
1.0
141
50.0
290
     0
  0
SCALE
  5
13DF
102
{ACAD_REACTORS
330
13D3
102
}
330
13D3
100
AcDbScale
 70
     0
300
1:100
140
1.0
141
100.0
290
     0
  0
SCALE
  5
13E0
102
{ACAD_REACTORS
330
13D3
102
}
330
13D3
100
AcDbScale
 70
     0
300
2:1
140
2.0
141
1.0
290
     0
  0
SCALE
  5
13E1
102
{ACAD_REACTORS
330
13D3
102
}
330
13D3
100
AcDbScale
 70
     0
300
4:1
140
4.0
141
1.0
290
     0
  0
SCALE
  5
13E2
102
{ACAD_REACTORS
330
13D3
102
}
330
13D3
100
AcDbScale
 70
     0
300
8:1
140
8.0
141
1.0
290
     0
  0
SCALE
  5
13E3
102
{ACAD_REACTORS
330
13D3
102
}
330
13D3
100
AcDbScale
 70
     0
300
10:1
140
10.0
141
1.0
290
     0
  0
SCALE
  5
13E4
102
{ACAD_REACTORS
330
13D3
102
}
330
13D3
100
AcDbScale
 70
     0
300
100:1
140
100.0
141
1.0
290
     0
  0
TABLESTYLE
  5
13D2
102
{ACAD_XDICTIONARY
360
1460
102
}
102
{ACAD_REACTORS
330
13D1
102
}
330
13D1
100
AcDbTableStyle
  3
Standard
 70
     0
 71
     0
 40
1.5
 41
1.5
280
     0
281
     0
  7
Standard
140
4.5
170
     2
 62
     0
 63
     7
283
     0
274
    -2
284
     1
 64
     0
275
    -2
285
     1
 65
     0
276
    -2
286
     1
 66
     0
277
    -2
287
     1
 67
     0
278
    -2
288
     1
 68
     0
279
    -2
289
     1
 69
     0
  7
Standard
140
6.0
170
     5
 62
     0
 63
     7
283
     0
274
    -2
284
     1
 64
     0
275
    -2
285
     1
 65
     0
276
    -2
286
     1
 66
     0
277
    -2
287
     1
 67
     0
278
    -2
288
     1
 68
     0
279
    -2
289
     1
 69
     0
  7
Standard
140
4.5
170
     5
 62
     0
 63
     7
283
     0
274
    -2
284
     1
 64
     0
275
    -2
285
     1
 65
     0
276
    -2
286
     1
 66
     0
277
    -2
287
     1
 67
     0
278
    -2
288
     1
 68
     0
279
    -2
289
     1
 69
     0
  0
VISUALSTYLE
  5
13C2
102
{ACAD_XDICTIONARY
360
147B
102
}
102
{ACAD_REACTORS
330
13BC
102
}
330
13BC
100
AcDbVisualStyle
  2
2dWireframe
 70
     4
 71
     0
 72
     2
 73
     0
 90
        0
 40
-0.6
 41
-30.0
 62
     5
 63
     7
 74
     1
 91
        4
 64
     7
 65
   257
 75
     1
175
     1
 42
1.0
 92
        0
 66
   257
 43
1.0
 76
     1
 77
     6
 78
     2
 67
     7
 79
     5
170
     0
171
     0
290
     0
174
     0
 93
        1
 44
0.0
173
     0
291
     0
 45
0.0
1001
ACAD
1000
AcDbSavedByObjectVersion
1070
     0
  0
VISUALSTYLE
  5
13C4
102
{ACAD_XDICTIONARY
360
147F
102
}
102
{ACAD_REACTORS
330
13BC
102
}
330
13BC
100
AcDbVisualStyle
  2
3D Hidden
 70
     6
 71
     1
 72
     2
 73
     2
 90
        0
 40
-0.6
 41
-30.0
 62
     5
 63
     7
 74
     2
 91
        2
 64
     7
 65
   257
 75
     2
175
     1
 42
179.0
 92
        0
 66
   257
 43
1.0
 76
     1
 77
     6
 78
     2
 67
     7
 79
     3
170
     0
171
     0
290
     0
174
     0
 93
        1
 44
0.0
173
     0
291
     0
 45
0.0
1001
ACAD
1000
AcDbSavedByObjectVersion
1070
     0
  0
VISUALSTYLE
  5
13C3
102
{ACAD_XDICTIONARY
360
147D
102
}
102
{ACAD_REACTORS
330
13BC
102
}
330
13BC
100
AcDbVisualStyle
  2
3dWireframe
 70
     5
 71
     0
 72
     2
 73
     0
 90
        0
 40
-0.6
 41
-30.0
 62
     5
 63
     7
 74
     1
 91
        4
 64
     7
 65
   257
 75
     1
175
     1
 42
1.0
 92
        0
 66
   257
 43
1.0
 76
     1
 77
     6
 78
     2
 67
     7
 79
     5
170
     0
171
     0
290
     0
174
     0
 93
        1
 44
0.0
173
     0
291
     0
 45
0.0
1001
ACAD
1000
AcDbSavedByObjectVersion
1070
     0
  0
VISUALSTYLE
  5
13C1
102
{ACAD_XDICTIONARY
360
1479
102
}
102
{ACAD_REACTORS
330
13BC
102
}
330
13BC
100
AcDbVisualStyle
  2
Basic
 70
     7
 71
     1
 72
     0
 73
     1
 90
        0
 40
-0.6
 41
-30.0
 62
     5
 63
     7
 74
     0
 91
        4
 64
     7
 65
   257
 75
     1
175
     1
 42
1.0
 92
        8
 66
     7
 43
1.0
 76
     1
 77
     6
 78
     2
 67
     7
 79
     5
170
     0
171
     0
290
     0
174
     0
 93
        1
 44
0.0
173
     0
291
     1
 45
0.0
1001
ACAD
1000
AcDbSavedByObjectVersion
1070
     0
  0
VISUALSTYLE
  5
13C8
102
{ACAD_XDICTIONARY
360
1487
102
}
102
{ACAD_REACTORS
330
13BC
102
}
330
13BC
100
AcDbVisualStyle
  2
Brighten
 70
    12
 71
     2
 72
     2
 73
     0
 90
        0
 40
-0.6
 41
-30.0
 62
     5
 63
     7
 74
     1
 91
        4
 64
     7
 65
   257
 75
     1
175
     1
 42
1.0
 92
        8
 66
     7
 43
1.0
 76
     1
 77
     6
 78
     2
 67
     7
 79
     5
170
     0
171
     0
290
     0
174
     0
 93
        1
 44
50.0
173
     0
291
     1
 45
0.0
1001
ACAD
1000
AcDbSavedByObjectVersion
1070
     0
  0
VISUALSTYLE
  5
13CC
102
{ACAD_XDICTIONARY
360
148F
102
}
102
{ACAD_REACTORS
330
13BC
102
}
330
13BC
100
AcDbVisualStyle
  2
ColorChange
 70
    16
 71
     2
 72
     2
 73
     3
 90
        0
 40
-0.6
 41
-30.0
 62
     5
 63
     8
 74
     1
 91
        4
 64
     7
 65
   257
 75
     1
175
     1
 42
1.0
 92
        8
 66
     8
 43
1.0
 76
     1
 77
     6
 78
     2
 67
     7
 79
     5
170
     0
171
     0
290
     0
174
     0
 93
        1
 44
0.0
173
     0
291
     1
 45
0.0
1001
ACAD
1000
AcDbSavedByObjectVersion
1070
     0
  0
VISUALSTYLE
  5
13C5
102
{ACAD_XDICTIONARY
360
1481
102
}
102
{ACAD_REACTORS
330
13BC
102
}
330
13BC
100
AcDbVisualStyle
  2
Conceptual
 70
     9
 71
     3
 72
     2
 73
     0
 90
        0
 40
-0.6
 41
-30.0
 62
     5
 63
     7
 74
     2
 91
        2
 64
     7
 65
   257
 75
     1
175
     1
 42
179.0
 92
        8
 66
     7
 43
1.0
 76
     1
 77
     6
 78
     2
 67
     7
 79
     3
170
     0
171
     0
290
     0
174
     0
 93
        1
 44
0.0
173
     0
291
     0
 45
0.0
1001
ACAD
1000
AcDbSavedByObjectVersion
1070
     0
  0
VISUALSTYLE
  5
13C7
102
{ACAD_XDICTIONARY
360
1485
102
}
102
{ACAD_REACTORS
330
13BC
102
}
330
13BC
100
AcDbVisualStyle
  2
Dim
 70
    11
 71
     2
 72
     2
 73
     0
 90
        0
 40
-0.6
 41
-30.0
 62
     5
 63
     7
 74
     1
 91
        4
 64
     7
 65
   257
 75
     1
175
     1
 42
1.0
 92
        8
 66
     7
 43
1.0
 76
     1
 77
     6
 78
     2
 67
     7
 79
     5
170
     0
171
     0
290
     0
174
     0
 93
        1
 44
-50.0
173
     0
291
     1
 45
0.0
1001
ACAD
1000
AcDbSavedByObjectVersion
1070
     0
  0
VISUALSTYLE
  5
13CF
102
{ACAD_XDICTIONARY
360
1495
102
}
102
{ACAD_REACTORS
330
13BC
102
}
330
13BC
100
AcDbVisualStyle
  2
EdgeColorOff
 70
    22
 71
     2
 72
     2
 73
     0
 90
        0
 40
-0.6
 41
-30.0
 62
     5
 63
     7
 74
     1
 91
        4
 64
     7
 65
   257
 75
     1
175
     1
 42
1.0
 92
        8
 66
     7
 43
1.0
 76
     1
 77
     6
 78
     2
 67
     7
 79
     5
170
     0
171
     0
290
     0
174
     0
 93
        1
 44
0.0
173
     0
291
     1
 45
0.0
1001
ACAD
1000
AcDbSavedByObjectVersion
1070
     0
  0
VISUALSTYLE
  5
13CB
102
{ACAD_XDICTIONARY
360
148D
102
}
102
{ACAD_REACTORS
330
13BC
102
}
330
13BC
100
AcDbVisualStyle
  2
Facepattern
 70
    15
 71
     2
 72
     2
 73
     0
 90
        0
 40
-0.6
 41
-30.0
 62
     5
 63
     7
 74
     1
 91
        4
 64
     7
 65
   257
 75
     1
175
     1
 42
1.0
 92
        8
 66
     7
 43
1.0
 76
     1
 77
     6
 78
     2
 67
     7
 79
     5
170
     0
171
     0
290
     0
174
     0
 93
        1
 44
0.0
173
     0
291
     1
 45
0.0
1001
ACAD
1000
AcDbSavedByObjectVersion
1070
     0
  0
VISUALSTYLE
  5
13BD
102
{ACAD_XDICTIONARY
360
1471
102
}
102
{ACAD_REACTORS
330
13BC
102
}
330
13BC
100
AcDbVisualStyle
  2
Flat
 70
     0
 71
     2
 72
     1
 73
     1
 90
        2
 40
-0.6
 41
30.0
 62
     5
 63
     7
 74
     0
 91
        4
 64
     7
 65
   257
 75
     1
175
     1
 42
1.0
 92
        8
 66
     7
 43
1.0
 76
     1
 77
     6
 78
     2
 67
     7
 79
     5
170
     0
171
     0
290
     0
174
     0
 93
       13
 44
0.0
173
     0
291
     1
 45
0.0
1001
ACAD
1000
AcDbSavedByObjectVersion
1070
     0
  0
VISUALSTYLE
  5
13BE
102
{ACAD_XDICTIONARY
360
1473
102
}
102
{ACAD_REACTORS
330
13BC
102
}
330
13BC
100
AcDbVisualStyle
  2
FlatWithEdges
 70
     1
 71
     2
 72
     1
 73
     1
 90
        2
 40
-0.6
 41
30.0
 62
     5
 63
     7
 74
     1
 91
        4
 64
     7
 65
   257
 75
     1
175
     1
 42
1.0
 92
        0
 66
   257
 43
1.0
 76
     1
 77
     6
 78
     2
 67
     7
 79
     5
170
     0
171
     0
290
     0
174
     0
 93
       13
 44
0.0
173
     0
291
     1
 45
0.0
1001
ACAD
1000
AcDbSavedByObjectVersion
1070
     0
  0
VISUALSTYLE
  5
13BF
102
{ACAD_XDICTIONARY
360
1475
102
}
102
{ACAD_REACTORS
330
13BC
102
}
330
13BC
100
AcDbVisualStyle
  2
Gouraud
 70
     2
 71
     2
 72
     2
 73
     1
 90
        2
 40
-0.6
 41
30.0
 62
     5
 63
     7
 74
     0
 91
        4
 64
     7
 65
   257
 75
     1
175
     1
 42
1.0
 92
        0
 66
     7
 43
1.0
 76
     1
 77
     6
 78
     2
 67
     7
 79
     5
170
     0
171
     0
290
     0
174
     0
 93
       13
 44
0.0
173
     0
291
     1
 45
0.0
1001
ACAD
1000
AcDbSavedByObjectVersion
1070
     0
  0
VISUALSTYLE
  5
13C0
102
{ACAD_XDICTIONARY
360
1477
102
}
102
{ACAD_REACTORS
330
13BC
102
}
330
13BC
100
AcDbVisualStyle
  2
GouraudWithEdges
 70
     3
 71
     2
 72
     2
 73
     1
 90
        2
 40
-0.6
 41
30.0
 62
     5
 63
     7
 74
     1
 91
        4
 64
     7
 65
   257
 75
     1
175
     1
 42
1.0
 92
        0
 66
   257
 43
1.0
 76
     1
 77
     6
 78
     2
 67
     7
 79
     5
170
     0
171
     0
290
     0
174
     0
 93
       13
 44
0.0
173
     0
291
     1
 45
0.0
1001
ACAD
1000
AcDbSavedByObjectVersion
1070
     0
  0
VISUALSTYLE
  5
13CD
102
{ACAD_XDICTIONARY
360
1491
102
}
102
{ACAD_REACTORS
330
13BC
102
}
330
13BC
100
AcDbVisualStyle
  2
JitterOff
 70
    20
 71
     2
 72
     2
 73
     0
 90
        0
 40
-0.6
 41
-30.0
 62
     5
 63
     7
 74
     1
 91
        4
 64
     7
 65
   257
 75
     1
175
     1
 42
1.0
 92
       10
 66
     7
 43
1.0
 76
     1
 77
     6
 78
     2
 67
     7
 79
     5
170
     0
171
     0
290
     0
174
     0
 93
        1
 44
0.0
173
     0
291
     1
 45
0.0
1001
ACAD
1000
AcDbSavedByObjectVersion
1070
     0
  0
VISUALSTYLE
  5
13CA
102
{ACAD_XDICTIONARY
360
148B
102
}
102
{ACAD_REACTORS
330
13BC
102
}
330
13BC
100
AcDbVisualStyle
  2
Linepattern
 70
    14
 71
     2
 72
     2
 73
     0
 90
        0
 40
-0.6
 41
-30.0
 62
     5
 63
     7
 74
     1
 91
        4
 64
     7
 65
   257
 75
     7
175
     7
 42
1.0
 92
        8
 66
     7
 43
1.0
 76
     1
 77
     6
 78
     2
 67
     7
 79
     5
170
     0
171
     0
290
     0
174
     0
 93
        1
 44
0.0
173
     0
291
     1
 45
0.0
1001
ACAD
1000
AcDbSavedByObjectVersion
1070
     0
  0
VISUALSTYLE
  5
13CE
102
{ACAD_XDICTIONARY
360
1493
102
}
102
{ACAD_REACTORS
330
13BC
102
}
330
13BC
100
AcDbVisualStyle
  2
OverhangOff
 70
    21
 71
     2
 72
     2
 73
     0
 90
        0
 40
-0.6
 41
-30.0
 62
     5
 63
     7
 74
     1
 91
        4
 64
     7
 65
   257
 75
     1
175
     1
 42
1.0
 92
        9
 66
     7
 43
1.0
 76
     1
 77
     6
 78
     2
 67
     7
 79
     5
170
     0
171
     0
290
     0
174
     0
 93
        1
 44
0.0
173
     0
291
     1
 45
0.0
1001
ACAD
1000
AcDbSavedByObjectVersion
1070
     0
  0
VISUALSTYLE
  5
13C6
102
{ACAD_XDICTIONARY
360
1483
102
}
102
{ACAD_REACTORS
330
13BC
102
}
330
13BC
100
AcDbVisualStyle
  2
Realistic
 70
     8
 71
     2
 72
     2
 73
     0
 90
        0
 40
-0.6
 41
-30.0
 62
     5
 63
     7
 74
     1
 91
        0
 64
     7
 65
   257
 75
     1
175
     1
 42
1.0
 92
        8
 66
     8
 43
1.0
 76
     1
 77
     6
 78
     2
 67
     7
 79
     5
170
     0
171
     0
290
     0
174
     0
 93
       13
 44
0.0
173
     0
291
     0
 45
0.0
1001
ACAD
1000
AcDbSavedByObjectVersion
1070
     0
  0
VISUALSTYLE
  5
13C9
102
{ACAD_XDICTIONARY
360
1489
102
}
102
{ACAD_REACTORS
330
13BC
102
}
330
13BC
100
AcDbVisualStyle
  2
Thicken
 70
    13
 71
     2
 72
     2
 73
     0
 90
        0
 40
-0.6
 41
-30.0
 62
     5
 63
     7
 74
     1
 91
        4
 64
     7
 65
   257
 75
     1
175
     1
 42
1.0
 92
       12
 66
     7
 43
1.0
 76
     1
 77
     6
 78
     2
 67
     7
 79
     5
170
     0
171
     0
290
     0
174
     0
 93
        1
 44
0.0
173
     0
291
     1
 45
0.0
1001
ACAD
1000
AcDbSavedByObjectVersion
1070
     0
  0
DICTIONARYVAR
  5
145C
102
{ACAD_REACTORS
330
3D
102
}
330
3D
100
DictionaryVariables
280
     0
  1
1:1
  0
DICTIONARYVAR
  5
145B
102
{ACAD_REACTORS
330
3D
102
}
330
3D
100
DictionaryVariables
280
     0
  1
STANDARD
  0
DICTIONARYVAR
  5
145A
102
{ACAD_REACTORS
330
3D
102
}
330
3D
100
DictionaryVariables
280
     0
  1
STANDARD
  0
DICTIONARYVAR
  5
3F
102
{ACAD_REACTORS
330
3D
102
}
330
3D
100
DictionaryVariables
280
     0
  1
2
  0
DICTIONARYVAR
  5
3E
102
{ACAD_REACTORS
330
3D
102
}
330
3D
100
DictionaryVariables
280
     0
  1
1
  0
DICTIONARYVAR
  5
145E
102
{ACAD_REACTORS
330
3D
102
}
330
3D
100
DictionaryVariables
280
     0
  1
0
  0
DICTIONARYVAR
  5
145D
102
{ACAD_REACTORS
330
3D
102
}
330
3D
100
DictionaryVariables
280
     0
  1
127
  0
DICTIONARYVAR
  5
145F
102
{ACAD_REACTORS
330
3D
102
}
330
3D
100
DictionaryVariables
280
     0
  1
2
  0
XRECORD
  5
1418
102
{ACAD_REACTORS
330
1417
102
}
330
1417
100
AcDbXrecord
280
     1
  0
DICTIONARY
  5
1464
330
1E
100
AcDbDictionary
280
     1
281
     1
  3
ACAD_XREC_ROUNDTRIP
360
1465
  0
DICTIONARY
  5
1468
330
26
100
AcDbDictionary
280
     1
281
     1
  3
ACAD_XREC_ROUNDTRIP
360
1469
  0
DICTIONARY
  5
1466
330
22
100
AcDbDictionary
280
     1
281
     1
  3
ACAD_XREC_ROUNDTRIP
360
1467
  0
DICTIONARY
  5
13AD
330
13AC
100
AcDbDictionary
280
     1
281
     1
  3
ACAD_XREC_ROUNDTRIP
360
146F
  3
BUMPTILE
360
13AF
  3
DIFFUSETILE
360
13AE
  3
OPACITYTILE
360
13B2
  3
REFLECTIONTILE
360
13B1
  3
REFRACTIONTILE
360
13B3
  3
SPECULARTILE
360
13B0
  0
DICTIONARY
  5
13A5
330
13A4
100
AcDbDictionary
280
     1
281
     1
  3
ACAD_XREC_ROUNDTRIP
360
146E
  3
BUMPTILE
360
13A7
  3
DIFFUSETILE
360
13A6
  3
OPACITYTILE
360
13AA
  3
REFLECTIONTILE
360
13A9
  3
REFRACTIONTILE
360
13AB
  3
SPECULARTILE
360
13A8
  0
DICTIONARY
  5
13B5
330
13B4
100
AcDbDictionary
280
     1
281
     1
  3
ACAD_XREC_ROUNDTRIP
360
1470
  3
BUMPTILE
360
13B7
  3
DIFFUSETILE
360
13B6
  3
OPACITYTILE
360
13BA
  3
REFLECTIONTILE
360
13B9
  3
REFRACTIONTILE
360
13BB
  3
SPECULARTILE
360
13B8
  0
DICTIONARY
  5
1460
330
13D2
100
AcDbDictionary
280
     1
281
     1
  3
ACAD_ROUNDTRIP_2008_TABLESTYLE_CELLSTYLEMAP
360
1461
  3
ACAD_XREC_ROUNDTRIP
360
1497
  0
DICTIONARY
  5
147B
330
13C2
100
AcDbDictionary
280
     1
281
     1
  3
ACAD_XREC_ROUNDTRIP
360
147C
  0
DICTIONARY
  5
147F
330
13C4
100
AcDbDictionary
280
     1
281
     1
  3
ACAD_XREC_ROUNDTRIP
360
1480
  0
DICTIONARY
  5
147D
330
13C3
100
AcDbDictionary
280
     1
281
     1
  3
ACAD_XREC_ROUNDTRIP
360
147E
  0
DICTIONARY
  5
1479
330
13C1
100
AcDbDictionary
280
     1
281
     1
  3
ACAD_XREC_ROUNDTRIP
360
147A
  0
DICTIONARY
  5
1487
330
13C8
100
AcDbDictionary
280
     1
281
     1
  3
ACAD_XREC_ROUNDTRIP
360
1488
  0
DICTIONARY
  5
148F
330
13CC
100
AcDbDictionary
280
     1
281
     1
  3
ACAD_XREC_ROUNDTRIP
360
1490
  0
DICTIONARY
  5
1481
330
13C5
100
AcDbDictionary
280
     1
281
     1
  3
ACAD_XREC_ROUNDTRIP
360
1482
  0
DICTIONARY
  5
1485
330
13C7
100
AcDbDictionary
280
     1
281
     1
  3
ACAD_XREC_ROUNDTRIP
360
1486
  0
DICTIONARY
  5
1495
330
13CF
100
AcDbDictionary
280
     1
281
     1
  3
ACAD_XREC_ROUNDTRIP
360
1496
  0
DICTIONARY
  5
148D
330
13CB
100
AcDbDictionary
280
     1
281
     1
  3
ACAD_XREC_ROUNDTRIP
360
148E
  0
DICTIONARY
  5
1471
330
13BD
100
AcDbDictionary
280
     1
281
     1
  3
ACAD_XREC_ROUNDTRIP
360
1472
  0
DICTIONARY
  5
1473
330
13BE
100
AcDbDictionary
280
     1
281
     1
  3
ACAD_XREC_ROUNDTRIP
360
1474
  0
DICTIONARY
  5
1475
330
13BF
100
AcDbDictionary
280
     1
281
     1
  3
ACAD_XREC_ROUNDTRIP
360
1476
  0
DICTIONARY
  5
1477
330
13C0
100
AcDbDictionary
280
     1
281
     1
  3
ACAD_XREC_ROUNDTRIP
360
1478
  0
DICTIONARY
  5
1491
330
13CD
100
AcDbDictionary
280
     1
281
     1
  3
ACAD_XREC_ROUNDTRIP
360
1492
  0
DICTIONARY
  5
148B
330
13CA
100
AcDbDictionary
280
     1
281
     1
  3
ACAD_XREC_ROUNDTRIP
360
148C
  0
DICTIONARY
  5
1493
330
13CE
100
AcDbDictionary
280
     1
281
     1
  3
ACAD_XREC_ROUNDTRIP
360
1494
  0
DICTIONARY
  5
1483
330
13C6
100
AcDbDictionary
280
     1
281
     1
  3
ACAD_XREC_ROUNDTRIP
360
1484
  0
DICTIONARY
  5
1489
330
13C9
100
AcDbDictionary
280
     1
281
     1
  3
ACAD_XREC_ROUNDTRIP
360
148A
  0
XRECORD
  5
1465
102
{ACAD_REACTORS
330
1464
102
}
330
1464
100
AcDbXrecord
280
     1
102
SHADEPLOT
 70
     0
102
SHADEPLOTRESLEVEL
 70
     2
102
SHADEPLOTCUSTOMDPI
 70
   300
  0
XRECORD
  5
1469
102
{ACAD_REACTORS
330
1468
102
}
330
1468
100
AcDbXrecord
280
     1
102
SHADEPLOT
 70
     0
102
SHADEPLOTRESLEVEL
 70
     2
102
SHADEPLOTCUSTOMDPI
 70
   300
  0
XRECORD
  5
1467
102
{ACAD_REACTORS
330
1466
102
}
330
1466
100
AcDbXrecord
280
     1
102
SHADEPLOT
 70
     0
102
SHADEPLOTRESLEVEL
 70
     2
102
SHADEPLOTCUSTOMDPI
 70
   300
  0
XRECORD
  5
146F
102
{ACAD_REACTORS
330
13AD
102
}
330
13AD
100
AcDbXrecord
280
     1
102
MATERIAL
148
0.0
149
0.0
149
0.0
 93
        0
 94
      127
282
     0
 72
     0
 77
     0
171
     0
175
     0
179
     0
273
     0
  0
XRECORD
  5
13AF
102
{ACAD_REACTORS
330
13AD
102
}
330
13AD
100
AcDbXrecord
280
     1
270
     1
271
     1
  0
XRECORD
  5
13AE
102
{ACAD_REACTORS
330
13AD
102
}
330
13AD
100
AcDbXrecord
280
     1
270
     1
271
     1
  0
XRECORD
  5
13B2
102
{ACAD_REACTORS
330
13AD
102
}
330
13AD
100
AcDbXrecord
280
     1
270
     1
271
     1
  0
XRECORD
  5
13B1
102
{ACAD_REACTORS
330
13AD
102
}
330
13AD
100
AcDbXrecord
280
     1
270
     1
271
     1
  0
XRECORD
  5
13B3
102
{ACAD_REACTORS
330
13AD
102
}
330
13AD
100
AcDbXrecord
280
     1
270
     1
271
     1
  0
XRECORD
  5
13B0
102
{ACAD_REACTORS
330
13AD
102
}
330
13AD
100
AcDbXrecord
280
     1
270
     1
271
     1
  0
XRECORD
  5
146E
102
{ACAD_REACTORS
330
13A5
102
}
330
13A5
100
AcDbXrecord
280
     1
102
MATERIAL
148
0.0
149
0.0
149
0.0
 93
        0
 94
      127
282
     0
 72
     0
 77
     0
171
     0
175
     0
179
     0
273
     0
  0
XRECORD
  5
13A7
102
{ACAD_REACTORS
330
13A5
102
}
330
13A5
100
AcDbXrecord
280
     1
270
     1
271
     1
  0
XRECORD
  5
13A6
102
{ACAD_REACTORS
330
13A5
102
}
330
13A5
100
AcDbXrecord
280
     1
270
     1
271
     1
  0
XRECORD
  5
13AA
102
{ACAD_REACTORS
330
13A5
102
}
330
13A5
100
AcDbXrecord
280
     1
270
     1
271
     1
  0
XRECORD
  5
13A9
102
{ACAD_REACTORS
330
13A5
102
}
330
13A5
100
AcDbXrecord
280
     1
270
     1
271
     1
  0
XRECORD
  5
13AB
102
{ACAD_REACTORS
330
13A5
102
}
330
13A5
100
AcDbXrecord
280
     1
270
     1
271
     1
  0
XRECORD
  5
13A8
102
{ACAD_REACTORS
330
13A5
102
}
330
13A5
100
AcDbXrecord
280
     1
270
     1
271
     1
  0
XRECORD
  5
1470
102
{ACAD_REACTORS
330
13B5
102
}
330
13B5
100
AcDbXrecord
280
     1
102
MATERIAL
148
0.0
149
0.0
149
0.0
 93
        0
 94
      127
282
     0
 72
     0
 77
     0
171
     0
175
     0
179
     0
273
     0
  0
XRECORD
  5
13B7
102
{ACAD_REACTORS
330
13B5
102
}
330
13B5
100
AcDbXrecord
280
     1
270
     1
271
     1
  0
XRECORD
  5
13B6
102
{ACAD_REACTORS
330
13B5
102
}
330
13B5
100
AcDbXrecord
280
     1
270
     1
271
     1
  0
XRECORD
  5
13BA
102
{ACAD_REACTORS
330
13B5
102
}
330
13B5
100
AcDbXrecord
280
     1
270
     1
271
     1
  0
XRECORD
  5
13B9
102
{ACAD_REACTORS
330
13B5
102
}
330
13B5
100
AcDbXrecord
280
     1
270
     1
271
     1
  0
XRECORD
  5
13BB
102
{ACAD_REACTORS
330
13B5
102
}
330
13B5
100
AcDbXrecord
280
     1
270
     1
271
     1
  0
XRECORD
  5
13B8
102
{ACAD_REACTORS
330
13B5
102
}
330
13B5
100
AcDbXrecord
280
     1
270
     1
271
     1
  0
CELLSTYLEMAP
  5
1461
102
{ACAD_REACTORS
330
1460
102
}
330
1460
100
AcDbCellStyleMap
 90
        3
300
CELLSTYLE
  1
TABLEFORMAT_BEGIN
 90
        5
170
     1
 91
        0
 92
    32768
 62
   257
 93
        1
300
CONTENTFORMAT
  1
CONTENTFORMAT_BEGIN
 90
        0
 91
        0
 92
      512
 93
        0
300

 40
0.0
140
1.0
 94
        5
 62
     0
340
11
144
6.0
309
CONTENTFORMAT_END
171
     1
301
MARGIN
  1
CELLMARGIN_BEGIN
 40
1.5
 40
1.5
 40
1.5
 40
1.5
 40
4.5
 40
4.5
309
CELLMARGIN_END
 94
        6
 95
        1
302
GRIDFORMAT
  1
GRIDFORMAT_BEGIN
 90
        0
 91
        1
 62
     0
 92
       -2
340
0
 93
        0
 40
1.125
309
GRIDFORMAT_END
 95
        2
302
GRIDFORMAT
  1
GRIDFORMAT_BEGIN
 90
        0
 91
        1
 62
     0
 92
       -2
340
0
 93
        0
 40
1.125
309
GRIDFORMAT_END
 95
        4
302
GRIDFORMAT
  1
GRIDFORMAT_BEGIN
 90
        0
 91
        1
 62
     0
 92
       -2
340
0
 93
        0
 40
1.125
309
GRIDFORMAT_END
 95
        8
302
GRIDFORMAT
  1
GRIDFORMAT_BEGIN
 90
        0
 91
        1
 62
     0
 92
       -2
340
0
 93
        0
 40
1.125
309
GRIDFORMAT_END
 95
       16
302
GRIDFORMAT
  1
GRIDFORMAT_BEGIN
 90
        0
 91
        1
 62
     0
 92
       -2
340
0
 93
        0
 40
1.125
309
GRIDFORMAT_END
 95
       32
302
GRIDFORMAT
  1
GRIDFORMAT_BEGIN
 90
        0
 91
        1
 62
     0
 92
       -2
340
0
 93
        0
 40
1.125
309
GRIDFORMAT_END
309
TABLEFORMAT_END
  1
CELLSTYLE_BEGIN
 90
        1
 91
        1
300
_TITLE
309
CELLSTYLE_END
300
CELLSTYLE
  1
TABLEFORMAT_BEGIN
 90
        5
170
     1
 91
        0
 92
        0
 62
   257
 93
        1
300
CONTENTFORMAT
  1
CONTENTFORMAT_BEGIN
 90
        0
 91
        0
 92
      512
 93
        0
300

 40
0.0
140
1.0
 94
        5
 62
     0
340
11
144
4.5
309
CONTENTFORMAT_END
171
     1
301
MARGIN
  1
CELLMARGIN_BEGIN
 40
1.5
 40
1.5
 40
1.5
 40
1.5
 40
4.5
 40
4.5
309
CELLMARGIN_END
 94
        6
 95
        1
302
GRIDFORMAT
  1
GRIDFORMAT_BEGIN
 90
        0
 91
        1
 62
     0
 92
       -2
340
0
 93
        0
 40
1.125
309
GRIDFORMAT_END
 95
        2
302
GRIDFORMAT
  1
GRIDFORMAT_BEGIN
 90
        0
 91
        1
 62
     0
 92
       -2
340
0
 93
        0
 40
1.125
309
GRIDFORMAT_END
 95
        4
302
GRIDFORMAT
  1
GRIDFORMAT_BEGIN
 90
        0
 91
        1
 62
     0
 92
       -2
340
0
 93
        0
 40
1.125
309
GRIDFORMAT_END
 95
        8
302
GRIDFORMAT
  1
GRIDFORMAT_BEGIN
 90
        0
 91
        1
 62
     0
 92
       -2
340
0
 93
        0
 40
1.125
309
GRIDFORMAT_END
 95
       16
302
GRIDFORMAT
  1
GRIDFORMAT_BEGIN
 90
        0
 91
        1
 62
     0
 92
       -2
340
0
 93
        0
 40
1.125
309
GRIDFORMAT_END
 95
       32
302
GRIDFORMAT
  1
GRIDFORMAT_BEGIN
 90
        0
 91
        1
 62
     0
 92
       -2
340
0
 93
        0
 40
1.125
309
GRIDFORMAT_END
309
TABLEFORMAT_END
  1
CELLSTYLE_BEGIN
 90
        2
 91
        1
300
_HEADER
309
CELLSTYLE_END
300
CELLSTYLE
  1
TABLEFORMAT_BEGIN
 90
        5
170
     1
 91
        0
 92
        0
 62
   257
 93
        1
300
CONTENTFORMAT
  1
CONTENTFORMAT_BEGIN
 90
        0
 91
        0
 92
      512
 93
        0
300

 40
0.0
140
1.0
 94
        2
 62
     0
340
11
144
4.5
309
CONTENTFORMAT_END
171
     1
301
MARGIN
  1
CELLMARGIN_BEGIN
 40
1.5
 40
1.5
 40
1.5
 40
1.5
 40
4.5
 40
4.5
309
CELLMARGIN_END
 94
        6
 95
        1
302
GRIDFORMAT
  1
GRIDFORMAT_BEGIN
 90
        0
 91
        1
 62
     0
 92
       -2
340
0
 93
        0
 40
1.125
309
GRIDFORMAT_END
 95
        2
302
GRIDFORMAT
  1
GRIDFORMAT_BEGIN
 90
        0
 91
        1
 62
     0
 92
       -2
340
0
 93
        0
 40
1.125
309
GRIDFORMAT_END
 95
        4
302
GRIDFORMAT
  1
GRIDFORMAT_BEGIN
 90
        0
 91
        1
 62
     0
 92
       -2
340
0
 93
        0
 40
1.125
309
GRIDFORMAT_END
 95
        8
302
GRIDFORMAT
  1
GRIDFORMAT_BEGIN
 90
        0
 91
        1
 62
     0
 92
       -2
340
0
 93
        0
 40
1.125
309
GRIDFORMAT_END
 95
       16
302
GRIDFORMAT
  1
GRIDFORMAT_BEGIN
 90
        0
 91
        1
 62
     0
 92
       -2
340
0
 93
        0
 40
1.125
309
GRIDFORMAT_END
 95
       32
302
GRIDFORMAT
  1
GRIDFORMAT_BEGIN
 90
        0
 91
        1
 62
     0
 92
       -2
340
0
 93
        0
 40
1.125
309
GRIDFORMAT_END
309
TABLEFORMAT_END
  1
CELLSTYLE_BEGIN
 90
        3
 91
        2
300
_DATA
309
CELLSTYLE_END
  0
XRECORD
  5
1497
102
{ACAD_REACTORS
330
1460
102
}
330
1460
100
AcDbXrecord
280
     1
102
ACAD_ROUNDTRIP_PRE2007_TABLESTYLE
 90
      512
 91
        0
  1

 92
      512
 93
        0
  2

 94
      512
 95
        0
  3

  0
XRECORD
  5
147C
102
{ACAD_REACTORS
330
147B
102
}
330
147B
100
AcDbXrecord
280
     1
102
RTVSPropertyOp0
 70
     1
102
RTVSPropertyOp1
 70
     1
102
RTVSPropertyOp2
 70
     1
102
RTVSPropertyOp3
 70
     1
102
RTVSPropertyOp4
 70
     1
102
RTVSPropertyOp5
 70
     1
102
RTVSPropertyOp6
 70
     1
102
RTVSPropertyOp7
 70
     1
102
RTVSPropertyOp8
 70
     1
102
RTVSPropertyOp9
 70
     1
102
RTVSPropertyOp10
 70
     1
102
RTVSPropertyOp11
 70
     1
102
RTVSPropertyOp12
 70
     1
102
RTVSPropertyOp13
 70
     1
102
RTVSPropertyOp14
 70
     1
102
RTVSPropertyOp15
 70
     1
102
RTVSPropertyOp16
 70
     1
102
RTVSPropertyOp17
 70
     1
102
RTVSPropertyOp18
 70
     1
102
RTVSPropertyOp19
 70
     1
102
RTVSPropertyOp20
 70
     1
102
RTVSPropertyOp21
 70
     1
102
RTVSPropertyOp22
 70
     1
102
RTVSPropertyOp23
 70
     1
102
RTVSPropertyOp24
 70
     1
102
RTVSPropertyOp25
 70
     1
102
RTVSPropertyOp26
 70
     1
102
RTVSPropertyOp27
 70
     1
  0
XRECORD
  5
1480
102
{ACAD_REACTORS
330
147F
102
}
330
147F
100
AcDbXrecord
280
     1
102
RTVSPropertyOp0
 70
     1
102
RTVSPropertyOp1
 70
     1
102
RTVSPropertyOp2
 70
     1
102
RTVSPropertyOp3
 70
     1
102
RTVSPropertyOp4
 70
     1
102
RTVSPropertyOp5
 70
     1
102
RTVSPropertyOp6
 70
     1
102
RTVSPropertyOp7
 70
     1
102
RTVSPropertyOp8
 70
     1
102
RTVSPropertyOp9
 70
     1
102
RTVSPropertyOp10
 70
     1
102
RTVSPropertyOp11
 70
     1
102
RTVSPropertyOp12
 70
     1
102
RTVSPropertyOp13
 70
     1
102
RTVSPropertyOp14
 70
     1
102
RTVSPropertyOp15
 70
     1
102
RTVSPropertyOp16
 70
     1
102
RTVSPropertyOp17
 70
     1
102
RTVSPropertyOp18
 70
     1
102
RTVSPropertyOp19
 70
     1
102
RTVSPropertyOp20
 70
     1
102
RTVSPropertyOp21
 70
     1
102
RTVSPropertyOp22
 70
     1
102
RTVSPropertyOp23
 70
     1
102
RTVSPropertyOp24
 70
     1
102
RTVSPropertyOp25
 70
     1
102
RTVSPropertyOp26
 70
     1
102
RTVSPropertyOp27
 70
     1
  0
XRECORD
  5
147E
102
{ACAD_REACTORS
330
147D
102
}
330
147D
100
AcDbXrecord
280
     1
102
RTVSPropertyOp0
 70
     1
102
RTVSPropertyOp1
 70
     1
102
RTVSPropertyOp2
 70
     1
102
RTVSPropertyOp3
 70
     1
102
RTVSPropertyOp4
 70
     1
102
RTVSPropertyOp5
 70
     1
102
RTVSPropertyOp6
 70
     1
102
RTVSPropertyOp7
 70
     1
102
RTVSPropertyOp8
 70
     1
102
RTVSPropertyOp9
 70
     1
102
RTVSPropertyOp10
 70
     1
102
RTVSPropertyOp11
 70
     1
102
RTVSPropertyOp12
 70
     1
102
RTVSPropertyOp13
 70
     1
102
RTVSPropertyOp14
 70
     1
102
RTVSPropertyOp15
 70
     1
102
RTVSPropertyOp16
 70
     1
102
RTVSPropertyOp17
 70
     1
102
RTVSPropertyOp18
 70
     1
102
RTVSPropertyOp19
 70
     1
102
RTVSPropertyOp20
 70
     1
102
RTVSPropertyOp21
 70
     1
102
RTVSPropertyOp22
 70
     1
102
RTVSPropertyOp23
 70
     1
102
RTVSPropertyOp24
 70
     1
102
RTVSPropertyOp25
 70
     1
102
RTVSPropertyOp26
 70
     1
102
RTVSPropertyOp27
 70
     1
  0
XRECORD
  5
147A
102
{ACAD_REACTORS
330
1479
102
}
330
1479
100
AcDbXrecord
280
     1
102
RTVSPropertyOp0
 70
     1
102
RTVSPropertyOp1
 70
     1
102
RTVSPropertyOp2
 70
     1
102
RTVSPropertyOp3
 70
     1
102
RTVSPropertyOp4
 70
     1
102
RTVSPropertyOp5
 70
     1
102
RTVSPropertyOp6
 70
     1
102
RTVSPropertyOp7
 70
     1
102
RTVSPropertyOp8
 70
     1
102
RTVSPropertyOp9
 70
     1
102
RTVSPropertyOp10
 70
     1
102
RTVSPropertyOp11
 70
     1
102
RTVSPropertyOp12
 70
     1
102
RTVSPropertyOp13
 70
     1
102
RTVSPropertyOp14
 70
     1
102
RTVSPropertyOp15
 70
     1
102
RTVSPropertyOp16
 70
     1
102
RTVSPropertyOp17
 70
     1
102
RTVSPropertyOp18
 70
     1
102
RTVSPropertyOp19
 70
     1
102
RTVSPropertyOp20
 70
     1
102
RTVSPropertyOp21
 70
     1
102
RTVSPropertyOp22
 70
     1
102
RTVSPropertyOp23
 70
     1
102
RTVSPropertyOp24
 70
     1
102
RTVSPropertyOp25
 70
     1
102
RTVSPropertyOp26
 70
     1
102
RTVSPropertyOp27
 70
     1
  0
XRECORD
  5
1488
102
{ACAD_REACTORS
330
1487
102
}
330
1487
100
AcDbXrecord
280
     1
102
RTVSPropertyOp0
 70
     1
102
RTVSPropertyOp1
 70
     1
102
RTVSPropertyOp2
 70
     1
102
RTVSPropertyOp3
 70
     1
102
RTVSPropertyOp4
 70
     1
102
RTVSPropertyOp5
 70
     1
102
RTVSPropertyOp6
 70
     1
102
RTVSPropertyOp7
 70
     1
102
RTVSPropertyOp8
 70
     1
102
RTVSPropertyOp9
 70
     1
102
RTVSPropertyOp10
 70
     1
102
RTVSPropertyOp11
 70
     1
102
RTVSPropertyOp12
 70
     1
102
RTVSPropertyOp13
 70
     1
102
RTVSPropertyOp14
 70
     1
102
RTVSPropertyOp15
 70
     1
102
RTVSPropertyOp16
 70
     1
102
RTVSPropertyOp17
 70
     1
102
RTVSPropertyOp18
 70
     1
102
RTVSPropertyOp19
 70
     1
102
RTVSPropertyOp20
 70
     1
102
RTVSPropertyOp21
 70
     1
102
RTVSPropertyOp22
 70
     1
102
RTVSPropertyOp23
 70
     1
102
RTVSPropertyOp24
 70
     1
102
RTVSPropertyOp25
 70
     1
102
RTVSPropertyOp26
 70
     1
102
RTVSPropertyOp27
 70
     1
  0
XRECORD
  5
1490
102
{ACAD_REACTORS
330
148F
102
}
330
148F
100
AcDbXrecord
280
     1
102
RTVSPropertyOp0
 70
     1
102
RTVSPropertyOp1
 70
     1
102
RTVSPropertyOp2
 70
     1
102
RTVSPropertyOp3
 70
     1
102
RTVSPropertyOp4
 70
     1
102
RTVSPropertyOp5
 70
     1
102
RTVSPropertyOp6
 70
     1
102
RTVSPropertyOp7
 70
     1
102
RTVSPropertyOp8
 70
     1
102
RTVSPropertyOp9
 70
     1
102
RTVSPropertyOp10
 70
     1
102
RTVSPropertyOp11
 70
     1
102
RTVSPropertyOp12
 70
     1
102
RTVSPropertyOp13
 70
     1
102
RTVSPropertyOp14
 70
     1
102
RTVSPropertyOp15
 70
     1
102
RTVSPropertyOp16
 70
     1
102
RTVSPropertyOp17
 70
     1
102
RTVSPropertyOp18
 70
     1
102
RTVSPropertyOp19
 70
     1
102
RTVSPropertyOp20
 70
     1
102
RTVSPropertyOp21
 70
     1
102
RTVSPropertyOp22
 70
     1
102
RTVSPropertyOp23
 70
     1
102
RTVSPropertyOp24
 70
     1
102
RTVSPropertyOp25
 70
     1
102
RTVSPropertyOp26
 70
     1
102
RTVSPropertyOp27
 70
     1
  0
XRECORD
  5
1482
102
{ACAD_REACTORS
330
1481
102
}
330
1481
100
AcDbXrecord
280
     1
102
RTVSPropertyOp0
 70
     1
102
RTVSPropertyOp1
 70
     1
102
RTVSPropertyOp2
 70
     1
102
RTVSPropertyOp3
 70
     1
102
RTVSPropertyOp4
 70
     1
102
RTVSPropertyOp5
 70
     1
102
RTVSPropertyOp6
 70
     1
102
RTVSPropertyOp7
 70
     1
102
RTVSPropertyOp8
 70
     1
102
RTVSPropertyOp9
 70
     1
102
RTVSPropertyOp10
 70
     1
102
RTVSPropertyOp11
 70
     1
102
RTVSPropertyOp12
 70
     1
102
RTVSPropertyOp13
 70
     1
102
RTVSPropertyOp14
 70
     1
102
RTVSPropertyOp15
 70
     1
102
RTVSPropertyOp16
 70
     1
102
RTVSPropertyOp17
 70
     1
102
RTVSPropertyOp18
 70
     1
102
RTVSPropertyOp19
 70
     1
102
RTVSPropertyOp20
 70
     1
102
RTVSPropertyOp21
 70
     1
102
RTVSPropertyOp22
 70
     1
102
RTVSPropertyOp23
 70
     1
102
RTVSPropertyOp24
 70
     1
102
RTVSPropertyOp25
 70
     1
102
RTVSPropertyOp26
 70
     1
102
RTVSPropertyOp27
 70
     1
  0
XRECORD
  5
1486
102
{ACAD_REACTORS
330
1485
102
}
330
1485
100
AcDbXrecord
280
     1
102
RTVSPropertyOp0
 70
     1
102
RTVSPropertyOp1
 70
     1
102
RTVSPropertyOp2
 70
     1
102
RTVSPropertyOp3
 70
     1
102
RTVSPropertyOp4
 70
     1
102
RTVSPropertyOp5
 70
     1
102
RTVSPropertyOp6
 70
     1
102
RTVSPropertyOp7
 70
     1
102
RTVSPropertyOp8
 70
     1
102
RTVSPropertyOp9
 70
     1
102
RTVSPropertyOp10
 70
     1
102
RTVSPropertyOp11
 70
     1
102
RTVSPropertyOp12
 70
     1
102
RTVSPropertyOp13
 70
     1
102
RTVSPropertyOp14
 70
     1
102
RTVSPropertyOp15
 70
     1
102
RTVSPropertyOp16
 70
     1
102
RTVSPropertyOp17
 70
     1
102
RTVSPropertyOp18
 70
     1
102
RTVSPropertyOp19
 70
     1
102
RTVSPropertyOp20
 70
     1
102
RTVSPropertyOp21
 70
     1
102
RTVSPropertyOp22
 70
     1
102
RTVSPropertyOp23
 70
     1
102
RTVSPropertyOp24
 70
     1
102
RTVSPropertyOp25
 70
     1
102
RTVSPropertyOp26
 70
     1
102
RTVSPropertyOp27
 70
     1
  0
XRECORD
  5
1496
102
{ACAD_REACTORS
330
1495
102
}
330
1495
100
AcDbXrecord
280
     1
102
RTVSPropertyOp0
 70
     0
102
RTVSPropertyOp1
 70
     0
102
RTVSPropertyOp2
 70
     0
102
RTVSPropertyOp3
 70
     0
102
RTVSPropertyOp4
 70
     0
102
RTVSPropertyOp5
 70
     0
102
RTVSPropertyOp6
 70
     0
102
RTVSPropertyOp7
 70
     0
102
RTVSPropertyOp8
 70
     0
102
RTVSPropertyOp9
 70
     0
102
RTVSPropertyOp10
 70
     0
102
RTVSPropertyOp11
 70
     0
102
RTVSPropertyOp12
 70
     0
102
RTVSPropertyOp13
 70
     0
102
RTVSPropertyOp14
 70
     2
102
RTVSPropertyOp15
 70
     0
102
RTVSPropertyOp16
 70
     0
102
RTVSPropertyOp17
 70
     0
102
RTVSPropertyOp18
 70
     0
102
RTVSPropertyOp19
 70
     0
102
RTVSPropertyOp20
 70
     0
102
RTVSPropertyOp21
 70
     0
102
RTVSPropertyOp22
 70
     0
102
RTVSPropertyOp23
 70
     0
102
RTVSPropertyOp24
 70
     0
102
RTVSPropertyOp25
 70
     0
102
RTVSPropertyOp26
 70
     0
102
RTVSPropertyOp27
 70
     0
  0
XRECORD
  5
148E
102
{ACAD_REACTORS
330
148D
102
}
330
148D
100
AcDbXrecord
280
     1
102
RTVSPropertyOp0
 70
     1
102
RTVSPropertyOp1
 70
     1
102
RTVSPropertyOp2
 70
     1
102
RTVSPropertyOp3
 70
     1
102
RTVSPropertyOp4
 70
     1
102
RTVSPropertyOp5
 70
     1
102
RTVSPropertyOp6
 70
     1
102
RTVSPropertyOp7
 70
     1
102
RTVSPropertyOp8
 70
     1
102
RTVSPropertyOp9
 70
     1
102
RTVSPropertyOp10
 70
     1
102
RTVSPropertyOp11
 70
     1
102
RTVSPropertyOp12
 70
     1
102
RTVSPropertyOp13
 70
     1
102
RTVSPropertyOp14
 70
     1
102
RTVSPropertyOp15
 70
     1
102
RTVSPropertyOp16
 70
     1
102
RTVSPropertyOp17
 70
     1
102
RTVSPropertyOp18
 70
     1
102
RTVSPropertyOp19
 70
     1
102
RTVSPropertyOp20
 70
     1
102
RTVSPropertyOp21
 70
     1
102
RTVSPropertyOp22
 70
     1
102
RTVSPropertyOp23
 70
     1
102
RTVSPropertyOp24
 70
     1
102
RTVSPropertyOp25
 70
     1
102
RTVSPropertyOp26
 70
     1
102
RTVSPropertyOp27
 70
     1
  0
XRECORD
  5
1472
102
{ACAD_REACTORS
330
1471
102
}
330
1471
100
AcDbXrecord
280
     1
102
RTVSPropertyOp0
 70
     1
102
RTVSPropertyOp1
 70
     1
102
RTVSPropertyOp2
 70
     1
102
RTVSPropertyOp3
 70
     1
102
RTVSPropertyOp4
 70
     1
102
RTVSPropertyOp5
 70
     1
102
RTVSPropertyOp6
 70
     1
102
RTVSPropertyOp7
 70
     1
102
RTVSPropertyOp8
 70
     1
102
RTVSPropertyOp9
 70
     1
102
RTVSPropertyOp10
 70
     1
102
RTVSPropertyOp11
 70
     1
102
RTVSPropertyOp12
 70
     1
102
RTVSPropertyOp13
 70
     1
102
RTVSPropertyOp14
 70
     1
102
RTVSPropertyOp15
 70
     1
102
RTVSPropertyOp16
 70
     1
102
RTVSPropertyOp17
 70
     1
102
RTVSPropertyOp18
 70
     1
102
RTVSPropertyOp19
 70
     1
102
RTVSPropertyOp20
 70
     1
102
RTVSPropertyOp21
 70
     1
102
RTVSPropertyOp22
 70
     1
102
RTVSPropertyOp23
 70
     1
102
RTVSPropertyOp24
 70
     1
102
RTVSPropertyOp25
 70
     1
102
RTVSPropertyOp26
 70
     1
102
RTVSPropertyOp27
 70
     1
  0
XRECORD
  5
1474
102
{ACAD_REACTORS
330
1473
102
}
330
1473
100
AcDbXrecord
280
     1
102
RTVSPropertyOp0
 70
     1
102
RTVSPropertyOp1
 70
     1
102
RTVSPropertyOp2
 70
     1
102
RTVSPropertyOp3
 70
     1
102
RTVSPropertyOp4
 70
     1
102
RTVSPropertyOp5
 70
     1
102
RTVSPropertyOp6
 70
     1
102
RTVSPropertyOp7
 70
     1
102
RTVSPropertyOp8
 70
     1
102
RTVSPropertyOp9
 70
     1
102
RTVSPropertyOp10
 70
     1
102
RTVSPropertyOp11
 70
     1
102
RTVSPropertyOp12
 70
     1
102
RTVSPropertyOp13
 70
     1
102
RTVSPropertyOp14
 70
     1
102
RTVSPropertyOp15
 70
     1
102
RTVSPropertyOp16
 70
     1
102
RTVSPropertyOp17
 70
     1
102
RTVSPropertyOp18
 70
     1
102
RTVSPropertyOp19
 70
     1
102
RTVSPropertyOp20
 70
     1
102
RTVSPropertyOp21
 70
     1
102
RTVSPropertyOp22
 70
     1
102
RTVSPropertyOp23
 70
     1
102
RTVSPropertyOp24
 70
     1
102
RTVSPropertyOp25
 70
     1
102
RTVSPropertyOp26
 70
     1
102
RTVSPropertyOp27
 70
     1
  0
XRECORD
  5
1476
102
{ACAD_REACTORS
330
1475
102
}
330
1475
100
AcDbXrecord
280
     1
102
RTVSPropertyOp0
 70
     1
102
RTVSPropertyOp1
 70
     1
102
RTVSPropertyOp2
 70
     1
102
RTVSPropertyOp3
 70
     1
102
RTVSPropertyOp4
 70
     1
102
RTVSPropertyOp5
 70
     1
102
RTVSPropertyOp6
 70
     1
102
RTVSPropertyOp7
 70
     1
102
RTVSPropertyOp8
 70
     1
102
RTVSPropertyOp9
 70
     1
102
RTVSPropertyOp10
 70
     1
102
RTVSPropertyOp11
 70
     1
102
RTVSPropertyOp12
 70
     1
102
RTVSPropertyOp13
 70
     1
102
RTVSPropertyOp14
 70
     1
102
RTVSPropertyOp15
 70
     1
102
RTVSPropertyOp16
 70
     1
102
RTVSPropertyOp17
 70
     1
102
RTVSPropertyOp18
 70
     1
102
RTVSPropertyOp19
 70
     1
102
RTVSPropertyOp20
 70
     1
102
RTVSPropertyOp21
 70
     1
102
RTVSPropertyOp22
 70
     1
102
RTVSPropertyOp23
 70
     1
102
RTVSPropertyOp24
 70
     1
102
RTVSPropertyOp25
 70
     1
102
RTVSPropertyOp26
 70
     1
102
RTVSPropertyOp27
 70
     1
  0
XRECORD
  5
1478
102
{ACAD_REACTORS
330
1477
102
}
330
1477
100
AcDbXrecord
280
     1
102
RTVSPropertyOp0
 70
     1
102
RTVSPropertyOp1
 70
     1
102
RTVSPropertyOp2
 70
     1
102
RTVSPropertyOp3
 70
     1
102
RTVSPropertyOp4
 70
     1
102
RTVSPropertyOp5
 70
     1
102
RTVSPropertyOp6
 70
     1
102
RTVSPropertyOp7
 70
     1
102
RTVSPropertyOp8
 70
     1
102
RTVSPropertyOp9
 70
     1
102
RTVSPropertyOp10
 70
     1
102
RTVSPropertyOp11
 70
     1
102
RTVSPropertyOp12
 70
     1
102
RTVSPropertyOp13
 70
     1
102
RTVSPropertyOp14
 70
     1
102
RTVSPropertyOp15
 70
     1
102
RTVSPropertyOp16
 70
     1
102
RTVSPropertyOp17
 70
     1
102
RTVSPropertyOp18
 70
     1
102
RTVSPropertyOp19
 70
     1
102
RTVSPropertyOp20
 70
     1
102
RTVSPropertyOp21
 70
     1
102
RTVSPropertyOp22
 70
     1
102
RTVSPropertyOp23
 70
     1
102
RTVSPropertyOp24
 70
     1
102
RTVSPropertyOp25
 70
     1
102
RTVSPropertyOp26
 70
     1
102
RTVSPropertyOp27
 70
     1
  0
XRECORD
  5
1492
102
{ACAD_REACTORS
330
1491
102
}
330
1491
100
AcDbXrecord
280
     1
102
RTVSPropertyOp0
 70
     0
102
RTVSPropertyOp1
 70
     0
102
RTVSPropertyOp2
 70
     0
102
RTVSPropertyOp3
 70
     0
102
RTVSPropertyOp4
 70
     0
102
RTVSPropertyOp5
 70
     0
102
RTVSPropertyOp6
 70
     0
102
RTVSPropertyOp7
 70
     0
102
RTVSPropertyOp8
 70
     0
102
RTVSPropertyOp9
 70
     0
102
RTVSPropertyOp10
 70
     0
102
RTVSPropertyOp11
 70
     0
102
RTVSPropertyOp12
 70
     0
102
RTVSPropertyOp13
 70
     0
102
RTVSPropertyOp14
 70
     2
102
RTVSPropertyOp15
 70
     0
102
RTVSPropertyOp16
 70
     0
102
RTVSPropertyOp17
 70
     0
102
RTVSPropertyOp18
 70
     0
102
RTVSPropertyOp19
 70
     0
102
RTVSPropertyOp20
 70
     0
102
RTVSPropertyOp21
 70
     0
102
RTVSPropertyOp22
 70
     0
102
RTVSPropertyOp23
 70
     0
102
RTVSPropertyOp24
 70
     0
102
RTVSPropertyOp25
 70
     0
102
RTVSPropertyOp26
 70
     0
102
RTVSPropertyOp27
 70
     0
  0
XRECORD
  5
148C
102
{ACAD_REACTORS
330
148B
102
}
330
148B
100
AcDbXrecord
280
     1
102
RTVSPropertyOp0
 70
     1
102
RTVSPropertyOp1
 70
     1
102
RTVSPropertyOp2
 70
     1
102
RTVSPropertyOp3
 70
     1
102
RTVSPropertyOp4
 70
     1
102
RTVSPropertyOp5
 70
     1
102
RTVSPropertyOp6
 70
     1
102
RTVSPropertyOp7
 70
     1
102
RTVSPropertyOp8
 70
     1
102
RTVSPropertyOp9
 70
     1
102
RTVSPropertyOp10
 70
     1
102
RTVSPropertyOp11
 70
     1
102
RTVSPropertyOp12
 70
     1
102
RTVSPropertyOp13
 70
     1
102
RTVSPropertyOp14
 70
     1
102
RTVSPropertyOp15
 70
     1
102
RTVSPropertyOp16
 70
     1
102
RTVSPropertyOp17
 70
     1
102
RTVSPropertyOp18
 70
     1
102
RTVSPropertyOp19
 70
     1
102
RTVSPropertyOp20
 70
     1
102
RTVSPropertyOp21
 70
     1
102
RTVSPropertyOp22
 70
     1
102
RTVSPropertyOp23
 70
     1
102
RTVSPropertyOp24
 70
     1
102
RTVSPropertyOp25
 70
     1
102
RTVSPropertyOp26
 70
     1
102
RTVSPropertyOp27
 70
     1
  0
XRECORD
  5
1494
102
{ACAD_REACTORS
330
1493
102
}
330
1493
100
AcDbXrecord
280
     1
102
RTVSPropertyOp0
 70
     0
102
RTVSPropertyOp1
 70
     0
102
RTVSPropertyOp2
 70
     0
102
RTVSPropertyOp3
 70
     0
102
RTVSPropertyOp4
 70
     0
102
RTVSPropertyOp5
 70
     0
102
RTVSPropertyOp6
 70
     0
102
RTVSPropertyOp7
 70
     0
102
RTVSPropertyOp8
 70
     0
102
RTVSPropertyOp9
 70
     0
102
RTVSPropertyOp10
 70
     0
102
RTVSPropertyOp11
 70
     0
102
RTVSPropertyOp12
 70
     0
102
RTVSPropertyOp13
 70
     0
102
RTVSPropertyOp14
 70
     2
102
RTVSPropertyOp15
 70
     0
102
RTVSPropertyOp16
 70
     0
102
RTVSPropertyOp17
 70
     0
102
RTVSPropertyOp18
 70
     0
102
RTVSPropertyOp19
 70
     0
102
RTVSPropertyOp20
 70
     0
102
RTVSPropertyOp21
 70
     0
102
RTVSPropertyOp22
 70
     0
102
RTVSPropertyOp23
 70
     0
102
RTVSPropertyOp24
 70
     0
102
RTVSPropertyOp25
 70
     0
102
RTVSPropertyOp26
 70
     0
102
RTVSPropertyOp27
 70
     0
  0
XRECORD
  5
1484
102
{ACAD_REACTORS
330
1483
102
}
330
1483
100
AcDbXrecord
280
     1
102
RTVSPropertyOp0
 70
     1
102
RTVSPropertyOp1
 70
     1
102
RTVSPropertyOp2
 70
     1
102
RTVSPropertyOp3
 70
     1
102
RTVSPropertyOp4
 70
     1
102
RTVSPropertyOp5
 70
     1
102
RTVSPropertyOp6
 70
     1
102
RTVSPropertyOp7
 70
     1
102
RTVSPropertyOp8
 70
     1
102
RTVSPropertyOp9
 70
     1
102
RTVSPropertyOp10
 70
     1
102
RTVSPropertyOp11
 70
     1
102
RTVSPropertyOp12
 70
     1
102
RTVSPropertyOp13
 70
     1
102
RTVSPropertyOp14
 70
     1
102
RTVSPropertyOp15
 70
     1
102
RTVSPropertyOp16
 70
     1
102
RTVSPropertyOp17
 70
     1
102
RTVSPropertyOp18
 70
     1
102
RTVSPropertyOp19
 70
     1
102
RTVSPropertyOp20
 70
     1
102
RTVSPropertyOp21
 70
     1
102
RTVSPropertyOp22
 70
     1
102
RTVSPropertyOp23
 70
     1
102
RTVSPropertyOp24
 70
     1
102
RTVSPropertyOp25
 70
     1
102
RTVSPropertyOp26
 70
     1
102
RTVSPropertyOp27
 70
     1
  0
XRECORD
  5
148A
102
{ACAD_REACTORS
330
1489
102
}
330
1489
100
AcDbXrecord
280
     1
102
RTVSPropertyOp0
 70
     1
102
RTVSPropertyOp1
 70
     1
102
RTVSPropertyOp2
 70
     1
102
RTVSPropertyOp3
 70
     1
102
RTVSPropertyOp4
 70
     1
102
RTVSPropertyOp5
 70
     1
102
RTVSPropertyOp6
 70
     1
102
RTVSPropertyOp7
 70
     1
102
RTVSPropertyOp8
 70
     1
102
RTVSPropertyOp9
 70
     1
102
RTVSPropertyOp10
 70
     1
102
RTVSPropertyOp11
 70
     1
102
RTVSPropertyOp12
 70
     1
102
RTVSPropertyOp13
 70
     1
102
RTVSPropertyOp14
 70
     1
102
RTVSPropertyOp15
 70
     1
102
RTVSPropertyOp16
 70
     1
102
RTVSPropertyOp17
 70
     1
102
RTVSPropertyOp18
 70
     1
102
RTVSPropertyOp19
 70
     1
102
RTVSPropertyOp20
 70
     1
102
RTVSPropertyOp21
 70
     1
102
RTVSPropertyOp22
 70
     1
102
RTVSPropertyOp23
 70
     1
102
RTVSPropertyOp24
 70
     1
102
RTVSPropertyOp25
 70
     1
102
RTVSPropertyOp26
 70
     1
102
RTVSPropertyOp27
 70
     1
  0
ENDSEC
  0
EOF
