  0
SECTION
  2
HEADER
  9
$ACADVER
  1
AC1015
  9
$ACADMAINTVER
 70
    20
  9
$DWGCODEPAGE
  3
ANSI_1252
  9
$INSBASE
 10
0.0
 20
0.0
 30
0.0
  9
$EXTMIN
 10
-459.3965178998396
 20
660.4088166018096
 30
-0.0015258207003583
  9
$EXTMAX
 10
1725.199822547846
 20
1000.262439832599
 30
0.0000000349246037
  9
$LIMMIN
 10
0.0
 20
0.0
  9
$LIMMAX
 10
420.0
 20
297.0
  9
$ORTHOMODE
 70
     0
  9
$REGENMODE
 70
     1
  9
$FILLMODE
 70
     1
  9
$QTEXTMODE
 70
     0
  9
$MIRRTEXT
 70
     1
  9
$LTSCALE
 40
1.0
  9
$ATTMODE
 70
     1
  9
$TEXTSIZE
 40
2.5
  9
$TRACEWID
 40
1.0
  9
$TEXTSTYLE
  7
SANINDUSA
  9
$CLAYER
  8
0
  9
$CELTYPE
  6
ByLayer
  9
$CECOLOR
 62
   256
  9
$CELTSCALE
 40
1.0
  9
$DISPSILH
 70
     0
  9
$DIMSCALE
 40
1.0
  9
$DIMASZ
 40
2.0
  9
$DIMEXO
 40
1.0
  9
$DIMDLI
 40
1.0
  9
$DIMRND
 40
0.0
  9
$DIMDLE
 40
0.0
  9
$DIMEXE
 40
1.0
  9
$DIMTP
 40
0.0
  9
$DIMTM
 40
0.0
  9
$DIMTXT
 40
2.0
  9
$DIMCEN
 40
0.0
  9
$DIMTSZ
 40
0.0
  9
$DIMTOL
 70
     0
  9
$DIMLIM
 70
     0
  9
$DIMTIH
 70
     0
  9
$DIMTOH
 70
     0
  9
$DIMSE1
 70
     0
  9
$DIMSE2
 70
     0
  9
$DIMTAD
 70
     1
  9
$DIMZIN
 70
     8
  9
$DIMBLK
  1

  9
$DIMASO
 70
     1
  9
$DIMSHO
 70
     1
  9
$DIMPOST
  1

  9
$DIMAPOST
  1

  9
$DIMALT
 70
     0
  9
$DIMALTD
 70
     3
  9
$DIMALTF
 40
0.03937007874016
  9
$DIMLFAC
 40
1.0
  9
$DIMTOFL
 70
     1
  9
$DIMTVP
 40
0.0
  9
$DIMTIX
 70
     0
  9
$DIMSOXD
 70
     0
  9
$DIMSAH
 70
     0
  9
$DIMBLK1
  1

  9
$DIMBLK2
  1

  9
$DIMSTYLE
  2
SANINDUSA
  9
$DIMCLRD
 70
   256
  9
$DIMCLRE
 70
   256
  9
$DIMCLRT
 70
   256
  9
$DIMTFAC
 40
1.0
  9
$DIMGAP
 40
1.0
  9
$DIMJUST
 70
     0
  9
$DIMSD1
 70
     0
  9
$DIMSD2
 70
     0
  9
$DIMTOLJ
 70
     0
  9
$DIMTZIN
 70
     8
  9
$DIMALTZ
 70
     0
  9
$DIMALTTZ
 70
     0
  9
$DIMUPT
 70
     0
  9
$DIMDEC
 70
     1
  9
$DIMTDEC
 70
     1
  9
$DIMALTU
 70
     2
  9
$DIMALTTD
 70
     3
  9
$DIMTXSTY
  7
SANINDUSA
  9
$DIMAUNIT
 70
     0
  9
$DIMADEC
 70
     1
  9
$DIMALTRND
 40
0.0
  9
$DIMAZIN
 70
     0
  9
$DIMDSEP
 70
    44
  9
$DIMATFIT
 70
     3
  9
$DIMFRAC
 70
     0
  9
$DIMLDRBLK
  1

  9
$DIMLUNIT
 70
     2
  9
$DIMLWD
 70
    -1
  9
$DIMLWE
 70
    -1
  9
$DIMTMOVE
 70
     0
  9
$LUNITS
 70
     2
  9
$LUPREC
 70
     4
  9
$SKETCHINC
 40
1.0
  9
$FILLETRAD
 40
0.0
  9
$AUNITS
 70
     0
  9
$AUPREC
 70
     0
  9
$MENU
  1
.
  9
$ELEVATION
 40
0.0
  9
$PELEVATION
 40
0.0
  9
$THICKNESS
 40
0.0
  9
$LIMCHECK
 70
     0
  9
$CHAMFERA
 40
10.0
  9
$CHAMFERB
 40
10.0
  9
$CHAMFERC
 40
20.0
  9
$CHAMFERD
 40
0.0
  9
$SKPOLY
 70
     0
  9
$TDCREATE
 40
2453913.383639861
  9
$TDUCREATE
 40
2453913.341973195
  9
$TDUPDATE
 40
2456146.740804931
  9
$TDUUPDATE
 40
2456146.699138264
  9
$TDINDWG
 40
0.0031058333
  9
$TDUSRTIMER
 40
0.0031058333
  9
$USRTIMER
 70
     1
  9
$ANGBASE
 50
0.0
  9
$ANGDIR
 70
     0
  9
$PDMODE
 70
     0
  9
$PDSIZE
 40
0.0
  9
$PLINEWID
 40
0.0
  9
$SPLFRAME
 70
     0
  9
$SPLINETYPE
 70
     6
  9
$SPLINESEGS
 70
     8
  9
$HANDSEED
  5
140E
  9
$SURFTAB1
 70
     6
  9
$SURFTAB2
 70
     6
  9
$SURFTYPE
 70
     6
  9
$SURFU
 70
     6
  9
$SURFV
 70
     6
  9
$UCSBASE
  2

  9
$UCSNAME
  2

  9
$UCSORG
 10
0.0
 20
0.0
 30
0.0
  9
$UCSXDIR
 10
1.0
 20
0.0
 30
0.0
  9
$UCSYDIR
 10
0.0
 20
1.0
 30
0.0
  9
$UCSORTHOREF
  2

  9
$UCSORTHOVIEW
 70
     0
  9
$UCSORGTOP
 10
0.0
 20
0.0
 30
0.0
  9
$UCSORGBOTTOM
 10
0.0
 20
0.0
 30
0.0
  9
$UCSORGLEFT
 10
0.0
 20
0.0
 30
0.0
  9
$UCSORGRIGHT
 10
0.0
 20
0.0
 30
0.0
  9
$UCSORGFRONT
 10
0.0
 20
0.0
 30
0.0
  9
$UCSORGBACK
 10
0.0
 20
0.0
 30
0.0
  9
$PUCSBASE
  2

  9
$PUCSNAME
  2

  9
$PUCSORG
 10
0.0
 20
0.0
 30
0.0
  9
$PUCSXDIR
 10
1.0
 20
0.0
 30
0.0
  9
$PUCSYDIR
 10
0.0
 20
1.0
 30
0.0
  9
$PUCSORTHOREF
  2

  9
$PUCSORTHOVIEW
 70
     0
  9
$PUCSORGTOP
 10
0.0
 20
0.0
 30
0.0
  9
$PUCSORGBOTTOM
 10
0.0
 20
0.0
 30
0.0
  9
$PUCSORGLEFT
 10
0.0
 20
0.0
 30
0.0
  9
$PUCSORGRIGHT
 10
0.0
 20
0.0
 30
0.0
  9
$PUCSORGFRONT
 10
0.0
 20
0.0
 30
0.0
  9
$PUCSORGBACK
 10
0.0
 20
0.0
 30
0.0
  9
$USERI1
 70
     0
  9
$USERI2
 70
     0
  9
$USERI3
 70
     0
  9
$USERI4
 70
     0
  9
$USERI5
 70
     0
  9
$USERR1
 40
0.0
  9
$USERR2
 40
0.0
  9
$USERR3
 40
0.0
  9
$USERR4
 40
0.0
  9
$USERR5
 40
0.0
  9
$WORLDVIEW
 70
     1
  9
$SHADEDGE
 70
     3
  9
$SHADEDIF
 70
    70
  9
$TILEMODE
 70
     1
  9
$MAXACTVP
 70
    64
  9
$PINSBASE
 10
0.0
 20
0.0
 30
0.0
  9
$PLIMCHECK
 70
     0
  9
$PEXTMIN
 10
1.000000000000000E+20
 20
1.000000000000000E+20
 30
1.000000000000000E+20
  9
$PEXTMAX
 10
-1.000000000000000E+20
 20
-1.000000000000000E+20
 30
-1.000000000000000E+20
  9
$PLIMMIN
 10
0.0
 20
0.0
  9
$PLIMMAX
 10
420.0
 20
297.0
  9
$UNITMODE
 70
     0
  9
$VISRETAIN
 70
     1
  9
$PLINEGEN
 70
     0
  9
$PSLTSCALE
 70
     1
  9
$TREEDEPTH
 70
  3020
  9
$CMLSTYLE
  2
Standard
  9
$CMLJUST
 70
     0
  9
$CMLSCALE
 40
20.0
  9
$PROXYGRAPHICS
 70
     1
  9
$MEASUREMENT
 70
     1
  9
$CELWEIGHT
370
    -1
  9
$ENDCAPS
280
     0
  9
$JOINSTYLE
280
     0
  9
$LWDISPLAY
290
     0
  9
$INSUNITS
 70
     4
  9
$HYPERLINKBASE
  1

  9
$STYLESHEET
  1
monochrome.ctb
  9
$XEDIT
290
     1
  9
$CEPSNTYPE
380
     0
  9
$PSTYLEMODE
290
     1
  9
$FINGERPRINTGUID
  2
{2DB0E3DA-6093-416B-89FA-96ED49ED434F}
  9
$VERSIONGUID
  2
{CA913FB5-727E-45A7-AD0F-46C1D588D390}
  9
$EXTNAMES
290
     1
  9
$PSVPSCALE
 40
0.0
  9
$OLESTARTUP
290
     0
  0
ENDSEC
  0
SECTION
  2
CLASSES
  0
CLASS
  1
ACDBDICTIONARYWDFLT
  2
AcDbDictionaryWithDefault
  3
ObjectDBX Classes
 90
        0
280
     0
281
     0
  0
CLASS
  1
ACDBPLACEHOLDER
  2
AcDbPlaceHolder
  3
ObjectDBX Classes
 90
        0
280
     0
281
     0
  0
CLASS
  1
LAYOUT
  2
AcDbLayout
  3
ObjectDBX Classes
 90
        0
280
     0
281
     0
  0
CLASS
  1
DICTIONARYVAR
  2
AcDbDictionaryVar
  3
ObjectDBX Classes
 90
        0
280
     0
281
     0
  0
CLASS
  1
DIMASSOC
  2
AcDbDimAssoc
  3
"AcDbDimAssoc|Product Desc:     AcDim ARX App For Dimension|Company:          Autodesk, Inc.|WEB Address:      www.autodesk.com"
 90
    32768
280
     0
281
     0
  0
CLASS
  1
TABLESTYLE
  2
AcDbTableStyle
  3
ObjectDBX Classes
 90
     4095
280
     0
281
     0
  0
CLASS
  1
SORTENTSTABLE
  2
AcDbSortentsTable
  3
ObjectDBX Classes
 90
    32768
280
     0
281
     0
  0
CLASS
  1
MATERIAL
  2
AcDbMaterial
  3
ObjectDBX Classes
 90
     1153
280
     0
281
     0
  0
CLASS
  1
VISUALSTYLE
  2
AcDbVisualStyle
  3
ObjectDBX Classes
 90
     4095
280
     0
281
     0
  0
CLASS
  1
SCALE
  2
AcDbScale
  3
ObjectDBX Classes
 90
     1153
280
     0
281
     0
  0
CLASS
  1
MLEADERSTYLE
  2
AcDbMLeaderStyle
  3
ACDB_MLEADERSTYLE_CLASS
 90
     4095
280
     0
281
     0
  0
CLASS
  1
CELLSTYLEMAP
  2
AcDbCellStyleMap
  3
ObjectDBX Classes
 90
     1152
280
     0
281
     0
  0
ENDSEC
  0
SECTION
  2
TABLES
  0
TABLE
  2
VPORT
  5
8
330
0
100
AcDbSymbolTable
 70
     1
  0
VPORT
  5
1355
330
8
100
AcDbSymbolTableRecord
100
AcDbViewportTableRecord
  2
*Active
 70
     0
 10
0.0
 20
0.0
 11
1.0
 21
1.0
 12
632.9016523240034
 22
830.3356282172044
 13
0.0
 23
0.0
 14
10.0
 24
10.0
 15
10.0
 25
10.0
 16
0.0
 26
0.0
 36
1.0
 17
0.0
 27
0.0
 37
0.0
 40
1332.690417114758
 41
1.645464025026068
 42
50.0
 43
0.0
 44
0.0
 50
0.0
 51
0.0
 71
     0
 72
   100
 73
     1
 74
     2
 75
     0
 76
     0
 77
     0
 78
     0
281
     0
 65
     1
110
0.0
120
0.0
130
0.0
111
1.0
121
0.0
131
0.0
112
0.0
122
1.0
132
0.0
 79
     0
146
0.0
  0
ENDTAB
  0
TABLE
  2
LTYPE
  5
5
330
0
100
AcDbSymbolTable
 70
     3
  0
LTYPE
  5
14
330
5
100
AcDbSymbolTableRecord
100
AcDbLinetypeTableRecord
  2
ByBlock
 70
     0
  3

 72
    65
 73
     0
 40
0.0
  0
LTYPE
  5
15
330
5
100
AcDbSymbolTableRecord
100
AcDbLinetypeTableRecord
  2
ByLayer
 70
     0
  3

 72
    65
 73
     0
 40
0.0
  0
LTYPE
  5
16
330
5
100
AcDbSymbolTableRecord
100
AcDbLinetypeTableRecord
  2
Continuous
 70
     0
  3
Solid line
 72
    65
 73
     0
 40
0.0
  0
LTYPE
  5
2D
330
5
100
AcDbSymbolTableRecord
100
AcDbLinetypeTableRecord
  2
DASHDOT
 70
     0
  3
Dash dot __ . __ . __ . __ . __ . __ . __ . __
 72
    65
 73
     4
 40
25.4
 49
12.7
 74
     0
 49
-6.349999999999999
 74
     0
 49
0.0
 74
     0
 49
-6.349999999999999
 74
     0
  0
LTYPE
  5
2E
330
5
100
AcDbSymbolTableRecord
100
AcDbLinetypeTableRecord
  2
HIDDEN
 70
     0
  3
Hidden __ __ __ __ __ __ __ __ __ __ __ __ __ _
 72
    65
 73
     2
 40
9.524999999999998
 49
6.349999999999999
 74
     0
 49
-3.174999999999999
 74
     0
  0
ENDTAB
  0
TABLE
  2
LAYER
  5
2
330
0
100
AcDbSymbolTable
 70
    16
  0
LAYER
  5
10
102
{ACAD_XDICTIONARY
360
13A4
102
}
330
2
100
AcDbSymbolTableRecord
100
AcDbLayerTableRecord
  2
0
 70
     0
 62
     7
  6
Continuous
370
    -3
390
F
  0
LAYER
  5
2F
102
{ACAD_XDICTIONARY
360
13A6
102
}
330
2
100
AcDbSymbolTableRecord
100
AcDbLayerTableRecord
  2
1
 70
     0
 62
     1
  6
Continuous
370
    -3
390
F
  0
LAYER
  5
30
102
{ACAD_XDICTIONARY
360
13A8
102
}
330
2
100
AcDbSymbolTableRecord
100
AcDbLayerTableRecord
  2
2
 70
     0
 62
     2
  6
Continuous
370
    -3
390
F
  0
LAYER
  5
31
102
{ACAD_XDICTIONARY
360
13AA
102
}
330
2
100
AcDbSymbolTableRecord
100
AcDbLayerTableRecord
  2
3
 70
     0
 62
     3
  6
Continuous
370
    -3
390
F
  0
LAYER
  5
32
102
{ACAD_XDICTIONARY
360
13AC
102
}
330
2
100
AcDbSymbolTableRecord
100
AcDbLayerTableRecord
  2
4
 70
     0
 62
     4
  6
Continuous
370
    -3
390
F
  0
LAYER
  5
33
102
{ACAD_XDICTIONARY
360
13AE
102
}
330
2
100
AcDbSymbolTableRecord
100
AcDbLayerTableRecord
  2
5
 70
     0
 62
     5
  6
Continuous
370
    -3
390
F
  0
LAYER
  5
34
102
{ACAD_XDICTIONARY
360
13B0
102
}
330
2
100
AcDbSymbolTableRecord
100
AcDbLayerTableRecord
  2
6
 70
     0
 62
     6
  6
Continuous
370
    -3
390
F
  0
LAYER
  5
35
102
{ACAD_XDICTIONARY
360
13B2
102
}
330
2
100
AcDbSymbolTableRecord
100
AcDbLayerTableRecord
  2
7
 70
     0
 62
     7
  6
Continuous
370
    -3
390
F
  0
LAYER
  5
36
102
{ACAD_XDICTIONARY
360
13B4
102
}
330
2
100
AcDbSymbolTableRecord
100
AcDbLayerTableRecord
  2
cen
 70
     0
 62
     7
  6
DASHDOT
370
    -3
390
F
  0
LAYER
  5
37
102
{ACAD_XDICTIONARY
360
13B6
102
}
330
2
100
AcDbSymbolTableRecord
100
AcDbLayerTableRecord
  2
hid
 70
     0
 62
     7
  6
HIDDEN
370
    -3
390
F
  0
LAYER
  5
5D6
102
{ACAD_XDICTIONARY
360
13B8
102
}
330
2
100
AcDbSymbolTableRecord
100
AcDbLayerTableRecord
  2
hatch
 70
     0
 62
     9
  6
Continuous
370
    -3
390
F
  0
LAYER
  5
8AF
102
{ACAD_XDICTIONARY
360
13BA
102
}
330
2
100
AcDbSymbolTableRecord
100
AcDbLayerTableRecord
  2
9
 70
     0
 62
     9
  6
Continuous
370
    -3
390
F
  0
LAYER
  5
8F8
102
{ACAD_XDICTIONARY
360
13BC
102
}
330
2
100
AcDbSymbolTableRecord
100
AcDbLayerTableRecord
  2
leg fin
 70
     0
 62
     9
  6
Continuous
370
    -3
390
F
  0
LAYER
  5
91D
102
{ACAD_XDICTIONARY
360
13BE
102
}
330
2
100
AcDbSymbolTableRecord
100
AcDbLayerTableRecord
  2
cotas
 70
     0
 62
     1
  6
Continuous
370
    -3
390
F
  0
LAYER
  5
92F
330
2
100
AcDbSymbolTableRecord
100
AcDbLayerTableRecord
  2
Defpoints
 70
     0
 62
     7
  6
Continuous
290
     0
370
    -3
390
F
  0
LAYER
  5
BA5
102
{ACAD_XDICTIONARY
360
13C0
102
}
330
2
100
AcDbSymbolTableRecord
100
AcDbLayerTableRecord
  2
SANINDUSA
 70
     0
 62
     3
  6
Continuous
370
    -3
390
F
  0
ENDTAB
  0
TABLE
  2
STYLE
  5
3
330
0
100
AcDbSymbolTable
 70
     3
  0
STYLE
  5
11
330
3
100
AcDbSymbolTableRecord
100
AcDbTextStyleTableRecord
  2
Standard
 70
     0
 40
0.0
 41
1.0
 50
0.0
 71
     0
 42
2.5
  3
Avgardn.ttf
  4

1001
ACAD
1000
AvantGarde Bk BT
1071
       34
  0
STYLE
  5
2C
330
3
100
AcDbSymbolTableRecord
100
AcDbTextStyleTableRecord
  2

 70
     1
 40
0.0
 41
1.0
 50
0.0
 71
     0
 42
2.5
  3
ltypeshp.shx
  4

  0
STYLE
  5
91F
330
3
100
AcDbSymbolTableRecord
100
AcDbTextStyleTableRecord
  2
SANINDUSA
 70
     0
 40
0.0
 41
1.0
 50
0.0
 71
     0
 42
2.5
  3
verdana.TTF
  4

1001
ACAD
1000
Verdana
1071
       34
  0
ENDTAB
  0
TABLE
  2
VIEW
  5
6
330
0
100
AcDbSymbolTable
 70
     0
  0
ENDTAB
  0
TABLE
  2
UCS
  5
7
330
0
100
AcDbSymbolTable
 70
     0
  0
ENDTAB
  0
TABLE
  2
APPID
  5
9
330
0
100
AcDbSymbolTable
 70
     5
  0
APPID
  5
12
330
9
100
AcDbSymbolTableRecord
100
AcDbRegAppTableRecord
  2
ACAD
 70
     0
  0
APPID
  5
3A
330
9
100
AcDbSymbolTableRecord
100
AcDbRegAppTableRecord
  2
DCO15
 70
     0
  0
APPID
  5
D4F
330
9
100
AcDbSymbolTableRecord
100
AcDbRegAppTableRecord
  2
ACAD_PSEXT
 70
     0
  0
APPID
  5
1346
330
9
100
AcDbSymbolTableRecord
100
AcDbRegAppTableRecord
  2
ACAD_EXEMPT_FROM_CAD_STANDARDS
 70
     0
  0
APPID
  5
140D
330
9
100
AcDbSymbolTableRecord
100
AcDbRegAppTableRecord
  2
ACAD_MLEADERVER
 70
     0
  0
ENDTAB
  0
TABLE
  2
DIMSTYLE
  5
A
330
0
100
AcDbSymbolTable
 70
     2
100
AcDbDimStyleTable
 71
     1
340
921
  0
DIMSTYLE
105
45
330
A
100
AcDbSymbolTableRecord
100
AcDbDimStyleTableRecord
  2
STANDARD
 70
     0
289
     0
340
11
  0
DIMSTYLE
105
921
330
A
100
AcDbSymbolTableRecord
100
AcDbDimStyleTableRecord
  2
SANINDUSA
 70
     0
 41
2.0
 42
1.0
 43
1.0
 44
1.0
 73
     0
 74
     0
 77
     1
 78
     8
140
2.0
141
0.0
143
0.03937007874016
147
1.0
171
     3
172
     1
176
   256
177
   256
178
   256
179
     1
271
     1
272
     1
274
     3
278
    44
283
     0
284
     8
340
91F
371
    -1
372
    -1
  0
ENDTAB
  0
TABLE
  2
BLOCK_RECORD
  5
1
330
0
100
AcDbSymbolTable
 70
    70
  0
BLOCK_RECORD
  5
1F
330
1
100
AcDbSymbolTableRecord
100
AcDbBlockTableRecord
  2
*Model_Space
340
22
  0
BLOCK_RECORD
  5
1B
330
1
100
AcDbSymbolTableRecord
100
AcDbBlockTableRecord
  2
*Paper_Space
340
1E
  0
BLOCK_RECORD
  5
23
330
1
100
AcDbSymbolTableRecord
100
AcDbBlockTableRecord
  2
*Paper_Space0
340
26
  0
BLOCK_RECORD
  5
919
330
1
100
AcDbSymbolTableRecord
100
AcDbBlockTableRecord
  2
_DotSmall
340
0
  0
BLOCK_RECORD
  5
922
330
1
100
AcDbSymbolTableRecord
100
AcDbBlockTableRecord
  2
base para cotas
340
0
310
2800000020000000200000000100080000000000000400000000000000000000000000000000000000000000000080000080000000808000800000008000800080800000C0C0C000C0DCC000F0CAA6000020400000206000002080000020A0000020C0000020E00000400000004020000040400000406000004080000040A0
310
000040C0000040E00000600000006020000060400000606000006080000060A0000060C0000060E00000800000008020000080400000806000008080000080A0000080C0000080E00000A0000000A0200000A0400000A0600000A0800000A0A00000A0C00000A0E00000C0000000C0200000C0400000C0600000C0800000C0
310
A00000C0C00000C0E00000E0000000E0200000E0400000E0600000E0800000E0A00000E0C00000E0E00040000000400020004000400040006000400080004000A0004000C0004000E00040200000402020004020400040206000402080004020A0004020C0004020E000404000004040200040404000404060004040800040
310
40A0004040C0004040E00040600000406020004060400040606000406080004060A0004060C0004060E00040800000408020004080400040806000408080004080A0004080C0004080E00040A0000040A0200040A0400040A0600040A0800040A0A00040A0C00040A0E00040C0000040C0200040C0400040C0600040C08000
310
40C0A00040C0C00040C0E00040E0000040E0200040E0400040E0600040E0800040E0A00040E0C00040E0E00080000000800020008000400080006000800080008000A0008000C0008000E00080200000802020008020400080206000802080008020A0008020C0008020E00080400000804020008040400080406000804080
310
008040A0008040C0008040E00080600000806020008060400080606000806080008060A0008060C0008060E00080800000808020008080400080806000808080008080A0008080C0008080E00080A0000080A0200080A0400080A0600080A0800080A0A00080A0C00080A0E00080C0000080C0200080C0400080C0600080C0
310
800080C0A00080C0C00080C0E00080E0000080E0200080E0400080E0600080E0800080E0A00080E0C00080E0E000C0000000C0002000C0004000C0006000C0008000C000A000C000C000C000E000C0200000C0202000C0204000C0206000C0208000C020A000C020C000C020E000C0400000C0402000C0404000C0406000C0
310
408000C040A000C040C000C040E000C0600000C0602000C0604000C0606000C0608000C060A000C060C000C060E000C0800000C0802000C0804000C0806000C0808000C080A000C080C000C080E000C0A00000C0A02000C0A04000C0A06000C0A08000C0A0A000C0A0C000C0A0E000C0C00000C0C02000C0C04000C0C06000
310
C0C08000C0C0A000F0FBFF00A4A0A000808080000000FF0000FF000000FFFF00FF000000FF00FF00FFFF0000FFFFFF00A4A4A4A4A4A4A4A4A4A4A4A4A4A4A4A4A4A4A4A4A4A4A4A4A4A4A4A4A4A4A4A4A4A4A4A4A4A4A4A4A4A4A4A4A4A4A4A4A4A4A4A4A4A4A4A4A4A4A4A4A4A4A4A4A4A4A4A4A4A4A4A4A4A4A4A4A4A4A4
310
A4A4A4A4A4A4A4A4A4A4A4A4A4A4A4A4A4A4A4A4A4A4A4A4A4A4A4A4A4A4A4A4A4A4A4A4A4A4A4A4A4A4A4A4A4A4A4A4A4A4A4A4A4A4A4A4A4A4A4A4A4A4A4A4A4A4A4A4A4A4A4A4A4A4A4A4A4A4A4A4A4A4A4A4A4A4A4A4A4A4A4A4A4A4A4A4A4A4A4A4A4A4A4A4A4A4A4A4A4A4A4A4A4A4A4A4A4A4A4A4A4A4A4A4A4A4A4
310
A4A4A4A4A4A4A4A4A4A4A4A4A4A4A4A4A4A4A4A4A4A4A4A4A4A4A4A4A4A4A4A4A4A4A4A4A4A4A4A4A4A4A4A4A4A4A4A4A4A4A4A4A4A4A4A4A4A4A4A4A4A4A4A4A4A4A4A4A4A4A4A4A4A4A4A4A4A4A4A4A4A4A4A4A4A4A4A4A4A4A4A4A4A4A4A4A4A4A4A4A4A4A4A4A4A4A4A4A4A4A4A4A4A4A4A4A4A4A4A4A4A4A4A4A4A4A4
310
A4A4A4A4A4A4A4A4A4A4A4A4A4A4A4A4A4A4A4A4A4A4A4A4A4A4A4A4A4A4A4A4A4A4A4A4A4A4A4A4A4A4A4A4A4A4A4A4A4A4A4A4A4A4A4A4A4A4A4A4A4A4A4A4A4A4A4A4A4A4A4A4A4A4A4A4A4A4A4A4A4A4A4A4A4A4A4A4A4A4A4A4A4A4A4A4A4A4A4A4A4A4A4A4A4A4A4A4A4A4A4A4A4A4A4A4F9F9F9F9F9F9F9F9F9F9F9
310
F9F9F9F9F9F9F9F9F9F9F9F9F9F9F9F9F9F9F9A4A4F9F9F9F9F9F9F9F9F9F9F9F9F9F9F9F9F9F9F9F9F9F9F9F9F9F9F9F9F9F9A4A4F9F9F9F9F9F9F9F9F9F9F9F9F9F9F9F9F9F9F9F9F9F9F9F9F9F9F9F9F9F9A4A4F9A4A4A4A4A4A4A4A4A4A4A4A4A4A4A4A4A4A4A4A4A4A4A4A4A4A4A4A4F9A4A4A4A4A4A4A4A4A4A4A4A4
310
A4A4A4A4A4A4A4A4A4A4A4A4A4A4A4A4A4A4A4A4A4A4A4A4A4A4A4A4A4A4A4A4A4A4A4A4A4A4A4A4A4A4A4A4A4A4A4A4A4A4A4A4A4A4A4A4A4A4A4A4A4A4A4A4A4A4A4A4A4A4A4A4A4A4A4A4A4A4A4A4A4A4A4A4A4A4A4A4A4A4A4A4A4A4A4A4A4A4A4A4A4A4A4A4A4A4A4A4A4A4A4A4A4A4A4A4A4A4A4A4A4A4A4A4A4A4A4
310
A4A4A4A4A4A4A4A4A4A4A4A4A4A4A4A4A4A4A4A4A4A4A4A4A4A4A4A4A4A4A4A4A4A4A4A4A4A4A4A4A4A4A4A4A4A4A4A4A4A4A4A4A4A4A4A4A4A4A4A4A4A4A4A4A4A4A4A4A4A4A4A4A4A4A4A4A4A4A4A4A4A4A4A4A4A4A4A4A4A4A4A4A4A4A4A4A4A4A4A4A4A4A4A4A4A4A4A4A4A4A4A4A4A4A4A4A4A4A4A4A4A4A4A4A4A4A4
310
A4A4A4A4A4A4A4A4A4A4A4A4A4A4A4A4A4A4A4A4A4A4A4A4A4A4A4A4A4A4A4A4A4A4A4A4A4A4A4A4A4A4A4A4A4A4A4A4A4A4A4A4A4A4A4A4A4A4A4A4A4A4A4A4A4A4A4A4A4A4A4A4A4A4A4A4A4A4A4A4A4A4A4A4A4A4A4A4A4A4A4A4A4A4A4A4A4A4A4A4A4A4A4A4A4A4A4A4A4A4A4A4A4A4A4A4A4A4A4A4A4A4A4A4A4A4A4
310
A4A4A4A4A4A4A4A4A4A4A4A4A4A4A4A4A4A4A4A4A4A4A4A4A4A4A4A4A4A4A4A4A4A4A4A4A4A4A4A4A4A4A4A4A4A4A4A4A4A4A4A4A4A4A4A4
1001
ACAD
1000
DesignCenter Data
1002
{
1070
     1
1070
     4
1002
}
  0
BLOCK_RECORD
  5
AA8
330
1
100
AcDbSymbolTableRecord
100
AcDbBlockTableRecord
  2
_CLOSED
340
0
  0
ENDTAB
  0
ENDSEC
  0
SECTION
  2
BLOCKS
  0
BLOCK
  5
20
330
1F
100
AcDbEntity
  8
0
100
AcDbBlockBegin
  2
*Model_Space
 70
     0
 10
0.0
 20
0.0
 30
0.0
  3
*Model_Space
  1

  0
ENDBLK
  5
21
330
1F
100
AcDbEntity
  8
0
100
AcDbBlockEnd
  0
BLOCK
  5
1C
330
1B
100
AcDbEntity
 67
     1
  8
0
100
AcDbBlockBegin
  2
*Paper_Space
 70
     0
 10
0.0
 20
0.0
 30
0.0
  3
*Paper_Space
  1

  0
ENDBLK
  5
1D
330
1B
100
AcDbEntity
 67
     1
  8
0
100
AcDbBlockEnd
  0
BLOCK
  5
24
330
23
100
AcDbEntity
 67
     1
  8
0
100
AcDbBlockBegin
  2
*Paper_Space0
 70
     0
 10
0.0
 20
0.0
 30
0.0
  3
*Paper_Space0
  1

  0
ENDBLK
  5
25
330
23
100
AcDbEntity
 67
     1
  8
0
100
AcDbBlockEnd
  0
BLOCK
  5
91B
330
919
100
AcDbEntity
  8
0
100
AcDbBlockBegin
  2
_DotSmall
 70
     0
 10
0.0
 20
0.0
 30
0.0
  3
_DotSmall
  1

  0
LWPOLYLINE
  5
91A
330
919
100
AcDbEntity
  8
0
  6
ByBlock
 62
     0
100
AcDbPolyline
 90
        2
 70
     1
 43
0.5
 10
-0.0625
 20
0.0
 42
1.0
 10
0.0625
 20
0.0
 42
1.0
  0
ENDBLK
  5
91C
330
919
100
AcDbEntity
  8
0
100
AcDbBlockEnd
  0
BLOCK
  5
92A
330
922
100
AcDbEntity
  8
0
100
AcDbBlockBegin
  2
base para cotas
 70
     0
 10
0.0
 20
0.0
 30
0.0
  3
base para cotas
  1

  0
LINE
  5
B36
330
922
100
AcDbEntity
  8
cotas
100
AcDbLine
 10
0.0
 20
-30.0
 30
0.0
 11
327.1260136525398
 21
-30.0
 31
0.0
  0
LINE
  5
B37
330
922
100
AcDbEntity
  8
cotas
100
AcDbLine
 10
0.0
 20
-25.0
 30
0.0
 11
327.1260136525398
 21
-25.0
 31
0.0
  0
LINE
  5
B38
330
922
100
AcDbEntity
  8
cotas
100
AcDbLine
 10
0.0
 20
-20.0
 30
0.0
 11
327.1260136525398
 21
-20.0
 31
0.0
  0
LINE
  5
B39
330
922
100
AcDbEntity
  8
cotas
100
AcDbLine
 10
0.0
 20
-15.0
 30
0.0
 11
327.1260136525398
 21
-15.0
 31
0.0
  0
LINE
  5
B3A
330
922
100
AcDbEntity
  8
cotas
100
AcDbLine
 10
0.0
 20
-10.0
 30
0.0
 11
327.1260136525398
 21
-10.0
 31
0.0
  0
LINE
  5
B3B
330
922
100
AcDbEntity
  8
cotas
100
AcDbLine
 10
0.0
 20
0.0
 30
0.0
 11
0.0
 21
-30.0
 31
0.0
  0
LINE
  5
B3C
330
922
100
AcDbEntity
  8
cotas
100
AcDbLine
 10
327.1260136525398
 20
-30.0
 30
0.0
 11
327.1260136525398
 21
0.0
 31
0.0
  0
ENDBLK
  5
92B
330
922
100
AcDbEntity
  8
0
100
AcDbBlockEnd
  0
BLOCK
  5
AAD
330
AA8
100
AcDbEntity
  8
0
100
AcDbBlockBegin
  2
_CLOSED
 70
     0
 10
0.0
 20
0.0
 30
0.0
  3
_CLOSED
  1

  0
LINE
  5
AA9
330
AA8
100
AcDbEntity
  8
0
100
AcDbLine
 10
-1.0
 20
0.166667
 30
0.0
 11
0.0
 21
0.0
 31
0.0
  0
LINE
  5
AAA
330
AA8
100
AcDbEntity
  8
0
100
AcDbLine
 10
0.0
 20
0.0
 30
0.0
 11
-1.0
 21
-0.166667
 31
0.0
  0
LINE
  5
AAB
330
AA8
100
AcDbEntity
  8
0
100
AcDbLine
 10
-1.0
 20
0.166667
 30
0.0
 11
-1.0
 21
-0.166667
 31
0.0
  0
LINE
  5
AAC
330
AA8
100
AcDbEntity
  8
0
100
AcDbLine
 10
0.0
 20
0.0
 30
0.0
 11
-1.0
 21
0.0
 31
0.0
  0
ENDBLK
  5
AAE
330
AA8
100
AcDbEntity
  8
0
100
AcDbBlockEnd
  0
ENDSEC
  0
SECTION
  2
ENTITIES
  0
ARC
  5
F4B
330
1F
100
AcDbEntity
  8
SANINDUSA
100
AcDbCircle
 10
880.7640693923509
 20
965.2799278326808
 30
0.0
 40
2.000000000000028
100
AcDbArc
 50
90.0
 51
180.0
  0
LWPOLYLINE
  5
FA8
330
1F
100
AcDbEntity
  8
SANINDUSA
100
AcDbPolyline
 90
        9
 70
   128
 43
0.0
 10
600.9452815193045
 20
967.2635066129162
 10
601.8583932195808
 20
967.1802065358594
 10
602.8330107439698
 20
966.8951707096423
 10
603.7299399804261
 20
966.4190917865569
 10
604.5121851101149
 20
965.7716066887481
 10
605.1474807124042
 20
964.9794223629845
 10
605.609622623074
 20
964.0752141939049
 10
605.8795487826984
 20
963.0962782359214
 10
605.9461254932294
 20
962.0829928554355
  0
ARC
  5
FA9
330
1F
100
AcDbEntity
  8
SANINDUSA
100
AcDbCircle
 10
161.3136119900092
 20
962.2635084183382
 30
0.0
 40
5.000000000000084
100
AcDbArc
 50
89.99998942287843
 51
182.1070456439111
  0
LWPOLYLINE
  5
FAA
330
1F
100
AcDbEntity
  8
SANINDUSA
100
AcDbPolyline
 90
        9
 70
   128
 43
0.0
 10
162.3605210068355
 20
927.2635084184882
 10
161.4221715546674
 20
927.3523402779867
 10
160.5008008306951
 20
927.6222173227408
 10
159.6479971634481
 20
928.0632202715567
 10
158.89520370001
 20
928.6590892030556
 10
158.2701761788859
 20
929.3878542369814
 10
157.7959595669646
 20
930.2226455707922
 10
157.4900383841351
 20
931.1326841779708
 10
157.3636920433611
 20
932.0844166406915
  0
LWPOLYLINE
  5
FAB
330
1F
100
AcDbEntity
  8
SANINDUSA
100
AcDbPolyline
 90
        9
 70
   128
 43
0.0
 10
604.9005275316532
 20
932.0580519023435
 10
604.7703936430817
 20
931.1121969083222
 10
604.4628436398244
 20
930.2083222559824
 10
603.9890917363928
 20
929.3793859818022
 10
603.3664123772661
 20
928.6556136396118
 10
602.6175103578363
 20
928.0633961843884
 10
601.76969293803
 20
927.6243276772568
 10
600.8538741360363
 20
927.3544178999229
 10
599.904654790892
 20
927.2635084193227
  0
LINE
  5
FAC
330
1F
100
AcDbEntity
  8
SANINDUSA
100
AcDbLine
 10
156.3169925892226
 20
962.0796762984143
 30
0.0
 11
157.3636920433611
 21
932.0844166406915
 31
0.0
  0
LINE
  5
FAD
330
1F
100
AcDbEntity
  8
SANINDUSA
100
AcDbLine
 10
604.9014468260112
 20
932.0841664475535
 30
0.0
 11
605.9461254932294
 21
962.0829928554355
 31
0.0
  0
LINE
  5
FAE
330
1F
100
AcDbEntity
  8
SANINDUSA
100
AcDbLine
 10
343.7704393449213
 20
832.2635084183387
 30
0.0
 11
346.0527697360495
 21
806.1763526755905
 31
0.0
  0
LINE
  5
FAF
330
1F
100
AcDbEntity
  8
SANINDUSA
100
AcDbLine
 10
416.2124967841966
 20
806.1763526755905
 30
0.0
 11
418.4948271753211
 21
832.2635084183387
 31
0.0
  0
ARC
  5
FB0
330
1F
100
AcDbEntity
  8
SANINDUSA
100
AcDbCircle
 10
415.2163020861054
 20
806.2635084183382
 30
0.0
 40
0.9999999999999431
100
AcDbArc
 50
270.0
 51
354.9999999999087
  0
ARC
  5
FB1
330
1F
100
AcDbEntity
  8
SANINDUSA
100
AcDbCircle
 10
347.0489644341407
 20
806.2635084183382
 30
0.0
 40
1.000000000000077
100
AcDbArc
 50
184.9999999999932
 51
270.0
  0
LWPOLYLINE
  5
FB2
330
1F
100
AcDbEntity
  8
SANINDUSA
100
AcDbPolyline
 90
        3
 70
   128
 43
0.0
 10
344.8868452422076
 20
810.2117011724633
 10
345.3021494529577
 20
810.1171678227094
 10
345.7260176551764
 20
809.9111460500273
  0
LINE
  5
FB3
330
1F
100
AcDbEntity
  8
SANINDUSA
100
AcDbLine
 10
293.4870398602517
 20
818.0177479208484
 30
0.0
 11
344.8868452422076
 21
810.2117011724633
 31
0.0
  0
LWPOLYLINE
  5
FB4
330
1F
100
AcDbEntity
  8
SANINDUSA
100
AcDbPolyline
 90
       11
 70
   128
 43
0.0
 10
281.0299460109937
 20
832.2635084183382
 10
281.1406971006846
 20
831.736206472123
 10
281.8338287685302
 20
829.4484348270627
 10
282.7214903620744
 20
827.2682869407033
 10
283.8118524192442
 20
825.2073645133089
 10
285.1192601570775
 20
823.2978655945819
 10
286.5895200411661
 20
821.6407345477239
 10
288.2706463567093
 20
820.2120178381717
 10
290.0614255124357
 20
819.1211470215318
 10
291.9314242422089
 20
818.3714979672188
 10
293.4870398602517
 20
818.0177479208484
  0
LINE
  5
FB6
330
1F
100
AcDbEntity
  8
SANINDUSA
100
AcDbLine
 10
600.7970310959218
 20
967.2635084183381
 30
0.0
 11
161.3622151143837
 21
967.2635084183381
 31
0.0
  0
LINE
  5
FB7
330
1F
100
AcDbEntity
  8
SANINDUSA
100
AcDbLine
 10
162.4113877087921
 20
927.2635084183383
 30
0.0
 11
599.8866456623265
 21
927.2635084183383
 31
0.0
  0
ARC
  5
FBA
330
1F
100
AcDbEntity
  8
SANINDUSA
100
AcDbCircle
 10
167.6723204448727
 20
922.2635084182241
 30
0.0
 40
5.000000000114255
100
AcDbArc
 50
6.731625313457144
 51
89.99999999903597
  0
ARC
  5
FBB
330
1F
100
AcDbEntity
  8
SANINDUSA
100
AcDbCircle
 10
594.5929461321185
 20
922.2635084182268
 30
0.0
 40
5.000000000111413
100
AcDbArc
 50
90.0000000010943
 51
173.2683754094882
  0
LINE
  5
FBD
330
1F
100
AcDbEntity
  8
SANINDUSA
100
AcDbLine
 10
570.5996488996471
 20
832.2635084183387
 30
0.0
 11
381.1326350080027
 21
832.2635084183387
 31
0.0
  0
ARC
  5
FBF
330
1F
100
AcDbEntity
  8
SANINDUSA
100
AcDbCircle
 10
570.5996488994252
 20
834.2635084185806
 30
0.0
 40
2.000000000277478
100
AcDbArc
 50
270.0000000063574
 51
345.009607733508
  0
ARC
  5
FC1
330
1F
100
AcDbEntity
  8
SANINDUSA
100
AcDbCircle
 10
798.2099017553893
 20
996.6832620791063
 30
0.0
 40
629.9141211060612
100
AcDbArc
 50
186.7312414529232
 51
194.9908939412363
  0
ARC
  5
FC2
330
1F
100
AcDbEntity
  8
SANINDUSA
100
AcDbCircle
 10
-35.9446361137733
 20
996.6832541383235
 30
0.0
 40
629.9141211042223
100
AcDbArc
 50
345.0091068088378
 51
353.2687592686245
  0
ARC
  5
FC3
330
1F
100
AcDbEntity
  8
SANINDUSA
100
AcDbCircle
 10
191.6656188665703
 20
834.2635084185715
 30
0.0
 40
2.000000000232944
100
AcDbArc
 50
194.9903930217895
 51
269.9999999947369
  0
LINE
  5
FC4
330
1F
100
AcDbEntity
  8
SANINDUSA
100
AcDbLine
 10
381.1326350080027
 20
832.2635084183387
 30
0.0
 11
191.6656188663884
 21
832.2635084183387
 31
0.0
  0
LINE
  5
FC6
330
1F
100
AcDbEntity
  8
SANINDUSA
100
AcDbLine
 10
415.2163020861054
 20
805.2635084183387
 30
0.0
 11
347.0489644341407
 21
805.2635084183387
 31
0.0
  0
ARC
  5
FCD
330
1F
100
AcDbEntity
  8
SANINDUSA
100
AcDbCircle
 10
-407.3692939701235
 20
998.2187878461168
 30
0.0
 40
2.000000000000028
100
AcDbArc
 50
90.0
 51
180.0
  0
ARC
  5
FCE
330
1F
100
AcDbEntity
  8
SANINDUSA
100
AcDbCircle
 10
-61.7245971080323
 20
998.2187878461168
 30
0.0
 40
2.000000000000028
100
AcDbArc
 50
0.0
 51
90.0
  0
LINE
  5
FCF
330
1F
100
AcDbEntity
  8
SANINDUSA
100
AcDbLine
 10
-409.3692939701271
 20
998.2187878461168
 30
0.0
 11
-409.3692939701271
 21
878.4293816762676
 31
0.0
  0
LINE
  5
FD0
330
1F
100
AcDbEntity
  8
SANINDUSA
100
AcDbLine
 10
-59.72459710802866
 20
878.4293816762167
 30
0.0
 11
-59.72459710802866
 21
998.2187878461168
 31
0.0
  0
LWPOLYLINE
  5
FD4
330
1F
100
AcDbEntity
  8
SANINDUSA
100
AcDbPolyline
 90
       23
 70
   128
 43
0.0
 10
-234.5469455390797
 20
685.4992688018317
 10
-218.7794378898092
 20
685.8368822294448
 10
-203.0340787817062
 20
686.8563783673612
 10
-187.356757549513
 20
688.5677405008455
 10
-171.4725319029625
 20
691.0408046998302
 10
-155.7189761771864
 20
694.2858748229837
 10
-140.1665694888455
 20
698.3415381751056
 10
-124.3907225992246
 20
703.431442213935
 10
-108.9789961761947
 20
709.5284733112261
 10
-98.75160273831932
 20
714.3080302023109
 10
-88.79780885762954
 20
719.6494174650947
 10
-79.20541843037643
 20
725.5917959767625
 10
-71.47628790210944
 20
731.0956890225488
 10
-64.13335099520771
 20
737.1023742967358
 10
-57.11467116494384
 20
743.8070259886001
 10
-50.7256929592462
 20
751.1092341156545
 10
-47.03664084075933
 20
756.1123410626391
 10
-43.72257362467496
 20
761.3700587149097
 10
-40.77270680337313
 20
767.0229143569768
 10
-38.34417910693662
 20
772.916868257787
 10
-36.30324726912511
 20
779.8751920939659
 10
-35.106004349915
 20
787.1347734389937
 10
-34.82742648654164
 20
792.7187878461168
  0
LWPOLYLINE
  5
FD5
330
1F
100
AcDbEntity
  8
SANINDUSA
100
AcDbPolyline
 90
       26
 70
   128
 43
0.0
 10
-234.5469455390797
 20
899.9383069448297
 10
-246.350328266801
 20
899.7488176334798
 10
-258.1414401772694
 20
899.1789764812651
 10
-269.9579549344583
 20
898.2207999541239
 10
-281.735935184521
 20
896.8698686096875
 10
-293.6284283718581
 20
895.0899725033213
 10
-305.4493063356771
 20
892.8851115815032
 10
-317.2447370664398
 20
890.2240826407833
 10
-328.9249264212107
 20
887.0971982109468
 10
-344.6671252563305
 20
882.0186366045122
 10
-360.1111955998807
 20
875.9118533921391
 10
-367.7772631440443
 20
872.3902946600546
 10
-375.295535282827
 20
868.5641146765622
 10
-382.6946086746124
 20
864.382518294062
 10
-389.8837696152644
 20
859.8506944603746
 10
-397.5948645268785
 20
854.360730398807
 10
-404.9541994003979
 20
848.3431530345129
 10
-411.9454958278023
 20
841.6688532290548
 10
-418.3613466307091
 20
834.3408059606154
 10
-422.0435205817397
 20
829.3484060814771
 10
-425.3686272990547
 20
824.073342390457
 10
-428.3096729620032
 20
818.4405663331322
 10
-430.7502966149135
 20
812.5189860261203
 10
-432.7910533758862
 20
805.5611544085065
 10
-433.9879637979196
 20
798.3020371805164
 10
-434.2664645812059
 20
792.7187878461168
  0
LWPOLYLINE
  5
FD7
330
1F
100
AcDbEntity
  8
SANINDUSA
100
AcDbPolyline
 90
       23
 70
   128
 43
0.0
 10
-434.2664645812059
 20
792.7187878461168
 10
-434.2664645811768
 20
792.7187278461167
 10
-433.6127057274337
 20
784.1657853735953
 10
-431.6451810005186
 20
775.6128443104751
 10
-429.6757788978051
 20
770.1126548331435
 10
-427.2167848889607
 20
764.7630049526451
 10
-424.270864488359
 20
759.521840794084
 10
-420.9194667945651
 20
754.4877543441325
 10
-416.3436435531387
 20
748.6356168048846
 10
-411.3080211120344
 20
743.1137064846732
 10
-405.8246503145004
 20
737.8695956808915
 10
-400.0050045470837
 20
732.9545444395867
 10
-388.8328867173244
 20
724.8929483798288
 10
-376.9241486680315
 20
717.756336506774
 10
-364.2917671229428
 20
711.4019143736047
 10
-351.2141064938536
 20
705.8596337441563
 10
-336.2691183263036
 20
700.5792697604227
 10
-321.0442260740041
 20
696.1756168334089
 10
-305.5620680891719
 20
692.5761191907536
 10
-289.7973132141181
 20
689.7276936607254
 10
-273.8795059392854
 20
687.6221645238613
 10
-254.2711358456348
 20
686.029356045512
 10
-234.5469455390797
 20
685.4992688018317
  0
LWPOLYLINE
  5
FD9
330
1F
100
AcDbEntity
  8
SANINDUSA
100
AcDbPolyline
 90
       23
 70
   128
 43
0.0
 10
-34.82742648654164
 20
792.7187878461168
 10
-34.82742648657438
 20
792.7188478461166
 10
-35.48095301366846
 20
801.2691161219882
 10
-37.44741167902464
 20
809.8193830248963
 10
-39.4250233037659
 20
815.3393235178521
 10
-41.87398607420834
 20
820.6681621280788
 10
-44.82827413131087
 20
825.9232562579185
 10
-48.16973641695802
 20
830.9423583330781
 10
-52.75848126076232
 20
836.8110113067439
 10
-57.77915303094994
 20
842.3169075238634
 10
-63.27256094445181
 20
847.5709859577657
 10
-69.08092311985308
 20
852.4762795223576
 10
-80.29273674295325
 20
860.5663912928401
 10
-92.15796866216839
 20
867.6744253814764
 10
-104.8153921008
 20
874.042573872518
 10
-117.8638380373107
 20
879.5719098617782
 10
-132.811580043823
 20
884.8540452466302
 10
-148.0609757587721
 20
889.2652937474762
 10
-163.5245367087613
 20
892.8597483126173
 10
-179.3101114774785
 20
895.7121699407984
 10
-195.2134584557956
 20
897.8151901671804
 10
-214.8222835803084
 20
899.4081524882977
 10
-234.5469455390797
 20
899.9383069448297
  0
LWPOLYLINE
  5
FE2
330
1F
100
AcDbEntity
  8
SANINDUSA
100
AcDbPolyline
 90
       77
 70
   128
 43
0.0
 10
-57.72801891462439
 20
874.4311866777151
 10
-49.99658674943055
 20
868.2758213742809
 10
-42.6338368491073
 20
861.6286638720346
 10
-36.13279306046241
 20
854.926496002618
 10
-30.06058883201547
 20
847.6988590781454
 10
-24.55094730338385
 20
839.9618109561171
 10
-19.68616895918092
 20
831.6515701754919
 10
-16.87281297636798
 20
825.7985092720501
 10
-14.45503298818437
 20
819.6982436950225
 10
-12.49214389242331
 20
813.3983390493163
 10
-11.02052080859937
 20
806.8858883954694
 10
-10.04580532450416
 20
799.7352767897191
 10
-9.731664530585817
 20
792.3979942331263
 10
-10.113936327862
 20
784.9980567645372
 10
-11.21454555665548
 20
777.5346825529168
 10
-12.89510238808214
 20
770.589875306284
 10
-15.19831764784828
 20
763.715670136401
 10
-18.07667560470361
 20
757.0073103980153
 10
-21.51116470874547
 20
750.4562414190209
 10
-26.47122237091242
 20
742.6209340105551
 10
-32.14664257985567
 20
735.1266768679099
 10
-38.4193765714648
 20
728.0474675109421
 10
-45.24924707336538
 20
721.3473995149604
 10
-55.05525419760158
 20
713.0527748270565
 10
-65.52333213876988
 20
705.4789190084475
 10
-76.65237735076004
 20
698.5336602795323
 10
-88.23488421446233
 20
692.2640071173081
 10
-97.66062757413454
 20
687.7614665154497
 10
-107.2818144126526
 20
683.6462864482911
 10
-117.1038584855654
 20
679.8931804882336
 10
-127.072593837251
 20
676.5028428223293
 10
-137.3089365258005
 20
673.4212697938107
 10
-147.6562027429412
 20
670.6860522512756
 10
-158.1217997832376
 20
668.2824025329225
 10
-168.6689176961139
 20
666.2091328104202
 10
-183.9996934744362
 20
663.7889108516421
 10
-199.4488127135431
 20
662.0244154266477
 10
-215.0416017578121
 20
660.9001262696793
 10
-230.6942180585487
 20
660.4190334072463
 10
-246.6677099613574
 20
660.5928027439272
 10
-262.6480291966021
 20
661.4395680458592
 10
-278.6650249174948
 20
662.9743904747431
 10
-294.6297717977453
 20
665.2134125809295
 10
-305.8783132605153
 20
667.2383996064024
 10
-317.0655814034238
 20
669.6387797072088
 10
-328.202569372554
 20
672.4324883462247
 10
-339.2460040987702
 20
675.6287834141225
 10
-350.3312439570131
 20
679.3008794873426
 10
-361.2750216952394
 20
683.4297937213409
 10
-372.0877204310694
 20
688.0583775142688
 10
-382.6942118813953
 20
693.2000961325175
 10
-394.8740712567145
 20
699.9676253189293
 10
-406.6227627575848
 20
707.5713237997136
 10
-417.9412547146333
 20
716.1943677165752
 10
-423.3469339521929
 20
720.8922668743082
 10
-428.535753181159
 20
725.8513532614925
 10
-434.7553852021432
 20
732.5322491340044
 10
-440.5408078418571
 20
739.7237006169202
 10
-445.7636945582111
 20
747.4035780025829
 10
-450.3466624768829
 20
755.6289414627622
 10
-453.0348124161267
 20
761.5485366440134
 10
-455.3132925661069
 20
767.713082402774
 10
-457.1214131944747
 20
774.071548712182
 10
-458.4243968940012
 20
780.6352046096717
 10
-459.2032327774271
 20
787.735358292145
 10
-459.3298584652496
 20
795.000488665213
 10
-458.7737150787528
 20
802.309306944393
 10
-457.5147183020694
 20
809.6620736822151
 10
-455.7043514849887
 20
816.4933311971172
 10
-453.2971799123973
 20
823.2420492732638
 10
-450.3410640507667
 20
829.8201818921915
 10
-446.8537420502856
 20
836.2363033404481
 10
-441.4455711611575
 20
844.4797511167834
 10
-435.2462081928955
 20
852.334570866952
 10
-428.3996576007324
 20
859.7218545800386
 10
-420.9497514803391
 20
866.6834253710367
 10
-411.3658721635933
 20
874.431186677722
  0
LINE
  5
FE6
330
1F
100
AcDbEntity
  8
SANINDUSA
100
AcDbLine
 10
-407.3692939701235
 20
1000.218787846117
 30
0.0
 11
-404.3692939701271
 21
1000.218787846117
 31
0.0
  0
LINE
  5
FEA
330
1F
100
AcDbEntity
  8
SANINDUSA
100
AcDbLine
 10
-64.72459710802866
 20
1000.218787846117
 30
0.0
 11
-61.7245971080323
 21
1000.218787846117
 31
0.0
  0
LINE
  5
FEB
330
1F
100
AcDbEntity
  8
SANINDUSA
100
AcDbLine
 10
-404.3692939701271
 20
1000.218787846117
 30
0.0
 11
-64.72459710802866
 21
1000.218787846117
 31
0.0
  0
CIRCLE
  5
FEE
330
1F
100
AcDbEntity
  8
SANINDUSA
100
AcDbCircle
 10
-234.5469455390797
 20
941.2187878461168
 30
0.0
 40
17.5
  0
ARC
  5
FEF
330
1F
100
AcDbEntity
  8
SANINDUSA
100
AcDbCircle
 10
-414.3562764424918
 20
878.4259178393538
 30
0.0
 40
4.990029539488766
100
AcDbArc
 50
306.8180530287565
 51
0.0397720406867125
  0
ARC
  5
FF0
330
1F
100
AcDbEntity
  8
SANINDUSA
100
AcDbCircle
 10
-54.73761472214971
 20
878.4259177960269
 30
0.0
 40
4.990029453030485
100
AcDbArc
 50
179.9602275430568
 51
233.1819474677133
  0
LWPOLYLINE
  5
FF1
330
1F
100
AcDbEntity
  8
SANINDUSA
100
AcDbPolyline
 90
       24
 70
   128
 43
0.0
 10
-47.12425447355633
 20
792.7187878461173
 10
-47.12425447357452
 20
792.7187278461169
 10
-47.42122914901336
 20
787.67029972724
 10
-48.3129422580954
 20
782.6218723611323
 10
-50.68634375094768
 20
775.2456539543048
 10
-54.1898360529907
 20
768.1356897641544
 10
-57.13828722988035
 20
763.4905236919178
 10
-60.43340562137962
 20
759.0825700645551
 10
-64.0940495311246
 20
754.8246816342382
 10
-68.00920081128641
 20
750.7982728860465
 10
-73.28065928503781
 20
746.0025789378571
 10
-78.83427189088468
 20
741.5349604816626
 10
-84.69514804736752
 20
737.3214313091805
 10
-90.75549001748219
 20
733.3992768239463
 10
-101.7488790959636
 20
727.1776769101334
 10
-113.1355790553883
 20
721.7036406779552
 10
-125.0029654915546
 20
716.8352829162873
 10
-137.1143969927528
 20
712.6072468031516
 10
-152.7462183311603
 20
708.0936079134719
 10
-168.62236827706
 20
704.4677082410055
 10
-184.6574596250669
 20
701.6828826776746
 10
-201.2169628984578
 20
699.6554172051633
 10
-217.8671555788554
 20
698.4464978924027
 10
-234.5469455390797
 20
698.0458616050269
  0
LWPOLYLINE
  5
FF2
330
1F
100
AcDbEntity
  8
SANINDUSA
100
AcDbPolyline
 90
       26
 70
   128
 43
0.0
 10
-421.9686564551032
 20
792.7187878461168
 10
-421.9686564550159
 20
792.7188478461171
 10
-421.6665076372176
 20
797.809781179634
 10
-420.7602921970668
 20
802.90071335433
 10
-418.3720474413152
 20
810.275972438681
 10
-414.8562810783791
 20
817.3834196699202
 10
-411.8984581615535
 20
822.0272464053055
 10
-408.5755248247427
 20
826.4596054604542
 10
-404.9023676217897
 20
830.7195263959748
 10
-400.961693492993
 20
834.7638909724251
 10
-395.6702585834922
 20
839.563010429417
 10
-390.0754244561052
 20
844.0492350888339
 10
-384.1882557234952
 20
848.2650683255306
 10
-378.0872665490918
 20
852.1982000006177
 10
-367.065111992912
 20
858.4091882133479
 10
-355.600385369073
 20
863.8974200849768
 10
-343.6957935843478
 20
868.7554104738225
 10
-331.5128967426375
 20
872.9831367738606
 10
-319.8989626650567
 20
876.4059503084126
 10
-308.1488156169711
 20
879.3294718394632
 10
-296.2091267676027
 20
881.7920840306468
 10
-284.1826830488738
 20
883.7914443256218
 10
-271.8651317661373
 20
885.3677528868043
 10
-259.4975377116883
 20
886.4895919867841
 10
-247.0304569434323
 20
887.1662219255652
 10
-234.5469455390797
 20
887.391678383406
  0
LWPOLYLINE
  5
FF4
330
1F
100
AcDbEntity
  8
SANINDUSA
100
AcDbPolyline
 90
       25
 70
   128
 43
0.0
 10
-234.5469455390797
 20
887.391678383406
 10
-218.0291023578342
 20
886.9981694478187
 10
-201.5400357966086
 20
885.8116372196787
 10
-185.1389701273932
 20
883.823020965057
 10
-168.4655367592335
 20
880.9372577996166
 10
-151.9638667612911
 20
877.1428929004205
 10
-135.7310113725965
 20
872.3850833812068
 10
-122.0082981072686
 20
867.4504404343835
 10
-108.6225018338613
 20
861.6690513635351
 10
-99.76170335276982
 20
857.2117454405427
 10
-91.14750947241043
 20
852.2822756412496
 10
-82.85657078396832
 20
846.8454606935436
 10
-76.57298546446907
 20
842.1492629883866
 10
-70.59537398604004
 20
837.0711683934459
 10
-64.88396323369158
 20
831.4638357323984
 10
-59.67271221456974
 20
825.393264711919
 10
-56.83268221783726
 20
821.5010401931321
 10
-54.2630836073389
 20
817.4262893950235
 10
-51.96069781544281
 20
813.0702907986151
 10
-50.04177286023548
 20
808.53380124435
 10
-48.81247635236139
 20
804.7505647483166
 10
-47.90059542430606
 20
800.879031743244
 10
-47.32102038308073
 20
796.8170480502801
 10
-47.12425447362181
 20
792.7188478461173
 10
-47.12425447355633
 20
792.7187878461173
  0
LWPOLYLINE
  5
FF5
330
1F
100
AcDbEntity
  8
SANINDUSA
100
AcDbPolyline
 90
       25
 70
   128
 43
0.0
 10
-234.5469455390797
 20
698.0458616050269
 10
-251.0793882201382
 20
698.4400686151566
 10
-267.5829836071265
 20
699.6286294050332
 10
-283.9983453030676
 20
701.6207039820901
 10
-300.6867826802685
 20
704.5125186291052
 10
-317.202860790427
 20
708.3151218095665
 10
-333.4497139199833
 20
713.081798365627
 10
-347.1622979203988
 20
718.0169439265114
 10
-360.5375647699678
 20
723.799098117839
 10
-369.3911439136631
 20
728.2572124392036
 10
-377.9979332064635
 20
733.1873747207037
 10
-386.2815973051642
 20
738.6242550080183
 10
-392.5526442246286
 20
743.313803039932
 10
-398.5190862835901
 20
748.3833808847869
 10
-404.2187700534071
 20
753.9819382987728
 10
-409.419217346471
 20
760.0428718145295
 10
-412.2581302419442
 20
763.9327317660943
 10
-414.8270216415425
 20
768.0048590207052
 10
-417.1285617467605
 20
772.3582308346895
 10
-419.0469593393012
 20
776.8920139860585
 10
-420.2780950461914
 20
780.6777918077395
 10
-421.1918267564309
 20
784.551944339883
 10
-421.7720870426949
 20
788.6171592618157
 10
-421.9686564551032
 20
792.7187278461169
 10
-421.9686564551032
 20
792.7187878461168
  0
LWPOLYLINE
  5
FFB
330
1F
100
AcDbEntity
  8
SANINDUSA
100
AcDbPolyline
 90
       40
 70
   128
 43
0.0
 10
-234.5469766198679
 20
754.1670168854246
 10
-239.0219116171305
 20
754.4214578317872
 10
-243.4968526757097
 20
755.19548272775
 10
-249.6352418454466
 20
757.1709976494319
 10
-255.521150928182
 20
760.2288091715768
 10
-260.6513014336727
 20
764.1126388469042
 10
-265.1796547003709
 20
768.9469278975828
 10
-268.7060761116139
 20
774.3058097961375
 10
-271.352425636402
 20
780.3563819417179
 10
-272.8986309504966
 20
786.5952163974025
 10
-273.3849446101761
 20
793.192860906373
 10
-272.7696701444751
 20
799.5966705892417
 10
-271.0334321150971
 20
805.9868060321456
 10
-268.3290153460133
 20
811.8103148790355
 10
-264.5697728574545
 20
817.2471834276562
 10
-260.0811780159369
 20
821.8265876147411
 10
-254.7332690338066
 20
825.6945132471557
 10
-248.9785379010049
 20
828.5321163019816
 10
-242.6582020435511
 20
830.4275528630787
 10
-238.64636180585
 20
831.0564293417929
 10
-234.5472242702002
 20
831.270419866307
 10
-228.1076280634537
 20
830.7413102671285
 10
-221.6680442740639
 20
829.1063660321015
 10
-215.7732153782948
 20
826.5017665904734
 10
-210.2434774847592
 20
822.8433320647035
 10
-205.5591968497923
 20
818.4444633718944
 10
-201.5745835136061
 20
813.1629453092514
 10
-198.6361940137998
 20
807.4610960176723
 10
-196.6437026607767
 20
801.1668361454299
 10
-195.7628240381076
 20
794.791826353975
 10
-195.9759085985482
 20
788.1711248000565
 10
-197.2637670639982
 20
781.8723444033898
 10
-199.6640943006663
 20
775.7056134680644
 10
-202.9680439644966
 20
770.2049941127038
 10
-207.2809797138201
 20
765.2009161405867
 10
-212.2308693554136
 20
761.1190468709967
 10
-217.9574253521372
 20
757.8328279410634
 10
-223.9835510417564
 20
755.6084958368778
 10
-230.4726163249674
 20
754.3779030550502
 10
-234.5469766198679
 20
754.1670168854243
  0
CIRCLE
  5
FFE
330
1F
100
AcDbEntity
  8
SANINDUSA
100
AcDbCircle
 10
-234.5469455390688
 20
792.7187878461158
 30
0.0
 40
23.49999999999869
  0
ARC
  5
FFF
330
1F
100
AcDbEntity
  8
SANINDUSA
100
AcDbCircle
 10
1213.586417598822
 20
962.2799278326803
 30
0.0
 40
5.00000000000017
100
AcDbArc
 50
357.8394889860391
 51
89.9999341913212
  0
LWPOLYLINE
  5
1000
330
1F
100
AcDbEntity
  8
SANINDUSA
100
AcDbPolyline
 90
        9
 70
   128
 43
0.0
 10
1217.534508914357
 20
932.0753335018647
 10
1217.404613443837
 20
931.1297743082294
 10
1217.097412761706
 20
930.2261246401601
 10
1216.624100708218
 20
929.3973118661021
 10
1216.00192392324
 20
928.6735364326952
 10
1215.253553409644
 20
928.081171414826
 10
1214.406258442808
 20
927.6418015282153
 10
1213.490912927229
 20
927.3714366212054
 10
1212.540870406997
 20
927.2799283046818
  0
LINE
  5
1001
330
1F
100
AcDbEntity
  8
SANINDUSA
100
AcDbLine
 10
1217.535588334399
 20
932.1008331038964
 30
0.0
 11
1218.583297086361
 21
962.1032862917834
 31
0.0
  0
LINE
  5
1002
330
1F
100
AcDbEntity
  8
SANINDUSA
100
AcDbLine
 10
1121.343932916426
 20
806.1927720899328
 30
0.0
 11
1123.626263307554
 21
832.2799278326808
 31
0.0
  0
ARC
  5
1003
330
1F
100
AcDbEntity
  8
SANINDUSA
100
AcDbCircle
 10
1120.347738218335
 20
806.2799278326803
 30
0.0
 40
1.000000000000219
100
AcDbArc
 50
270.0
 51
355.0000000000133
  0
LWPOLYLINE
  5
1005
330
1F
100
AcDbEntity
  8
SANINDUSA
100
AcDbPolyline
 90
        9
 70
   128
 43
0.0
 10
1004.551670560749
 20
962.1054297560746
 10
1004.604099660967
 20
963.1051653498323
 10
1004.814953615508
 20
964.0717671648783
 10
1005.175766512287
 20
964.9664255615933
 10
1005.672051498206
 20
965.753219471528
 10
1006.283882434965
 20
966.4005586497394
 10
1006.986693945391
 20
966.8824520419724
 10
1007.752267727982
 20
967.179551340995
 10
1008.549865538579
 20
967.2799278326804
  0
LINE
  5
1006
330
1F
100
AcDbEntity
  8
SANINDUSA
100
AcDbLine
 10
1008.549865538579
 20
967.2799278326804
 30
0.0
 11
1213.586276630035
 21
967.2799278326804
 31
0.0
  0
LINE
  5
1007
330
1F
100
AcDbEntity
  8
SANINDUSA
100
AcDbLine
 10
1013.482308434917
 20
927.2799278326804
 30
0.0
 11
1212.540870406997
 21
927.2799283046818
 31
0.0
  0
LWPOLYLINE
  5
1008
330
1F
100
AcDbEntity
  8
SANINDUSA
100
AcDbPolyline
 90
        8
 70
   128
 43
0.0
 10
1005.085309136114
 20
932.1054299766881
 10
1005.312074085491
 20
930.9752106676372
 10
1005.431939527288
 20
930.7094958944183
 10
1006.37758493787
 20
929.4857241224779
 10
1007.865650253477
 20
928.4701852864639
 10
1010.033877767846
 20
927.6788296876214
 10
1012.973243399827
 20
927.2879432787533
 10
1013.482308434924
 20
927.2799278326804
  0
ARC
  5
100A
330
1F
100
AcDbEntity
  8
SANINDUSA
100
AcDbCircle
 10
1207.224382269427
 20
922.2799278326304
 30
0.0
 40
5.000000000063204
100
AcDbArc
 50
90.00000000065139
 51
173.2683754754848
  0
LWPOLYLINE
  5
100D
330
1F
100
AcDbEntity
  8
SANINDUSA
100
AcDbPolyline
 90
        6
 70
   128
 43
0.0
 10
1004.551670560749
 20
962.1054297560746
 10
1004.637242735107
 20
957.287458225536
 10
1004.74913217946
 20
950.9919491134366
 10
1004.861106311016
 20
944.6964413666252
 10
1004.973165254805
 20
938.4009349859127
 10
1005.085309136114
 20
932.1054299766881
  0
LWPOLYLINE
  5
100F
330
1F
100
AcDbEntity
  8
SANINDUSA
100
AcDbPolyline
 90
        9
 70
   128
 43
0.0
 10
1019.923389365327
 20
927.2799278326804
 10
1020.585021331824
 20
927.2028482444873
 10
1021.226253970517
 20
926.9739859850721
 10
1021.827316902306
 20
926.6003972979204
 10
1022.369678253902
 20
926.0936006078948
 10
1022.836616029444
 20
925.4692213870614
 10
1023.213733680347
 20
924.7465103927082
 10
1023.489403977326
 20
923.9477501311656
 10
1023.655127499192
 20
923.0975678472439
  0
ARC
  5
1010
330
1F
100
AcDbEntity
  8
SANINDUSA
100
AcDbCircle
 10
576.6888973346846
 20
996.6992704205956
 30
0.0
 40
629.9119909981095
100
AcDbArc
 50
345.0090928867562
 51
353.2687733232365
  0
ARC
  5
1014
330
1F
100
AcDbEntity
  8
SANINDUSA
100
AcDbCircle
 10
2152.517256906385
 20
1130.612193122298
 30
0.0
 40
1147.77699354569
100
AcDbArc
 50
190.4161856331242
 51
194.9843624509467
  0
ARC
  5
1016
330
1F
100
AcDbEntity
  8
SANINDUSA
100
AcDbCircle
 10
1183.231085144505
 20
834.2799278321525
 30
0.0
 40
1.999999999471526
100
AcDbArc
 50
269.9999999881449
 51
345.0096078167669
  0
LINE
  5
1017
330
1F
100
AcDbEntity
  8
SANINDUSA
100
AcDbLine
 10
1183.23108514409
 20
832.2799278326808
 30
0.0
 11
1086.264054807795
 21
832.2799278326808
 31
0.0
  0
LWPOLYLINE
  5
1018
330
1F
100
AcDbEntity
  8
SANINDUSA
100
AcDbPolyline
 90
        9
 70
   128
 43
0.0
 10
1045.118163694381
 20
832.2799278326808
 10
1044.885511272588
 20
832.3084731761499
 10
1044.659499994084
 20
832.3932943699217
 10
1044.446581428446
 20
832.5319701638884
 10
1044.252833409254
 20
832.7205420098787
 10
1044.083786540266
 20
832.953627059782
 10
1043.944266322416
 20
833.2245718207902
 10
1043.838255408243
 20
833.5256420816397
 10
1043.768779915711
 20
833.8482436883257
  0
LINE
  5
1019
330
1F
100
AcDbEntity
  8
SANINDUSA
100
AcDbLine
 10
1086.264054807795
 20
832.2799278326808
 30
0.0
 11
1045.118163694381
 21
832.2799278326808
 31
0.0
  0
LINE
  5
1022
330
1F
100
AcDbEntity
  8
SANINDUSA
100
AcDbLine
 10
1000.553475562204
 20
967.2799278326804
 30
0.0
 11
1008.549865538579
 21
967.2799278326804
 31
0.0
  0
LINE
  5
1028
330
1F
100
AcDbEntity
  8
SANINDUSA
100
AcDbLine
 10
880.7640693923509
 20
967.2799278326804
 30
0.0
 11
1000.553475562204
 21
967.2799278326804
 31
0.0
  0
LINE
  5
102A
330
1F
100
AcDbEntity
  8
SANINDUSA
100
AcDbLine
 10
878.764069392351
 20
962.1752293425732
 30
0.0
 11
878.764069392351
 21
965.2799278326808
 31
0.0
  0
LINE
  5
102D
330
1F
100
AcDbEntity
  8
SANINDUSA
100
AcDbLine
 10
878.764069392351
 20
834.2799278326804
 30
0.0
 11
878.764069392351
 21
962.1752293425732
 31
0.0
  0
LINE
  5
1030
330
1F
100
AcDbEntity
  8
SANINDUSA
100
AcDbLine
 10
1045.118163694381
 20
832.2799278326808
 30
0.0
 11
1040.038083033972
 21
832.2799278326808
 31
0.0
  0
LINE
  5
1032
330
1F
100
AcDbEntity
  8
SANINDUSA
100
AcDbLine
 10
1040.038083033972
 20
832.2799278326808
 30
0.0
 11
880.7640693923509
 21
832.2799278326808
 31
0.0
  0
ARC
  5
1033
330
1F
100
AcDbEntity
  8
SANINDUSA
100
AcDbCircle
 10
880.7640693923509
 20
834.2799278326804
 30
0.0
 40
2.00000000000017
100
AcDbArc
 50
180.0
 51
270.0
  0
ARC
  5
1039
330
1F
100
AcDbEntity
  8
SANINDUSA
100
AcDbCircle
 10
992.4859633608882
 20
835.9656161567242
 30
0.0
 40
19.81720868727373
100
AcDbArc
 50
190.7960185774719
 51
263.3618768031746
  0
LINE
  5
103E
330
1F
100
AcDbEntity
  8
SANINDUSA
100
AcDbLine
 10
990.1951318734624
 20
816.2812606617842
 30
0.0
 11
1046.722618010769
 21
810.2567904526837
 31
0.0
  0
LWPOLYLINE
  5
1040
330
1F
100
AcDbEntity
  8
SANINDUSA
100
AcDbPolyline
 90
        4
 70
   128
 43
0.0
 10
1081.016766895348
 20
832.2799278326808
 10
1081.199593325893
 20
828.5789122912785
 10
1081.446105309549
 20
823.6015282923474
 10
1081.884875769426
 20
814.7759201853034
  0
ARC
  5
1042
330
1F
100
AcDbEntity
  8
SANINDUSA
100
AcDbCircle
 10
1072.77557027089
 20
814.9510098273593
 30
0.0
 40
9.110988039101373
100
AcDbArc
 50
285.9955750585203
 51
358.8988554144137
  0
LWPOLYLINE
  5
1047
330
1F
100
AcDbEntity
  8
SANINDUSA
100
AcDbPolyline
 90
        9
 70
   128
 43
0.0
 10
1051.27887428281
 20
806.1125760209382
 10
1051.070722348043
 20
806.9145021413648
 10
1050.733305315335
 20
807.6714077522476
 10
1050.275893230534
 20
808.3624979646636
 10
1049.71105283031
 20
808.9687860727469
 10
1049.054302289203
 20
809.4736151860185
 10
1048.323684880188
 20
809.8631158534088
 10
1047.539273261785
 20
810.126587106399
 10
1046.722618010769
 20
810.2567904526837
  0
LINE
  5
104A
330
1F
100
AcDbEntity
  8
SANINDUSA
100
AcDbLine
 10
1120.347738218335
 20
805.2799278326808
 30
0.0
 11
1075.597970406384
 21
805.2799278326808
 31
0.0
  0
LWPOLYLINE
  5
104B
330
1F
100
AcDbEntity
  8
SANINDUSA
100
AcDbPolyline
 90
        9
 70
   128
 43
0.0
 10
1075.286222533426
 20
806.1927720899328
 10
1075.296596314043
 20
806.0105877787275
 10
1075.317304217312
 20
805.8376391424614
 10
1075.347636168882
 20
805.6798565927563
 10
1075.386552085632
 20
805.5426504958703
 10
1075.432717540117
 20
805.4307256511545
 10
1075.484549518148
 20
805.3479199633978
 10
1075.540270700324
 20
805.2970728410153
 10
1075.597970406384
 20
805.2799278326808
  0
LINE
  5
104D
330
1F
100
AcDbEntity
  8
SANINDUSA
100
AcDbLine
 10
1075.597970406384
 20
805.2799278326808
 30
0.0
 11
1072.171747205209
 21
805.2799278326808
 31
0.0
  0
LINE
  5
104E
330
1F
100
AcDbEntity
  8
SANINDUSA
100
AcDbLine
 10
1072.171747205209
 20
805.2799278326808
 30
0.0
 11
1052.261519342058
 21
805.2799278326808
 31
0.0
  0
LWPOLYLINE
  5
1050
330
1F
100
AcDbEntity
  8
SANINDUSA
100
AcDbPolyline
 90
        9
 70
   128
 43
0.0
 10
1051.27887428281
 20
806.1125760209382
 10
1051.323035143484
 20
805.9431670160009
 10
1051.395972297157
 20
805.7840839472339
 10
1051.495449306706
 20
805.640204702837
 10
1051.618415956066
 20
805.5159409834015
 10
1051.761101777568
 20
805.4151030280388
 10
1051.919131663978
 20
805.3407827828403
 10
1052.087660020324
 20
805.2952590940074
 10
1052.261519342058
 20
805.2799278326808
  0
ARC
  5
1054
330
1F
100
AcDbEntity
  8
SANINDUSA
100
AcDbCircle
 10
1406.747974141934
 20
837.1675715972191
 30
0.0
 40
4.789901429359415
100
AcDbArc
 50
267.8542326491304
 51
339.3389112478043
  0
ARC
  5
1056
330
1F
100
AcDbEntity
  8
SANINDUSA
100
AcDbCircle
 10
1720.133152940019
 20
962.2799278316355
 30
0.0
 40
5.000000001039381
100
AcDbArc
 50
358.0000000137097
 51
90.0
  0
LINE
  5
1058
330
1F
100
AcDbEntity
  8
SANINDUSA
100
AcDbLine
 10
1620.646698156091
 20
846.2257626019649
 30
0.0
 11
1618.000047564966
 21
843.887154020865
 31
0.0
  0
LINE
  5
105B
330
1F
100
AcDbEntity
  8
SANINDUSA
100
AcDbLine
 10
1567.621578553542
 20
843.8874895080674
 30
0.0
 11
1560.463703806358
 21
850.21232206513
 31
0.0
  0
LINE
  5
105C
330
1F
100
AcDbEntity
  8
SANINDUSA
100
AcDbLine
 10
1625.158018895385
 20
850.2120135368347
 30
0.0
 11
1620.646698156091
 21
846.2257626019649
 31
0.0
  0
ARC
  5
105D
330
1F
100
AcDbEntity
  8
SANINDUSA
100
AcDbCircle
 10
1581.202829556411
 20
1460.852286079016
 30
0.0
 40
608.7388761088178
100
AcDbArc
 50
263.814001692386
 51
267.4655504112343
  0
ARC
  5
105E
330
1F
100
AcDbEntity
  8
SANINDUSA
100
AcDbCircle
 10
1553.842155661864
 20
842.718651391144
 30
0.0
 40
10.0
100
AcDbArc
 50
48.53558102520177
 51
87.46555041123427
  0
ARC
  5
1061
330
1F
100
AcDbEntity
  8
SANINDUSA
100
AcDbCircle
 10
1607.845429261626
 20
1415.821302097328
 30
0.0
 40
563.6025435389024
100
AcDbArc
 50
272.391414345164
 51
276.3330306611797
  0
ARC
  5
1062
330
1F
100
AcDbEntity
  8
SANINDUSA
100
AcDbCircle
 10
1631.77953271658
 20
842.7183125342775
 30
0.0
 40
10.0
100
AcDbArc
 50
92.39141434516396
 51
131.464156543179
  0
ARC
  5
1063
330
1F
100
AcDbEntity
  8
SANINDUSA
100
AcDbCircle
 10
1664.070083354297
 20
839.9841508572874
 30
0.0
 40
5.000000000948662
100
AcDbArc
 50
14.99999998895547
 51
95.48298053870228
  0
ARC
  5
1064
330
1F
100
AcDbEntity
  8
SANINDUSA
100
AcDbCircle
 10
1664.070083354297
 20
839.9841508572874
 30
0.0
 40
15.00000000094866
100
AcDbArc
 50
14.99999998895547
 51
23.95067900687223
  0
LINE
  5
1068
330
1F
100
AcDbEntity
  8
SANINDUSA
100
AcDbLine
 10
1538.823816979564
 20
843.5592370054594
 30
0.0
 11
1514.561361540142
 21
845.7127451735445
 31
0.0
  0
LWPOLYLINE
  5
1069
330
1F
100
AcDbEntity
  8
SANINDUSA
100
AcDbPolyline
 90
        3
 70
   128
 43
0.0
 10
1663.726760386776
 20
844.9723498658936
 10
1645.436237698235
 20
843.4653378536362
 10
1639.717486724121
 20
843.1097330411988
  0
ARC
  5
106A
330
1F
100
AcDbEntity
  8
SANINDUSA
100
AcDbCircle
 10
1640.285204196331
 20
833.1258323923661
 30
0.0
 40
10.00000002884325
100
AcDbArc
 50
93.25458630332043
 51
174.9999998422617
  0
ARC
  5
106B
330
1F
100
AcDbEntity
  8
SANINDUSA
100
AcDbCircle
 10
1552.639377398842
 20
805.4974864488661
 30
0.0
 40
5.131667121950535
100
AcDbArc
 50
7.286267711137657
 51
72.87519964323009
  0
ARC
  5
106D
330
1F
100
AcDbEntity
  8
SANINDUSA
100
AcDbCircle
 10
1564.310804502662
 20
840.1406542492198
 30
0.0
 40
5.000000103031823
100
AcDbArc
 50
0.0000010603645655
 51
48.53558108639745
  0
LWPOLYLINE
  5
106E
330
1F
100
AcDbEntity
  8
SANINDUSA
100
AcDbPolyline
 90
        5
 70
   128
 43
0.0
 10
1631.362577515991
 20
852.7096257711795
 10
1612.162762931194
 20
852.6196879996073
 10
1592.49948705069
 20
852.5905154889491
 10
1573.147697982876
 20
852.6206195709214
 10
1554.259170493853
 20
852.7099839239067
  0
ARC
  5
1072
330
1F
100
AcDbEntity
  8
SANINDUSA
100
AcDbCircle
 10
1568.310171144196
 20
830.1154202040974
 30
0.0
 40
1.000654472180071
100
AcDbArc
 50
265.9490774184697
 51
0.0316254645310247
  0
ARC
  5
1074
330
1F
100
AcDbEntity
  8
SANINDUSA
100
AcDbCircle
 10
1568.31037215641
 20
818.0709789979495
 30
0.0
 40
1.000442054924144
100
AcDbArc
 50
359.9516839475195
 51
85.87936808082307
  0
ARC
  5
1076
330
1F
100
AcDbEntity
  8
SANINDUSA
100
AcDbCircle
 10
1621.310803485121
 20
840.140301923669
 30
0.0
 40
4.999997984374118
100
AcDbArc
 50
131.4641605528581
 51
180.0000228486847
  0
ARC
  5
1077
330
1F
100
AcDbEntity
  8
SANINDUSA
100
AcDbCircle
 10
1558.72098088121
 20
806.279990977627
 30
0.0
 40
1.000063145014253
100
AcDbArc
 50
187.5655759615536
 51
270.0
  0
LINE
  5
1078
330
1F
100
AcDbEntity
  8
SANINDUSA
100
AcDbLine
 10
1675.147439414586
 20
832.2799278326723
 30
0.0
 11
1689.777820232352
 21
832.279927832625
 31
0.0
  0
LINE
  5
1079
330
1F
100
AcDbEntity
  8
SANINDUSA
100
AcDbLine
 10
1679.751401462694
 20
842.2799278326575
 30
0.0
 11
1682.830960838534
 21
842.2799278326474
 31
0.0
  0
ARC
  5
107A
330
1F
100
AcDbEntity
  8
SANINDUSA
100
AcDbCircle
 10
1679.751401462698
 20
843.2799278326575
 30
0.0
 40
1.0
100
AcDbArc
 50
195.0000000001967
 51
269.9999999998176
  0
ARC
  5
107B
330
1F
100
AcDbEntity
  8
SANINDUSA
100
AcDbCircle
 10
1675.147439549907
 20
837.279927832836
 30
0.0
 40
5.000000000176774
100
AcDbArc
 50
195.0000000053081
 51
270.0
  0
LINE
  5
107C
330
1F
100
AcDbEntity
  8
SANINDUSA
100
AcDbLine
 10
1668.899702258571
 20
841.2782842541844
 30
0.0
 11
1670.317810415172
 21
835.9858325631915
 31
0.0
  0
LINE
  5
107D
330
1F
100
AcDbEntity
  8
SANINDUSA
100
AcDbLine
 10
1678.558970746478
 20
843.866436544928
 30
0.0
 11
1678.785475636409
 21
843.0211087875516
 31
0.0
  0
LINE
  5
107E
330
1F
100
AcDbEntity
  8
SANINDUSA
100
AcDbLine
 10
1630.323265831506
 20
833.997492487118
 30
0.0
 11
1627.890668004352
 21
806.1927720896759
 31
0.0
  0
ARC
  5
107F
330
1F
100
AcDbEntity
  8
SANINDUSA
100
AcDbCircle
 10
1626.894473307241
 20
806.2799278318319
 30
0.0
 40
0.9999999991575236
100
AcDbArc
 50
270.0
 51
355.0000000286657
  0
LINE
  5
1080
330
1F
100
AcDbEntity
  8
SANINDUSA
100
AcDbLine
 10
1617.310804474538
 20
805.2799278326759
 30
0.0
 11
1626.894628703714
 21
805.2799278326759
 31
0.0
  0
ARC
  5
1081
330
1F
100
AcDbEntity
  8
SANINDUSA
100
AcDbCircle
 10
1617.310804480352
 20
806.2799278326723
 30
0.0
 40
1.000000000000085
100
AcDbArc
 50
180.0
 51
270.0
  0
LINE
  5
1082
330
1F
100
AcDbEntity
  8
SANINDUSA
100
AcDbLine
 10
1616.310804480352
 20
840.1403035219168
 30
0.0
 11
1616.310804480352
 21
806.2799278326723
 31
0.0
  0
LINE
  5
1083
330
1F
100
AcDbEntity
  8
SANINDUSA
100
AcDbLine
 10
1569.310804480352
 20
830.1159725383161
 30
0.0
 11
1569.310804480352
 21
840.1406543042625
 31
0.0
  0
LINE
  5
1084
330
1F
100
AcDbEntity
  8
SANINDUSA
100
AcDbLine
 10
1567.01828477365
 20
829.204784650255
 30
0.0
 11
1568.239415904868
 21
829.1172704348621
 31
0.0
  0
ARC
  5
1085
330
1F
100
AcDbEntity
  8
SANINDUSA
100
AcDbCircle
 10
1566.631257344946
 20
827.8138000063421
 30
0.0
 40
1.443824265406199
100
AcDbArc
 50
74.45131093262846
 51
160.6812868329963
  0
LINE
  5
1086
330
1F
100
AcDbEntity
  8
SANINDUSA
100
AcDbLine
 10
1565.268730559891
 20
828.2914497420218
 30
0.0
 11
1565.759793701904
 21
820.2256982881275
 31
0.0
  0
ARC
  5
1087
330
1F
100
AcDbEntity
  8
SANINDUSA
100
AcDbCircle
 10
1567.367070038088
 20
820.8494254984483
 30
0.0
 40
1.724057091190632
100
AcDbArc
 50
201.2094750783305
 51
274.764818091838
  0
LINE
  5
1088
330
1F
100
AcDbEntity
  8
SANINDUSA
100
AcDbLine
 10
1567.510280462686
 20
819.1313266571937
 30
0.0
 11
1568.382223280796
 21
819.0688375518197
 31
0.0
  0
LINE
  5
1089
330
1F
100
AcDbEntity
  8
SANINDUSA
100
AcDbLine
 10
1569.310804480352
 20
806.2799278326723
 30
0.0
 11
1569.310804480352
 21
818.0701358745841
 31
0.0
  0
ARC
  5
108A
330
1F
100
AcDbEntity
  8
SANINDUSA
100
AcDbCircle
 10
1568.310804480352
 20
806.2799278326723
 30
0.0
 40
1.000000000000227
100
AcDbArc
 50
270.0
 51
0.0
  0
LINE
  5
108B
330
1F
100
AcDbEntity
  8
SANINDUSA
100
AcDbLine
 10
1558.720972831076
 20
805.2799278326759
 30
0.0
 11
1568.310804486166
 21
805.2799278326759
 31
0.0
  0
LWPOLYLINE
  5
108C
330
1F
100
AcDbEntity
  8
SANINDUSA
100
AcDbPolyline
 90
        7
 70
   128
 43
0.0
 10
1554.150400116286
 20
810.4016480461881
 10
1552.645853105084
 20
810.9506608766071
 10
1551.317091156881
 20
811.6445169318806
 10
1550.213607833663
 20
812.4573715468116
 10
1549.376505546839
 20
813.3589476124482
 10
1548.836964579661
 20
814.3156633341435
 10
1548.615081687865
 20
815.2918830820976
  0
LINE
  5
108D
330
1F
100
AcDbEntity
  8
SANINDUSA
100
AcDbLine
 10
1547.209920693607
 20
838.3717649666699
 30
0.0
 11
1548.615081687339
 21
815.2918830821302
 31
0.0
  0
ARC
  5
108E
330
1F
100
AcDbEntity
  8
SANINDUSA
100
AcDbCircle
 10
1517.699223940445
 20
875.5481947311976
 30
0.0
 40
30.00000000615373
100
AcDbArc
 50
192.0226042544741
 51
263.9961436720568
  0
ARC
  5
108F
330
1F
100
AcDbEntity
  8
SANINDUSA
100
AcDbCircle
 10
2114.253736112639
 20
1002.598841292032
 30
0.0
 40
639.933728196048
100
AcDbArc
 50
184.6531126615358
 51
192.0228726409957
  0
ARC
  5
1090
330
1F
100
AcDbEntity
  8
SANINDUSA
100
AcDbCircle
 10
1471.445642620412
 20
950.279927832887
 30
0.0
 40
4.999999999809538
100
AcDbArc
 50
4.653372366559552
 51
90.0
  0
LINE
  5
1091
330
1F
100
AcDbEntity
  8
SANINDUSA
100
AcDbLine
 10
1462.810804480352
 20
955.2799278326759
 30
0.0
 11
1471.445642620352
 21
955.2799278326759
 31
0.0
  0
ARC
  5
1092
330
1F
100
AcDbEntity
  8
SANINDUSA
100
AcDbCircle
 10
1462.810804480352
 20
956.2799278326723
 30
0.0
 40
1.000000000000085
100
AcDbArc
 50
180.0
 51
270.0
  0
LINE
  5
1093
330
1F
100
AcDbEntity
  8
SANINDUSA
100
AcDbLine
 10
1461.810804480352
 20
966.2799278326723
 30
0.0
 11
1461.810804480352
 21
956.2799278326723
 31
0.0
  0
ARC
  5
1094
330
1F
100
AcDbEntity
  8
SANINDUSA
100
AcDbCircle
 10
1462.810804480352
 20
966.2799278326723
 30
0.0
 40
1.000000000000227
100
AcDbArc
 50
90.0
 51
180.0
  0
LINE
  5
1095
330
1F
100
AcDbEntity
  8
SANINDUSA
100
AcDbLine
 10
1480.601378918352
 20
967.279927832625
 30
0.0
 11
1462.810804480352
 21
967.279927832676
 31
0.0
  0
ARC
  5
1096
330
1F
100
AcDbEntity
  8
SANINDUSA
100
AcDbCircle
 10
1480.601378918352
 20
962.2799278327342
 30
0.0
 40
4.999999999890292
100
AcDbArc
 50
3.64122403454431
 51
90.0
  0
ARC
  5
1097
330
1F
100
AcDbEntity
  8
SANINDUSA
100
AcDbCircle
 10
2114.292242681239
 20
1002.604602075783
 30
0.0
 40
629.9725900931638
100
AcDbArc
 50
183.6410843801308
 51
192.0226598426512
  0
ARC
  5
1098
330
1F
100
AcDbEntity
  8
SANINDUSA
100
AcDbCircle
 10
1517.699223936464
 20
875.5481947290221
 30
0.0
 40
20.00000000068942
100
AcDbArc
 50
192.02260424846
 51
263.9961436953212
  0
ARC
  5
1099
330
1F
100
AcDbEntity
  8
SANINDUSA
100
AcDbCircle
 10
1667.922419603964
 20
875.5483628719424
 30
0.0
 40
20.00000000666251
100
AcDbArc
 50
276.0055253672287
 51
347.9774111417017
  0
ARC
  5
109A
330
1F
100
AcDbEntity
  8
SANINDUSA
100
AcDbCircle
 10
1667.922419603964
 20
875.5483628719424
 30
0.0
 40
30.00000000666251
100
AcDbArc
 50
290.3295279788661
 51
301.9464968369937
  0
ARC
  5
109B
330
1F
100
AcDbEntity
  8
SANINDUSA
100
AcDbCircle
 10
1678.692407252982
 20
846.4793524578768
 30
0.0
 40
1.0
100
AcDbArc
 50
110.3295279788662
 51
203.9506790068722
  0
ARC
  5
109C
330
1F
100
AcDbEntity
  8
SANINDUSA
100
AcDbCircle
 10
1071.32936679841
 20
1002.604609870389
 30
0.0
 40
629.9725900120401
100
AcDbArc
 50
347.9773555579235
 51
356.3589149085621
  0
ARC
  5
109D
330
1F
100
AcDbEntity
  8
SANINDUSA
100
AcDbCircle
 10
1071.32936679841
 20
1002.604609870389
 30
0.0
 40
639.9725900120402
100
AcDbArc
 50
354.1747724831631
 51
355.8554782462213
  0
ARC
  5
109E
330
1F
100
AcDbEntity
  8
SANINDUSA
100
AcDbCircle
 10
1708.992049335857
 20
937.5495220917224
 30
0.0
 40
1.0
100
AcDbArc
 50
174.1747724831566
 51
287.379043616857
  0
ARC
  5
109F
330
1F
100
AcDbEntity
  8
SANINDUSA
100
AcDbCircle
 10
1710.62576517782
 20
956.279927833072
 30
0.0
 40
1.0
100
AcDbArc
 50
89.99999999760293
 51
175.8554782462278
  0
ARC
  5
10A0
330
1F
100
AcDbEntity
  8
SANINDUSA
100
AcDbCircle
 10
1705.020229984352
 20
962.2799278331781
 30
0.0
 40
5.000000000126788
100
AcDbArc
 50
90.0
 51
176.3587752592655
  0
LINE
  5
10A1
330
1F
100
AcDbEntity
  8
SANINDUSA
100
AcDbLine
 10
1720.133153284719
 20
967.279927832676
 30
0.0
 11
1705.020229984352
 21
967.2799278333053
 31
0.0
  0
LINE
  5
10A2
330
1F
100
AcDbEntity
  8
SANINDUSA
100
AcDbLine
 10
1713.919971028325
 20
957.2799278329346
 30
0.0
 11
1710.625765177861
 21
957.279927833072
 31
0.0
  0
ARC
  5
10A3
330
1F
100
AcDbEntity
  8
SANINDUSA
100
AcDbCircle
 10
1713.919971028283
 20
956.2799278329347
 30
0.0
 40
1.0
100
AcDbArc
 50
358.0000000010652
 51
89.99999999760293
  0
ARC
  5
10A4
330
1F
100
AcDbEntity
  8
SANINDUSA
100
AcDbCircle
 10
1719.085529829416
 20
932.2799278323813
 30
0.0
 40
4.999999999708393
100
AcDbArc
 50
270.0
 51
357.9999998446914
  0
LINE
  5
10A5
330
1F
100
AcDbEntity
  8
SANINDUSA
100
AcDbLine
 10
1719.085529885198
 20
927.2799278326759
 30
0.0
 11
1713.771117357352
 21
927.2799278323303
 31
0.0
  0
ARC
  5
10A6
330
1F
100
AcDbEntity
  8
SANINDUSA
100
AcDbCircle
 10
1713.771117357352
 20
922.2799278319774
 30
0.0
 40
5.000000000353281
100
AcDbArc
 50
90.0
 51
173.2683754733598
  0
ARC
  5
10A7
330
1F
100
AcDbEntity
  8
SANINDUSA
100
AcDbCircle
 10
1713.771117357352
 20
922.2799278319774
 30
0.0
 40
15.00000000035328
100
AcDbArc
 50
91.71902970407339
 51
107.379043616857
  0
ARC
  5
10A8
330
1F
100
AcDbEntity
  8
SANINDUSA
100
AcDbCircle
 10
1713.291145721335
 20
938.272727062875
 30
0.0
 40
1.0
100
AcDbArc
 50
271.7190297040734
 51
358.0000000010652
  0
ARC
  5
10A9
330
1F
100
AcDbEntity
  8
SANINDUSA
100
AcDbCircle
 10
1083.235565009821
 20
996.6992833540766
 30
0.0
 40
629.9120594620896
100
AcDbArc
 50
345.0090933341383
 51
353.2687728748443
  0
ARC
  5
10AA
330
1F
100
AcDbEntity
  8
SANINDUSA
100
AcDbCircle
 10
1083.235565009821
 20
996.6992833540766
 30
0.0
 40
619.9120594620897
100
AcDbArc
 50
345.6475749408639
 51
346.2167285987003
  0
ARC
  5
10AB
330
1F
100
AcDbEntity
  8
SANINDUSA
100
AcDbCircle
 10
1682.830960838537
 20
843.2799278326475
 30
0.0
 40
1.0
100
AcDbArc
 50
269.9999999998176
 51
345.6475749408639
  0
ARC
  5
10AC
330
1F
100
AcDbEntity
  8
SANINDUSA
100
AcDbCircle
 10
1684.325360346203
 20
849.243543248542
 30
0.0
 40
1.0
100
AcDbArc
 50
346.2167285986805
 51
121.9464968369964
  0
ARC
  5
10AD
330
1F
100
AcDbEntity
  8
SANINDUSA
100
AcDbCircle
 10
1689.777820232352
 20
834.2799278325378
 30
0.0
 40
1.999999999912915
100
AcDbArc
 50
270.0
 51
345.0096078062412
  0
LWPOLYLINE
  5
10AE
330
1F
100
AcDbEntity
  8
SANINDUSA
100
AcDbPolyline
 90
        7
 70
   128
 43
0.0
 10
1547.209920869383
 20
838.3717623056449
 10
1546.954034527798
 20
839.4216086877653
 10
1546.198326880447
 20
840.5802688313173
 10
1544.512775628555
 20
841.9248779440872
 10
1542.850740887349
 20
842.7104785280802
 10
1541.084064955662
 20
843.2311937054523
 10
1538.823816181256
 20
843.559218933214
  0
LINE
  5
10AF
330
1F
100
AcDbEntity
  8
SANINDUSA
100
AcDbLine
 10
1724.082483948228
 20
932.1054299604197
 30
0.0
 11
1725.130107025521
 21
962.1054297627829
 31
0.0
  0
LINE
  5
10B0
330
1F
100
AcDbEntity
  8
SANINDUSA
100
AcDbLine
 10
1714.290536548355
 20
938.237827566191
 30
0.0
 11
1714.919361855303
 21
956.2450283362508
 31
0.0
  0
LINE
  5
10B5
330
1F
100
AcDbEntity
  8
SANINDUSA
100
AcDbLine
 10
1387.310804480353
 20
892.2799278327705
 30
0.0
 11
1404.359475991813
 21
892.279927832676
 31
0.0
  0
LINE
  5
10B7
330
1F
100
AcDbEntity
  8
SANINDUSA
100
AcDbLine
 10
1396.310804480229
 20
902.2799278327207
 30
0.0
 11
1398.665688592844
 21
902.2799278327076
 31
0.0
  0
ARC
  5
10B8
330
1F
100
AcDbEntity
  8
SANINDUSA
100
AcDbCircle
 10
1387.310804480352
 20
894.2799278329706
 30
0.0
 40
2.000000000200827
100
AcDbArc
 50
180.0
 51
270.0
  0
LINE
  5
10B9
330
1F
100
AcDbEntity
  8
SANINDUSA
100
AcDbLine
 10
1385.310804480352
 20
965.2799278318537
 30
0.0
 11
1385.310804480218
 21
894.2799278329706
 31
0.0
  0
LINE
  5
10BA
330
1F
100
AcDbEntity
  8
SANINDUSA
100
AcDbLine
 10
1395.310804480335
 20
956.2799278326778
 30
0.0
 11
1395.310804480235
 21
903.2799278327225
 31
0.0
  0
ARC
  5
10BB
330
1F
100
AcDbEntity
  8
SANINDUSA
100
AcDbCircle
 10
1396.310804480235
 20
903.2799278327207
 30
0.0
 40
1.0
100
AcDbArc
 50
179.9999999998892
 51
269.9999999996874
  0
ARC
  5
10BC
330
1F
100
AcDbEntity
  8
SANINDUSA
100
AcDbCircle
 10
1387.310804480353
 20
965.279927832676
 30
0.0
 40
2.000000000001307
100
AcDbArc
 50
90.0
 51
180.0000000234756
  0
LINE
  5
10BD
330
1F
100
AcDbEntity
  8
SANINDUSA
100
AcDbLine
 10
1425.810804480352
 20
967.279927832676
 30
0.0
 11
1387.310804480353
 21
967.279927832676
 31
0.0
  0
LINE
  5
10BE
330
1F
100
AcDbEntity
  8
SANINDUSA
100
AcDbLine
 10
1402.318414781096
 20
957.279927832676
 30
0.0
 11
1396.310804480335
 21
957.279927832676
 31
0.0
  0
ARC
  5
10BF
330
1F
100
AcDbEntity
  8
SANINDUSA
100
AcDbCircle
 10
1396.310804480335
 20
956.279927832676
 30
0.0
 40
1.0
100
AcDbArc
 50
90.0
 51
179.9999999998892
  0
ARC
  5
10C0
330
1F
100
AcDbEntity
  8
SANINDUSA
100
AcDbCircle
 10
1425.810804480352
 20
966.2799278326723
 30
0.0
 40
1.000000000000227
100
AcDbArc
 50
0.0
 51
90.0
  0
LINE
  5
10C1
330
1F
100
AcDbEntity
  8
SANINDUSA
100
AcDbLine
 10
1426.810804480352
 20
956.2799278326723
 30
0.0
 11
1426.810804480352
 21
966.2799278326723
 31
0.0
  0
ARC
  5
10C2
330
1F
100
AcDbEntity
  8
SANINDUSA
100
AcDbCircle
 10
1425.810804480352
 20
956.2799278326723
 30
0.0
 40
0.9999999999999431
100
AcDbArc
 50
270.0
 51
0.0
  0
LINE
  5
10C3
330
1F
100
AcDbEntity
  8
SANINDUSA
100
AcDbLine
 10
1417.150811755214
 20
955.2799278326759
 30
0.0
 11
1425.810804480352
 21
955.2799278326759
 31
0.0
  0
ARC
  5
10C4
330
1F
100
AcDbEntity
  8
SANINDUSA
100
AcDbCircle
 10
1417.150811755632
 20
950.2799278321303
 30
0.0
 40
5.000000000545128
100
AcDbArc
 50
90.0
 51
176.9999999965243
  0
ARC
  5
10C5
330
1F
100
AcDbEntity
  8
SANINDUSA
100
AcDbCircle
 10
1417.150811755632
 20
950.2799278321303
 30
0.0
 40
15.00000000054513
100
AcDbArc
 50
157.9756871616092
 51
176.9999999965243
  0
ARC
  5
10C6
330
1F
100
AcDbEntity
  8
SANINDUSA
100
AcDbCircle
 10
1402.318414781096
 20
956.279927832676
 30
0.0
 40
1.0
100
AcDbArc
 50
337.9756871616093
 51
90.0
  0
LINE
  5
10C7
330
1F
100
AcDbEntity
  8
SANINDUSA
100
AcDbLine
 10
1409.352623666281
 20
897.0182480407833
 30
0.0
 11
1412.157664081913
 21
950.5416076136766
 31
0.0
  0
LINE
  5
10C8
330
1F
100
AcDbEntity
  8
SANINDUSA
100
AcDbLine
 10
1399.664318127603
 20
903.2275918764526
 30
0.0
 11
1402.171368734374
 21
951.0649671762266
 31
0.0
  0
ARC
  5
10C9
330
1F
100
AcDbEntity
  8
SANINDUSA
100
AcDbCircle
 10
1398.665688592849
 20
903.2799278327075
 30
0.0
 40
1.0
100
AcDbArc
 50
269.9999999996874
 51
356.999999999303
  0
ARC
  5
10CA
330
1F
100
AcDbEntity
  8
SANINDUSA
100
AcDbCircle
 10
1404.359475992354
 20
897.2799278329816
 30
0.0
 40
4.999999999858175
100
AcDbArc
 50
270.0
 51
356.9999999944109
  0
ARC
  5
10CE
330
1F
100
AcDbEntity
  8
SANINDUSA
100
AcDbCircle
 10
1446.348622471974
 20
1142.3640699769
 30
0.0
 40
253.584633947222
100
AcDbArc
 50
260.4689324009456
 51
261.5479974601509
  0
LWPOLYLINE
  5
10CF
330
1F
100
AcDbEntity
  8
SANINDUSA
100
AcDbPolyline
 90
        3
 70
   128
 43
0.0
 10
1409.076538134352
 20
891.5335329538441
 10
1409.516054235019
 20
891.4397851445441
 10
1409.659843188352
 20
891.3348675877253
  0
LINE
  5
10DA
330
1F
100
AcDbEntity
  8
SANINDUSA
100
AcDbLine
 10
1630.172998395376
 20
832.2799278326723
 30
0.0
 11
1675.147439414586
 21
832.2799278326723
 31
0.0
  0
LINE
  5
10DB
330
1F
100
AcDbEntity
  8
SANINDUSA
100
AcDbLine
 10
1592.810804616352
 20
967.2799278326722
 30
0.0
 11
1705.020229984352
 21
967.2799278333053
 31
0.0
  0
LINE
  5
10DD
330
1F
100
AcDbEntity
  8
SANINDUSA
100
AcDbLine
 10
1592.810804616352
 20
967.2799278326722
 30
0.0
 11
1480.601378918352
 21
967.279927832625
 31
0.0
  0
LINE
  5
10E6
330
1F
100
AcDbEntity
  8
SANINDUSA
100
AcDbLine
 10
1385.310804480218
 20
882.3664961373774
 30
0.0
 11
1385.310804480218
 21
894.2799278329706
 31
0.0
  0
LINE
  5
10E7
330
1F
100
AcDbEntity
  8
SANINDUSA
100
AcDbLine
 10
1568.310804486166
 20
805.2799278326759
 30
0.0
 11
1617.310804474538
 21
805.2799278326759
 31
0.0
  0
LINE
  5
10E9
330
1F
100
AcDbEntity
  8
SANINDUSA
100
AcDbLine
 10
1462.810804480352
 20
955.2799278326759
 30
0.0
 11
1425.810804480352
 21
955.2799278326759
 31
0.0
  0
LINE
  5
10EB
330
1F
100
AcDbEntity
  8
SANINDUSA
100
AcDbLine
 10
1425.810804480352
 20
967.279927832676
 30
0.0
 11
1462.810804480352
 21
967.279927832676
 31
0.0
  0
ARC
  5
10EE
330
1F
100
AcDbEntity
  8
SANINDUSA
100
AcDbCircle
 10
1422.501784165352
 20
950.279927832676
 30
0.0
 40
5.0
100
AcDbArc
 50
90.0
 51
176.9999999982723
  0
LINE
  5
10F0
330
1F
100
AcDbEntity
  8
SANINDUSA
100
AcDbLine
 10
1417.508636491587
 20
950.5416076140404
 30
0.0
 11
1414.652990872377
 21
896.0526432127602
 31
0.0
  0
ARC
  5
10F2
330
1F
100
AcDbEntity
  8
SANINDUSA
100
AcDbCircle
 10
1409.671920151093
 20
896.3232699958183
 30
0.0
 40
4.988417022585663
100
AcDbArc
 50
269.8612865048498
 51
356.8901157617535
  0
LINE
  5
10F4
330
1F
100
AcDbEntity
  8
SANINDUSA
100
AcDbLine
 10
1414.652990862206
 20
896.0526430186813
 30
0.0
 11
1414.071166003628
 21
884.9507633716651
 31
0.0
  0
LINE
  5
10F9
330
1F
100
AcDbEntity
  8
SANINDUSA
100
AcDbLine
 10
1414.071166003628
 20
884.9507633716651
 30
0.0
 11
1411.711395314639
 21
839.9236562971758
 31
0.0
  0
LINE
  5
10FB
330
1F
100
AcDbEntity
  8
SANINDUSA
100
AcDbLine
 10
1385.310804480218
 20
838.9285811836501
 30
0.0
 11
1385.310804480218
 21
882.3664961373774
 31
0.0
  0
LINE
  5
10FE
330
1F
100
AcDbEntity
  8
SANINDUSA
100
AcDbLine
 10
1406.565981586384
 20
832.2799278326723
 30
0.0
 11
1387.310804480353
 21
832.2799278326723
 31
0.0
  0
ARC
  5
10FF
330
1F
100
AcDbEntity
  8
SANINDUSA
100
AcDbCircle
 10
1406.565981646352
 20
837.2799278326723
 30
0.0
 40
5.000000000000155
100
AcDbArc
 50
338.8700457051593
 51
357.0000000217803
  0
LINE
  5
1100
330
1F
100
AcDbEntity
  8
SANINDUSA
100
AcDbLine
 10
1411.711395314639
 20
839.9236562971758
 30
0.0
 11
1411.559129320225
 21
837.0182480533598
 31
0.0
  0
ARC
  5
1101
330
1F
100
AcDbEntity
  8
SANINDUSA
100
AcDbCircle
 10
1387.310804480353
 20
834.279927832676
 30
0.0
 40
2.00000000000017
100
AcDbArc
 50
180.0000000102917
 51
270.0
  0
LINE
  5
1102
330
1F
100
AcDbEntity
  8
SANINDUSA
100
AcDbLine
 10
1385.310804480352
 20
834.2799278323157
 30
0.0
 11
1385.310804480218
 21
838.9285811836501
 31
0.0
  0
LINE
  5
1109
330
1F
100
AcDbEntity
  8
SANINDUSA
100
AcDbLine
 10
1421.545424668352
 20
832.2799278326723
 30
0.0
 11
1406.565981646352
 21
832.2799278326723
 31
0.0
  0
LINE
  5
110E
330
1F
100
AcDbEntity
  8
SANINDUSA
100
AcDbLine
 10
1541.900818103352
 20
832.2799278326723
 30
0.0
 11
1421.545424668352
 21
832.2799278326723
 31
0.0
  0
LINE
  5
110F
330
1F
100
AcDbEntity
  8
SANINDUSA
100
AcDbLine
 10
1541.900818103352
 20
832.2799278326723
 30
0.0
 11
1547.580806990326
 21
832.2799278326723
 31
0.0
  0
ENDSEC
  0
SECTION
  2
OBJECTS
  0
DICTIONARY
  5
C
330
0
100
AcDbDictionary
281
     1
  3
ACAD_COLOR
350
BA9
  3
ACAD_GROUP
350
D
  3
ACAD_LAYOUT
350
1A
  3
ACAD_MATERIAL
350
BA8
  3
ACAD_MLEADERSTYLE
350
139D
  3
ACAD_MLINESTYLE
350
17
  3
ACAD_PLOTSETTINGS
350
19
  3
ACAD_PLOTSTYLENAME
350
E
  3
ACAD_SCALELIST
350
138B
  3
ACAD_TABLESTYLE
350
BAA
  3
ACAD_VISUALSTYLE
350
1377
  3
ACDB_RECOMPOSE_DATA
350
13CB
  3
AcDbVariableDictionary
350
3D
  3
ASE_INDEX_DICTIONARY
350
13C2
  3
DWGPROPS
350
13CC
  0
DICTIONARY
  5
13A4
330
10
100
AcDbDictionary
280
     1
281
     1
  3
ADSK_XREC_LAYER_RECONCILED
360
13A5
  0
DICTIONARY
  5
13A6
330
2F
100
AcDbDictionary
280
     1
281
     1
  3
ADSK_XREC_LAYER_RECONCILED
360
13A7
  0
DICTIONARY
  5
13A8
330
30
100
AcDbDictionary
280
     1
281
     1
  3
ADSK_XREC_LAYER_RECONCILED
360
13A9
  0
DICTIONARY
  5
13AA
330
31
100
AcDbDictionary
280
     1
281
     1
  3
ADSK_XREC_LAYER_RECONCILED
360
13AB
  0
DICTIONARY
  5
13AC
330
32
100
AcDbDictionary
280
     1
281
     1
  3
ADSK_XREC_LAYER_RECONCILED
360
13AD
  0
DICTIONARY
  5
13AE
330
33
100
AcDbDictionary
280
     1
281
     1
  3
ADSK_XREC_LAYER_RECONCILED
360
13AF
  0
DICTIONARY
  5
13B0
330
34
100
AcDbDictionary
280
     1
281
     1
  3
ADSK_XREC_LAYER_RECONCILED
360
13B1
  0
DICTIONARY
  5
13B2
330
35
100
AcDbDictionary
280
     1
281
     1
  3
ADSK_XREC_LAYER_RECONCILED
360
13B3
  0
DICTIONARY
  5
13B4
330
36
100
AcDbDictionary
280
     1
281
     1
  3
ADSK_XREC_LAYER_RECONCILED
360
13B5
  0
DICTIONARY
  5
13B6
330
37
100
AcDbDictionary
280
     1
281
     1
  3
ADSK_XREC_LAYER_RECONCILED
360
13B7
  0
DICTIONARY
  5
13B8
330
5D6
100
AcDbDictionary
280
     1
281
     1
  3
ADSK_XREC_LAYER_RECONCILED
360
13B9
  0
DICTIONARY
  5
13BA
330
8AF
100
AcDbDictionary
280
     1
281
     1
  3
ADSK_XREC_LAYER_RECONCILED
360
13BB
  0
DICTIONARY
  5
13BC
330
8F8
100
AcDbDictionary
280
     1
281
     1
  3
ADSK_XREC_LAYER_RECONCILED
360
13BD
  0
DICTIONARY
  5
13BE
330
91D
100
AcDbDictionary
280
     1
281
     1
  3
ADSK_XREC_LAYER_RECONCILED
360
13BF
  0
DICTIONARY
  5
13C0
330
BA5
100
AcDbDictionary
280
     1
281
     1
  3
ADSK_XREC_LAYER_RECONCILED
360
13C1
  0
DICTIONARY
  5
BA9
102
{ACAD_REACTORS
330
C
102
}
330
C
100
AcDbDictionary
281
     1
  0
DICTIONARY
  5
D
102
{ACAD_REACTORS
330
C
102
}
330
C
100
AcDbDictionary
281
     1
  0
DICTIONARY
  5
1A
102
{ACAD_REACTORS
330
C
102
}
330
C
100
AcDbDictionary
281
     1
  3
Layout1
350
1E
  3
Layout2
350
26
  3
Model
350
22
  0
DICTIONARY
  5
BA8
102
{ACAD_REACTORS
330
C
102
}
330
C
100
AcDbDictionary
281
     1
  3
ByBlock
350
1367
  3
ByLayer
350
135F
  3
Global
350
136F
  0
DICTIONARY
  5
139D
102
{ACAD_REACTORS
330
C
102
}
330
C
100
AcDbDictionary
281
     1
  3
Standard
350
139E
  0
DICTIONARY
  5
17
102
{ACAD_REACTORS
330
C
102
}
330
C
100
AcDbDictionary
281
     1
  3
Standard
350
18
  0
DICTIONARY
  5
19
102
{ACAD_REACTORS
330
C
102
}
330
C
100
AcDbDictionary
281
     1
  0
ACDBDICTIONARYWDFLT
  5
E
102
{ACAD_REACTORS
330
C
102
}
330
C
100
AcDbDictionary
281
     1
  3
Normal
350
F
100
AcDbDictionaryWithDefault
340
F
  0
DICTIONARY
  5
138B
102
{ACAD_REACTORS
330
C
102
}
330
C
100
AcDbDictionary
281
     1
  3
A0
350
138C
  3
A1
350
138D
  3
A2
350
138E
  3
A3
350
138F
  3
A4
350
1390
  3
A5
350
1391
  3
A6
350
1392
  3
A7
350
1393
  3
A8
350
1394
  3
A9
350
1395
  3
B0
350
1396
  3
B1
350
1397
  3
B2
350
1398
  3
B3
350
1399
  3
B4
350
139A
  3
B5
350
139B
  3
B6
350
139C
  0
DICTIONARY
  5
BAA
102
{ACAD_REACTORS
330
C
102
}
330
C
100
AcDbDictionary
281
     1
  3
Standard
350
BAB
  0
DICTIONARY
  5
1377
102
{ACAD_REACTORS
330
C
102
}
330
C
100
AcDbDictionary
281
     1
  3
2dWireframe
350
137D
  3
3D Hidden
350
137F
  3
3dWireframe
350
137E
  3
Basic
350
137C
  3
Brighten
350
1383
  3
ColorChange
350
1387
  3
Conceptual
350
1380
  3
Dim
350
1382
  3
EdgeColorOff
350
138A
  3
Facepattern
350
1386
  3
Flat
350
1378
  3
FlatWithEdges
350
1379
  3
Gouraud
350
137A
  3
GouraudWithEdges
350
137B
  3
JitterOff
350
1388
  3
Linepattern
350
1385
  3
OverhangOff
350
1389
  3
Realistic
350
1381
  3
Thicken
350
1384
  0
XRECORD
  5
13CB
102
{ACAD_REACTORS
330
C
102
}
330
C
100
AcDbXrecord
280
     1
 90
        1
330
BAB
  0
DICTIONARY
  5
3D
102
{ACAD_REACTORS
330
C
102
}
330
C
100
AcDbDictionary
281
     1
  3
CANNOSCALE
350
13C5
  3
CMLEADERSTYLE
350
13C4
  3
CTABLESTYLE
350
BB1
  3
DIMASSOC
350
3F
  3
HIDETEXT
350
3E
  3
INDEXCTL
350
13C7
  3
PROJECTNAME
350
135D
  3
SORTENTS
350
13C6
  3
XCLIPFRAME
350
13C8
  0
DICTIONARY
  5
13C2
102
{ACAD_REACTORS
330
C
102
}
330
C
100
AcDbDictionary
281
     1
  3
ASEBlockHierarchyIndexRecord
350
13C3
1001
DCO15
1040
1757680901.546
  0
XRECORD
  5
13CC
102
{ACAD_REACTORS
330
C
102
}
330
C
100
AcDbXrecord
280
     1
  1
DWGPROPS COOKIE
  2

  3

  4

  6

  7

  8
Julio
  9

300
=
301
=
302
=
303
=
304
=
305
=
306
=
307
=
308
=
309
=
 40
0.003105474537037
 41
2453913.383639861
 42
2456146.740804931
  1

 90
        0
  0
XRECORD
  5
13A5
102
{ACAD_REACTORS
330
13A4
102
}
330
13A4
100
AcDbXrecord
280
     1
290
     1
  0
XRECORD
  5
13A7
102
{ACAD_REACTORS
330
13A6
102
}
330
13A6
100
AcDbXrecord
280
     1
290
     1
  0
XRECORD
  5
13A9
102
{ACAD_REACTORS
330
13A8
102
}
330
13A8
100
AcDbXrecord
280
     1
290
     1
  0
XRECORD
  5
13AB
102
{ACAD_REACTORS
330
13AA
102
}
330
13AA
100
AcDbXrecord
280
     1
290
     1
  0
XRECORD
  5
13AD
102
{ACAD_REACTORS
330
13AC
102
}
330
13AC
100
AcDbXrecord
280
     1
290
     1
  0
XRECORD
  5
13AF
102
{ACAD_REACTORS
330
13AE
102
}
330
13AE
100
AcDbXrecord
280
     1
290
     1
  0
XRECORD
  5
13B1
102
{ACAD_REACTORS
330
13B0
102
}
330
13B0
100
AcDbXrecord
280
     1
290
     1
  0
XRECORD
  5
13B3
102
{ACAD_REACTORS
330
13B2
102
}
330
13B2
100
AcDbXrecord
280
     1
290
     1
  0
XRECORD
  5
13B5
102
{ACAD_REACTORS
330
13B4
102
}
330
13B4
100
AcDbXrecord
280
     1
290
     1
  0
XRECORD
  5
13B7
102
{ACAD_REACTORS
330
13B6
102
}
330
13B6
100
AcDbXrecord
280
     1
290
     1
  0
XRECORD
  5
13B9
102
{ACAD_REACTORS
330
13B8
102
}
330
13B8
100
AcDbXrecord
280
     1
290
     1
  0
XRECORD
  5
13BB
102
{ACAD_REACTORS
330
13BA
102
}
330
13BA
100
AcDbXrecord
280
     1
290
     1
  0
XRECORD
  5
13BD
102
{ACAD_REACTORS
330
13BC
102
}
330
13BC
100
AcDbXrecord
280
     1
290
     1
  0
XRECORD
  5
13BF
102
{ACAD_REACTORS
330
13BE
102
}
330
13BE
100
AcDbXrecord
280
     1
290
     1
  0
XRECORD
  5
13C1
102
{ACAD_REACTORS
330
13C0
102
}
330
13C0
100
AcDbXrecord
280
     1
290
     1
  0
LAYOUT
  5
1E
102
{ACAD_XDICTIONARY
360
13CD
102
}
102
{ACAD_REACTORS
330
1A
102
}
330
1A
100
AcDbPlotSettings
  1

  2
Ploter HP500
  4

  6

 40
0.0
 41
0.0
 42
0.0
 43
0.0
 44
0.0
 45
0.0
 46
0.0
 47
0.0
 48
0.0
 49
0.0
140
0.0
141
0.0
142
1.0
143
1.0
 70
   688
 72
     0
 73
     0
 74
     5
  7
monochrome.ctb
 75
    16
147
1.0
148
0.0
149
0.0
100
AcDbLayout
  1
Layout1
 70
     1
 71
     1
 10
0.0
 20
0.0
 11
420.0
 21
297.0
 12
0.0
 22
0.0
 32
0.0
 14
1.000000000000000E+20
 24
1.000000000000000E+20
 34
1.000000000000000E+20
 15
-1.000000000000000E+20
 25
-1.000000000000000E+20
 35
-1.000000000000000E+20
146
0.0
 13
0.0
 23
0.0
 33
0.0
 16
1.0
 26
0.0
 36
0.0
 17
0.0
 27
1.0
 37
0.0
 76
     0
330
1B
  0
LAYOUT
  5
26
102
{ACAD_XDICTIONARY
360
13D1
102
}
102
{ACAD_REACTORS
330
1A
102
}
330
1A
100
AcDbPlotSettings
  1

  2
Ploter HP500
  4

  6

 40
0.0
 41
0.0
 42
0.0
 43
0.0
 44
0.0
 45
0.0
 46
0.0
 47
0.0
 48
0.0
 49
0.0
140
0.0
141
0.0
142
1.0
143
1.0
 70
   688
 72
     0
 73
     0
 74
     5
  7
monochrome.ctb
 75
    16
147
1.0
148
0.0
149
0.0
100
AcDbLayout
  1
Layout2
 70
     1
 71
     2
 10
0.0
 20
0.0
 11
12.0
 21
9.0
 12
0.0
 22
0.0
 32
0.0
 14
0.0
 24
0.0
 34
0.0
 15
0.0
 25
0.0
 35
0.0
146
0.0
 13
0.0
 23
0.0
 33
0.0
 16
1.0
 26
0.0
 36
0.0
 17
0.0
 27
1.0
 37
0.0
 76
     0
330
23
  0
LAYOUT
  5
22
102
{ACAD_XDICTIONARY
360
13CF
102
}
102
{ACAD_REACTORS
330
1A
102
}
330
1A
100
AcDbPlotSettings
  1

  2
Ploter HP500
  4
User268
  6

 40
4.995333194732666
 41
16.97565841674804
 42
4.995330810546875
 43
16.97567749023437
 44
209.9733276367187
 45
296.9259948730469
 46
0.0
 47
0.0
 48
0.0
 49
0.0
140
0.0
141
0.0
142
1.0
143
1.0
 70
 11952
 72
     1
 73
     1
 74
     0
  7
sanindusa.ctb
 75
     0
147
1.0
148
-427.5957866592534
149
7.362384574453926
100
AcDbLayout
  1
Model
 70
     1
 71
     0
 10
0.0
 20
0.0
 11
12.0
 21
9.0
 12
0.0
 22
0.0
 32
0.0
 14
0.0
 24
0.0
 34
0.0
 15
0.0
 25
0.0
 35
0.0
146
0.0
 13
0.0
 23
0.0
 33
0.0
 16
1.0
 26
0.0
 36
0.0
 17
0.0
 27
1.0
 37
0.0
 76
     0
330
1F
331
1355
  0
MATERIAL
  5
1367
102
{ACAD_XDICTIONARY
360
1368
102
}
102
{ACAD_REACTORS
330
BA8
102
}
330
BA8
100
AcDbMaterial
  1
ByBlock
 72
     0
 43
0.0008202099737533
 43
0.0
 43
0.0
 43
0.0
 43
0.0
 43
0.0008202099737533
 43
0.0
 43
0.0
 43
0.0
 43
0.0
 43
1.0
 43
0.0
 43
0.0
 43
0.0
 43
0.0
 43
1.0
 77
     0
 47
0.0008202099737533
 47
0.0
 47
0.0
 47
0.0
 47
0.0
 47
0.0008202099737533
 47
0.0
 47
0.0
 47
0.0
 47
0.0
 47
1.0
 47
0.0
 47
0.0
 47
0.0
 47
0.0
 47
1.0
171
     0
 49
0.0008202099737533
 49
0.0
 49
0.0
 49
0.0
 49
0.0
 49
0.0008202099737533
 49
0.0
 49
0.0
 49
0.0
 49
0.0
 49
1.0
 49
0.0
 49
0.0
 49
0.0
 49
0.0
 49
1.0
175
     0
142
0.0008202099737533
142
0.0
142
0.0
142
0.0
142
0.0
142
0.0008202099737533
142
0.0
142
0.0
142
0.0
142
0.0
142
1.0
142
0.0
142
0.0
142
0.0
142
0.0
142
1.0
179
     0
144
0.0008202099737533
144
0.0
144
0.0
144
0.0
144
0.0
144
0.0008202099737533
144
0.0
144
0.0
144
0.0
144
0.0
144
1.0
144
0.0
144
0.0
144
0.0
144
0.0
144
1.0
147
0.0008202099737533
147
0.0
147
0.0
147
0.0
147
0.0
147
0.0008202099737533
147
0.0
147
0.0
147
0.0
147
0.0
147
1.0
147
0.0
147
0.0
147
0.0
147
0.0
147
1.0
  0
MATERIAL
  5
135F
102
{ACAD_XDICTIONARY
360
1360
102
}
102
{ACAD_REACTORS
330
BA8
102
}
330
BA8
100
AcDbMaterial
  1
ByLayer
 72
     0
 43
0.0008202099737533
 43
0.0
 43
0.0
 43
0.0
 43
0.0
 43
0.0008202099737533
 43
0.0
 43
0.0
 43
0.0
 43
0.0
 43
1.0
 43
0.0
 43
0.0
 43
0.0
 43
0.0
 43
1.0
 77
     0
 47
0.0008202099737533
 47
0.0
 47
0.0
 47
0.0
 47
0.0
 47
0.0008202099737533
 47
0.0
 47
0.0
 47
0.0
 47
0.0
 47
1.0
 47
0.0
 47
0.0
 47
0.0
 47
0.0
 47
1.0
171
     0
 49
0.0008202099737533
 49
0.0
 49
0.0
 49
0.0
 49
0.0
 49
0.0008202099737533
 49
0.0
 49
0.0
 49
0.0
 49
0.0
 49
1.0
 49
0.0
 49
0.0
 49
0.0
 49
0.0
 49
1.0
175
     0
142
0.0008202099737533
142
0.0
142
0.0
142
0.0
142
0.0
142
0.0008202099737533
142
0.0
142
0.0
142
0.0
142
0.0
142
1.0
142
0.0
142
0.0
142
0.0
142
0.0
142
1.0
179
     0
144
0.0008202099737533
144
0.0
144
0.0
144
0.0
144
0.0
144
0.0008202099737533
144
0.0
144
0.0
144
0.0
144
0.0
144
1.0
144
0.0
144
0.0
144
0.0
144
0.0
144
1.0
147
0.0008202099737533
147
0.0
147
0.0
147
0.0
147
0.0
147
0.0008202099737533
147
0.0
147
0.0
147
0.0
147
0.0
147
1.0
147
0.0
147
0.0
147
0.0
147
0.0
147
1.0
  0
MATERIAL
  5
136F
102
{ACAD_XDICTIONARY
360
1370
102
}
102
{ACAD_REACTORS
330
BA8
102
}
330
BA8
100
AcDbMaterial
  1
Global
 72
     0
 43
0.0008202099737533
 43
0.0
 43
0.0
 43
0.0
 43
0.0
 43
0.0008202099737533
 43
0.0
 43
0.0
 43
0.0
 43
0.0
 43
1.0
 43
0.0
 43
0.0
 43
0.0
 43
0.0
 43
1.0
 77
     0
 47
0.0008202099737533
 47
0.0
 47
0.0
 47
0.0
 47
0.0
 47
0.0008202099737533
 47
0.0
 47
0.0
 47
0.0
 47
0.0
 47
1.0
 47
0.0
 47
0.0
 47
0.0
 47
0.0
 47
1.0
171
     0
 49
0.0008202099737533
 49
0.0
 49
0.0
 49
0.0
 49
0.0
 49
0.0008202099737533
 49
0.0
 49
0.0
 49
0.0
 49
0.0
 49
1.0
 49
0.0
 49
0.0
 49
0.0
 49
0.0
 49
1.0
175
     0
142
0.0008202099737533
142
0.0
142
0.0
142
0.0
142
0.0
142
0.0008202099737533
142
0.0
142
0.0
142
0.0
142
0.0
142
1.0
142
0.0
142
0.0
142
0.0
142
0.0
142
1.0
179
     0
144
0.0008202099737533
144
0.0
144
0.0
144
0.0
144
0.0
144
0.0008202099737533
144
0.0
144
0.0
144
0.0
144
0.0
144
1.0
144
0.0
144
0.0
144
0.0
144
0.0
144
1.0
147
0.0008202099737533
147
0.0
147
0.0
147
0.0
147
0.0
147
0.0008202099737533
147
0.0
147
0.0
147
0.0
147
0.0
147
1.0
147
0.0
147
0.0
147
0.0
147
0.0
147
1.0
  0
MLEADERSTYLE
  5
139E
102
{ACAD_REACTORS
330
139D
102
}
330
139D
100
AcDbMLeaderStyle
170
     2
171
     1
172
     0
 90
        2
 40
0.0
 41
0.0
173
     1
 91
-1056964608
340
14
 92
       -2
290
     1
 42
2.0
291
     1
 43
0.36
  3
Standard
 44
4.0
300

342
11
174
     1
178
     6
175
     1
176
     0
 93
-1056964608
 45
4.0
292
     0
297
     0
 46
4.0
 94
-1056964608
 47
1.0
 49
1.0
140
1.0
293
     1
141
0.0
294
     1
177
     0
142
1.0
295
     0
296
     0
143
0.125
1001
ACAD_MLEADERVER
1070
     2
  0
MLINESTYLE
  5
18
102
{ACAD_REACTORS
330
17
102
}
330
17
100
AcDbMlineStyle
  2
STANDARD
 70
     0
  3

 62
   256
 51
90.0
 52
90.0
 71
     2
 49
0.5
 62
   256
  6
BYLAYER
 49
-0.5
 62
   256
  6
BYLAYER
  0
ACDBPLACEHOLDER
  5
F
102
{ACAD_REACTORS
330
E
102
}
330
E
  0
SCALE
  5
138C
102
{ACAD_REACTORS
330
138B
102
}
330
138B
100
AcDbScale
 70
     0
300
1:1
140
1.0
141
1.0
290
     1
  0
SCALE
  5
138D
102
{ACAD_REACTORS
330
138B
102
}
330
138B
100
AcDbScale
 70
     0
300
1:2
140
1.0
141
2.0
290
     0
  0
SCALE
  5
138E
102
{ACAD_REACTORS
330
138B
102
}
330
138B
100
AcDbScale
 70
     0
300
1:4
140
1.0
141
4.0
290
     0
  0
SCALE
  5
138F
102
{ACAD_REACTORS
330
138B
102
}
330
138B
100
AcDbScale
 70
     0
300
1:5
140
1.0
141
5.0
290
     0
  0
SCALE
  5
1390
102
{ACAD_REACTORS
330
138B
102
}
330
138B
100
AcDbScale
 70
     0
300
1:8
140
1.0
141
8.0
290
     0
  0
SCALE
  5
1391
102
{ACAD_REACTORS
330
138B
102
}
330
138B
100
AcDbScale
 70
     0
300
1:10
140
1.0
141
10.0
290
     0
  0
SCALE
  5
1392
102
{ACAD_REACTORS
330
138B
102
}
330
138B
100
AcDbScale
 70
     0
300
1:16
140
1.0
141
16.0
290
     0
  0
SCALE
  5
1393
102
{ACAD_REACTORS
330
138B
102
}
330
138B
100
AcDbScale
 70
     0
300
1:20
140
1.0
141
20.0
290
     0
  0
SCALE
  5
1394
102
{ACAD_REACTORS
330
138B
102
}
330
138B
100
AcDbScale
 70
     0
300
1:30
140
1.0
141
30.0
290
     0
  0
SCALE
  5
1395
102
{ACAD_REACTORS
330
138B
102
}
330
138B
100
AcDbScale
 70
     0
300
1:40
140
1.0
141
40.0
290
     0
  0
SCALE
  5
1396
102
{ACAD_REACTORS
330
138B
102
}
330
138B
100
AcDbScale
 70
     0
300
1:50
140
1.0
141
50.0
290
     0
  0
SCALE
  5
1397
102
{ACAD_REACTORS
330
138B
102
}
330
138B
100
AcDbScale
 70
     0
300
1:100
140
1.0
141
100.0
290
     0
  0
SCALE
  5
1398
102
{ACAD_REACTORS
330
138B
102
}
330
138B
100
AcDbScale
 70
     0
300
2:1
140
2.0
141
1.0
290
     0
  0
SCALE
  5
1399
102
{ACAD_REACTORS
330
138B
102
}
330
138B
100
AcDbScale
 70
     0
300
4:1
140
4.0
141
1.0
290
     0
  0
SCALE
  5
139A
102
{ACAD_REACTORS
330
138B
102
}
330
138B
100
AcDbScale
 70
     0
300
8:1
140
8.0
141
1.0
290
     0
  0
SCALE
  5
139B
102
{ACAD_REACTORS
330
138B
102
}
330
138B
100
AcDbScale
 70
     0
300
10:1
140
10.0
141
1.0
290
     0
  0
SCALE
  5
139C
102
{ACAD_REACTORS
330
138B
102
}
330
138B
100
AcDbScale
 70
     0
300
100:1
140
100.0
141
1.0
290
     0
  0
TABLESTYLE
  5
BAB
102
{ACAD_XDICTIONARY
360
13C9
102
}
102
{ACAD_REACTORS
330
BAA
102
}
330
BAA
100
AcDbTableStyle
  3
Standard
 70
     0
 71
     0
 40
1.5
 41
1.5
280
     0
281
     0
  7
Standard
140
4.5
170
     2
 62
     0
 63
     7
283
     0
274
    -2
284
     1
 64
     0
275
    -2
285
     1
 65
     0
276
    -2
286
     1
 66
     0
277
    -2
287
     1
 67
     0
278
    -2
288
     1
 68
     0
279
    -2
289
     1
 69
     0
  7
Standard
140
6.0
170
     5
 62
     0
 63
     7
283
     0
274
    -2
284
     1
 64
     0
275
    -2
285
     1
 65
     0
276
    -2
286
     1
 66
     0
277
    -2
287
     1
 67
     0
278
    -2
288
     1
 68
     0
279
    -2
289
     1
 69
     0
  7
Standard
140
4.5
170
     5
 62
     0
 63
     7
283
     0
274
    -2
284
     1
 64
     0
275
    -2
285
     1
 65
     0
276
    -2
286
     1
 66
     0
277
    -2
287
     1
 67
     0
278
    -2
288
     1
 68
     0
279
    -2
289
     1
 69
     0
  0
VISUALSTYLE
  5
137D
102
{ACAD_XDICTIONARY
360
13F1
102
}
102
{ACAD_REACTORS
330
1377
102
}
330
1377
100
AcDbVisualStyle
  2
2dWireframe
 70
     4
 71
     0
 72
     2
 73
     0
 90
        0
 40
-0.6
 41
-30.0
 62
     5
 63
     7
 74
     1
 91
        4
 64
     7
 65
   257
 75
     1
175
     1
 42
1.0
 92
        0
 66
   257
 43
1.0
 76
     1
 77
     6
 78
     2
 67
     7
 79
     5
170
     0
171
     0
290
     0
174
     0
 93
        1
 44
0.0
173
     0
291
     0
 45
0.0
1001
ACAD
1000
AcDbSavedByObjectVersion
1070
     0
  0
VISUALSTYLE
  5
137F
102
{ACAD_XDICTIONARY
360
13F5
102
}
102
{ACAD_REACTORS
330
1377
102
}
330
1377
100
AcDbVisualStyle
  2
3D Hidden
 70
     6
 71
     1
 72
     2
 73
     2
 90
        0
 40
-0.6
 41
-30.0
 62
     5
 63
     7
 74
     2
 91
        2
 64
     7
 65
   257
 75
     2
175
     1
 42
179.0
 92
        0
 66
   257
 43
1.0
 76
     1
 77
     6
 78
     2
 67
     7
 79
     3
170
     0
171
     0
290
     0
174
     0
 93
        1
 44
0.0
173
     0
291
     0
 45
0.0
1001
ACAD
1000
AcDbSavedByObjectVersion
1070
     0
  0
VISUALSTYLE
  5
137E
102
{ACAD_XDICTIONARY
360
13F3
102
}
102
{ACAD_REACTORS
330
1377
102
}
330
1377
100
AcDbVisualStyle
  2
3dWireframe
 70
     5
 71
     0
 72
     2
 73
     0
 90
        0
 40
-0.6
 41
-30.0
 62
     5
 63
     7
 74
     1
 91
        4
 64
     7
 65
   257
 75
     1
175
     1
 42
1.0
 92
        0
 66
   257
 43
1.0
 76
     1
 77
     6
 78
     2
 67
     7
 79
     5
170
     0
171
     0
290
     0
174
     0
 93
        1
 44
0.0
173
     0
291
     0
 45
0.0
1001
ACAD
1000
AcDbSavedByObjectVersion
1070
     0
  0
VISUALSTYLE
  5
137C
102
{ACAD_XDICTIONARY
360
13EF
102
}
102
{ACAD_REACTORS
330
1377
102
}
330
1377
100
AcDbVisualStyle
  2
Basic
 70
     7
 71
     1
 72
     0
 73
     1
 90
        0
 40
-0.6
 41
-30.0
 62
     5
 63
     7
 74
     0
 91
        4
 64
     7
 65
   257
 75
     1
175
     1
 42
1.0
 92
        8
 66
     7
 43
1.0
 76
     1
 77
     6
 78
     2
 67
     7
 79
     5
170
     0
171
     0
290
     0
174
     0
 93
        1
 44
0.0
173
     0
291
     1
 45
0.0
1001
ACAD
1000
AcDbSavedByObjectVersion
1070
     0
  0
VISUALSTYLE
  5
1383
102
{ACAD_XDICTIONARY
360
13FD
102
}
102
{ACAD_REACTORS
330
1377
102
}
330
1377
100
AcDbVisualStyle
  2
Brighten
 70
    12
 71
     2
 72
     2
 73
     0
 90
        0
 40
-0.6
 41
-30.0
 62
     5
 63
     7
 74
     1
 91
        4
 64
     7
 65
   257
 75
     1
175
     1
 42
1.0
 92
        8
 66
     7
 43
1.0
 76
     1
 77
     6
 78
     2
 67
     7
 79
     5
170
     0
171
     0
290
     0
174
     0
 93
        1
 44
50.0
173
     0
291
     1
 45
0.0
1001
ACAD
1000
AcDbSavedByObjectVersion
1070
     0
  0
VISUALSTYLE
  5
1387
102
{ACAD_XDICTIONARY
360
1405
102
}
102
{ACAD_REACTORS
330
1377
102
}
330
1377
100
AcDbVisualStyle
  2
ColorChange
 70
    16
 71
     2
 72
     2
 73
     3
 90
        0
 40
-0.6
 41
-30.0
 62
     5
 63
     8
 74
     1
 91
        4
 64
     7
 65
   257
 75
     1
175
     1
 42
1.0
 92
        8
 66
     8
 43
1.0
 76
     1
 77
     6
 78
     2
 67
     7
 79
     5
170
     0
171
     0
290
     0
174
     0
 93
        1
 44
0.0
173
     0
291
     1
 45
0.0
1001
ACAD
1000
AcDbSavedByObjectVersion
1070
     0
  0
VISUALSTYLE
  5
1380
102
{ACAD_XDICTIONARY
360
13F7
102
}
102
{ACAD_REACTORS
330
1377
102
}
330
1377
100
AcDbVisualStyle
  2
Conceptual
 70
     9
 71
     3
 72
     2
 73
     0
 90
        0
 40
-0.6
 41
-30.0
 62
     5
 63
     7
 74
     2
 91
        2
 64
     7
 65
   257
 75
     1
175
     1
 42
179.0
 92
        8
 66
     7
 43
1.0
 76
     1
 77
     6
 78
     2
 67
     7
 79
     3
170
     0
171
     0
290
     0
174
     0
 93
        1
 44
0.0
173
     0
291
     0
 45
0.0
1001
ACAD
1000
AcDbSavedByObjectVersion
1070
     0
  0
VISUALSTYLE
  5
1382
102
{ACAD_XDICTIONARY
360
13FB
102
}
102
{ACAD_REACTORS
330
1377
102
}
330
1377
100
AcDbVisualStyle
  2
Dim
 70
    11
 71
     2
 72
     2
 73
     0
 90
        0
 40
-0.6
 41
-30.0
 62
     5
 63
     7
 74
     1
 91
        4
 64
     7
 65
   257
 75
     1
175
     1
 42
1.0
 92
        8
 66
     7
 43
1.0
 76
     1
 77
     6
 78
     2
 67
     7
 79
     5
170
     0
171
     0
290
     0
174
     0
 93
        1
 44
-50.0
173
     0
291
     1
 45
0.0
1001
ACAD
1000
AcDbSavedByObjectVersion
1070
     0
  0
VISUALSTYLE
  5
138A
102
{ACAD_XDICTIONARY
360
140B
102
}
102
{ACAD_REACTORS
330
1377
102
}
330
1377
100
AcDbVisualStyle
  2
EdgeColorOff
 70
    22
 71
     2
 72
     2
 73
     0
 90
        0
 40
-0.6
 41
-30.0
 62
     5
 63
     7
 74
     1
 91
        4
 64
     7
 65
   257
 75
     1
175
     1
 42
1.0
 92
        8
 66
     7
 43
1.0
 76
     1
 77
     6
 78
     2
 67
     7
 79
     5
170
     0
171
     0
290
     0
174
     0
 93
        1
 44
0.0
173
     0
291
     1
 45
0.0
1001
ACAD
1000
AcDbSavedByObjectVersion
1070
     0
  0
VISUALSTYLE
  5
1386
102
{ACAD_XDICTIONARY
360
1403
102
}
102
{ACAD_REACTORS
330
1377
102
}
330
1377
100
AcDbVisualStyle
  2
Facepattern
 70
    15
 71
     2
 72
     2
 73
     0
 90
        0
 40
-0.6
 41
-30.0
 62
     5
 63
     7
 74
     1
 91
        4
 64
     7
 65
   257
 75
     1
175
     1
 42
1.0
 92
        8
 66
     7
 43
1.0
 76
     1
 77
     6
 78
     2
 67
     7
 79
     5
170
     0
171
     0
290
     0
174
     0
 93
        1
 44
0.0
173
     0
291
     1
 45
0.0
1001
ACAD
1000
AcDbSavedByObjectVersion
1070
     0
  0
VISUALSTYLE
  5
1378
102
{ACAD_XDICTIONARY
360
13E7
102
}
102
{ACAD_REACTORS
330
1377
102
}
330
1377
100
AcDbVisualStyle
  2
Flat
 70
     0
 71
     2
 72
     1
 73
     1
 90
        2
 40
-0.6
 41
30.0
 62
     5
 63
     7
 74
     0
 91
        4
 64
     7
 65
   257
 75
     1
175
     1
 42
1.0
 92
        8
 66
     7
 43
1.0
 76
     1
 77
     6
 78
     2
 67
     7
 79
     5
170
     0
171
     0
290
     0
174
     0
 93
       13
 44
0.0
173
     0
291
     1
 45
0.0
1001
ACAD
1000
AcDbSavedByObjectVersion
1070
     0
  0
VISUALSTYLE
  5
1379
102
{ACAD_XDICTIONARY
360
13E9
102
}
102
{ACAD_REACTORS
330
1377
102
}
330
1377
100
AcDbVisualStyle
  2
FlatWithEdges
 70
     1
 71
     2
 72
     1
 73
     1
 90
        2
 40
-0.6
 41
30.0
 62
     5
 63
     7
 74
     1
 91
        4
 64
     7
 65
   257
 75
     1
175
     1
 42
1.0
 92
        0
 66
   257
 43
1.0
 76
     1
 77
     6
 78
     2
 67
     7
 79
     5
170
     0
171
     0
290
     0
174
     0
 93
       13
 44
0.0
173
     0
291
     1
 45
0.0
1001
ACAD
1000
AcDbSavedByObjectVersion
1070
     0
  0
VISUALSTYLE
  5
137A
102
{ACAD_XDICTIONARY
360
13EB
102
}
102
{ACAD_REACTORS
330
1377
102
}
330
1377
100
AcDbVisualStyle
  2
Gouraud
 70
     2
 71
     2
 72
     2
 73
     1
 90
        2
 40
-0.6
 41
30.0
 62
     5
 63
     7
 74
     0
 91
        4
 64
     7
 65
   257
 75
     1
175
     1
 42
1.0
 92
        0
 66
     7
 43
1.0
 76
     1
 77
     6
 78
     2
 67
     7
 79
     5
170
     0
171
     0
290
     0
174
     0
 93
       13
 44
0.0
173
     0
291
     1
 45
0.0
1001
ACAD
1000
AcDbSavedByObjectVersion
1070
     0
  0
VISUALSTYLE
  5
137B
102
{ACAD_XDICTIONARY
360
13ED
102
}
102
{ACAD_REACTORS
330
1377
102
}
330
1377
100
AcDbVisualStyle
  2
GouraudWithEdges
 70
     3
 71
     2
 72
     2
 73
     1
 90
        2
 40
-0.6
 41
30.0
 62
     5
 63
     7
 74
     1
 91
        4
 64
     7
 65
   257
 75
     1
175
     1
 42
1.0
 92
        0
 66
   257
 43
1.0
 76
     1
 77
     6
 78
     2
 67
     7
 79
     5
170
     0
171
     0
290
     0
174
     0
 93
       13
 44
0.0
173
     0
291
     1
 45
0.0
1001
ACAD
1000
AcDbSavedByObjectVersion
1070
     0
  0
VISUALSTYLE
  5
1388
102
{ACAD_XDICTIONARY
360
1407
102
}
102
{ACAD_REACTORS
330
1377
102
}
330
1377
100
AcDbVisualStyle
  2
JitterOff
 70
    20
 71
     2
 72
     2
 73
     0
 90
        0
 40
-0.6
 41
-30.0
 62
     5
 63
     7
 74
     1
 91
        4
 64
     7
 65
   257
 75
     1
175
     1
 42
1.0
 92
       10
 66
     7
 43
1.0
 76
     1
 77
     6
 78
     2
 67
     7
 79
     5
170
     0
171
     0
290
     0
174
     0
 93
        1
 44
0.0
173
     0
291
     1
 45
0.0
1001
ACAD
1000
AcDbSavedByObjectVersion
1070
     0
  0
VISUALSTYLE
  5
1385
102
{ACAD_XDICTIONARY
360
1401
102
}
102
{ACAD_REACTORS
330
1377
102
}
330
1377
100
AcDbVisualStyle
  2
Linepattern
 70
    14
 71
     2
 72
     2
 73
     0
 90
        0
 40
-0.6
 41
-30.0
 62
     5
 63
     7
 74
     1
 91
        4
 64
     7
 65
   257
 75
     7
175
     7
 42
1.0
 92
        8
 66
     7
 43
1.0
 76
     1
 77
     6
 78
     2
 67
     7
 79
     5
170
     0
171
     0
290
     0
174
     0
 93
        1
 44
0.0
173
     0
291
     1
 45
0.0
1001
ACAD
1000
AcDbSavedByObjectVersion
1070
     0
  0
VISUALSTYLE
  5
1389
102
{ACAD_XDICTIONARY
360
1409
102
}
102
{ACAD_REACTORS
330
1377
102
}
330
1377
100
AcDbVisualStyle
  2
OverhangOff
 70
    21
 71
     2
 72
     2
 73
     0
 90
        0
 40
-0.6
 41
-30.0
 62
     5
 63
     7
 74
     1
 91
        4
 64
     7
 65
   257
 75
     1
175
     1
 42
1.0
 92
        9
 66
     7
 43
1.0
 76
     1
 77
     6
 78
     2
 67
     7
 79
     5
170
     0
171
     0
290
     0
174
     0
 93
        1
 44
0.0
173
     0
291
     1
 45
0.0
1001
ACAD
1000
AcDbSavedByObjectVersion
1070
     0
  0
VISUALSTYLE
  5
1381
102
{ACAD_XDICTIONARY
360
13F9
102
}
102
{ACAD_REACTORS
330
1377
102
}
330
1377
100
AcDbVisualStyle
  2
Realistic
 70
     8
 71
     2
 72
     2
 73
     0
 90
        0
 40
-0.6
 41
-30.0
 62
     5
 63
     7
 74
     1
 91
        0
 64
     7
 65
   257
 75
     1
175
     1
 42
1.0
 92
        8
 66
     8
 43
1.0
 76
     1
 77
     6
 78
     2
 67
     7
 79
     5
170
     0
171
     0
290
     0
174
     0
 93
       13
 44
0.0
173
     0
291
     0
 45
0.0
1001
ACAD
1000
AcDbSavedByObjectVersion
1070
     0
  0
VISUALSTYLE
  5
1384
102
{ACAD_XDICTIONARY
360
13FF
102
}
102
{ACAD_REACTORS
330
1377
102
}
330
1377
100
AcDbVisualStyle
  2
Thicken
 70
    13
 71
     2
 72
     2
 73
     0
 90
        0
 40
-0.6
 41
-30.0
 62
     5
 63
     7
 74
     1
 91
        4
 64
     7
 65
   257
 75
     1
175
     1
 42
1.0
 92
       12
 66
     7
 43
1.0
 76
     1
 77
     6
 78
     2
 67
     7
 79
     5
170
     0
171
     0
290
     0
174
     0
 93
        1
 44
0.0
173
     0
291
     1
 45
0.0
1001
ACAD
1000
AcDbSavedByObjectVersion
1070
     0
  0
DICTIONARYVAR
  5
13C5
102
{ACAD_REACTORS
330
3D
102
}
330
3D
100
DictionaryVariables
280
     0
  1
1:1
  0
DICTIONARYVAR
  5
13C4
102
{ACAD_REACTORS
330
3D
102
}
330
3D
100
DictionaryVariables
280
     0
  1
STANDARD
  0
DICTIONARYVAR
  5
BB1
102
{ACAD_REACTORS
330
3D
102
}
330
3D
100
DictionaryVariables
280
     0
  1
STANDARD
  0
DICTIONARYVAR
  5
3F
102
{ACAD_REACTORS
330
3D
102
}
330
3D
100
DictionaryVariables
280
     0
  1
2
  0
DICTIONARYVAR
  5
3E
102
{ACAD_REACTORS
330
3D
102
}
330
3D
100
DictionaryVariables
280
     0
  1
1
  0
DICTIONARYVAR
  5
13C7
102
{ACAD_REACTORS
330
3D
102
}
330
3D
100
DictionaryVariables
280
     0
  1
0
  0
DICTIONARYVAR
  5
135D
102
{ACAD_REACTORS
330
3D
102
}
330
3D
100
DictionaryVariables
280
     0
  1

  0
DICTIONARYVAR
  5
13C6
102
{ACAD_REACTORS
330
3D
102
}
330
3D
100
DictionaryVariables
280
     0
  1
127
  0
DICTIONARYVAR
  5
13C8
102
{ACAD_REACTORS
330
3D
102
}
330
3D
100
DictionaryVariables
280
     0
  1
2
  0
XRECORD
  5
13C3
102
{ACAD_REACTORS
330
13C2
102
}
330
13C2
100
AcDbXrecord
280
     1
  0
DICTIONARY
  5
13CD
330
1E
100
AcDbDictionary
280
     1
281
     1
  3
ACAD_XREC_ROUNDTRIP
360
13CE
  0
DICTIONARY
  5
13D1
330
26
100
AcDbDictionary
280
     1
281
     1
  3
ACAD_XREC_ROUNDTRIP
360
13D2
  0
DICTIONARY
  5
13CF
330
22
100
AcDbDictionary
280
     1
281
     1
  3
ACAD_XREC_ROUNDTRIP
360
13D0
  0
DICTIONARY
  5
1368
330
1367
100
AcDbDictionary
280
     1
281
     1
  3
ACAD_XREC_ROUNDTRIP
360
13E5
  3
BUMPTILE
360
136A
  3
DIFFUSETILE
360
1369
  3
OPACITYTILE
360
136D
  3
REFLECTIONTILE
360
136C
  3
REFRACTIONTILE
360
136E
  3
SPECULARTILE
360
136B
  0
DICTIONARY
  5
1360
330
135F
100
AcDbDictionary
280
     1
281
     1
  3
ACAD_XREC_ROUNDTRIP
360
13E4
  3
BUMPTILE
360
1362
  3
DIFFUSETILE
360
1361
  3
OPACITYTILE
360
1365
  3
REFLECTIONTILE
360
1364
  3
REFRACTIONTILE
360
1366
  3
SPECULARTILE
360
1363
  0
DICTIONARY
  5
1370
330
136F
100
AcDbDictionary
280
     1
281
     1
  3
ACAD_XREC_ROUNDTRIP
360
13E6
  3
BUMPTILE
360
1372
  3
DIFFUSETILE
360
1371
  3
OPACITYTILE
360
1375
  3
REFLECTIONTILE
360
1374
  3
REFRACTIONTILE
360
1376
  3
SPECULARTILE
360
1373
  0
DICTIONARY
  5
13C9
330
BAB
100
AcDbDictionary
280
     1
281
     1
  3
ACAD_ROUNDTRIP_2008_TABLESTYLE_CELLSTYLEMAP
360
13CA
  3
ACAD_XREC_ROUNDTRIP
360
13D3
  0
DICTIONARY
  5
13F1
330
137D
100
AcDbDictionary
280
     1
281
     1
  3
ACAD_XREC_ROUNDTRIP
360
13F2
  0
DICTIONARY
  5
13F5
330
137F
100
AcDbDictionary
280
     1
281
     1
  3
ACAD_XREC_ROUNDTRIP
360
13F6
  0
DICTIONARY
  5
13F3
330
137E
100
AcDbDictionary
280
     1
281
     1
  3
ACAD_XREC_ROUNDTRIP
360
13F4
  0
DICTIONARY
  5
13EF
330
137C
100
AcDbDictionary
280
     1
281
     1
  3
ACAD_XREC_ROUNDTRIP
360
13F0
  0
DICTIONARY
  5
13FD
330
1383
100
AcDbDictionary
280
     1
281
     1
  3
ACAD_XREC_ROUNDTRIP
360
13FE
  0
DICTIONARY
  5
1405
330
1387
100
AcDbDictionary
280
     1
281
     1
  3
ACAD_XREC_ROUNDTRIP
360
1406
  0
DICTIONARY
  5
13F7
330
1380
100
AcDbDictionary
280
     1
281
     1
  3
ACAD_XREC_ROUNDTRIP
360
13F8
  0
DICTIONARY
  5
13FB
330
1382
100
AcDbDictionary
280
     1
281
     1
  3
ACAD_XREC_ROUNDTRIP
360
13FC
  0
DICTIONARY
  5
140B
330
138A
100
AcDbDictionary
280
     1
281
     1
  3
ACAD_XREC_ROUNDTRIP
360
140C
  0
DICTIONARY
  5
1403
330
1386
100
AcDbDictionary
280
     1
281
     1
  3
ACAD_XREC_ROUNDTRIP
360
1404
  0
DICTIONARY
  5
13E7
330
1378
100
AcDbDictionary
280
     1
281
     1
  3
ACAD_XREC_ROUNDTRIP
360
13E8
  0
DICTIONARY
  5
13E9
330
1379
100
AcDbDictionary
280
     1
281
     1
  3
ACAD_XREC_ROUNDTRIP
360
13EA
  0
DICTIONARY
  5
13EB
330
137A
100
AcDbDictionary
280
     1
281
     1
  3
ACAD_XREC_ROUNDTRIP
360
13EC
  0
DICTIONARY
  5
13ED
330
137B
100
AcDbDictionary
280
     1
281
     1
  3
ACAD_XREC_ROUNDTRIP
360
13EE
  0
DICTIONARY
  5
1407
330
1388
100
AcDbDictionary
280
     1
281
     1
  3
ACAD_XREC_ROUNDTRIP
360
1408
  0
DICTIONARY
  5
1401
330
1385
100
AcDbDictionary
280
     1
281
     1
  3
ACAD_XREC_ROUNDTRIP
360
1402
  0
DICTIONARY
  5
1409
330
1389
100
AcDbDictionary
280
     1
281
     1
  3
ACAD_XREC_ROUNDTRIP
360
140A
  0
DICTIONARY
  5
13F9
330
1381
100
AcDbDictionary
280
     1
281
     1
  3
ACAD_XREC_ROUNDTRIP
360
13FA
  0
DICTIONARY
  5
13FF
330
1384
100
AcDbDictionary
280
     1
281
     1
  3
ACAD_XREC_ROUNDTRIP
360
1400
  0
XRECORD
  5
13CE
102
{ACAD_REACTORS
330
13CD
102
}
330
13CD
100
AcDbXrecord
280
     1
102
SHADEPLOT
 70
     0
102
SHADEPLOTRESLEVEL
 70
     2
102
SHADEPLOTCUSTOMDPI
 70
   300
  0
XRECORD
  5
13D2
102
{ACAD_REACTORS
330
13D1
102
}
330
13D1
100
AcDbXrecord
280
     1
102
SHADEPLOT
 70
     0
102
SHADEPLOTRESLEVEL
 70
     2
102
SHADEPLOTCUSTOMDPI
 70
   300
  0
XRECORD
  5
13D0
102
{ACAD_REACTORS
330
13CF
102
}
330
13CF
100
AcDbXrecord
280
     1
102
SHADEPLOT
 70
     0
102
SHADEPLOTRESLEVEL
 70
     2
102
SHADEPLOTCUSTOMDPI
 70
   300
  0
XRECORD
  5
13E5
102
{ACAD_REACTORS
330
1368
102
}
330
1368
100
AcDbXrecord
280
     1
102
MATERIAL
148
0.0
149
0.0
149
0.0
 93
        0
 94
      127
282
     0
 72
     0
 77
     0
171
     0
175
     0
179
     0
273
     0
  0
XRECORD
  5
136A
102
{ACAD_REACTORS
330
1368
102
}
330
1368
100
AcDbXrecord
280
     1
270
     1
271
     1
  0
XRECORD
  5
1369
102
{ACAD_REACTORS
330
1368
102
}
330
1368
100
AcDbXrecord
280
     1
270
     1
271
     1
  0
XRECORD
  5
136D
102
{ACAD_REACTORS
330
1368
102
}
330
1368
100
AcDbXrecord
280
     1
270
     1
271
     1
  0
XRECORD
  5
136C
102
{ACAD_REACTORS
330
1368
102
}
330
1368
100
AcDbXrecord
280
     1
270
     1
271
     1
  0
XRECORD
  5
136E
102
{ACAD_REACTORS
330
1368
102
}
330
1368
100
AcDbXrecord
280
     1
270
     1
271
     1
  0
XRECORD
  5
136B
102
{ACAD_REACTORS
330
1368
102
}
330
1368
100
AcDbXrecord
280
     1
270
     1
271
     1
  0
XRECORD
  5
13E4
102
{ACAD_REACTORS
330
1360
102
}
330
1360
100
AcDbXrecord
280
     1
102
MATERIAL
148
0.0
149
0.0
149
0.0
 93
        0
 94
      127
282
     0
 72
     0
 77
     0
171
     0
175
     0
179
     0
273
     0
  0
XRECORD
  5
1362
102
{ACAD_REACTORS
330
1360
102
}
330
1360
100
AcDbXrecord
280
     1
270
     1
271
     1
  0
XRECORD
  5
1361
102
{ACAD_REACTORS
330
1360
102
}
330
1360
100
AcDbXrecord
280
     1
270
     1
271
     1
  0
XRECORD
  5
1365
102
{ACAD_REACTORS
330
1360
102
}
330
1360
100
AcDbXrecord
280
     1
270
     1
271
     1
  0
XRECORD
  5
1364
102
{ACAD_REACTORS
330
1360
102
}
330
1360
100
AcDbXrecord
280
     1
270
     1
271
     1
  0
XRECORD
  5
1366
102
{ACAD_REACTORS
330
1360
102
}
330
1360
100
AcDbXrecord
280
     1
270
     1
271
     1
  0
XRECORD
  5
1363
102
{ACAD_REACTORS
330
1360
102
}
330
1360
100
AcDbXrecord
280
     1
270
     1
271
     1
  0
XRECORD
  5
13E6
102
{ACAD_REACTORS
330
1370
102
}
330
1370
100
AcDbXrecord
280
     1
102
MATERIAL
148
0.0
149
0.0
149
0.0
 93
        0
 94
      127
282
     0
 72
     0
 77
     0
171
     0
175
     0
179
     0
273
     0
  0
XRECORD
  5
1372
102
{ACAD_REACTORS
330
1370
102
}
330
1370
100
AcDbXrecord
280
     1
270
     1
271
     1
  0
XRECORD
  5
1371
102
{ACAD_REACTORS
330
1370
102
}
330
1370
100
AcDbXrecord
280
     1
270
     1
271
     1
  0
XRECORD
  5
1375
102
{ACAD_REACTORS
330
1370
102
}
330
1370
100
AcDbXrecord
280
     1
270
     1
271
     1
  0
XRECORD
  5
1374
102
{ACAD_REACTORS
330
1370
102
}
330
1370
100
AcDbXrecord
280
     1
270
     1
271
     1
  0
XRECORD
  5
1376
102
{ACAD_REACTORS
330
1370
102
}
330
1370
100
AcDbXrecord
280
     1
270
     1
271
     1
  0
XRECORD
  5
1373
102
{ACAD_REACTORS
330
1370
102
}
330
1370
100
AcDbXrecord
280
     1
270
     1
271
     1
  0
CELLSTYLEMAP
  5
13CA
102
{ACAD_REACTORS
330
13C9
102
}
330
13C9
100
AcDbCellStyleMap
 90
        3
300
CELLSTYLE
  1
TABLEFORMAT_BEGIN
 90
        5
170
     1
 91
        0
 92
    32768
 62
   257
 93
        1
300
CONTENTFORMAT
  1
CONTENTFORMAT_BEGIN
 90
        0
 91
        0
 92
        4
 93
        0
300

 40
0.0
140
1.0
 94
        5
 62
     0
340
11
144
6.0
309
CONTENTFORMAT_END
171
     1
301
MARGIN
  1
CELLMARGIN_BEGIN
 40
1.5
 40
1.5
 40
1.5
 40
1.5
 40
0.18
 40
0.18
309
CELLMARGIN_END
 94
        6
 95
        1
302
GRIDFORMAT
  1
GRIDFORMAT_BEGIN
 90
        0
 91
        1
 62
     0
 92
       -2
340
0
 93
        0
 40
0.045
309
GRIDFORMAT_END
 95
        2
302
GRIDFORMAT
  1
GRIDFORMAT_BEGIN
 90
        0
 91
        1
 62
     0
 92
       -2
340
0
 93
        0
 40
0.045
309
GRIDFORMAT_END
 95
        4
302
GRIDFORMAT
  1
GRIDFORMAT_BEGIN
 90
        0
 91
        1
 62
     0
 92
       -2
340
0
 93
        0
 40
0.045
309
GRIDFORMAT_END
 95
        8
302
GRIDFORMAT
  1
GRIDFORMAT_BEGIN
 90
        0
 91
        1
 62
     0
 92
       -2
340
0
 93
        0
 40
0.045
309
GRIDFORMAT_END
 95
       16
302
GRIDFORMAT
  1
GRIDFORMAT_BEGIN
 90
        0
 91
        1
 62
     0
 92
       -2
340
0
 93
        0
 40
0.045
309
GRIDFORMAT_END
 95
       32
302
GRIDFORMAT
  1
GRIDFORMAT_BEGIN
 90
        0
 91
        1
 62
     0
 92
       -2
340
0
 93
        0
 40
0.045
309
GRIDFORMAT_END
309
TABLEFORMAT_END
  1
CELLSTYLE_BEGIN
 90
        1
 91
        1
300
_TITLE
309
CELLSTYLE_END
300
CELLSTYLE
  1
TABLEFORMAT_BEGIN
 90
        5
170
     1
 91
        0
 92
        0
 62
   257
 93
        1
300
CONTENTFORMAT
  1
CONTENTFORMAT_BEGIN
 90
        0
 91
        0
 92
        4
 93
        0
300

 40
0.0
140
1.0
 94
        5
 62
     0
340
11
144
4.5
309
CONTENTFORMAT_END
171
     1
301
MARGIN
  1
CELLMARGIN_BEGIN
 40
1.5
 40
1.5
 40
1.5
 40
1.5
 40
0.18
 40
0.18
309
CELLMARGIN_END
 94
        6
 95
        1
302
GRIDFORMAT
  1
GRIDFORMAT_BEGIN
 90
        0
 91
        1
 62
     0
 92
       -2
340
0
 93
        0
 40
0.045
309
GRIDFORMAT_END
 95
        2
302
GRIDFORMAT
  1
GRIDFORMAT_BEGIN
 90
        0
 91
        1
 62
     0
 92
       -2
340
0
 93
        0
 40
0.045
309
GRIDFORMAT_END
 95
        4
302
GRIDFORMAT
  1
GRIDFORMAT_BEGIN
 90
        0
 91
        1
 62
     0
 92
       -2
340
0
 93
        0
 40
0.045
309
GRIDFORMAT_END
 95
        8
302
GRIDFORMAT
  1
GRIDFORMAT_BEGIN
 90
        0
 91
        1
 62
     0
 92
       -2
340
0
 93
        0
 40
0.045
309
GRIDFORMAT_END
 95
       16
302
GRIDFORMAT
  1
GRIDFORMAT_BEGIN
 90
        0
 91
        1
 62
     0
 92
       -2
340
0
 93
        0
 40
0.045
309
GRIDFORMAT_END
 95
       32
302
GRIDFORMAT
  1
GRIDFORMAT_BEGIN
 90
        0
 91
        1
 62
     0
 92
       -2
340
0
 93
        0
 40
0.045
309
GRIDFORMAT_END
309
TABLEFORMAT_END
  1
CELLSTYLE_BEGIN
 90
        2
 91
        1
300
_HEADER
309
CELLSTYLE_END
300
CELLSTYLE
  1
TABLEFORMAT_BEGIN
 90
        5
170
     1
 91
        0
 92
        0
 62
   257
 93
        1
300
CONTENTFORMAT
  1
CONTENTFORMAT_BEGIN
 90
        0
 91
        0
 92
        4
 93
        0
300

 40
0.0
140
1.0
 94
        2
 62
     0
340
11
144
4.5
309
CONTENTFORMAT_END
171
     1
301
MARGIN
  1
CELLMARGIN_BEGIN
 40
1.5
 40
1.5
 40
1.5
 40
1.5
 40
0.18
 40
0.18
309
CELLMARGIN_END
 94
        6
 95
        1
302
GRIDFORMAT
  1
GRIDFORMAT_BEGIN
 90
        0
 91
        1
 62
     0
 92
       -2
340
0
 93
        0
 40
0.045
309
GRIDFORMAT_END
 95
        2
302
GRIDFORMAT
  1
GRIDFORMAT_BEGIN
 90
        0
 91
        1
 62
     0
 92
       -2
340
0
 93
        0
 40
0.045
309
GRIDFORMAT_END
 95
        4
302
GRIDFORMAT
  1
GRIDFORMAT_BEGIN
 90
        0
 91
        1
 62
     0
 92
       -2
340
0
 93
        0
 40
0.045
309
GRIDFORMAT_END
 95
        8
302
GRIDFORMAT
  1
GRIDFORMAT_BEGIN
 90
        0
 91
        1
 62
     0
 92
       -2
340
0
 93
        0
 40
0.045
309
GRIDFORMAT_END
 95
       16
302
GRIDFORMAT
  1
GRIDFORMAT_BEGIN
 90
        0
 91
        1
 62
     0
 92
       -2
340
0
 93
        0
 40
0.045
309
GRIDFORMAT_END
 95
       32
302
GRIDFORMAT
  1
GRIDFORMAT_BEGIN
 90
        0
 91
        1
 62
     0
 92
       -2
340
0
 93
        0
 40
0.045
309
GRIDFORMAT_END
309
TABLEFORMAT_END
  1
CELLSTYLE_BEGIN
 90
        3
 91
        2
300
_DATA
309
CELLSTYLE_END
  0
XRECORD
  5
13D3
102
{ACAD_REACTORS
330
13C9
102
}
330
13C9
100
AcDbXrecord
280
     1
102
ACAD_ROUNDTRIP_PRE2007_TABLESTYLE
 90
        4
 91
        0
  1

 92
        4
 93
        0
  2

 94
        4
 95
        0
  3

  0
XRECORD
  5
13F2
102
{ACAD_REACTORS
330
13F1
102
}
330
13F1
100
AcDbXrecord
280
     1
102
RTVSPropertyOp0
 70
     1
102
RTVSPropertyOp1
 70
     1
102
RTVSPropertyOp2
 70
     1
102
RTVSPropertyOp3
 70
     1
102
RTVSPropertyOp4
 70
     1
102
RTVSPropertyOp5
 70
     1
102
RTVSPropertyOp6
 70
     1
102
RTVSPropertyOp7
 70
     1
102
RTVSPropertyOp8
 70
     1
102
RTVSPropertyOp9
 70
     1
102
RTVSPropertyOp10
 70
     1
102
RTVSPropertyOp11
 70
     1
102
RTVSPropertyOp12
 70
     1
102
RTVSPropertyOp13
 70
     1
102
RTVSPropertyOp14
 70
     1
102
RTVSPropertyOp15
 70
     1
102
RTVSPropertyOp16
 70
     1
102
RTVSPropertyOp17
 70
     1
102
RTVSPropertyOp18
 70
     1
102
RTVSPropertyOp19
 70
     1
102
RTVSPropertyOp20
 70
     1
102
RTVSPropertyOp21
 70
     1
102
RTVSPropertyOp22
 70
     1
102
RTVSPropertyOp23
 70
     1
102
RTVSPropertyOp24
 70
     1
102
RTVSPropertyOp25
 70
     1
102
RTVSPropertyOp26
 70
     1
102
RTVSPropertyOp27
 70
     1
  0
XRECORD
  5
13F6
102
{ACAD_REACTORS
330
13F5
102
}
330
13F5
100
AcDbXrecord
280
     1
102
RTVSPropertyOp0
 70
     1
102
RTVSPropertyOp1
 70
     1
102
RTVSPropertyOp2
 70
     1
102
RTVSPropertyOp3
 70
     1
102
RTVSPropertyOp4
 70
     1
102
RTVSPropertyOp5
 70
     1
102
RTVSPropertyOp6
 70
     1
102
RTVSPropertyOp7
 70
     1
102
RTVSPropertyOp8
 70
     1
102
RTVSPropertyOp9
 70
     1
102
RTVSPropertyOp10
 70
     1
102
RTVSPropertyOp11
 70
     1
102
RTVSPropertyOp12
 70
     1
102
RTVSPropertyOp13
 70
     1
102
RTVSPropertyOp14
 70
     1
102
RTVSPropertyOp15
 70
     1
102
RTVSPropertyOp16
 70
     1
102
RTVSPropertyOp17
 70
     1
102
RTVSPropertyOp18
 70
     1
102
RTVSPropertyOp19
 70
     1
102
RTVSPropertyOp20
 70
     1
102
RTVSPropertyOp21
 70
     1
102
RTVSPropertyOp22
 70
     1
102
RTVSPropertyOp23
 70
     1
102
RTVSPropertyOp24
 70
     1
102
RTVSPropertyOp25
 70
     1
102
RTVSPropertyOp26
 70
     1
102
RTVSPropertyOp27
 70
     1
  0
XRECORD
  5
13F4
102
{ACAD_REACTORS
330
13F3
102
}
330
13F3
100
AcDbXrecord
280
     1
102
RTVSPropertyOp0
 70
     1
102
RTVSPropertyOp1
 70
     1
102
RTVSPropertyOp2
 70
     1
102
RTVSPropertyOp3
 70
     1
102
RTVSPropertyOp4
 70
     1
102
RTVSPropertyOp5
 70
     1
102
RTVSPropertyOp6
 70
     1
102
RTVSPropertyOp7
 70
     1
102
RTVSPropertyOp8
 70
     1
102
RTVSPropertyOp9
 70
     1
102
RTVSPropertyOp10
 70
     1
102
RTVSPropertyOp11
 70
     1
102
RTVSPropertyOp12
 70
     1
102
RTVSPropertyOp13
 70
     1
102
RTVSPropertyOp14
 70
     1
102
RTVSPropertyOp15
 70
     1
102
RTVSPropertyOp16
 70
     1
102
RTVSPropertyOp17
 70
     1
102
RTVSPropertyOp18
 70
     1
102
RTVSPropertyOp19
 70
     1
102
RTVSPropertyOp20
 70
     1
102
RTVSPropertyOp21
 70
     1
102
RTVSPropertyOp22
 70
     1
102
RTVSPropertyOp23
 70
     1
102
RTVSPropertyOp24
 70
     1
102
RTVSPropertyOp25
 70
     1
102
RTVSPropertyOp26
 70
     1
102
RTVSPropertyOp27
 70
     1
  0
XRECORD
  5
13F0
102
{ACAD_REACTORS
330
13EF
102
}
330
13EF
100
AcDbXrecord
280
     1
102
RTVSPropertyOp0
 70
     1
102
RTVSPropertyOp1
 70
     1
102
RTVSPropertyOp2
 70
     1
102
RTVSPropertyOp3
 70
     1
102
RTVSPropertyOp4
 70
     1
102
RTVSPropertyOp5
 70
     1
102
RTVSPropertyOp6
 70
     1
102
RTVSPropertyOp7
 70
     1
102
RTVSPropertyOp8
 70
     1
102
RTVSPropertyOp9
 70
     1
102
RTVSPropertyOp10
 70
     1
102
RTVSPropertyOp11
 70
     1
102
RTVSPropertyOp12
 70
     1
102
RTVSPropertyOp13
 70
     1
102
RTVSPropertyOp14
 70
     1
102
RTVSPropertyOp15
 70
     1
102
RTVSPropertyOp16
 70
     1
102
RTVSPropertyOp17
 70
     1
102
RTVSPropertyOp18
 70
     1
102
RTVSPropertyOp19
 70
     1
102
RTVSPropertyOp20
 70
     1
102
RTVSPropertyOp21
 70
     1
102
RTVSPropertyOp22
 70
     1
102
RTVSPropertyOp23
 70
     1
102
RTVSPropertyOp24
 70
     1
102
RTVSPropertyOp25
 70
     1
102
RTVSPropertyOp26
 70
     1
102
RTVSPropertyOp27
 70
     1
  0
XRECORD
  5
13FE
102
{ACAD_REACTORS
330
13FD
102
}
330
13FD
100
AcDbXrecord
280
     1
102
RTVSPropertyOp0
 70
     1
102
RTVSPropertyOp1
 70
     1
102
RTVSPropertyOp2
 70
     1
102
RTVSPropertyOp3
 70
     1
102
RTVSPropertyOp4
 70
     1
102
RTVSPropertyOp5
 70
     1
102
RTVSPropertyOp6
 70
     1
102
RTVSPropertyOp7
 70
     1
102
RTVSPropertyOp8
 70
     1
102
RTVSPropertyOp9
 70
     1
102
RTVSPropertyOp10
 70
     1
102
RTVSPropertyOp11
 70
     1
102
RTVSPropertyOp12
 70
     1
102
RTVSPropertyOp13
 70
     1
102
RTVSPropertyOp14
 70
     1
102
RTVSPropertyOp15
 70
     1
102
RTVSPropertyOp16
 70
     1
102
RTVSPropertyOp17
 70
     1
102
RTVSPropertyOp18
 70
     1
102
RTVSPropertyOp19
 70
     1
102
RTVSPropertyOp20
 70
     1
102
RTVSPropertyOp21
 70
     1
102
RTVSPropertyOp22
 70
     1
102
RTVSPropertyOp23
 70
     1
102
RTVSPropertyOp24
 70
     1
102
RTVSPropertyOp25
 70
     1
102
RTVSPropertyOp26
 70
     1
102
RTVSPropertyOp27
 70
     1
  0
XRECORD
  5
1406
102
{ACAD_REACTORS
330
1405
102
}
330
1405
100
AcDbXrecord
280
     1
102
RTVSPropertyOp0
 70
     1
102
RTVSPropertyOp1
 70
     1
102
RTVSPropertyOp2
 70
     1
102
RTVSPropertyOp3
 70
     1
102
RTVSPropertyOp4
 70
     1
102
RTVSPropertyOp5
 70
     1
102
RTVSPropertyOp6
 70
     1
102
RTVSPropertyOp7
 70
     1
102
RTVSPropertyOp8
 70
     1
102
RTVSPropertyOp9
 70
     1
102
RTVSPropertyOp10
 70
     1
102
RTVSPropertyOp11
 70
     1
102
RTVSPropertyOp12
 70
     1
102
RTVSPropertyOp13
 70
     1
102
RTVSPropertyOp14
 70
     1
102
RTVSPropertyOp15
 70
     1
102
RTVSPropertyOp16
 70
     1
102
RTVSPropertyOp17
 70
     1
102
RTVSPropertyOp18
 70
     1
102
RTVSPropertyOp19
 70
     1
102
RTVSPropertyOp20
 70
     1
102
RTVSPropertyOp21
 70
     1
102
RTVSPropertyOp22
 70
     1
102
RTVSPropertyOp23
 70
     1
102
RTVSPropertyOp24
 70
     1
102
RTVSPropertyOp25
 70
     1
102
RTVSPropertyOp26
 70
     1
102
RTVSPropertyOp27
 70
     1
  0
XRECORD
  5
13F8
102
{ACAD_REACTORS
330
13F7
102
}
330
13F7
100
AcDbXrecord
280
     1
102
RTVSPropertyOp0
 70
     1
102
RTVSPropertyOp1
 70
     1
102
RTVSPropertyOp2
 70
     1
102
RTVSPropertyOp3
 70
     1
102
RTVSPropertyOp4
 70
     1
102
RTVSPropertyOp5
 70
     1
102
RTVSPropertyOp6
 70
     1
102
RTVSPropertyOp7
 70
     1
102
RTVSPropertyOp8
 70
     1
102
RTVSPropertyOp9
 70
     1
102
RTVSPropertyOp10
 70
     1
102
RTVSPropertyOp11
 70
     1
102
RTVSPropertyOp12
 70
     1
102
RTVSPropertyOp13
 70
     1
102
RTVSPropertyOp14
 70
     1
102
RTVSPropertyOp15
 70
     1
102
RTVSPropertyOp16
 70
     1
102
RTVSPropertyOp17
 70
     1
102
RTVSPropertyOp18
 70
     1
102
RTVSPropertyOp19
 70
     1
102
RTVSPropertyOp20
 70
     1
102
RTVSPropertyOp21
 70
     1
102
RTVSPropertyOp22
 70
     1
102
RTVSPropertyOp23
 70
     1
102
RTVSPropertyOp24
 70
     1
102
RTVSPropertyOp25
 70
     1
102
RTVSPropertyOp26
 70
     1
102
RTVSPropertyOp27
 70
     1
  0
XRECORD
  5
13FC
102
{ACAD_REACTORS
330
13FB
102
}
330
13FB
100
AcDbXrecord
280
     1
102
RTVSPropertyOp0
 70
     1
102
RTVSPropertyOp1
 70
     1
102
RTVSPropertyOp2
 70
     1
102
RTVSPropertyOp3
 70
     1
102
RTVSPropertyOp4
 70
     1
102
RTVSPropertyOp5
 70
     1
102
RTVSPropertyOp6
 70
     1
102
RTVSPropertyOp7
 70
     1
102
RTVSPropertyOp8
 70
     1
102
RTVSPropertyOp9
 70
     1
102
RTVSPropertyOp10
 70
     1
102
RTVSPropertyOp11
 70
     1
102
RTVSPropertyOp12
 70
     1
102
RTVSPropertyOp13
 70
     1
102
RTVSPropertyOp14
 70
     1
102
RTVSPropertyOp15
 70
     1
102
RTVSPropertyOp16
 70
     1
102
RTVSPropertyOp17
 70
     1
102
RTVSPropertyOp18
 70
     1
102
RTVSPropertyOp19
 70
     1
102
RTVSPropertyOp20
 70
     1
102
RTVSPropertyOp21
 70
     1
102
RTVSPropertyOp22
 70
     1
102
RTVSPropertyOp23
 70
     1
102
RTVSPropertyOp24
 70
     1
102
RTVSPropertyOp25
 70
     1
102
RTVSPropertyOp26
 70
     1
102
RTVSPropertyOp27
 70
     1
  0
XRECORD
  5
140C
102
{ACAD_REACTORS
330
140B
102
}
330
140B
100
AcDbXrecord
280
     1
102
RTVSPropertyOp0
 70
     0
102
RTVSPropertyOp1
 70
     0
102
RTVSPropertyOp2
 70
     0
102
RTVSPropertyOp3
 70
     0
102
RTVSPropertyOp4
 70
     0
102
RTVSPropertyOp5
 70
     0
102
RTVSPropertyOp6
 70
     0
102
RTVSPropertyOp7
 70
     0
102
RTVSPropertyOp8
 70
     0
102
RTVSPropertyOp9
 70
     0
102
RTVSPropertyOp10
 70
     0
102
RTVSPropertyOp11
 70
     0
102
RTVSPropertyOp12
 70
     0
102
RTVSPropertyOp13
 70
     0
102
RTVSPropertyOp14
 70
     2
102
RTVSPropertyOp15
 70
     0
102
RTVSPropertyOp16
 70
     0
102
RTVSPropertyOp17
 70
     0
102
RTVSPropertyOp18
 70
     0
102
RTVSPropertyOp19
 70
     0
102
RTVSPropertyOp20
 70
     0
102
RTVSPropertyOp21
 70
     0
102
RTVSPropertyOp22
 70
     0
102
RTVSPropertyOp23
 70
     0
102
RTVSPropertyOp24
 70
     0
102
RTVSPropertyOp25
 70
     0
102
RTVSPropertyOp26
 70
     0
102
RTVSPropertyOp27
 70
     0
  0
XRECORD
  5
1404
102
{ACAD_REACTORS
330
1403
102
}
330
1403
100
AcDbXrecord
280
     1
102
RTVSPropertyOp0
 70
     1
102
RTVSPropertyOp1
 70
     1
102
RTVSPropertyOp2
 70
     1
102
RTVSPropertyOp3
 70
     1
102
RTVSPropertyOp4
 70
     1
102
RTVSPropertyOp5
 70
     1
102
RTVSPropertyOp6
 70
     1
102
RTVSPropertyOp7
 70
     1
102
RTVSPropertyOp8
 70
     1
102
RTVSPropertyOp9
 70
     1
102
RTVSPropertyOp10
 70
     1
102
RTVSPropertyOp11
 70
     1
102
RTVSPropertyOp12
 70
     1
102
RTVSPropertyOp13
 70
     1
102
RTVSPropertyOp14
 70
     1
102
RTVSPropertyOp15
 70
     1
102
RTVSPropertyOp16
 70
     1
102
RTVSPropertyOp17
 70
     1
102
RTVSPropertyOp18
 70
     1
102
RTVSPropertyOp19
 70
     1
102
RTVSPropertyOp20
 70
     1
102
RTVSPropertyOp21
 70
     1
102
RTVSPropertyOp22
 70
     1
102
RTVSPropertyOp23
 70
     1
102
RTVSPropertyOp24
 70
     1
102
RTVSPropertyOp25
 70
     1
102
RTVSPropertyOp26
 70
     1
102
RTVSPropertyOp27
 70
     1
  0
XRECORD
  5
13E8
102
{ACAD_REACTORS
330
13E7
102
}
330
13E7
100
AcDbXrecord
280
     1
102
RTVSPropertyOp0
 70
     1
102
RTVSPropertyOp1
 70
     1
102
RTVSPropertyOp2
 70
     1
102
RTVSPropertyOp3
 70
     1
102
RTVSPropertyOp4
 70
     1
102
RTVSPropertyOp5
 70
     1
102
RTVSPropertyOp6
 70
     1
102
RTVSPropertyOp7
 70
     1
102
RTVSPropertyOp8
 70
     1
102
RTVSPropertyOp9
 70
     1
102
RTVSPropertyOp10
 70
     1
102
RTVSPropertyOp11
 70
     1
102
RTVSPropertyOp12
 70
     1
102
RTVSPropertyOp13
 70
     1
102
RTVSPropertyOp14
 70
     1
102
RTVSPropertyOp15
 70
     1
102
RTVSPropertyOp16
 70
     1
102
RTVSPropertyOp17
 70
     1
102
RTVSPropertyOp18
 70
     1
102
RTVSPropertyOp19
 70
     1
102
RTVSPropertyOp20
 70
     1
102
RTVSPropertyOp21
 70
     1
102
RTVSPropertyOp22
 70
     1
102
RTVSPropertyOp23
 70
     1
102
RTVSPropertyOp24
 70
     1
102
RTVSPropertyOp25
 70
     1
102
RTVSPropertyOp26
 70
     1
102
RTVSPropertyOp27
 70
     1
  0
XRECORD
  5
13EA
102
{ACAD_REACTORS
330
13E9
102
}
330
13E9
100
AcDbXrecord
280
     1
102
RTVSPropertyOp0
 70
     1
102
RTVSPropertyOp1
 70
     1
102
RTVSPropertyOp2
 70
     1
102
RTVSPropertyOp3
 70
     1
102
RTVSPropertyOp4
 70
     1
102
RTVSPropertyOp5
 70
     1
102
RTVSPropertyOp6
 70
     1
102
RTVSPropertyOp7
 70
     1
102
RTVSPropertyOp8
 70
     1
102
RTVSPropertyOp9
 70
     1
102
RTVSPropertyOp10
 70
     1
102
RTVSPropertyOp11
 70
     1
102
RTVSPropertyOp12
 70
     1
102
RTVSPropertyOp13
 70
     1
102
RTVSPropertyOp14
 70
     1
102
RTVSPropertyOp15
 70
     1
102
RTVSPropertyOp16
 70
     1
102
RTVSPropertyOp17
 70
     1
102
RTVSPropertyOp18
 70
     1
102
RTVSPropertyOp19
 70
     1
102
RTVSPropertyOp20
 70
     1
102
RTVSPropertyOp21
 70
     1
102
RTVSPropertyOp22
 70
     1
102
RTVSPropertyOp23
 70
     1
102
RTVSPropertyOp24
 70
     1
102
RTVSPropertyOp25
 70
     1
102
RTVSPropertyOp26
 70
     1
102
RTVSPropertyOp27
 70
     1
  0
XRECORD
  5
13EC
102
{ACAD_REACTORS
330
13EB
102
}
330
13EB
100
AcDbXrecord
280
     1
102
RTVSPropertyOp0
 70
     1
102
RTVSPropertyOp1
 70
     1
102
RTVSPropertyOp2
 70
     1
102
RTVSPropertyOp3
 70
     1
102
RTVSPropertyOp4
 70
     1
102
RTVSPropertyOp5
 70
     1
102
RTVSPropertyOp6
 70
     1
102
RTVSPropertyOp7
 70
     1
102
RTVSPropertyOp8
 70
     1
102
RTVSPropertyOp9
 70
     1
102
RTVSPropertyOp10
 70
     1
102
RTVSPropertyOp11
 70
     1
102
RTVSPropertyOp12
 70
     1
102
RTVSPropertyOp13
 70
     1
102
RTVSPropertyOp14
 70
     1
102
RTVSPropertyOp15
 70
     1
102
RTVSPropertyOp16
 70
     1
102
RTVSPropertyOp17
 70
     1
102
RTVSPropertyOp18
 70
     1
102
RTVSPropertyOp19
 70
     1
102
RTVSPropertyOp20
 70
     1
102
RTVSPropertyOp21
 70
     1
102
RTVSPropertyOp22
 70
     1
102
RTVSPropertyOp23
 70
     1
102
RTVSPropertyOp24
 70
     1
102
RTVSPropertyOp25
 70
     1
102
RTVSPropertyOp26
 70
     1
102
RTVSPropertyOp27
 70
     1
  0
XRECORD
  5
13EE
102
{ACAD_REACTORS
330
13ED
102
}
330
13ED
100
AcDbXrecord
280
     1
102
RTVSPropertyOp0
 70
     1
102
RTVSPropertyOp1
 70
     1
102
RTVSPropertyOp2
 70
     1
102
RTVSPropertyOp3
 70
     1
102
RTVSPropertyOp4
 70
     1
102
RTVSPropertyOp5
 70
     1
102
RTVSPropertyOp6
 70
     1
102
RTVSPropertyOp7
 70
     1
102
RTVSPropertyOp8
 70
     1
102
RTVSPropertyOp9
 70
     1
102
RTVSPropertyOp10
 70
     1
102
RTVSPropertyOp11
 70
     1
102
RTVSPropertyOp12
 70
     1
102
RTVSPropertyOp13
 70
     1
102
RTVSPropertyOp14
 70
     1
102
RTVSPropertyOp15
 70
     1
102
RTVSPropertyOp16
 70
     1
102
RTVSPropertyOp17
 70
     1
102
RTVSPropertyOp18
 70
     1
102
RTVSPropertyOp19
 70
     1
102
RTVSPropertyOp20
 70
     1
102
RTVSPropertyOp21
 70
     1
102
RTVSPropertyOp22
 70
     1
102
RTVSPropertyOp23
 70
     1
102
RTVSPropertyOp24
 70
     1
102
RTVSPropertyOp25
 70
     1
102
RTVSPropertyOp26
 70
     1
102
RTVSPropertyOp27
 70
     1
  0
XRECORD
  5
1408
102
{ACAD_REACTORS
330
1407
102
}
330
1407
100
AcDbXrecord
280
     1
102
RTVSPropertyOp0
 70
     0
102
RTVSPropertyOp1
 70
     0
102
RTVSPropertyOp2
 70
     0
102
RTVSPropertyOp3
 70
     0
102
RTVSPropertyOp4
 70
     0
102
RTVSPropertyOp5
 70
     0
102
RTVSPropertyOp6
 70
     0
102
RTVSPropertyOp7
 70
     0
102
RTVSPropertyOp8
 70
     0
102
RTVSPropertyOp9
 70
     0
102
RTVSPropertyOp10
 70
     0
102
RTVSPropertyOp11
 70
     0
102
RTVSPropertyOp12
 70
     0
102
RTVSPropertyOp13
 70
     0
102
RTVSPropertyOp14
 70
     2
102
RTVSPropertyOp15
 70
     0
102
RTVSPropertyOp16
 70
     0
102
RTVSPropertyOp17
 70
     0
102
RTVSPropertyOp18
 70
     0
102
RTVSPropertyOp19
 70
     0
102
RTVSPropertyOp20
 70
     0
102
RTVSPropertyOp21
 70
     0
102
RTVSPropertyOp22
 70
     0
102
RTVSPropertyOp23
 70
     0
102
RTVSPropertyOp24
 70
     0
102
RTVSPropertyOp25
 70
     0
102
RTVSPropertyOp26
 70
     0
102
RTVSPropertyOp27
 70
     0
  0
XRECORD
  5
1402
102
{ACAD_REACTORS
330
1401
102
}
330
1401
100
AcDbXrecord
280
     1
102
RTVSPropertyOp0
 70
     1
102
RTVSPropertyOp1
 70
     1
102
RTVSPropertyOp2
 70
     1
102
RTVSPropertyOp3
 70
     1
102
RTVSPropertyOp4
 70
     1
102
RTVSPropertyOp5
 70
     1
102
RTVSPropertyOp6
 70
     1
102
RTVSPropertyOp7
 70
     1
102
RTVSPropertyOp8
 70
     1
102
RTVSPropertyOp9
 70
     1
102
RTVSPropertyOp10
 70
     1
102
RTVSPropertyOp11
 70
     1
102
RTVSPropertyOp12
 70
     1
102
RTVSPropertyOp13
 70
     1
102
RTVSPropertyOp14
 70
     1
102
RTVSPropertyOp15
 70
     1
102
RTVSPropertyOp16
 70
     1
102
RTVSPropertyOp17
 70
     1
102
RTVSPropertyOp18
 70
     1
102
RTVSPropertyOp19
 70
     1
102
RTVSPropertyOp20
 70
     1
102
RTVSPropertyOp21
 70
     1
102
RTVSPropertyOp22
 70
     1
102
RTVSPropertyOp23
 70
     1
102
RTVSPropertyOp24
 70
     1
102
RTVSPropertyOp25
 70
     1
102
RTVSPropertyOp26
 70
     1
102
RTVSPropertyOp27
 70
     1
  0
XRECORD
  5
140A
102
{ACAD_REACTORS
330
1409
102
}
330
1409
100
AcDbXrecord
280
     1
102
RTVSPropertyOp0
 70
     0
102
RTVSPropertyOp1
 70
     0
102
RTVSPropertyOp2
 70
     0
102
RTVSPropertyOp3
 70
     0
102
RTVSPropertyOp4
 70
     0
102
RTVSPropertyOp5
 70
     0
102
RTVSPropertyOp6
 70
     0
102
RTVSPropertyOp7
 70
     0
102
RTVSPropertyOp8
 70
     0
102
RTVSPropertyOp9
 70
     0
102
RTVSPropertyOp10
 70
     0
102
RTVSPropertyOp11
 70
     0
102
RTVSPropertyOp12
 70
     0
102
RTVSPropertyOp13
 70
     0
102
RTVSPropertyOp14
 70
     2
102
RTVSPropertyOp15
 70
     0
102
RTVSPropertyOp16
 70
     0
102
RTVSPropertyOp17
 70
     0
102
RTVSPropertyOp18
 70
     0
102
RTVSPropertyOp19
 70
     0
102
RTVSPropertyOp20
 70
     0
102
RTVSPropertyOp21
 70
     0
102
RTVSPropertyOp22
 70
     0
102
RTVSPropertyOp23
 70
     0
102
RTVSPropertyOp24
 70
     0
102
RTVSPropertyOp25
 70
     0
102
RTVSPropertyOp26
 70
     0
102
RTVSPropertyOp27
 70
     0
  0
XRECORD
  5
13FA
102
{ACAD_REACTORS
330
13F9
102
}
330
13F9
100
AcDbXrecord
280
     1
102
RTVSPropertyOp0
 70
     1
102
RTVSPropertyOp1
 70
     1
102
RTVSPropertyOp2
 70
     1
102
RTVSPropertyOp3
 70
     1
102
RTVSPropertyOp4
 70
     1
102
RTVSPropertyOp5
 70
     1
102
RTVSPropertyOp6
 70
     1
102
RTVSPropertyOp7
 70
     1
102
RTVSPropertyOp8
 70
     1
102
RTVSPropertyOp9
 70
     1
102
RTVSPropertyOp10
 70
     1
102
RTVSPropertyOp11
 70
     1
102
RTVSPropertyOp12
 70
     1
102
RTVSPropertyOp13
 70
     1
102
RTVSPropertyOp14
 70
     1
102
RTVSPropertyOp15
 70
     1
102
RTVSPropertyOp16
 70
     1
102
RTVSPropertyOp17
 70
     1
102
RTVSPropertyOp18
 70
     1
102
RTVSPropertyOp19
 70
     1
102
RTVSPropertyOp20
 70
     1
102
RTVSPropertyOp21
 70
     1
102
RTVSPropertyOp22
 70
     1
102
RTVSPropertyOp23
 70
     1
102
RTVSPropertyOp24
 70
     1
102
RTVSPropertyOp25
 70
     1
102
RTVSPropertyOp26
 70
     1
102
RTVSPropertyOp27
 70
     1
  0
XRECORD
  5
1400
102
{ACAD_REACTORS
330
13FF
102
}
330
13FF
100
AcDbXrecord
280
     1
102
RTVSPropertyOp0
 70
     1
102
RTVSPropertyOp1
 70
     1
102
RTVSPropertyOp2
 70
     1
102
RTVSPropertyOp3
 70
     1
102
RTVSPropertyOp4
 70
     1
102
RTVSPropertyOp5
 70
     1
102
RTVSPropertyOp6
 70
     1
102
RTVSPropertyOp7
 70
     1
102
RTVSPropertyOp8
 70
     1
102
RTVSPropertyOp9
 70
     1
102
RTVSPropertyOp10
 70
     1
102
RTVSPropertyOp11
 70
     1
102
RTVSPropertyOp12
 70
     1
102
RTVSPropertyOp13
 70
     1
102
RTVSPropertyOp14
 70
     1
102
RTVSPropertyOp15
 70
     1
102
RTVSPropertyOp16
 70
     1
102
RTVSPropertyOp17
 70
     1
102
RTVSPropertyOp18
 70
     1
102
RTVSPropertyOp19
 70
     1
102
RTVSPropertyOp20
 70
     1
102
RTVSPropertyOp21
 70
     1
102
RTVSPropertyOp22
 70
     1
102
RTVSPropertyOp23
 70
     1
102
RTVSPropertyOp24
 70
     1
102
RTVSPropertyOp25
 70
     1
102
RTVSPropertyOp26
 70
     1
102
RTVSPropertyOp27
 70
     1
  0
ENDSEC
  0
EOF
