  0
SECTION
  2
HEADER
  9
$ACADVER
  1
AC1015
  9
$ACADMAINTVER
 70
    20
  9
$DWGCODEPAGE
  3
ANSI_1252
  9
$INSBASE
 10
0.0
 20
0.0
 30
0.0
  9
$EXTMIN
 10
19435.70065763328
 20
-303.7779742280211
 30
0.0
  9
$EXTMAX
 10
19438.85350632139
 20
-303.2877511391947
 30
0.0
  9
$LIMMIN
 10
0.0
 20
0.0
  9
$LIMMAX
 10
420.0
 20
297.0
  9
$ORTHOMODE
 70
     1
  9
$REGENMODE
 70
     1
  9
$FILLMODE
 70
     1
  9
$QTEXTMODE
 70
     0
  9
$MIRRTEXT
 70
     1
  9
$LTSCALE
 40
1.0
  9
$ATTMODE
 70
     1
  9
$TEXTSIZE
 40
2.5
  9
$TRACEWID
 40
1.0
  9
$TEXTSTYLE
  7
SANINDUSA
  9
$CLAYER
  8
0
  9
$CELTYPE
  6
ByLayer
  9
$CECOLOR
 62
   256
  9
$CELTSCALE
 40
1.0
  9
$DISPSILH
 70
     0
  9
$DIMSCALE
 40
1.0
  9
$DIMASZ
 40
2.0
  9
$DIMEXO
 40
1.0
  9
$DIMDLI
 40
1.0
  9
$DIMRND
 40
0.0
  9
$DIMDLE
 40
0.0
  9
$DIMEXE
 40
1.0
  9
$DIMTP
 40
0.0
  9
$DIMTM
 40
0.0
  9
$DIMTXT
 40
2.0
  9
$DIMCEN
 40
0.0
  9
$DIMTSZ
 40
0.0
  9
$DIMTOL
 70
     0
  9
$DIMLIM
 70
     0
  9
$DIMTIH
 70
     0
  9
$DIMTOH
 70
     0
  9
$DIMSE1
 70
     0
  9
$DIMSE2
 70
     0
  9
$DIMTAD
 70
     1
  9
$DIMZIN
 70
     8
  9
$DIMBLK
  1

  9
$DIMASO
 70
     1
  9
$DIMSHO
 70
     1
  9
$DIMPOST
  1

  9
$DIMAPOST
  1

  9
$DIMALT
 70
     0
  9
$DIMALTD
 70
     3
  9
$DIMALTF
 40
0.03937007874016
  9
$DIMLFAC
 40
1.0
  9
$DIMTOFL
 70
     1
  9
$DIMTVP
 40
0.0
  9
$DIMTIX
 70
     0
  9
$DIMSOXD
 70
     0
  9
$DIMSAH
 70
     0
  9
$DIMBLK1
  1

  9
$DIMBLK2
  1

  9
$DIMSTYLE
  2
SANINDUSA
  9
$DIMCLRD
 70
   256
  9
$DIMCLRE
 70
   256
  9
$DIMCLRT
 70
   256
  9
$DIMTFAC
 40
1.0
  9
$DIMGAP
 40
1.0
  9
$DIMJUST
 70
     0
  9
$DIMSD1
 70
     0
  9
$DIMSD2
 70
     0
  9
$DIMTOLJ
 70
     0
  9
$DIMTZIN
 70
     8
  9
$DIMALTZ
 70
     0
  9
$DIMALTTZ
 70
     0
  9
$DIMUPT
 70
     0
  9
$DIMDEC
 70
     1
  9
$DIMTDEC
 70
     1
  9
$DIMALTU
 70
     2
  9
$DIMALTTD
 70
     3
  9
$DIMTXSTY
  7
SANINDUSA
  9
$DIMAUNIT
 70
     0
  9
$DIMADEC
 70
     1
  9
$DIMALTRND
 40
0.0
  9
$DIMAZIN
 70
     0
  9
$DIMDSEP
 70
    44
  9
$DIMATFIT
 70
     3
  9
$DIMFRAC
 70
     0
  9
$DIMLDRBLK
  1

  9
$DIMLUNIT
 70
     2
  9
$DIMLWD
 70
    -1
  9
$DIMLWE
 70
    -1
  9
$DIMTMOVE
 70
     0
  9
$LUNITS
 70
     2
  9
$LUPREC
 70
     4
  9
$SKETCHINC
 40
1.0
  9
$FILLETRAD
 40
0.0
  9
$AUNITS
 70
     0
  9
$AUPREC
 70
     0
  9
$MENU
  1
.
  9
$ELEVATION
 40
0.0
  9
$PELEVATION
 40
0.0
  9
$THICKNESS
 40
0.0
  9
$LIMCHECK
 70
     0
  9
$CHAMFERA
 40
10.0
  9
$CHAMFERB
 40
10.0
  9
$CHAMFERC
 40
20.0
  9
$CHAMFERD
 40
0.0
  9
$SKPOLY
 70
     0
  9
$TDCREATE
 40
2453480.611989109
  9
$TDUCREATE
 40
2453480.570322442
  9
$TDUPDATE
 40
2456146.754458183
  9
$TDUUPDATE
 40
2456146.712791516
  9
$TDINDWG
 40
0.0104307755
  9
$TDUSRTIMER
 40
0.0104307755
  9
$USRTIMER
 70
     1
  9
$ANGBASE
 50
0.0
  9
$ANGDIR
 70
     0
  9
$PDMODE
 70
     0
  9
$PDSIZE
 40
0.0
  9
$PLINEWID
 40
0.0
  9
$SPLFRAME
 70
     0
  9
$SPLINETYPE
 70
     6
  9
$SPLINESEGS
 70
     8
  9
$HANDSEED
  5
17D7
  9
$SURFTAB1
 70
     6
  9
$SURFTAB2
 70
     6
  9
$SURFTYPE
 70
     6
  9
$SURFU
 70
     6
  9
$SURFV
 70
     6
  9
$UCSBASE
  2

  9
$UCSNAME
  2

  9
$UCSORG
 10
0.0
 20
0.0
 30
0.0
  9
$UCSXDIR
 10
1.0
 20
0.0
 30
0.0
  9
$UCSYDIR
 10
0.0
 20
1.0
 30
0.0
  9
$UCSORTHOREF
  2

  9
$UCSORTHOVIEW
 70
     0
  9
$UCSORGTOP
 10
0.0
 20
0.0
 30
0.0
  9
$UCSORGBOTTOM
 10
0.0
 20
0.0
 30
0.0
  9
$UCSORGLEFT
 10
0.0
 20
0.0
 30
0.0
  9
$UCSORGRIGHT
 10
0.0
 20
0.0
 30
0.0
  9
$UCSORGFRONT
 10
0.0
 20
0.0
 30
0.0
  9
$UCSORGBACK
 10
0.0
 20
0.0
 30
0.0
  9
$PUCSBASE
  2

  9
$PUCSNAME
  2

  9
$PUCSORG
 10
0.0
 20
0.0
 30
0.0
  9
$PUCSXDIR
 10
1.0
 20
0.0
 30
0.0
  9
$PUCSYDIR
 10
0.0
 20
1.0
 30
0.0
  9
$PUCSORTHOREF
  2

  9
$PUCSORTHOVIEW
 70
     0
  9
$PUCSORGTOP
 10
0.0
 20
0.0
 30
0.0
  9
$PUCSORGBOTTOM
 10
0.0
 20
0.0
 30
0.0
  9
$PUCSORGLEFT
 10
0.0
 20
0.0
 30
0.0
  9
$PUCSORGRIGHT
 10
0.0
 20
0.0
 30
0.0
  9
$PUCSORGFRONT
 10
0.0
 20
0.0
 30
0.0
  9
$PUCSORGBACK
 10
0.0
 20
0.0
 30
0.0
  9
$USERI1
 70
     0
  9
$USERI2
 70
     0
  9
$USERI3
 70
     0
  9
$USERI4
 70
     0
  9
$USERI5
 70
     0
  9
$USERR1
 40
0.0
  9
$USERR2
 40
0.0
  9
$USERR3
 40
0.0
  9
$USERR4
 40
0.0
  9
$USERR5
 40
0.0
  9
$WORLDVIEW
 70
     1
  9
$SHADEDGE
 70
     3
  9
$SHADEDIF
 70
    70
  9
$TILEMODE
 70
     1
  9
$MAXACTVP
 70
    64
  9
$PINSBASE
 10
0.0
 20
0.0
 30
0.0
  9
$PLIMCHECK
 70
     0
  9
$PEXTMIN
 10
1.000000000000000E+20
 20
1.000000000000000E+20
 30
1.000000000000000E+20
  9
$PEXTMAX
 10
-1.000000000000000E+20
 20
-1.000000000000000E+20
 30
-1.000000000000000E+20
  9
$PLIMMIN
 10
0.0
 20
0.0
  9
$PLIMMAX
 10
420.0
 20
297.0
  9
$UNITMODE
 70
     0
  9
$VISRETAIN
 70
     1
  9
$PLINEGEN
 70
     0
  9
$PSLTSCALE
 70
     1
  9
$TREEDEPTH
 70
  3020
  9
$CMLSTYLE
  2
Standard
  9
$CMLJUST
 70
     0
  9
$CMLSCALE
 40
20.0
  9
$PROXYGRAPHICS
 70
     1
  9
$MEASUREMENT
 70
     1
  9
$CELWEIGHT
370
    -1
  9
$ENDCAPS
280
     0
  9
$JOINSTYLE
280
     0
  9
$LWDISPLAY
290
     0
  9
$INSUNITS
 70
     4
  9
$HYPERLINKBASE
  1

  9
$STYLESHEET
  1
monochrome.ctb
  9
$XEDIT
290
     1
  9
$CEPSNTYPE
380
     0
  9
$PSTYLEMODE
290
     1
  9
$FINGERPRINTGUID
  2
{B98A73AA-52AA-4C10-B469-C0E7150AC31F}
  9
$VERSIONGUID
  2
{F2822BAF-6E7D-430F-8C46-7B9D2935FEF0}
  9
$EXTNAMES
290
     1
  9
$PSVPSCALE
 40
0.0
  9
$OLESTARTUP
290
     0
  0
ENDSEC
  0
SECTION
  2
CLASSES
  0
CLASS
  1
ACDBDICTIONARYWDFLT
  2
AcDbDictionaryWithDefault
  3
ObjectDBX Classes
 90
        0
280
     0
281
     0
  0
CLASS
  1
ACDBPLACEHOLDER
  2
AcDbPlaceHolder
  3
ObjectDBX Classes
 90
        0
280
     0
281
     0
  0
CLASS
  1
LAYOUT
  2
AcDbLayout
  3
ObjectDBX Classes
 90
        0
280
     0
281
     0
  0
CLASS
  1
DICTIONARYVAR
  2
AcDbDictionaryVar
  3
ObjectDBX Classes
 90
        0
280
     0
281
     0
  0
CLASS
  1
DIMASSOC
  2
AcDbDimAssoc
  3
"AcDbDimAssoc|Product Desc:     AcDim ARX App For Dimension|Company:          Autodesk, Inc.|WEB Address:      www.autodesk.com"
 90
    32768
280
     0
281
     0
  0
CLASS
  1
MATERIAL
  2
AcDbMaterial
  3
ObjectDBX Classes
 90
     1153
280
     0
281
     0
  0
CLASS
  1
VISUALSTYLE
  2
AcDbVisualStyle
  3
ObjectDBX Classes
 90
     4095
280
     0
281
     0
  0
CLASS
  1
TABLESTYLE
  2
AcDbTableStyle
  3
ObjectDBX Classes
 90
     4095
280
     0
281
     0
  0
CLASS
  1
SCALE
  2
AcDbScale
  3
ObjectDBX Classes
 90
     1153
280
     0
281
     0
  0
CLASS
  1
MLEADERSTYLE
  2
AcDbMLeaderStyle
  3
ACDB_MLEADERSTYLE_CLASS
 90
     4095
280
     0
281
     0
  0
CLASS
  1
CELLSTYLEMAP
  2
AcDbCellStyleMap
  3
ObjectDBX Classes
 90
     1152
280
     0
281
     0
  0
ENDSEC
  0
SECTION
  2
TABLES
  0
TABLE
  2
VPORT
  5
8
330
0
100
AcDbSymbolTable
 70
     1
  0
VPORT
  5
1725
330
8
100
AcDbSymbolTableRecord
100
AcDbViewportTableRecord
  2
*Active
 70
     0
 10
0.0
 20
0.0
 11
1.0
 21
1.0
 12
19437.36453542791
 22
-303.5328626836079
 13
0.0
 23
0.0
 14
10.0
 24
10.0
 15
10.0
 25
10.0
 16
0.0
 26
0.0
 36
1.0
 17
0.0
 27
0.0
 37
0.0
 40
2.029659550204193
 41
1.645464025026068
 42
50.0
 43
0.0
 44
0.0
 50
0.0
 51
0.0
 71
     0
 72
   100
 73
     1
 74
     2
 75
     0
 76
     0
 77
     0
 78
     0
281
     0
 65
     1
110
0.0
120
0.0
130
0.0
111
1.0
121
0.0
131
0.0
112
0.0
122
1.0
132
0.0
 79
     0
146
0.0
  0
ENDTAB
  0
TABLE
  2
LTYPE
  5
5
330
0
100
AcDbSymbolTable
 70
     3
  0
LTYPE
  5
14
330
5
100
AcDbSymbolTableRecord
100
AcDbLinetypeTableRecord
  2
ByBlock
 70
     0
  3

 72
    65
 73
     0
 40
0.0
  0
LTYPE
  5
15
330
5
100
AcDbSymbolTableRecord
100
AcDbLinetypeTableRecord
  2
ByLayer
 70
     0
  3

 72
    65
 73
     0
 40
0.0
  0
LTYPE
  5
16
330
5
100
AcDbSymbolTableRecord
100
AcDbLinetypeTableRecord
  2
Continuous
 70
     0
  3
Solid line
 72
    65
 73
     0
 40
0.0
  0
LTYPE
  5
2D
330
5
100
AcDbSymbolTableRecord
100
AcDbLinetypeTableRecord
  2
DASHDOT
 70
     0
  3
Dash dot __ . __ . __ . __ . __ . __ . __ . __
 72
    65
 73
     4
 40
25.4
 49
12.7
 74
     0
 49
-6.349999999999999
 74
     0
 49
0.0
 74
     0
 49
-6.349999999999999
 74
     0
  0
LTYPE
  5
2E
330
5
100
AcDbSymbolTableRecord
100
AcDbLinetypeTableRecord
  2
HIDDEN
 70
     0
  3
Hidden __ __ __ __ __ __ __ __ __ __ __ __ __ _
 72
    65
 73
     2
 40
9.524999999999998
 49
6.349999999999999
 74
     0
 49
-3.174999999999999
 74
     0
  0
ENDTAB
  0
TABLE
  2
LAYER
  5
2
330
0
100
AcDbSymbolTable
 70
    17
  0
LAYER
  5
10
102
{ACAD_XDICTIONARY
360
1770
102
}
330
2
100
AcDbSymbolTableRecord
100
AcDbLayerTableRecord
  2
0
 70
     0
 62
     7
  6
Continuous
370
    -3
390
F
  0
LAYER
  5
2F
102
{ACAD_XDICTIONARY
360
1772
102
}
330
2
100
AcDbSymbolTableRecord
100
AcDbLayerTableRecord
  2
1
 70
     0
 62
     1
  6
Continuous
370
    -3
390
F
  0
LAYER
  5
30
102
{ACAD_XDICTIONARY
360
1774
102
}
330
2
100
AcDbSymbolTableRecord
100
AcDbLayerTableRecord
  2
2
 70
     0
 62
     2
  6
Continuous
370
    -3
390
F
  0
LAYER
  5
31
102
{ACAD_XDICTIONARY
360
1776
102
}
330
2
100
AcDbSymbolTableRecord
100
AcDbLayerTableRecord
  2
3
 70
     0
 62
     3
  6
Continuous
370
    -3
390
F
  0
LAYER
  5
32
102
{ACAD_XDICTIONARY
360
1778
102
}
330
2
100
AcDbSymbolTableRecord
100
AcDbLayerTableRecord
  2
4
 70
     0
 62
     4
  6
Continuous
370
    -3
390
F
  0
LAYER
  5
33
102
{ACAD_XDICTIONARY
360
177A
102
}
330
2
100
AcDbSymbolTableRecord
100
AcDbLayerTableRecord
  2
5
 70
     0
 62
     5
  6
Continuous
370
    -3
390
F
  0
LAYER
  5
34
102
{ACAD_XDICTIONARY
360
177C
102
}
330
2
100
AcDbSymbolTableRecord
100
AcDbLayerTableRecord
  2
6
 70
     0
 62
     6
  6
Continuous
370
    -3
390
F
  0
LAYER
  5
35
102
{ACAD_XDICTIONARY
360
177E
102
}
330
2
100
AcDbSymbolTableRecord
100
AcDbLayerTableRecord
  2
7
 70
     0
 62
     7
  6
Continuous
370
    -3
390
F
  0
LAYER
  5
36
102
{ACAD_XDICTIONARY
360
1780
102
}
330
2
100
AcDbSymbolTableRecord
100
AcDbLayerTableRecord
  2
cen
 70
     0
 62
     7
  6
DASHDOT
370
    -3
390
F
  0
LAYER
  5
37
102
{ACAD_XDICTIONARY
360
1782
102
}
330
2
100
AcDbSymbolTableRecord
100
AcDbLayerTableRecord
  2
hid
 70
     0
 62
     7
  6
HIDDEN
370
    -3
390
F
  0
LAYER
  5
5D6
102
{ACAD_XDICTIONARY
360
1784
102
}
330
2
100
AcDbSymbolTableRecord
100
AcDbLayerTableRecord
  2
hatch
 70
     0
 62
     9
  6
Continuous
370
    -3
390
F
  0
LAYER
  5
8AF
102
{ACAD_XDICTIONARY
360
1786
102
}
330
2
100
AcDbSymbolTableRecord
100
AcDbLayerTableRecord
  2
9
 70
     0
 62
     9
  6
Continuous
370
    -3
390
F
  0
LAYER
  5
8F8
102
{ACAD_XDICTIONARY
360
1788
102
}
330
2
100
AcDbSymbolTableRecord
100
AcDbLayerTableRecord
  2
leg fin
 70
     0
 62
     9
  6
Continuous
370
    -3
390
F
  0
LAYER
  5
91D
102
{ACAD_XDICTIONARY
360
178A
102
}
330
2
100
AcDbSymbolTableRecord
100
AcDbLayerTableRecord
  2
cotas
 70
     0
 62
     1
  6
Continuous
370
    -3
390
F
  0
LAYER
  5
92F
330
2
100
AcDbSymbolTableRecord
100
AcDbLayerTableRecord
  2
Defpoints
 70
     0
 62
     7
  6
Continuous
290
     0
370
    -3
390
F
  0
LAYER
  5
114D
102
{ACAD_XDICTIONARY
360
178C
102
}
330
2
100
AcDbSymbolTableRecord
100
AcDbLayerTableRecord
  2
SANINDUSA
 70
     0
 62
     3
  6
Continuous
370
    -3
390
F
  0
LAYER
  5
14FE
102
{ACAD_XDICTIONARY
360
178E
102
}
330
2
100
AcDbSymbolTableRecord
100
AcDbLayerTableRecord
  2
indusa
 70
     0
 62
     3
  6
Continuous
370
    -3
390
F
  0
ENDTAB
  0
TABLE
  2
STYLE
  5
3
330
0
100
AcDbSymbolTable
 70
     3
  0
STYLE
  5
11
330
3
100
AcDbSymbolTableRecord
100
AcDbTextStyleTableRecord
  2
Standard
 70
     0
 40
0.0
 41
1.0
 50
0.0
 71
     0
 42
2.5
  3
Avgardn.ttf
  4

1001
ACAD
1000
AvantGarde Bk BT
1071
       34
  0
STYLE
  5
2C
330
3
100
AcDbSymbolTableRecord
100
AcDbTextStyleTableRecord
  2

 70
     1
 40
0.0
 41
1.0
 50
0.0
 71
     0
 42
2.5
  3
ltypeshp.shx
  4

  0
STYLE
  5
91F
330
3
100
AcDbSymbolTableRecord
100
AcDbTextStyleTableRecord
  2
SANINDUSA
 70
     0
 40
0.0
 41
1.0
 50
0.0
 71
     0
 42
2.5
  3
verdana.TTF
  4

1001
ACAD
1000
Verdana
1071
       34
  0
ENDTAB
  0
TABLE
  2
VIEW
  5
6
330
0
100
AcDbSymbolTable
 70
     0
  0
ENDTAB
  0
TABLE
  2
UCS
  5
7
330
0
100
AcDbSymbolTable
 70
     0
  0
ENDTAB
  0
TABLE
  2
APPID
  5
9
330
0
100
AcDbSymbolTable
 70
     3
  0
APPID
  5
12
330
9
100
AcDbSymbolTableRecord
100
AcDbRegAppTableRecord
  2
ACAD
 70
     0
  0
APPID
  5
3A
330
9
100
AcDbSymbolTableRecord
100
AcDbRegAppTableRecord
  2
DCO15
 70
     0
  0
APPID
  5
17D6
330
9
100
AcDbSymbolTableRecord
100
AcDbRegAppTableRecord
  2
ACAD_MLEADERVER
 70
     0
  0
ENDTAB
  0
TABLE
  2
DIMSTYLE
  5
A
330
0
100
AcDbSymbolTable
 70
     2
100
AcDbDimStyleTable
 71
     1
340
921
  0
DIMSTYLE
105
45
330
A
100
AcDbSymbolTableRecord
100
AcDbDimStyleTableRecord
  2
STANDARD
 70
     0
289
     0
340
11
  0
DIMSTYLE
105
921
330
A
100
AcDbSymbolTableRecord
100
AcDbDimStyleTableRecord
  2
SANINDUSA
 70
     0
 41
2.0
 42
1.0
 43
1.0
 44
1.0
 73
     0
 74
     0
 77
     1
 78
     8
140
2.0
141
0.0
143
0.03937007874016
147
1.0
171
     3
172
     1
176
   256
177
   256
178
   256
179
     1
271
     1
272
     1
274
     3
278
    44
283
     0
284
     8
340
91F
371
    -1
372
    -1
  0
ENDTAB
  0
TABLE
  2
BLOCK_RECORD
  5
1
330
0
100
AcDbSymbolTable
 70
    44
  0
BLOCK_RECORD
  5
1F
330
1
100
AcDbSymbolTableRecord
100
AcDbBlockTableRecord
  2
*Model_Space
340
22
  0
BLOCK_RECORD
  5
1B
330
1
100
AcDbSymbolTableRecord
100
AcDbBlockTableRecord
  2
*Paper_Space
340
1E
  0
BLOCK_RECORD
  5
23
330
1
100
AcDbSymbolTableRecord
100
AcDbBlockTableRecord
  2
*Paper_Space0
340
26
  0
BLOCK_RECORD
  5
919
330
1
100
AcDbSymbolTableRecord
100
AcDbBlockTableRecord
  2
_DotSmall
340
0
  0
BLOCK_RECORD
  5
922
330
1
100
AcDbSymbolTableRecord
100
AcDbBlockTableRecord
  2
base para cotas
340
0
310
2800000020000000200000000100080000000000000400000000000000000000000000000000000000000000000080000080000000808000800000008000800080800000C0C0C000C0DCC000F0CAA6000020400000206000002080000020A0000020C0000020E00000400000004020000040400000406000004080000040A0
310
000040C0000040E00000600000006020000060400000606000006080000060A0000060C0000060E00000800000008020000080400000806000008080000080A0000080C0000080E00000A0000000A0200000A0400000A0600000A0800000A0A00000A0C00000A0E00000C0000000C0200000C0400000C0600000C0800000C0
310
A00000C0C00000C0E00000E0000000E0200000E0400000E0600000E0800000E0A00000E0C00000E0E00040000000400020004000400040006000400080004000A0004000C0004000E00040200000402020004020400040206000402080004020A0004020C0004020E000404000004040200040404000404060004040800040
310
40A0004040C0004040E00040600000406020004060400040606000406080004060A0004060C0004060E00040800000408020004080400040806000408080004080A0004080C0004080E00040A0000040A0200040A0400040A0600040A0800040A0A00040A0C00040A0E00040C0000040C0200040C0400040C0600040C08000
310
40C0A00040C0C00040C0E00040E0000040E0200040E0400040E0600040E0800040E0A00040E0C00040E0E00080000000800020008000400080006000800080008000A0008000C0008000E00080200000802020008020400080206000802080008020A0008020C0008020E00080400000804020008040400080406000804080
310
008040A0008040C0008040E00080600000806020008060400080606000806080008060A0008060C0008060E00080800000808020008080400080806000808080008080A0008080C0008080E00080A0000080A0200080A0400080A0600080A0800080A0A00080A0C00080A0E00080C0000080C0200080C0400080C0600080C0
310
800080C0A00080C0C00080C0E00080E0000080E0200080E0400080E0600080E0800080E0A00080E0C00080E0E000C0000000C0002000C0004000C0006000C0008000C000A000C000C000C000E000C0200000C0202000C0204000C0206000C0208000C020A000C020C000C020E000C0400000C0402000C0404000C0406000C0
310
408000C040A000C040C000C040E000C0600000C0602000C0604000C0606000C0608000C060A000C060C000C060E000C0800000C0802000C0804000C0806000C0808000C080A000C080C000C080E000C0A00000C0A02000C0A04000C0A06000C0A08000C0A0A000C0A0C000C0A0E000C0C00000C0C02000C0C04000C0C06000
310
C0C08000C0C0A000F0FBFF00A4A0A000808080000000FF0000FF000000FFFF00FF000000FF00FF00FFFF0000FFFFFF00A4A4A4A4A4A4A4A4A4A4A4A4A4A4A4A4A4A4A4A4A4A4A4A4A4A4A4A4A4A4A4A4A4A4A4A4A4A4A4A4A4A4A4A4A4A4A4A4A4A4A4A4A4A4A4A4A4A4A4A4A4A4A4A4A4A4A4A4A4A4A4A4A4A4A4A4A4A4A4
310
A4A4A4A4A4A4A4A4A4A4A4A4A4A4A4A4A4A4A4A4A4A4A4A4A4A4A4A4A4A4A4A4A4A4A4A4A4A4A4A4A4A4A4A4A4A4A4A4A4A4A4A4A4A4A4A4A4A4A4A4A4A4A4A4A4A4A4A4A4A4A4A4A4A4A4A4A4A4A4A4A4A4A4A4A4A4A4A4A4A4A4A4A4A4A4A4A4A4A4A4A4A4A4A4A4A4A4A4A4A4A4A4A4A4A4A4A4A4A4A4A4A4A4A4A4A4A4
310
A4A4A4A4A4A4A4A4A4A4A4A4A4A4A4A4A4A4A4A4A4A4A4A4A4A4A4A4A4A4A4A4A4A4A4A4A4A4A4A4A4A4A4A4A4A4A4A4A4A4A4A4A4A4A4A4A4A4A4A4A4A4A4A4A4A4A4A4A4A4A4A4A4A4A4A4A4A4A4A4A4A4A4A4A4A4A4A4A4A4A4A4A4A4A4A4A4A4A4A4A4A4A4A4A4A4A4A4A4A4A4A4A4A4A4A4A4A4A4A4A4A4A4A4A4A4A4
310
A4A4A4A4A4A4A4A4A4A4A4A4A4A4A4A4A4A4A4A4A4A4A4A4A4A4A4A4A4A4A4A4A4A4A4A4A4A4A4A4A4A4A4A4A4A4A4A4A4A4A4A4A4A4A4A4A4A4A4A4A4A4A4A4A4A4A4A4A4A4A4A4A4A4A4A4A4A4A4A4A4A4A4A4A4A4A4A4A4A4A4A4A4A4A4A4A4A4A4A4A4A4A4A4A4A4A4A4A4A4A4A4A4A4A4A4F9F9F9F9F9F9F9F9F9F9F9
310
F9F9F9F9F9F9F9F9F9F9F9F9F9F9F9F9F9F9F9A4A4F9F9F9F9F9F9F9F9F9F9F9F9F9F9F9F9F9F9F9F9F9F9F9F9F9F9F9F9F9F9A4A4F9F9F9F9F9F9F9F9F9F9F9F9F9F9F9F9F9F9F9F9F9F9F9F9F9F9F9F9F9F9A4A4F9A4A4A4A4A4A4A4A4A4A4A4A4A4A4A4A4A4A4A4A4A4A4A4A4A4A4A4A4F9A4A4A4A4A4A4A4A4A4A4A4A4
310
A4A4A4A4A4A4A4A4A4A4A4A4A4A4A4A4A4A4A4A4A4A4A4A4A4A4A4A4A4A4A4A4A4A4A4A4A4A4A4A4A4A4A4A4A4A4A4A4A4A4A4A4A4A4A4A4A4A4A4A4A4A4A4A4A4A4A4A4A4A4A4A4A4A4A4A4A4A4A4A4A4A4A4A4A4A4A4A4A4A4A4A4A4A4A4A4A4A4A4A4A4A4A4A4A4A4A4A4A4A4A4A4A4A4A4A4A4A4A4A4A4A4A4A4A4A4A4
310
A4A4A4A4A4A4A4A4A4A4A4A4A4A4A4A4A4A4A4A4A4A4A4A4A4A4A4A4A4A4A4A4A4A4A4A4A4A4A4A4A4A4A4A4A4A4A4A4A4A4A4A4A4A4A4A4A4A4A4A4A4A4A4A4A4A4A4A4A4A4A4A4A4A4A4A4A4A4A4A4A4A4A4A4A4A4A4A4A4A4A4A4A4A4A4A4A4A4A4A4A4A4A4A4A4A4A4A4A4A4A4A4A4A4A4A4A4A4A4A4A4A4A4A4A4A4A4
310
A4A4A4A4A4A4A4A4A4A4A4A4A4A4A4A4A4A4A4A4A4A4A4A4A4A4A4A4A4A4A4A4A4A4A4A4A4A4A4A4A4A4A4A4A4A4A4A4A4A4A4A4A4A4A4A4A4A4A4A4A4A4A4A4A4A4A4A4A4A4A4A4A4A4A4A4A4A4A4A4A4A4A4A4A4A4A4A4A4A4A4A4A4A4A4A4A4A4A4A4A4A4A4A4A4A4A4A4A4A4A4A4A4A4A4A4A4A4A4A4A4A4A4A4A4A4A4
310
A4A4A4A4A4A4A4A4A4A4A4A4A4A4A4A4A4A4A4A4A4A4A4A4A4A4A4A4A4A4A4A4A4A4A4A4A4A4A4A4A4A4A4A4A4A4A4A4A4A4A4A4A4A4A4A4
1001
ACAD
1000
DesignCenter Data
1002
{
1070
     1
1070
     4
1002
}
  0
BLOCK_RECORD
  5
AA8
330
1
100
AcDbSymbolTableRecord
100
AcDbBlockTableRecord
  2
_CLOSED
340
0
  0
ENDTAB
  0
ENDSEC
  0
SECTION
  2
BLOCKS
  0
BLOCK
  5
20
330
1F
100
AcDbEntity
  8
0
100
AcDbBlockBegin
  2
*Model_Space
 70
     0
 10
0.0
 20
0.0
 30
0.0
  3
*Model_Space
  1

  0
ENDBLK
  5
21
330
1F
100
AcDbEntity
  8
0
100
AcDbBlockEnd
  0
BLOCK
  5
1C
330
1B
100
AcDbEntity
 67
     1
  8
0
100
AcDbBlockBegin
  2
*Paper_Space
 70
     0
 10
0.0
 20
0.0
 30
0.0
  3
*Paper_Space
  1

  0
ENDBLK
  5
1D
330
1B
100
AcDbEntity
 67
     1
  8
0
100
AcDbBlockEnd
  0
BLOCK
  5
24
330
23
100
AcDbEntity
 67
     1
  8
0
100
AcDbBlockBegin
  2
*Paper_Space0
 70
     0
 10
0.0
 20
0.0
 30
0.0
  3
*Paper_Space0
  1

  0
ENDBLK
  5
25
330
23
100
AcDbEntity
 67
     1
  8
0
100
AcDbBlockEnd
  0
BLOCK
  5
91B
330
919
100
AcDbEntity
  8
0
100
AcDbBlockBegin
  2
_DotSmall
 70
     0
 10
0.0
 20
0.0
 30
0.0
  3
_DotSmall
  1

  0
LWPOLYLINE
  5
91A
330
919
100
AcDbEntity
  8
0
  6
ByBlock
 62
     0
100
AcDbPolyline
 90
        2
 70
     1
 43
0.5
 10
-0.0625
 20
0.0
 42
1.0
 10
0.0625
 20
0.0
 42
1.0
  0
ENDBLK
  5
91C
330
919
100
AcDbEntity
  8
0
100
AcDbBlockEnd
  0
BLOCK
  5
92A
330
922
100
AcDbEntity
  8
0
100
AcDbBlockBegin
  2
base para cotas
 70
     0
 10
0.0
 20
0.0
 30
0.0
  3
base para cotas
  1

  0
LINE
  5
B36
330
922
100
AcDbEntity
  8
cotas
100
AcDbLine
 10
0.0
 20
-30.0
 30
0.0
 11
327.1260136525398
 21
-30.0
 31
0.0
  0
LINE
  5
B37
330
922
100
AcDbEntity
  8
cotas
100
AcDbLine
 10
0.0
 20
-25.0
 30
0.0
 11
327.1260136525398
 21
-25.0
 31
0.0
  0
LINE
  5
B38
330
922
100
AcDbEntity
  8
cotas
100
AcDbLine
 10
0.0
 20
-20.0
 30
0.0
 11
327.1260136525398
 21
-20.0
 31
0.0
  0
LINE
  5
B39
330
922
100
AcDbEntity
  8
cotas
100
AcDbLine
 10
0.0
 20
-15.0
 30
0.0
 11
327.1260136525398
 21
-15.0
 31
0.0
  0
LINE
  5
B3A
330
922
100
AcDbEntity
  8
cotas
100
AcDbLine
 10
0.0
 20
-10.0
 30
0.0
 11
327.1260136525398
 21
-10.0
 31
0.0
  0
LINE
  5
B3B
330
922
100
AcDbEntity
  8
cotas
100
AcDbLine
 10
0.0
 20
0.0
 30
0.0
 11
0.0
 21
-30.0
 31
0.0
  0
LINE
  5
B3C
330
922
100
AcDbEntity
  8
cotas
100
AcDbLine
 10
327.1260136525398
 20
-30.0
 30
0.0
 11
327.1260136525398
 21
0.0
 31
0.0
  0
ENDBLK
  5
92B
330
922
100
AcDbEntity
  8
0
100
AcDbBlockEnd
  0
BLOCK
  5
AAD
330
AA8
100
AcDbEntity
  8
0
100
AcDbBlockBegin
  2
_CLOSED
 70
     0
 10
0.0
 20
0.0
 30
0.0
  3
_CLOSED
  1

  0
LINE
  5
AA9
330
AA8
100
AcDbEntity
  8
0
100
AcDbLine
 10
-1.0
 20
0.166667
 30
0.0
 11
0.0
 21
0.0
 31
0.0
  0
LINE
  5
AAA
330
AA8
100
AcDbEntity
  8
0
100
AcDbLine
 10
0.0
 20
0.0
 30
0.0
 11
-1.0
 21
-0.166667
 31
0.0
  0
LINE
  5
AAB
330
AA8
100
AcDbEntity
  8
0
100
AcDbLine
 10
-1.0
 20
0.166667
 30
0.0
 11
-1.0
 21
-0.166667
 31
0.0
  0
LINE
  5
AAC
330
AA8
100
AcDbEntity
  8
0
100
AcDbLine
 10
0.0
 20
0.0
 30
0.0
 11
-1.0
 21
0.0
 31
0.0
  0
ENDBLK
  5
AAE
330
AA8
100
AcDbEntity
  8
0
100
AcDbBlockEnd
  0
ENDSEC
  0
SECTION
  2
ENTITIES
  0
LINE
  5
E7B
330
1F
100
AcDbEntity
  8
SANINDUSA
100
AcDbLine
 10
19435.81163512419
 20
-303.2929742280211
 30
0.0
 11
19436.2496351242
 21
-303.2929742280211
 31
0.0
  0
LWPOLYLINE
  5
E7E
330
1F
100
AcDbEntity
  8
SANINDUSA
100
AcDbPolyline
 90
       46
 70
   128
 43
0.0
 10
19436.03063512419
 20
-303.7331525438645
 10
19436.04869378531
 20
-303.7327200512891
 10
19436.066759278
 20
-303.7314128722161
 10
19436.0847586209
 20
-303.7292164546242
 10
19436.10261883262
 20
-303.7261162464927
 10
19436.1202669318
 20
-303.7220976958005
 10
19436.13762993705
 20
-303.7171462505267
 10
19436.1536960327
 20
-303.7115968947023
 10
19436.16947292754
 20
-303.7051258269563
 10
19436.1848300252
 20
-303.6977037614274
 10
19436.19963672934
 20
-303.6893014122544
 10
19436.21376244358
 20
-303.6798894935761
 10
19436.22294611092
 20
-303.6728615422889
 10
19436.23173866212
 20
-303.6652907929123
 10
19436.24004777894
 20
-303.6571880161091
 10
19436.24778114308
 20
-303.6485639825419
 10
19436.25484643628
 20
-303.6394294628735
 10
19436.26158362638
 20
-303.6290638265009
 10
19436.26736376392
 20
-303.6181093476348
 10
19436.27203220912
 20
-303.6066725373839
 10
19436.27471152625
 20
-303.5978504325028
 10
19436.27667040039
 20
-303.5888083612132
 10
19436.27787490534
 20
-303.5796381474257
 10
19436.27829111489
 20
-303.5704316150508
 10
19436.27799985927
 20
-303.5624151658908
 10
19436.27711481712
 20
-303.5544423760452
 10
19436.27522735319
 20
-303.5447830204296
 10
19436.27249701134
 20
-303.5352904826254
 10
19436.26899143111
 20
-303.5260501028564
 10
19436.26477825204
 20
-303.5171472213459
 10
19436.25892527176
 20
-303.5070383861259
 10
19436.25223793652
 20
-303.4974164639638
 10
19436.24483314144
 20
-303.4883224585801
 10
19436.23682778163
 20
-303.4797973736953
 10
19436.22520448928
 20
-303.4691718773749
 10
19436.21272670606
 20
-303.4594711835562
 10
19436.19954499861
 20
-303.4506820744413
 10
19436.18580993353
 20
-303.4427913322318
 10
19436.17167207745
 20
-303.4357857391297
 10
19436.15346541848
 20
-303.4281700886207
 10
19436.13475580046
 20
-303.4217638403867
 10
19436.11567565972
 20
-303.4165316716728
 10
19436.09635743259
 20
-303.4124382597235
 10
19436.07458926836
 20
-303.4091666923966
 10
19436.05264112846
 20
-303.4072237852773
 10
19436.03063512419
 20
-303.406582220261
  0
LWPOLYLINE
  5
E7F
330
1F
100
AcDbEntity
  8
SANINDUSA
100
AcDbPolyline
 90
       80
 70
   128
 43
0.0
 10
19436.26042714108
 20
-303.4215488633764
 10
19436.27290071574
 20
-303.4295835916477
 10
19436.28499702889
 20
-303.4382833050204
 10
19436.29660646513
 20
-303.4476486478685
 10
19436.30761940909
 20
-303.4576802645663
 10
19436.31792624535
 20
-303.4683787994874
 10
19436.32741735855
 20
-303.4797448970059
 10
19436.33490162296
 20
-303.4901542160504
 10
19436.3416354998
 20
-303.5011077114437
 10
19436.34750314224
 20
-303.5125377243296
 10
19436.35238870345
 20
-303.5243765958513
 10
19436.35624733488
 20
-303.5368298753306
 10
19436.35893180489
 20
-303.5496497253387
 10
19436.36038026706
 20
-303.5626612402292
 10
19436.36053087501
 20
-303.575689514355
 10
19436.35957557919
 20
-303.5870004331032
 10
19436.3576498556
 20
-303.5982279806509
 10
19436.35480650537
 20
-303.6092635027653
 10
19436.35109832962
 20
-303.6199983452137
 10
19436.34542143465
 20
-303.632733053401
 10
19436.33862217365
 20
-303.6449625312339
 10
19436.33084779781
 20
-303.6566123104933
 10
19436.32224555832
 20
-303.6676079229603
 10
19436.31159522796
 20
-303.6793136403318
 10
19436.30009853242
 20
-303.6902564993612
 10
19436.28788423215
 20
-303.7004403228541
 10
19436.27508108759
 20
-303.7098689336165
 10
19436.26181785919
 20
-303.7185461544541
 10
19436.24414554347
 20
-303.7286989192008
 10
19436.225848654
 20
-303.7377921572022
 10
19436.207033619
 20
-303.7458612330541
 10
19436.18780686668
 20
-303.7529415113525
 10
19436.16827482524
 20
-303.7590683566933
 10
19436.14854392289
 20
-303.7642771336722
 10
19436.13645216197
 20
-303.7670172209347
 10
19436.11203773397
 20
-303.7715623809453
 10
19436.08742550437
 20
-303.774878508763
 10
19436.06853951274
 20
-303.7766011365952
 10
19436.04959668661
 20
-303.7776316511146
 10
19436.03063512419
 20
-303.7779742280211
 10
19436.00488039353
 20
-303.7773415340236
 10
19435.97918861028
 20
-303.7754371412498
 10
19435.95810224687
 20
-303.7729033821596
 10
19435.93709401387
 20
-303.7694732336472
 10
19435.91623932082
 20
-303.7651213775877
 10
19435.8956135773
 20
-303.7598224958562
 10
19435.87529219286
 20
-303.7535512703276
 10
19435.85535057708
 20
-303.7462823828772
 10
19435.83861147804
 20
-303.739229714905
 10
19435.8221972459
 20
-303.7313493693159
 10
19435.80621811296
 20
-303.7226137039662
 10
19435.7907843115
 20
-303.7129950767123
 10
19435.77600607382
 20
-303.7024658454104
 10
19435.76534985992
 20
-303.6938863874817
 10
19435.75515010623
 20
-303.6847063660202
 10
19435.74550979335
 20
-303.6749362317555
 10
19435.73653190185
 20
-303.6645864354172
 10
19435.72831941232
 20
-303.6536674277347
 10
19435.72145100636
 20
-303.6429873208528
 10
19435.715386586
 20
-303.6317856891516
 10
19435.71023863476
 20
-303.6201449399988
 10
19435.70611963616
 20
-303.6081474807623
 10
19435.70308885221
 20
-303.595621901137
 10
19435.70125595299
 20
-303.5828046928988
 10
19435.70065763328
 20
-303.5698744855499
 10
19435.70133058783
 20
-303.5570099085922
 10
19435.70295320298
 20
-303.5459729481339
 10
19435.70549053365
 20
-303.5350720871045
 10
19435.70888235356
 20
-303.5244009974619
 10
19435.71306843645
 20
-303.5140533511641
 10
19435.71824101015
 20
-303.5036151065342
 10
19435.72416742809
 20
-303.4935437550387
 10
19435.73076466176
 20
-303.4838727538605
 10
19435.73794968266
 20
-303.4746355601821
 10
19435.74563946231
 20
-303.4658656311862
 10
19435.75561182823
 20
-303.4557957367379
 10
19435.7662052409
 20
-303.4463346411139
 10
19435.77733283511
 20
-303.4374768159332
 10
19435.78890774565
 20
-303.4292167328144
 10
19435.80084310731
 20
-303.4215488633764
  0
LINE
  5
E85
330
1F
100
AcDbEntity
  8
SANINDUSA
100
AcDbLine
 10
19437.91956622318
 20
-303.4207511391946
 30
0.0
 11
19437.80505899626
 21
-303.4207511391947
 31
0.0
  0
LINE
  5
E86
330
1F
100
AcDbEntity
  8
SANINDUSA
100
AcDbLine
 10
19437.48111128699
 20
-303.2877511391947
 30
0.0
 11
19438.12895953765
 21
-303.2877511391947
 31
0.0
  0
LINE
  5
E87
330
1F
100
AcDbEntity
  8
SANINDUSA
100
AcDbLine
 10
19437.48012566152
 20
-303.3477511391946
 30
0.0
 11
19438.12996017199
 21
-303.3477511391946
 31
0.0
  0
LINE
  5
E88
330
1F
100
AcDbEntity
  8
SANINDUSA
100
AcDbLine
 10
19437.90636099251
 20
-303.4207511391947
 30
0.0
 11
19437.88718243022
 21
-303.7648624336814
 31
0.0
  0
LINE
  5
E8B
330
1F
100
AcDbEntity
  8
SANINDUSA
100
AcDbLine
 10
19435.8056351242
 20
-303.2959742280212
 30
0.0
 11
19435.8056351242
 21
-303.4130120658593
 31
0.0
  0
LWPOLYLINE
  5
E8D
330
1F
100
AcDbEntity
  8
SANINDUSA
100
AcDbPolyline
 90
       46
 70
   128
 43
0.0
 10
19436.03063512419
 20
-303.7331525438645
 10
19436.01257646308
 20
-303.7327200512891
 10
19435.99451097039
 20
-303.7314128722161
 10
19435.97651162749
 20
-303.7292164546242
 10
19435.95865141577
 20
-303.7261162464927
 10
19435.9410033166
 20
-303.7220976958005
 10
19435.92364031134
 20
-303.7171462505267
 10
19435.90757421569
 20
-303.7115968947023
 10
19435.89179732085
 20
-303.7051258269563
 10
19435.87644022318
 20
-303.6977037614274
 10
19435.86163351905
 20
-303.6893014122544
 10
19435.84750780481
 20
-303.6798894935761
 10
19435.83832413747
 20
-303.6728615422889
 10
19435.82953158626
 20
-303.6652907929123
 10
19435.82122246945
 20
-303.6571880161091
 10
19435.81348910531
 20
-303.6485639825419
 10
19435.80642381211
 20
-303.6394294628735
 10
19435.799686622
 20
-303.6290638265009
 10
19435.79390648447
 20
-303.6181093476348
 10
19435.78923803927
 20
-303.6066725373839
 10
19435.78655872214
 20
-303.5978504325028
 10
19435.784599848
 20
-303.5888083612132
 10
19435.78339534305
 20
-303.5796381474257
 10
19435.7829791335
 20
-303.5704316150508
 10
19435.78327038912
 20
-303.5624151658908
 10
19435.78415543127
 20
-303.5544423760452
 10
19435.7860428952
 20
-303.5447830204296
 10
19435.78877323705
 20
-303.5352904826254
 10
19435.79227881727
 20
-303.5260501028564
 10
19435.79649199635
 20
-303.5171472213459
 10
19435.80234497663
 20
-303.5070383861259
 10
19435.80903231186
 20
-303.4974164639638
 10
19435.81643710695
 20
-303.4883224585801
 10
19435.82444246676
 20
-303.4797973736953
 10
19435.83606575911
 20
-303.4691718773749
 10
19435.84854354233
 20
-303.4594711835562
 10
19435.86172524978
 20
-303.4506820744413
 10
19435.87546031486
 20
-303.4427913322318
 10
19435.88959817094
 20
-303.4357857391297
 10
19435.90780482991
 20
-303.4281700886207
 10
19435.92651444793
 20
-303.4217638403867
 10
19435.94559458867
 20
-303.4165316716728
 10
19435.9649128158
 20
-303.4124382597235
 10
19435.98668098002
 20
-303.4091666923966
 10
19436.00862911993
 20
-303.4072237852773
 10
19436.03063512419
 20
-303.406582220261
  0
ARC
  5
E8E
330
1F
100
AcDbEntity
  8
SANINDUSA
100
AcDbCircle
 10
19435.79563512419
 20
-303.4130120658593
 30
0.0
 40
0.01
100
AcDbArc
 50
301.3858159180508
 51
0.0
  0
LWPOLYLINE
  5
EA3
330
1F
100
AcDbEntity
  8
SANINDUSA
100
AcDbPolyline
 90
       11
 70
   128
 43
0.0
 10
19436.03063512419
 20
-303.4138918325854
 10
19436.03206533276
 20
-303.4138614976473
 10
19436.03429103585
 20
-303.413700157801
 10
19436.03641402966
 20
-303.413423231729
 10
19436.03837761749
 20
-303.4130496347903
 10
19436.04012346009
 20
-303.4125948279081
 10
19436.04160047482
 20
-303.4120730138879
 10
19436.042768254
 20
-303.4115035980609
 10
19436.04359125608
 20
-303.4109031181349
 10
19436.04404590211
 20
-303.4102935791994
 10
19436.04413279447
 20
-303.4098841746329
  0
LWPOLYLINE
  5
EA5
330
1F
100
AcDbEntity
  8
SANINDUSA
100
AcDbPolyline
 90
       13
 70
   128
 43
0.0
 10
19436.03068753111
 20
-303.407470736539
 10
19436.03111056625
 20
-303.4074675772129
 10
19436.03319239862
 20
-303.4075152045438
 10
19436.03522801587
 20
-303.4076282852531
 10
19436.03714639194
 20
-303.4078053717825
 10
19436.03891862913
 20
-303.4080431212223
 10
19436.04049193194
 20
-303.4083355337906
 10
19436.0418271153
 20
-303.4086736022871
 10
19436.04287992935
 20
-303.4090407419711
 10
19436.04361013124
 20
-303.4094056925419
 10
19436.04398729758
 20
-303.4096875940337
 10
19436.04412437585
 20
-303.4098607186574
 10
19436.04413279447
 20
-303.4098841746329
  0
LWPOLYLINE
  5
EA6
330
1F
100
AcDbEntity
  8
SANINDUSA
100
AcDbPolyline
 90
       11
 70
   128
 43
0.0
 10
19436.03063512419
 20
-303.4138918325854
 10
19436.02920491563
 20
-303.4138614976473
 10
19436.02697921254
 20
-303.413700157801
 10
19436.02485621873
 20
-303.413423231729
 10
19436.0228926309
 20
-303.4130496347903
 10
19436.0211467883
 20
-303.4125948279081
 10
19436.01966977357
 20
-303.4120730138879
 10
19436.01850199438
 20
-303.4115035980609
 10
19436.01767899231
 20
-303.4109031181349
 10
19436.01722434627
 20
-303.4102935791994
 10
19436.01713681772
 20
-303.4098860184572
  0
LWPOLYLINE
  5
EA8
330
1F
100
AcDbEntity
  8
SANINDUSA
100
AcDbPolyline
 90
       13
 70
   128
 43
0.0
 10
19436.01713681772
 20
-303.4098860184572
 10
19436.01716416226
 20
-303.4098277869924
 10
19436.0173557668
 20
-303.4096220309323
 10
19436.01783683188
 20
-303.4093033756934
 10
19436.01859821029
 20
-303.4089575031809
 10
19436.01966760957
 20
-303.408609019572
 10
19436.02099104541
 20
-303.4082903213967
 10
19436.02257366685
 20
-303.4080087173153
 10
19436.02435253184
 20
-303.4077802468558
 10
19436.02628730396
 20
-303.4076108740456
 10
19436.0283194405
 20
-303.4075062860149
 10
19436.03041317289
 20
-303.4074662405682
 10
19436.03070919175
 20
-303.4074694455626
  0
ARC
  5
EA9
330
1F
100
AcDbEntity
  8
SANINDUSA
100
AcDbCircle
 10
19435.8086351242
 20
-303.2959742280212
 30
0.0
 40
0.0030000000000001
100
AcDbArc
 50
90.0
 51
180.0
  0
LINE
  5
EAC
330
1F
100
AcDbEntity
  8
SANINDUSA
100
AcDbLine
 10
19435.81163512419
 20
-303.2929742280211
 30
0.0
 11
19435.8086351242
 21
-303.2929742280211
 31
0.0
  0
CIRCLE
  5
EAD
330
1F
100
AcDbEntity
  8
SANINDUSA
100
AcDbCircle
 10
19436.03063512419
 20
-303.3529742280212
 30
0.0
 40
0.0175
  0
LINE
  5
EAF
330
1F
100
AcDbEntity
  8
SANINDUSA
100
AcDbLine
 10
19437.70181047296
 20
-303.4207511391947
 30
0.0
 11
19437.72098903524
 21
-303.7648624336814
 31
0.0
  0
LINE
  5
EB0
330
1F
100
AcDbEntity
  8
SANINDUSA
100
AcDbLine
 10
19437.88518552923
 20
-303.7667511391946
 30
0.0
 11
19437.72298593623
 21
-303.7667511391946
 31
0.0
  0
ARC
  5
EB2
330
1F
100
AcDbEntity
  8
SANINDUSA
100
AcDbCircle
 10
19437.72298593623
 20
-303.7647511391947
 30
0.0
 40
0.0020000000000002
100
AcDbArc
 50
183.1900000000043
 51
270.0
  0
ARC
  5
EB3
330
1F
100
AcDbEntity
  8
SANINDUSA
100
AcDbCircle
 10
19437.88518552923
 20
-303.7647511391947
 30
0.0
 40
0.0020000000000002
100
AcDbArc
 50
270.0
 51
356.8099999998718
  0
LINE
  5
EB4
330
1F
100
AcDbEntity
  8
SANINDUSA
100
AcDbLine
 10
19437.70205986959
 20
-303.4252259374358
 30
0.0
 11
19437.65654210187
 21
-303.4252259374358
 31
0.0
  0
LWPOLYLINE
  5
EB7
330
1F
100
AcDbEntity
  8
SANINDUSA
100
AcDbPolyline
 90
       32
 70
   128
 43
0.0
 10
19437.59147429536
 20
-303.352161802722
 10
19437.59674251102
 20
-303.3573273669097
 10
19437.60165281057
 20
-303.3620172353064
 10
19437.6059538909
 20
-303.3660066914574
 10
19437.60963931919
 20
-303.3693246728488
 10
19437.6126966006
 20
-303.3720005338624
 10
19437.61511073795
 20
-303.3740616113484
 10
19437.61686707195
 20
-303.3755312864644
 10
19437.61810128273
 20
-303.376548714912
 10
19437.61942493567
 20
-303.3776256448327
 10
19437.6209080933
 20
-303.3788146573145
 10
19437.6225537566
 20
-303.3801118254666
 10
19437.62623296354
 20
-303.3829265102403
 10
19437.6299471424
 20
-303.3856460841235
 10
19437.63361394966
 20
-303.388227672073
 10
19437.63631999082
 20
-303.3900800024464
 10
19437.63898531208
 20
-303.3918655173126
 10
19437.64159720258
 20
-303.3935872182495
 10
19437.64414548315
 20
-303.395247530865
 10
19437.64857983688
 20
-303.3980600168089
 10
19437.65287843213
 20
-303.4006770513257
 10
19437.65735342968
 20
-303.4032931391876
 10
19437.66208361182
 20
-303.4059610608789
 10
19437.66699630716
 20
-303.4086502431048
 10
19437.66924505146
 20
-303.4098591386721
 10
19437.67129712502
 20
-303.4109523828018
 10
19437.67315942118
 20
-303.4119374638479
 10
19437.67533431232
 20
-303.4130807864787
 10
19437.67816218925
 20
-303.4145580693401
 10
19437.68160401837
 20
-303.416345959497
 10
19437.68560561141
 20
-303.4184189011975
 10
19437.6896924212
 20
-303.4205571088606
  0
LINE
  5
EB9
330
1F
100
AcDbEntity
  8
SANINDUSA
100
AcDbLine
 10
19437.63642575828
 20
-303.3901508567059
 30
0.0
 11
19437.64912063493
 21
-303.4203065106126
 31
0.0
  0
LWPOLYLINE
  5
EBB
330
1F
100
AcDbEntity
  8
SANINDUSA
100
AcDbPolyline
 90
        8
 70
   128
 43
0.0
 10
19437.65654210187
 20
-303.4252259374358
 10
19437.65495880735
 20
-303.4250732256657
 10
19437.65343610699
 20
-303.4246098391869
 10
19437.65203410524
 20
-303.423854068921
 10
19437.65080814231
 20
-303.4228357468446
 10
19437.65010333048
 20
-303.4220177866903
 10
19437.64980660975
 20
-303.4215950684531
 10
19437.64912063493
 20
-303.4203065106126
  0
LINE
  5
EBD
330
1F
100
AcDbEntity
  8
SANINDUSA
100
AcDbLine
 10
19437.47505903948
 20
-303.2937587314894
 30
0.0
 11
19437.47505899626
 21
-303.3427511391947
 31
0.0
  0
LWPOLYLINE
  5
EBE
330
1F
100
AcDbEntity
  8
SANINDUSA
100
AcDbPolyline
 90
        9
 70
   128
 43
0.0
 10
19437.48005911238
 20
-303.3477511391941
 10
19437.47910121391
 20
-303.3476585395512
 10
19437.47816123751
 20
-303.3473769756164
 10
19437.4772943517
 20
-303.3469172550998
 10
19437.47653394318
 20
-303.3462970833908
 10
19437.47590929785
 20
-303.3455403453963
 10
19437.47544447291
 20
-303.3446761856518
 10
19437.47515737033
 20
-303.3437378858675
 10
19437.47505904742
 20
-303.3427615831367
  0
LWPOLYLINE
  5
EBF
330
1F
100
AcDbEntity
  8
SANINDUSA
100
AcDbPolyline
 90
        9
 70
   128
 43
0.0
 10
19437.47505903948
 20
-303.2937587314894
 10
19437.47517350354
 20
-303.2925847243236
 10
19437.47551544247
 20
-303.291455798926
 10
19437.47607164038
 20
-303.2904155881015
 10
19437.47682060029
 20
-303.2895042958501
 10
19437.47773337502
 20
-303.2887571434869
 10
19437.47877468596
 20
-303.288203008344
 10
19437.47990428657
 20
-303.2878633076653
 10
19437.48105910621
 20
-303.2877511391951
  0
LINE
  5
EC2
330
1F
100
AcDbEntity
  8
SANINDUSA
100
AcDbLine
 10
19437.69055176933
 20
-303.4207511391946
 30
0.0
 11
19437.80505899626
 21
-303.4207511391947
 31
0.0
  0
LWPOLYLINE
  5
EC7
330
1F
100
AcDbEntity
  8
SANINDUSA
100
AcDbPolyline
 90
        9
 70
   128
 43
0.0
 10
19437.69055176933
 20
-303.4207511391946
 10
19437.69044106249
 20
-303.4207480730257
 10
19437.69033038904
 20
-303.4207388494926
 10
19437.6902203982
 20
-303.4207234970111
 10
19437.6901114291
 20
-303.4207020629194
 10
19437.69000381774
 20
-303.4206746133078
 10
19437.68989789594
 20
-303.420641232815
 10
19437.6897939903
 20
-303.4206020243672
 10
19437.6896924212
 20
-303.4205571088606
  0
LINE
  5
EC9
330
1F
100
AcDbEntity
  8
SANINDUSA
100
AcDbLine
 10
19436.2556351242
 20
-303.2959742280212
 30
0.0
 11
19436.2556351242
 21
-303.4130120658593
 31
0.0
  0
ARC
  5
ECD
330
1F
100
AcDbEntity
  8
SANINDUSA
100
AcDbCircle
 10
19436.26563512419
 20
-303.4130120658593
 30
0.0
 40
0.0100000000000001
100
AcDbArc
 50
180.0
 51
238.6141840819506
  0
LINE
  5
ECF
330
1F
100
AcDbEntity
  8
SANINDUSA
100
AcDbLine
 10
19436.2496351242
 20
-303.2929742280211
 30
0.0
 11
19436.25263512419
 21
-303.2929742280211
 31
0.0
  0
ARC
  5
ED2
330
1F
100
AcDbEntity
  8
SANINDUSA
100
AcDbCircle
 10
19436.25263512419
 20
-303.2959742280212
 30
0.0
 40
0.003
100
AcDbArc
 50
0.0
 51
90.0
  0
LWPOLYLINE
  5
EDE
330
1F
100
AcDbEntity
  8
SANINDUSA
100
AcDbPolyline
 90
        4
 70
   128
 43
0.0
 10
19437.0846056079
 20
-303.3812507346735
 10
19437.07068365915
 20
-303.3938585443691
 10
19437.05366084273
 20
-303.407642593136
 10
19437.03582826541
 20
-303.4204110696885
  0
LINE
  5
EDF
330
1F
100
AcDbEntity
  8
SANINDUSA
100
AcDbLine
 10
19437.17782137737
 20
-303.3477511391946
 30
0.0
 11
19436.83066441221
 21
-303.3477511391946
 31
0.0
  0
LINE
  5
EE0
330
1F
100
AcDbEntity
  8
SANINDUSA
100
AcDbLine
 10
19436.83151809197
 20
-303.2877511391947
 30
0.0
 11
19437.17682137739
 21
-303.2877511391947
 31
0.0
  0
LINE
  5
EE2
330
1F
100
AcDbEntity
  8
SANINDUSA
100
AcDbLine
 10
19437.96099735759
 20
-303.4203065106126
 30
0.0
 11
19437.97369752797
 21
-303.3901382818799
 31
0.0
  0
LWPOLYLINE
  5
EE3
330
1F
100
AcDbEntity
  8
SANINDUSA
100
AcDbPolyline
 90
       30
 70
   128
 43
0.0
 10
19437.92045821123
 20
-303.4205260391477
 10
19437.92430013441
 20
-303.4185288916103
 10
19437.92814025169
 20
-303.4165396669479
 10
19437.93148047529
 20
-303.4148055305711
 10
19437.93427247649
 20
-303.4133485539681
 10
19437.93648078248
 20
-303.4121892406025
 10
19437.93824650268
 20
-303.4112568668557
 10
19437.94129623481
 20
-303.4096324994485
 10
19437.94478234634
 20
-303.4077491847989
 10
19437.94837988506
 20
-303.4057690572961
 10
19437.95450146065
 20
-303.402289680936
 10
19437.96019706281
 20
-303.3988876907407
 10
19437.96597250937
 20
-303.395247530865
 10
19437.96852078994
 20
-303.3935872182495
 10
19437.97113268044
 20
-303.3918655173126
 10
19437.97514620385
 20
-303.3891627056334
 10
19437.97924797431
 20
-303.3863035919762
 10
19437.98341904058
 20
-303.383274472707
 10
19437.98756423592
 20
-303.3801118254666
 10
19437.98920989921
 20
-303.3788146573145
 10
19437.99069305684
 20
-303.3776256448327
 10
19437.99201670979
 20
-303.376548714912
 10
19437.99325092056
 20
-303.3755312864644
 10
19437.99500725457
 20
-303.3740616113484
 10
19437.99742139191
 20
-303.3720005338624
 10
19438.00047867333
 20
-303.3693246728488
 10
19438.00416410162
 20
-303.3660066914574
 10
19438.00846518195
 20
-303.3620172353064
 10
19438.0133754815
 20
-303.3573273669097
 10
19438.01864369716
 20
-303.352161802722
  0
LINE
  5
EE4
330
1F
100
AcDbEntity
  8
SANINDUSA
100
AcDbLine
 10
19437.90611159588
 20
-303.4252259374358
 30
0.0
 11
19437.95357589064
 21
-303.4252259374358
 31
0.0
  0
LWPOLYLINE
  5
EEC
330
1F
100
AcDbEntity
  8
SANINDUSA
100
AcDbPolyline
 90
        9
 70
   128
 43
0.0
 10
19437.92042300517
 20
-303.4205583276908
 10
19437.92032170119
 20
-303.4206029647691
 10
19437.92021808262
 20
-303.4206419283324
 10
19437.92011246694
 20
-303.4206750990064
 10
19437.92000517772
 20
-303.4207023751646
 10
19437.91989654366
 20
-303.42072367324
 10
19437.9197868976
 20
-303.4207389279808
 10
19437.91967657545
 20
-303.4207480926503
 10
19437.91956622318
 20
-303.4207511391946
  0
LWPOLYLINE
  5
EEE
330
1F
100
AcDbEntity
  8
SANINDUSA
100
AcDbPolyline
 90
        8
 70
   128
 43
0.0
 10
19437.95357589064
 20
-303.4252259374358
 10
19437.95515918516
 20
-303.4250732256657
 10
19437.95668188553
 20
-303.4246098391869
 10
19437.95808388728
 20
-303.423854068921
 10
19437.95930985021
 20
-303.4228357468446
 10
19437.959759019
 20
-303.4223406727841
 10
19437.96031138276
 20
-303.4215950684531
 10
19437.96099735759
 20
-303.4203065106126
  0
LWPOLYLINE
  5
EF0
330
1F
100
AcDbEntity
  8
SANINDUSA
100
AcDbPolyline
 90
        4
 70
   128
 43
0.0
 10
19438.01866080622
 20
-303.3521502068955
 10
19438.02100854183
 20
-303.3501345996761
 10
19438.02321395163
 20
-303.3486941714009
 10
19438.025066417
 20
-303.3477511391946
  0
LINE
  5
EF1
330
1F
100
AcDbEntity
  8
SANINDUSA
100
AcDbLine
 10
19438.13505899626
 20
-303.3427511391947
 30
0.0
 11
19438.13505899626
 21
-303.2937511391947
 31
0.0
  0
LWPOLYLINE
  5
EF2
330
1F
100
AcDbEntity
  8
SANINDUSA
100
AcDbPolyline
 90
        9
 70
   128
 43
0.0
 10
19438.13505888655
 20
-303.3427246108541
 10
19438.13496694016
 20
-303.3437059694689
 10
19438.13468426589
 20
-303.3446502226585
 10
19438.13422184868
 20
-303.3455206760308
 10
19438.13359765842
 20
-303.3462835031107
 10
19438.1328359516
 20
-303.3469090598619
 10
19438.13196632873
 20
-303.3473730366767
 10
19438.13102258402
 20
-303.3476574030659
 10
19438.13005888278
 20
-303.3477511391941
  0
LWPOLYLINE
  5
EF3
330
1F
100
AcDbEntity
  8
SANINDUSA
100
AcDbPolyline
 90
        9
 70
   128
 43
0.0
 10
19438.12905888714
 20
-303.2877511391951
 10
19438.13021075323
 20
-303.28786272928
 10
19438.13133645491
 20
-303.288200192125
 10
19438.13237478391
 20
-303.2887506087583
 10
19438.13328590627
 20
-303.2894928632683
 10
19438.13403486814
 20
-303.2903984801702
 10
19438.13459293674
 20
-303.2914327168249
 10
19438.13493870258
 20
-303.2925558962889
 10
19438.13505890089
 20
-303.2937249294606
  0
LINE
  5
EF6
330
1F
100
AcDbEntity
  8
SANINDUSA
100
AcDbLine
 10
19436.6978213781
 20
-303.7647511391947
 30
0.0
 11
19436.6978213781
 21
-303.4222600809213
 31
0.0
  0
LINE
  5
EF7
330
1F
100
AcDbEntity
  8
SANINDUSA
100
AcDbLine
 10
19437.00091807559
 20
-303.7648624336814
 30
0.0
 11
19437.02010916839
 21
-303.420526310561
 31
0.0
  0
LINE
  5
EF8
330
1F
100
AcDbEntity
  8
SANINDUSA
100
AcDbLine
 10
19436.9178213781
 20
-303.7667511391946
 30
0.0
 11
19436.6998213781
 21
-303.7667511391946
 31
0.0
  0
ARC
  5
EFC
330
1F
100
AcDbEntity
  8
SANINDUSA
100
AcDbCircle
 10
19436.6998213781
 20
-303.7647511391947
 30
0.0
 40
0.0020000000000002
100
AcDbArc
 50
180.0
 51
270.0
  0
LINE
  5
F02
330
1F
100
AcDbEntity
  8
SANINDUSA
100
AcDbLine
 10
19436.99892117461
 20
-303.7667511391946
 30
0.0
 11
19436.9178213781
 21
-303.7667511391946
 31
0.0
  0
ARC
  5
F04
330
1F
100
AcDbEntity
  8
SANINDUSA
100
AcDbCircle
 10
19436.99892117461
 20
-303.7647511391947
 30
0.0
 40
0.0020000000000002
100
AcDbArc
 50
270.0
 51
356.8099999999973
  0
LINE
  5
F06
330
1F
100
AcDbEntity
  8
SANINDUSA
100
AcDbLine
 10
19436.8712015626
 20
-303.4188624336814
 30
0.0
 11
19436.74309001604
 21
-303.4188624336814
 31
0.0
  0
LINE
  5
F08
330
1F
100
AcDbEntity
  8
SANINDUSA
100
AcDbLine
 10
19436.70127270408
 20
-303.4252259374358
 30
0.0
 11
19436.91083369555
 21
-303.3933362225472
 31
0.0
  0
LWPOLYLINE
  5
F0D
330
1F
100
AcDbEntity
  8
SANINDUSA
100
AcDbPolyline
 90
        9
 70
   128
 43
0.0
 10
19436.84784610051
 20
-303.4029212909949
 10
19436.85091344974
 20
-303.4059345044086
 10
19436.85415532088
 20
-303.4088755383477
 10
19436.8559118026
 20
-303.4103687948971
 10
19436.85771697153
 20
-303.4118246073907
 10
19436.85951909593
 20
-303.4132002276046
 10
19436.860397671
 20
-303.4138454723254
 10
19436.86124862994
 20
-303.4144562663557
 10
19436.86176832083
 20
-303.4148212995155
  0
LINE
  5
F0F
330
1F
100
AcDbEntity
  8
SANINDUSA
100
AcDbLine
 10
19436.6978213781
 20
-303.3696629132639
 30
0.0
 11
19436.6978213781
 21
-303.4180968473955
 31
0.0
  0
CIRCLE
  5
F15
330
1F
100
AcDbEntity
  8
SANINDUSA
100
AcDbCircle
 10
19436.7328213781
 20
-303.4667511391947
 30
0.0
 40
0.005
  0
LINE
  5
F16
330
1F
100
AcDbEntity
  8
SANINDUSA
100
AcDbLine
 10
19436.6978213781
 20
-303.4180968473955
 30
0.0
 11
19436.6978213781
 21
-303.4222600809213
 31
0.0
  0
ARC
  5
F17
330
1F
100
AcDbEntity
  8
SANINDUSA
100
AcDbCircle
 10
19436.7008213781
 20
-303.4222600809213
 30
0.0
 40
0.003
100
AcDbArc
 50
180.0
 51
278.6525414690039
  0
LINE
  5
F1C
330
1F
100
AcDbEntity
  8
SANINDUSA
100
AcDbLine
 10
19436.81785921594
 20
-303.2877511391947
 30
0.0
 11
19436.7008213781
 21
-303.2877511391947
 31
0.0
  0
LINE
  5
F1D
330
1F
100
AcDbEntity
  8
SANINDUSA
100
AcDbLine
 10
19436.7008213781
 20
-303.3477511391946
 30
0.0
 11
19436.81785921594
 21
-303.3477511391946
 31
0.0
  0
LINE
  5
F20
330
1F
100
AcDbEntity
  8
SANINDUSA
100
AcDbLine
 10
19436.6978213781
 20
-303.2937511391947
 30
0.0
 11
19436.6978213781
 21
-303.3427511391947
 31
0.0
  0
LINE
  5
F24
330
1F
100
AcDbEntity
  8
SANINDUSA
100
AcDbLine
 10
19436.6978213781
 20
-303.3427511391947
 30
0.0
 11
19436.6978213781
 21
-303.3696629132639
 31
0.0
  0
ARC
  5
F26
330
1F
100
AcDbEntity
  8
SANINDUSA
100
AcDbCircle
 10
19436.7008213781
 20
-303.3447511391947
 30
0.0
 40
0.0030000000000004
100
AcDbArc
 50
180.0
 51
270.0
  0
LINE
  5
F2A
330
1F
100
AcDbEntity
  8
SANINDUSA
100
AcDbLine
 10
19436.6978213781
 20
-303.2907511391946
 30
0.0
 11
19436.6978213781
 21
-303.2937511391947
 31
0.0
  0
ARC
  5
F2D
330
1F
100
AcDbEntity
  8
SANINDUSA
100
AcDbCircle
 10
19436.7008213781
 20
-303.2907511391946
 30
0.0
 40
0.0029999999999998
100
AcDbArc
 50
90.0
 51
180.0
  0
LINE
  5
F2F
330
1F
100
AcDbEntity
  8
SANINDUSA
100
AcDbLine
 10
19436.82639601346
 20
-303.3427511391947
 30
0.0
 11
19436.82639601346
 21
-303.2937511391947
 31
0.0
  0
LINE
  5
F33
330
1F
100
AcDbEntity
  8
SANINDUSA
100
AcDbLine
 10
19436.81785921594
 20
-303.3477511391946
 30
0.0
 11
19436.83066441221
 21
-303.3477511391946
 31
0.0
  0
LWPOLYLINE
  5
F34
330
1F
100
AcDbEntity
  8
SANINDUSA
100
AcDbPolyline
 90
        9
 70
   128
 43
0.0
 10
19436.82639601346
 20
-303.3427511391947
 10
19436.82647802954
 20
-303.3437265908048
 10
19436.82672092596
 20
-303.3446645563565
 10
19436.82711536835
 20
-303.3455289903598
 10
19436.82764619851
 20
-303.3462866731006
 10
19436.82829301692
 20
-303.3469084872562
 10
19436.82903096673
 20
-303.3473705368572
 10
19436.82983168893
 20
-303.3476550655966
 10
19436.83066441221
 20
-303.3477511391946
  0
LWPOLYLINE
  5
F38
330
1F
100
AcDbEntity
  8
SANINDUSA
100
AcDbPolyline
 90
        9
 70
   128
 43
0.0
 10
19436.83151809197
 20
-303.2877511391947
 10
19436.83051882402
 20
-303.2878664275123
 10
19436.82955795738
 20
-303.2882078619996
 10
19436.82867241761
 20
-303.2887623215208
 10
19436.82789623552
 20
-303.2895084985075
 10
19436.82725923933
 20
-303.2904177177965
 10
19436.82678590846
 20
-303.2914550386005
 10
19436.82649443276
 20
-303.2925805972626
 10
19436.82639601346
 20
-303.2937511391947
  0
LINE
  5
F3A
330
1F
100
AcDbEntity
  8
SANINDUSA
100
AcDbLine
 10
19436.83151809197
 20
-303.2877511391947
 30
0.0
 11
19436.81785921594
 21
-303.2877511391947
 31
0.0
  0
LINE
  5
F3B
330
1F
100
AcDbEntity
  8
SANINDUSA
100
AcDbLine
 10
19436.88359543799
 20
-303.4207511391947
 30
0.0
 11
19437.0347126352
 21
-303.4207511391947
 31
0.0
  0
LWPOLYLINE
  5
F3D
330
1F
100
AcDbEntity
  8
SANINDUSA
100
AcDbPolyline
 90
        3
 70
   128
 43
0.0
 10
19437.0347126352
 20
-303.4207511391946
 10
19437.03537464639
 20
-303.4206383967804
 10
19437.03582826541
 20
-303.4204110696885
  0
LWPOLYLINE
  5
F3E
330
1F
100
AcDbEntity
  8
SANINDUSA
100
AcDbPolyline
 90
       17
 70
   128
 43
0.0
 10
19436.85926401656
 20
-303.3579879485245
 10
19436.86172236297
 20
-303.3608851140367
 10
19436.86444154862
 20
-303.3636875690707
 10
19436.86737686953
 20
-303.3663597891459
 10
19436.87052832568
 20
-303.3689017742625
 10
19436.87389591709
 20
-303.3713135244206
 10
19436.87747964374
 20
-303.37359503962
 10
19436.88108439413
 20
-303.3756238686714
 10
19436.88489824682
 20
-303.3775076115474
 10
19436.8889212018
 20
-303.379246268248
 10
19436.89315325907
 20
-303.3808398387733
 10
19436.89668648234
 20
-303.3820070826294
 10
19436.8995097535
 20
-303.3828604728421
 10
19436.9030789896
 20
-303.3838972893586
 10
19436.90665073168
 20
-303.3849296296604
 10
19436.90953854057
 20
-303.3858049064727
 10
19436.91177165453
 20
-303.3865323160232
  0
LWPOLYLINE
  5
F4C
330
1F
100
AcDbEntity
  8
SANINDUSA
100
AcDbPolyline
 90
        6
 70
   128
 43
0.0
 10
19436.85926215471
 20
-303.3579884951226
 10
19436.85923910828
 20
-303.3556179257706
 10
19436.85920062345
 20
-303.3532860260064
 10
19436.85914669485
 20
-303.3511104857494
 10
19436.8590788254
 20
-303.3492090496745
 10
19436.85900361043
 20
-303.3477511391946
  0
LWPOLYLINE
  5
F4F
330
1F
100
AcDbEntity
  8
SANINDUSA
100
AcDbPolyline
 90
       17
 70
   128
 43
0.0
 10
19436.91177165453
 20
-303.3865323160232
 10
19436.91813463382
 20
-303.3870543553022
 10
19436.92211712097
 20
-303.3874450388541
 10
19436.92588408175
 20
-303.3879747816788
 10
19436.92719677649
 20
-303.3882904623051
 10
19436.92788464233
 20
-303.3885768631997
 10
19436.92807870003
 20
-303.3887212515219
 10
19436.92818707517
 20
-303.3888733425603
 10
19436.92820489779
 20
-303.3890390582291
 10
19436.92820041358
 20
-303.3890595318712
 10
19436.92806764613
 20
-303.3892796818916
 10
19436.92791586703
 20
-303.3894147073477
 10
19436.92691985452
 20
-303.3899331756109
 10
19436.92514532523
 20
-303.3905321367257
 10
19436.92327500505
 20
-303.3910178691848
 10
19436.91772308554
 20
-303.3921814067816
 10
19436.91083369555
 20
-303.3933362225472
  0
ARC
  5
FA3
330
1F
100
AcDbEntity
  8
SANINDUSA
100
AcDbCircle
 10
19437.17782137809
 20
-303.3427511391947
 30
0.0
 40
0.0049999999999998
100
AcDbArc
 50
269.9999916765374
 51
359.9811452908755
  0
ARC
  5
FA4
330
1F
100
AcDbEntity
  8
SANINDUSA
100
AcDbCircle
 10
19437.1768213781
 20
-303.2937511391947
 30
0.0
 40
0.0059999999999997
100
AcDbArc
 50
359.9811025467961
 51
90.00000670276181
  0
LWPOLYLINE
  5
FA5
330
1F
100
AcDbEntity
  8
SANINDUSA
100
AcDbPolyline
 90
        3
 70
   128
 43
0.0
 10
19437.1100690608
 20
-303.3544576316241
 10
19437.09759778258
 20
-303.3682543810356
 10
19437.0846056079
 20
-303.3812507346735
  0
LWPOLYLINE
  5
FAA
330
1F
100
AcDbEntity
  8
SANINDUSA
100
AcDbPolyline
 90
        4
 70
   128
 43
0.0
 10
19437.11006967928
 20
-303.3544581449509
 10
19437.11393674245
 20
-303.3508223245781
 10
19437.11859868247
 20
-303.3480319307733
 10
19437.11944149996
 20
-303.3477511391946
  0
LINE
  5
FAC
330
1F
100
AcDbEntity
  8
SANINDUSA
100
AcDbLine
 10
19437.18282137783
 20
-303.3427527844505
 30
0.0
 11
19437.18282137777
 21
-303.2937531179847
 31
0.0
  0
CIRCLE
  5
114E
330
1F
100
AcDbEntity
  8
SANINDUSA
100
AcDbCircle
 10
19436.03059352452
 20
-303.5029318348918
 30
0.0
 40
0.0234428084815228
  0
CIRCLE
  5
114F
330
1F
100
AcDbEntity
  8
SANINDUSA
100
AcDbCircle
 10
19436.03059352452
 20
-303.5029318348918
 30
0.0
 40
0.0343550844536603
  0
ARC
  5
1150
330
1F
100
AcDbEntity
  8
SANINDUSA
100
AcDbCircle
 10
19436.88412552938
 20
-303.3756633455307
 30
0.0
 40
0.0450909096644981
100
AcDbArc
 50
240.2758214132392
 51
269.3264119150054
  0
LWPOLYLINE
  5
12B3
330
1F
100
AcDbEntity
  8
SANINDUSA
100
AcDbPolyline
 90
       23
 70
   128
 43
0.0
 10
19438.54573663633
 20
-303.4028496340237
 10
19438.54608742149
 20
-303.4030271172095
 10
19438.54759314399
 20
-303.4035061031927
 10
19438.54988685732
 20
-303.4040634463869
 10
19438.55289257282
 20
-303.4046218202421
 10
19438.55666839736
 20
-303.4051547249629
 10
19438.56135259319
 20
-303.4056401755478
 10
19438.56665158828
 20
-303.4060420543903
 10
19438.5725512507
 20
-303.4063666389951
 10
19438.57868760433
 20
-303.4066187710072
 10
19438.58263007477
 20
-303.4067497226875
 10
19438.58654460166
 20
-303.4068628537152
 10
19438.5929816044
 20
-303.4070236983968
 10
19438.59902916061
 20
-303.4071571044027
 10
19438.60456577442
 20
-303.4072736909688
 10
19438.60936665269
 20
-303.4073768344218
 10
19438.6133076103
 20
-303.4074701956914
 10
19438.61625911145
 20
-303.4075559879465
 10
19438.61771307323
 20
-303.407628031909
 10
19438.61861215405
 20
-303.4076998559393
 10
19438.61892467519
 20
-303.4077323330765
 10
19438.6189246753
 20
-303.4077323330734
 10
19438.6189246753
 20
-303.4077323330734
  0
LINE
  5
12B8
330
1F
100
AcDbEntity
  8
SANINDUSA
100
AcDbLine
 10
19438.60300632138
 20
-303.4628336191618
 30
0.0
 11
19438.55400632138
 21
-303.4628336191618
 31
0.0
  0
LINE
  5
12BA
330
1F
100
AcDbEntity
  8
SANINDUSA
100
AcDbLine
 10
19438.47423001473
 20
-303.2898336191618
 30
0.0
 11
19438.81554592365
 21
-303.2898336191618
 31
0.0
  0
LINE
  5
12BC
330
1F
100
AcDbEntity
  8
SANINDUSA
100
AcDbLine
 10
19438.38997732662
 20
-303.37435978714
 30
0.0
 11
19438.39355736529
 21
-303.3060485798182
 31
0.0
  0
LINE
  5
12BE
330
1F
100
AcDbEntity
  8
SANINDUSA
100
AcDbLine
 10
19438.39969046464
 20
-303.3800952989431
 30
0.0
 11
19438.40354366064
 21
-303.3065719393806
 31
0.0
  0
LWPOLYLINE
  5
12C1
330
1F
100
AcDbEntity
  8
SANINDUSA
100
AcDbPolyline
 90
       15
 70
   128
 43
0.0
 10
19438.55500632138
 20
-303.4147395398447
 10
19438.55500632138
 20
-303.4371473135959
 42
-0.4409386992584423
 10
19438.55446119494
 20
-303.4376452730365
 10
19438.54403150821
 20
-303.4367001064412
 42
-0.3779774411818392
 10
19438.54357693924
 20
-303.436219596749
 10
19438.54302737997
 20
-303.4204822783646
 42
0.2410014861540674
 10
19438.53859644136
 20
-303.4125214376751
 10
19438.52941833499
 20
-303.4063772094047
 10
19438.52048613629
 20
-303.3988867512812
 10
19438.51234246723
 20
-303.3906013859916
 10
19438.5051162875
 20
-303.381602598665
 10
19438.49871170479
 20
-303.3722416662423
 10
19438.49130419163
 20
-303.3597353602889
 10
19438.48484382458
 20
-303.3466990394402
 10
19438.47902226248
 20
-303.3324694720293
  0
LWPOLYLINE
  5
12C2
330
1F
100
AcDbEntity
  8
SANINDUSA
100
AcDbPolyline
 90
       11
 70
   128
 43
0.0
 10
19438.55500632138
 20
-303.4618336191618
 10
19438.55500632138
 20
-303.4461841941799
 42
0.3879840974701195
 10
19438.55455144782
 20
-303.4456862347393
 10
19438.4927828485
 20
-303.4400885961683
 42
-0.3385875653340216
 10
19438.49233557106
 20
-303.4396774608165
 10
19438.46813345558
 20
-303.3024204432507
 42
-0.4663076581549987
 10
19438.46862585946
 20
-303.3018336191618
 10
19438.4724646265
 20
-303.3018336191618
 42
-0.3785970159413999
 10
19438.472960842
 20
-303.3022722173523
 10
19438.47304588406
 20
-303.3029594803172
 10
19438.47315970767
 20
-303.303843345821
  0
LINE
  5
12C3
330
1F
100
AcDbEntity
  8
SANINDUSA
100
AcDbLine
 10
19438.48478915034
 20
-303.4429497459893
 30
0.0
 11
19438.46063511037
 21
-303.3059653782735
 31
0.0
  0
LWPOLYLINE
  5
12C4
330
1F
100
AcDbEntity
  8
SANINDUSA
100
AcDbPolyline
 90
        9
 70
   128
 43
0.0
 10
19438.54530142367
 20
-303.4025693290828
 10
19438.53663244999
 20
-303.3967659366333
 10
19438.52863940671
 20
-303.3900630454489
 10
19438.52132237905
 20
-303.382618704756
 10
19438.51476063704
 20
-303.374447344073
 10
19438.50883680702
 20
-303.3657890793552
 10
19438.50185735433
 20
-303.3540054795338
 10
19438.49579025396
 20
-303.3417627282482
 10
19438.49063379137
 20
-303.3291175301007
  0
LINE
  5
12C5
330
1F
100
AcDbEntity
  8
SANINDUSA
100
AcDbLine
 10
19438.37850632138
 20
-303.3003336191618
 30
0.0
 11
19438.37850632138
 21
-303.3743336191618
 31
0.0
  0
LINE
  5
12C6
330
1F
100
AcDbEntity
  8
SANINDUSA
100
AcDbLine
 10
19438.36850632138
 20
-303.2928336191618
 30
0.0
 11
19438.36850632138
 21
-303.3818336191618
 31
0.0
  0
LINE
  5
12C8
330
1F
100
AcDbEntity
  8
SANINDUSA
100
AcDbLine
 10
19438.47915480867
 20
-303.4109958065157
 30
0.0
 11
19438.43049764439
 21
-303.418400157321
 31
0.0
  0
LINE
  5
12CF
330
1F
100
AcDbEntity
  8
SANINDUSA
100
AcDbLine
 10
19438.37150632138
 20
-303.3848336191618
 30
0.0
 11
19438.39469731696
 21
-303.3848336191618
 31
0.0
  0
LINE
  5
12D2
330
1F
100
AcDbEntity
  8
SANINDUSA
100
AcDbLine
 10
19438.36851045339
 20
-303.4238336191618
 30
0.0
 11
19438.36850632138
 21
-303.3899332073939
 31
0.0
  0
ARC
  5
12DA
330
1F
100
AcDbEntity
  8
SANINDUSA
100
AcDbCircle
 10
19438.38947801185
 20
-303.3743336191618
 30
0.0
 40
0.0005
100
AcDbArc
 50
270.0
 51
357.0000000000004
  0
ARC
  5
12DB
330
1F
100
AcDbEntity
  8
SANINDUSA
100
AcDbCircle
 10
19438.37900632138
 20
-303.3743336191618
 30
0.0
 40
0.0005
100
AcDbArc
 50
180.0
 51
270.0
  0
LINE
  5
12DC
330
1F
100
AcDbEntity
  8
SANINDUSA
100
AcDbLine
 10
19438.37900632138
 20
-303.3748336191618
 30
0.0
 11
19438.38947801185
 21
-303.3748336191618
 31
0.0
  0
ARC
  5
12DD
330
1F
100
AcDbEntity
  8
SANINDUSA
100
AcDbCircle
 10
19438.37150632138
 20
-303.3818336191618
 30
0.0
 40
0.003
100
AcDbArc
 50
180.0
 51
270.0
  0
LINE
  5
12E0
330
1F
100
AcDbEntity
  8
SANINDUSA
100
AcDbLine
 10
19438.36850632138
 20
-303.3899332073939
 30
0.0
 11
19438.36850632138
 21
-303.3818336191618
 31
0.0
  0
ARC
  5
12E5
330
1F
100
AcDbEntity
  8
SANINDUSA
100
AcDbCircle
 10
19438.39469731696
 20
-303.3798336191618
 30
0.0
 40
0.005
100
AcDbArc
 50
270.0
 51
357.0000000000004
  0
LINE
  5
12E6
330
1F
100
AcDbEntity
  8
SANINDUSA
100
AcDbLine
 10
19438.53976334176
 20
-303.4523788790638
 30
0.0
 11
19438.49015647958
 21
-303.44788337021
 31
0.0
  0
ARC
  5
12E7
330
1F
100
AcDbEntity
  8
SANINDUSA
100
AcDbCircle
 10
19438.53931207736
 20
-303.4573584734694
 30
0.0
 40
0.0049999999999999
100
AcDbArc
 50
2.000000000049521
 51
84.82184478282805
  0
ARC
  5
12E8
330
1F
100
AcDbEntity
  8
SANINDUSA
100
AcDbCircle
 10
19438.55400632138
 20
-303.4618336191619
 30
0.0
 40
0.0009999999999999
100
AcDbArc
 50
270.0
 51
0.0
  0
LINE
  5
12E9
330
1F
100
AcDbEntity
  8
SANINDUSA
100
AcDbLine
 10
19438.55400632138
 20
-303.4628336191618
 30
0.0
 11
19438.54547201016
 21
-303.4628336191618
 31
0.0
  0
ARC
  5
12EA
330
1F
100
AcDbEntity
  8
SANINDUSA
100
AcDbCircle
 10
19438.54547201016
 20
-303.4618336191619
 30
0.0
 40
0.0010000000000001
100
AcDbArc
 50
182.0000000000039
 51
270.0
  0
LINE
  5
12EB
330
1F
100
AcDbEntity
  8
SANINDUSA
100
AcDbLine
 10
19438.5443090315
 20
-303.4571839759859
 30
0.0
 11
19438.54447261933
 21
-303.4618685186585
 31
0.0
  0
ARC
  5
12EC
330
1F
100
AcDbEntity
  8
SANINDUSA
100
AcDbCircle
 10
19438.49069799686
 20
-303.4419078569233
 30
0.0
 40
0.006
100
AcDbArc
 50
190.0000000000007
 51
264.8218447828281
  0
LINE
  5
12ED
330
1F
100
AcDbEntity
  8
SANINDUSA
100
AcDbLine
 10
19438.55376253509
 20
-303.4114394041992
 30
0.0
 11
19438.54774314759
 21
-303.404588119053
 31
0.0
  0
LWPOLYLINE
  5
12EE
330
1F
100
AcDbEntity
  8
SANINDUSA
100
AcDbPolyline
 90
        6
 70
   128
 43
0.0
 10
19438.55500632138
 20
-303.4147395398447
 10
19438.55493736794
 20
-303.4139120233405
 10
19438.55472446488
 20
-303.4130845068363
 10
19438.55438548571
 20
-303.412326462443
 10
19438.55391067111
 20
-303.4116160662974
 10
19438.55376253537
 20
-303.4114394045177
  0
ARC
  5
12F2
330
1F
100
AcDbEntity
  8
SANINDUSA
100
AcDbCircle
 10
19438.54023067444
 20
-303.4111884198582
 30
0.0
 40
0.0100000611780815
100
AcDbArc
 50
41.30187762962687
 51
59.53101870927187
  0
LINE
  5
12F6
330
1F
100
AcDbEntity
  8
SANINDUSA
100
AcDbLine
 10
19438.45571107161
 20
-303.3018336191618
 30
0.0
 11
19438.44700632138
 21
-303.3018336191618
 31
0.0
  0
LINE
  5
12F7
330
1F
100
AcDbEntity
  8
SANINDUSA
100
AcDbLine
 10
19438.47423001473
 20
-303.2898336191618
 30
0.0
 11
19438.44700632138
 21
-303.2898336191618
 31
0.0
  0
LINE
  5
12FD
330
1F
100
AcDbEntity
  8
SANINDUSA
100
AcDbLine
 10
19438.39446556103
 20
-303.2998336191618
 30
0.0
 11
19438.37900632138
 21
-303.2998336191618
 31
0.0
  0
LINE
  5
12FF
330
1F
100
AcDbEntity
  8
SANINDUSA
100
AcDbLine
 10
19438.41000632138
 20
-303.2898336191618
 30
0.0
 11
19438.37150632138
 21
-303.2898336191618
 31
0.0
  0
ARC
  5
1301
330
1F
100
AcDbEntity
  8
SANINDUSA
100
AcDbCircle
 10
19438.37900632138
 20
-303.3003336191618
 30
0.0
 40
0.0005
100
AcDbArc
 50
90.0
 51
180.0
  0
ARC
  5
1302
330
1F
100
AcDbEntity
  8
SANINDUSA
100
AcDbCircle
 10
19438.37150632138
 20
-303.2928336191618
 30
0.0
 40
0.003
100
AcDbArc
 50
90.0
 51
180.0
  0
LINE
  5
1304
330
1F
100
AcDbEntity
  8
SANINDUSA
100
AcDbLine
 10
19438.41000632138
 20
-303.2898336191618
 30
0.0
 11
19438.44700632138
 21
-303.2898336191618
 31
0.0
  0
LINE
  5
1306
330
1F
100
AcDbEntity
  8
SANINDUSA
100
AcDbLine
 10
19438.44700632138
 20
-303.3018336191618
 30
0.0
 11
19438.41000632138
 21
-303.3018336191618
 31
0.0
  0
ARC
  5
1307
330
1F
100
AcDbEntity
  8
SANINDUSA
100
AcDbCircle
 10
19438.39446556103
 20
-303.3003336191618
 30
0.0
 40
0.0005
100
AcDbArc
 50
335.2061375369491
 51
90.0
  0
ARC
  5
1308
330
1F
100
AcDbEntity
  8
SANINDUSA
100
AcDbCircle
 10
19438.40853680831
 20
-303.3068336191618
 30
0.0
 40
0.015
100
AcDbArc
 50
155.206137536949
 51
177.0000000000004
  0
ARC
  5
1309
330
1F
100
AcDbEntity
  8
SANINDUSA
100
AcDbCircle
 10
19438.40853680831
 20
-303.3068336191618
 30
0.0
 40
0.005
100
AcDbArc
 50
90.0
 51
177.0000000000004
  0
ARC
  5
130A
330
1F
100
AcDbEntity
  8
SANINDUSA
100
AcDbCircle
 10
19438.41000632138
 20
-303.3008336191618
 30
0.0
 40
0.001
100
AcDbArc
 50
270.0
 51
0.0
  0
LINE
  5
130B
330
1F
100
AcDbEntity
  8
SANINDUSA
100
AcDbLine
 10
19438.41000632138
 20
-303.3018336191618
 30
0.0
 11
19438.40853680831
 21
-303.3018336191618
 31
0.0
  0
ARC
  5
130C
330
1F
100
AcDbEntity
  8
SANINDUSA
100
AcDbCircle
 10
19438.41000632138
 20
-303.2908336191618
 30
0.0
 40
0.0010000000000001
100
AcDbArc
 50
0.0
 51
90.0
  0
LINE
  5
130D
330
1F
100
AcDbEntity
  8
SANINDUSA
100
AcDbLine
 10
19438.41100632138
 20
-303.2908336191618
 30
0.0
 11
19438.41100632138
 21
-303.3008336191618
 31
0.0
  0
ARC
  5
1310
330
1F
100
AcDbEntity
  8
SANINDUSA
100
AcDbCircle
 10
19438.44700632138
 20
-303.3008336191618
 30
0.0
 40
0.0010000000000001
100
AcDbArc
 50
180.0
 51
270.0
  0
LINE
  5
1311
330
1F
100
AcDbEntity
  8
SANINDUSA
100
AcDbLine
 10
19438.44600632138
 20
-303.3008336191618
 30
0.0
 11
19438.44600632138
 21
-303.2908336191618
 31
0.0
  0
ARC
  5
1312
330
1F
100
AcDbEntity
  8
SANINDUSA
100
AcDbCircle
 10
19438.44700632138
 20
-303.2908336191618
 30
0.0
 40
0.0010000000000001
100
AcDbArc
 50
90.0
 51
180.0
  0
ARC
  5
1316
330
1F
100
AcDbEntity
  8
SANINDUSA
100
AcDbCircle
 10
19438.48969517828
 20
-303.3294625017787
 30
0.0
 40
0.001
100
AcDbArc
 50
20.18006689816367
 51
105.7388014374489
  0
LWPOLYLINE
  5
1317
330
1F
100
AcDbEntity
  8
SANINDUSA
100
AcDbPolyline
 90
       21
 70
   128
 43
0.0
 10
19438.48298082205
 20
-303.3013177685426
 10
19438.48302461167
 20
-303.3015196903006
 10
19438.48315502808
 20
-303.3021137071026
 10
19438.48337231898
 20
-303.3030889816231
 10
19438.48367157261
 20
-303.3044112906297
 10
19438.48404747352
 20
-303.3060432762736
 10
19438.48449390818
 20
-303.3079362147028
 10
19438.4850041916
 20
-303.3100325757569
 10
19438.48557042979
 20
-303.3122745282508
 10
19438.48618097094
 20
-303.3145982787383
 10
19438.4868188105
 20
-303.316937439244
 10
19438.48746949448
 20
-303.3192377215387
 10
19438.48810887387
 20
-303.3214211507829
 10
19438.48871405087
 20
-303.3234178872425
 10
19438.48926724912
 20
-303.3251818756107
 10
19438.48974845316
 20
-303.3266597971938
 10
19438.49014249519
 20
-303.3278163552834
 10
19438.49043368725
 20
-303.3286147066827
 10
19438.49060216641
 20
-303.3290424020738
 10
19438.49063379137
 20
-303.3291175301006
 10
19438.49063379137
 20
-303.3291175301007
  0
LWPOLYLINE
  5
1318
330
1F
100
AcDbEntity
  8
SANINDUSA
100
AcDbPolyline
 90
       21
 70
   128
 43
0.0
 10
19438.47902226248
 20
-303.3324694720291
 10
19438.47897741553
 20
-303.3322770932227
 10
19438.47884629094
 20
-303.3317102668037
 10
19438.47862665569
 20
-303.3307471018646
 10
19438.47833073104
 20
-303.3294306711526
 10
19438.47796664281
 20
-303.3277896367902
 10
19438.47754751714
 20
-303.3258777156693
 10
19438.47708524235
 20
-303.3237425803829
 10
19438.47659532277
 20
-303.3214503542507
 10
19438.47609250118
 20
-303.3190640155542
 10
19438.47559229074
 20
-303.3166521677533
 10
19438.47509694034
 20
-303.3142176817821
 10
19438.47463566423
 20
-303.3118994990663
 10
19438.47423438698
 20
-303.3098289799123
 10
19438.47388803311
 20
-303.3079907766511
 10
19438.47360669914
 20
-303.3064496111929
 10
19438.47339288768
 20
-303.3052340906575
 10
19438.47325120011
 20
-303.3043880769978
 10
19438.47317582733
 20
-303.3039262333351
 10
19438.47315970784
 20
-303.3038433457496
 10
19438.47315970767
 20
-303.303843345821
  0
LINE
  5
131A
330
1F
100
AcDbEntity
  8
SANINDUSA
100
AcDbLine
 10
19438.47971374042
 20
-303.3312365003386
 30
0.0
 11
19438.48942392595
 21
-303.3284999935071
 31
0.0
  0
ARC
  5
131B
330
1F
100
AcDbEntity
  8
SANINDUSA
100
AcDbCircle
 10
19438.47998499275
 20
-303.3321990086146
 30
0.0
 40
0.0010000000036873
100
AcDbArc
 50
105.7388012445488
 51
195.6918445059865
  0
ARC
  5
131D
330
1F
100
AcDbEntity
  8
SANINDUSA
100
AcDbCircle
 10
19438.47423001473
 20
-303.2978336191618
 30
0.0
 40
0.0080000000000002
100
AcDbArc
 50
9.756324018732863
 51
90.0
  0
LINE
  5
131E
330
1F
100
AcDbEntity
  8
SANINDUSA
100
AcDbLine
 10
19438.48226921153
 20
-303.3024646151365
 30
0.0
 11
19438.4744224925
 21
-303.3046759632255
 31
0.0
  0
ARC
  5
131F
330
1F
100
AcDbEntity
  8
SANINDUSA
100
AcDbCircle
 10
19438.47415123666
 20
-303.3037134552811
 30
0.0
 40
0.0010000006381151
100
AcDbArc
 50
187.4632622928921
 51
285.7390002885516
  0
ARC
  5
1320
330
1F
100
AcDbEntity
  8
SANINDUSA
100
AcDbCircle
 10
19438.45571107161
 20
-303.3068336191618
 30
0.0
 40
0.005
100
AcDbArc
 50
10.00000000000068
 51
90.0
  0
LWPOLYLINE
  5
1322
330
1F
100
AcDbEntity
  8
SANINDUSA
100
AcDbPolyline
 90
        3
 70
   128
 43
0.0
 10
19438.48298082205
 20
-303.3013177685426
 10
19438.4824867895
 20
-303.2986097921618
 10
19438.48210689372
 20
-303.2964354856178
  0
ARC
  5
1323
330
1F
100
AcDbEntity
  8
SANINDUSA
100
AcDbCircle
 10
19438.4819979592
 20
-303.3015021068649
 30
0.0
 40
0.0010000000000002
100
AcDbArc
 50
285.7388014374489
 51
10.6225575990838
  0
ARC
  5
132A
330
1F
100
AcDbEntity
  8
SANINDUSA
100
AcDbCircle
 10
19438.50009277561
 20
-303.1153739577373
 30
0.0
 40
0.3700430230856683
100
AcDbArc
 50
303.9057358932883
 51
319.3282415452748
  0
LWPOLYLINE
  5
132B
330
1F
100
AcDbEntity
  8
SANINDUSA
100
AcDbPolyline
 90
       17
 70
   128
 43
0.0
 10
19438.80868463723
 20
-303.2937198923053
 10
19438.80087498678
 20
-303.3062763191531
 10
19438.79234839106
 20
-303.3182143947022
 10
19438.78309718026
 20
-303.3294776557637
 10
19438.77320697724
 20
-303.34008151583
 10
19438.76270916964
 20
-303.3499996032523
 10
19438.75184681652
 20
-303.3590545246564
 10
19438.74047276802
 20
-303.3674086112148
 10
19438.7286228762
 20
-303.3750415910209
 10
19438.71633301563
 20
-303.3819332095388
 10
19438.70337604461
 20
-303.3881802420925
 10
19438.69003643356
 20
-303.3936127349929
 10
19438.67635230019
 20
-303.3982091820337
 10
19438.66236191514
 20
-303.4019494174082
 10
19438.64810271245
 20
-303.4048059437591
 10
19438.63361480363
 20
-303.4067747277748
 10
19438.6189246753
 20
-303.4077323330734
  0
LINE
  5
132C
330
1F
100
AcDbEntity
  8
SANINDUSA
100
AcDbLine
 10
19438.67914447098
 20
-303.4088336191619
 30
0.0
 11
19438.69459280971
 21
-303.4088336191619
 31
0.0
  0
ARC
  5
132D
330
1F
100
AcDbEntity
  8
SANINDUSA
100
AcDbCircle
 10
19438.60988905992
 20
-303.1776999394556
 30
0.0
 40
0.2403074047357475
100
AcDbArc
 50
286.7141275688823
 51
305.9479813166523
  0
LINE
  5
132E
330
1F
100
AcDbEntity
  8
SANINDUSA
100
AcDbLine
 10
19438.62369972299
 20
-303.4188336191618
 30
0.0
 11
19438.69459280971
 21
-303.4188336191618
 31
0.0
  0
LINE
  5
1331
330
1F
100
AcDbEntity
  8
SANINDUSA
100
AcDbLine
 10
19438.7002804619
 20
-303.4228336191618
 30
0.0
 11
19438.69078117098
 21
-303.4228336191618
 31
0.0
  0
LINE
  5
1333
330
1F
100
AcDbEntity
  8
SANINDUSA
100
AcDbLine
 10
19438.60200632138
 20
-303.4618336191619
 30
0.0
 11
19438.60200632138
 21
-303.4211316493852
 31
0.0
  0
LINE
  5
1334
330
1F
100
AcDbEntity
  8
SANINDUSA
100
AcDbLine
 10
19438.61254002344
 20
-303.4618685186585
 30
0.0
 11
19438.61370581472
 21
-303.4284846241948
 31
0.0
  0
ARC
  5
1335
330
1F
100
AcDbEntity
  8
SANINDUSA
100
AcDbCircle
 10
19438.61154063261
 20
-303.4618336191619
 30
0.0
 40
0.0010000000000001
100
AcDbArc
 50
270.0
 51
357.9999999999961
  0
LINE
  5
1336
330
1F
100
AcDbEntity
  8
SANINDUSA
100
AcDbLine
 10
19438.61154063261
 20
-303.4628336191618
 30
0.0
 11
19438.60300632138
 21
-303.4628336191618
 31
0.0
  0
ARC
  5
1337
330
1F
100
AcDbEntity
  8
SANINDUSA
100
AcDbCircle
 10
19438.60300632138
 20
-303.4618336191619
 30
0.0
 40
0.0009999999999999
100
AcDbArc
 50
180.0
 51
270.0
  0
LINE
  5
1338
330
1F
100
AcDbEntity
  8
SANINDUSA
100
AcDbLine
 10
19438.61293720317
 20
-303.4099386261851
 30
0.0
 11
19438.60387101704
 21
-303.4172367921911
 31
0.0
  0
ARC
  5
1339
330
1F
100
AcDbEntity
  8
SANINDUSA
100
AcDbCircle
 10
19438.60700633175
 20
-303.4211316484577
 30
0.0
 40
0.0050000103677508
100
AcDbArc
 50
128.8336665198716
 51
180.0
  0
ARC
  5
133A
330
1F
100
AcDbEntity
  8
SANINDUSA
100
AcDbCircle
 10
19438.62369972299
 20
-303.4288336191618
 30
0.0
 40
0.0100000000000002
100
AcDbArc
 50
90.0
 51
177.9999999999993
  0
ARC
  5
133C
330
1F
100
AcDbEntity
  8
SANINDUSA
100
AcDbCircle
 10
19438.61920782661
 20
-303.4177283469262
 30
0.0
 40
0.0100000233805141
100
AcDbArc
 50
91.62255058255672
 51
128.8336076262613
  0
ARC
  5
133D
330
1F
100
AcDbEntity
  8
SANINDUSA
100
AcDbCircle
 10
19438.67914447098
 20
-303.4083336191618
 30
0.0
 40
0.0005
100
AcDbArc
 50
106.7141275688832
 51
270.0
  0
ARC
  5
133E
330
1F
100
AcDbEntity
  8
SANINDUSA
100
AcDbCircle
 10
19438.500097307
 20
-303.115379003134
 30
0.0
 40
0.360036365746129
100
AcDbArc
 50
304.5126755144518
 51
314.311617207429
  0
ARC
  5
133F
330
1F
100
AcDbEntity
  8
SANINDUSA
100
AcDbCircle
 10
19438.69459280971
 20
-303.4228336191618
 30
0.0
 40
0.0139999999999999
100
AcDbArc
 50
50.54838051781421
 51
90.0
  0
ARC
  5
1340
330
1F
100
AcDbEntity
  8
SANINDUSA
100
AcDbCircle
 10
19438.703806493
 20
-303.411637278684
 30
0.0
 40
0.0005
100
AcDbArc
 50
230.5483805178162
 51
304.51267551445
  0
LWPOLYLINE
  5
1341
330
1F
100
AcDbEntity
  8
SANINDUSA
100
AcDbPolyline
 90
        3
 70
   128
 43
0.0
 10
19438.70539757849
 20
-303.4228336191618
 10
19438.70605958967
 20
-303.4227208767476
 10
19438.70651320869
 20
-303.4224935496557
  0
LINE
  5
1342
330
1F
100
AcDbEntity
  8
SANINDUSA
100
AcDbLine
 10
19438.70539757849
 20
-303.4228336191618
 30
0.0
 11
19438.7002804619
 21
-303.4228336191618
 31
0.0
  0
LINE
  5
1343
330
1F
100
AcDbEntity
  8
SANINDUSA
100
AcDbLine
 10
19438.69821804085
 20
-303.4211431461149
 30
0.0
 11
19438.69846784633
 21
-303.4216788556853
 31
0.0
  0
ARC
  5
1344
330
1F
100
AcDbEntity
  8
SANINDUSA
100
AcDbCircle
 10
19438.69459280971
 20
-303.4228336191618
 30
0.0
 40
0.0039999999999999
100
AcDbArc
 50
24.99999999999385
 51
90.0
  0
ARC
  5
1345
330
1F
100
AcDbEntity
  8
SANINDUSA
100
AcDbCircle
 10
19438.7002804619
 20
-303.4208336191619
 30
0.0
 40
0.0020000000000001
100
AcDbArc
 50
204.9999999999968
 51
270.0
  0
ARC
  5
1346
330
1F
100
AcDbEntity
  8
SANINDUSA
100
AcDbCircle
 10
19438.75125516867
 20
-303.3726456484932
 30
0.0
 40
0.0005
100
AcDbArc
 50
314.3116172073848
 51
125.9479813166522
  0
LWPOLYLINE
  5
134A
330
1F
100
AcDbEntity
  8
SANINDUSA
100
AcDbPolyline
 90
        5
 70
   128
 43
0.0
 10
19438.78075460244
 20
-303.3565406257366
 10
19438.78467116181
 20
-303.3528588629183
 10
19438.7892911158
 20
-303.350110972073
 10
19438.79437928903
 20
-303.3484029573896
 10
19438.79971620797
 20
-303.3478336191618
  0
LINE
  5
134B
330
1F
100
AcDbEntity
  8
SANINDUSA
100
AcDbLine
 10
19438.84421481876
 20
-303.3498336191618
 30
0.0
 11
19438.79011734972
 21
-303.3498336191618
 31
0.0
  0
LWPOLYLINE
  5
134D
330
1F
100
AcDbEntity
  8
SANINDUSA
100
AcDbPolyline
 90
       11
 70
   128
 43
0.0
 10
19438.81653130719
 20
-303.3000705573839
 10
19438.81052190477
 20
-303.3097839501343
 10
19438.80391454709
 20
-303.3194628489529
 10
19438.79671554227
 20
-303.3288150221584
 10
19438.78975775863
 20
-303.3370100098255
 42
0.6391101069222752
 10
19438.79013891083
 20
-303.3378336191618
 10
19438.84300632138
 20
-303.3378336191618
 42
0.4142135623730951
 10
19438.84350632138
 20
-303.3373336191618
 10
19438.84350632138
 20
-303.3003336191618
 42
0.4142135623730951
 10
19438.84300632138
 20
-303.2998336191618
 10
19438.81695651126
 20
-303.2998336191618
  0
LINE
  5
1355
330
1F
100
AcDbEntity
  8
SANINDUSA
100
AcDbLine
 10
19438.85350632139
 20
-303.2958336191618
 30
0.0
 11
19438.85350632139
 21
-303.3448336191618
 31
0.0
  0
LINE
  5
1356
330
1F
100
AcDbEntity
  8
SANINDUSA
100
AcDbLine
 10
19438.83821481876
 20
-303.3478336191618
 30
0.0
 11
19438.79971620797
 21
-303.3478336191618
 31
0.0
  0
ARC
  5
1357
330
1F
100
AcDbEntity
  8
SANINDUSA
100
AcDbCircle
 10
19438.84421481876
 20
-303.3478336191618
 30
0.0
 40
0.002
100
AcDbArc
 50
233.1301023541834
 51
270.0
  0
LWPOLYLINE
  5
1358
330
1F
100
AcDbEntity
  8
SANINDUSA
100
AcDbPolyline
 90
        3
 70
   128
 43
0.0
 10
19438.83821481876
 20
-303.3478336191618
 10
19438.84074464089
 20
-303.3482441527785
 10
19438.84301481876
 20
-303.3494336191661
  0
ARC
  5
1359
330
1F
100
AcDbEntity
  8
SANINDUSA
100
AcDbCircle
 10
19438.84850632138
 20
-303.3448336191618
 30
0.0
 40
0.005
100
AcDbArc
 50
270.0
 51
0.0
  0
LINE
  5
135A
330
1F
100
AcDbEntity
  8
SANINDUSA
100
AcDbLine
 10
19438.84421481876
 20
-303.3498336191618
 30
0.0
 11
19438.84850632138
 21
-303.3498336191618
 31
0.0
  0
LINE
  5
135B
330
1F
100
AcDbEntity
  8
SANINDUSA
100
AcDbLine
 10
19438.84750632138
 20
-303.2898336191618
 30
0.0
 11
19438.81554592365
 21
-303.2898336191618
 31
0.0
  0
ARC
  5
135D
330
1F
100
AcDbEntity
  8
SANINDUSA
100
AcDbCircle
 10
19438.81695651126
 20
-303.3003336191618
 30
0.0
 40
0.0005
100
AcDbArc
 50
90.0
 51
148.2560886818947
  0
ARC
  5
135E
330
1F
100
AcDbEntity
  8
SANINDUSA
100
AcDbCircle
 10
19438.81554592365
 20
-303.2978336191618
 30
0.0
 40
0.008
100
AcDbArc
 50
90.0
 51
149.0549438263734
  0
ARC
  5
135F
330
1F
100
AcDbEntity
  8
SANINDUSA
100
AcDbCircle
 10
19438.84750632138
 20
-303.2958336191618
 30
0.0
 40
0.0060000000000002
100
AcDbArc
 50
0.0
 51
90.0
  0
LWPOLYLINE
  5
15D6
330
1F
100
AcDbEntity
  8
SANINDUSA
  6
Continuous
100
AcDbPolyline
 90
       12
 70
   128
 43
0.0
 10
19438.59011757856
 20
-303.5578271033736
 10
19438.59011621905
 20
-303.5578407254594
 10
19438.59010900902
 20
-303.5578557076914
 10
19438.5900893089
 20
-303.5578763137805
 10
19438.59000991567
 20
-303.5579200518533
 10
19438.5896034948
 20
-303.5580263608342
 10
19438.58794895293
 20
-303.5582324597656
 10
19438.5813031036
 20
-303.5586376736363
 10
19438.55469295429
 20
-303.5594266201258
 10
19438.50146243265
 20
-303.5603130411038
 10
19438.44822723132
 20
-303.5608666979907
 10
19438.40532596426
 20
-303.5612239713598
  0
LWPOLYLINE
  5
15D8
330
1F
100
AcDbEntity
  8
SANINDUSA
  6
Continuous
100
AcDbPolyline
 90
       20
 70
   128
 43
0.0
 10
19438.38696279922
 20
-303.633293940674
 10
19438.41693465036
 20
-303.6335123268608
 10
19438.53679726133
 20
-303.6347483820309
 10
19438.56142997308
 20
-303.6351419219766
 10
19438.57790099017
 20
-303.6354702891815
 10
19438.58891329848
 20
-303.6357424280256
 10
19438.59627496329
 20
-303.6359670975461
 10
19438.60119533965
 20
-303.6361522293584
 10
19438.60448326052
 20
-303.6363047275955
 10
19438.60667962639
 20
-303.6364304751359
 10
19438.60814609812
 20
-303.636534429272
 10
19438.60912441401
 20
-303.6366207497842
 10
19438.60977604244
 20
-303.6366929329429
 10
19438.61020865769
 20
-303.6367539403961
 10
19438.6105934865
 20
-303.636829252962
 10
19438.61074087941
 20
-303.6368728494923
 10
19438.61084882256
 20
-303.6369286433859
 10
19438.61086188708
 20
-303.6369429335552
 10
19438.61086882343
 20
-303.6369566276487
 10
19438.61087027133
 20
-303.636963759698
  0
LWPOLYLINE
  5
15DB
330
1F
100
AcDbEntity
  8
SANINDUSA
  6
Continuous
100
AcDbPolyline
 90
       12
 70
   128
 43
0.0
 10
19438.61254912493
 20
-303.6888270126889
 10
19438.61254812732
 20
-303.6888394230501
 10
19438.61254323601
 20
-303.6888508053926
 10
19438.61252842146
 20
-303.6888681882869
 10
19438.61247148455
 20
-303.6889032632246
 10
19438.61218335081
 20
-303.6889882397403
 10
19438.61100406719
 20
-303.6891542830015
 10
19438.60626160418
 20
-303.6894816228439
 10
19438.58726723335
 20
-303.6901237342179
 10
19438.54926903027
 20
-303.6908588844548
 10
19438.51126647276
 20
-303.6913339666809
 10
19438.4090576539
 20
-303.6922239847438
  0
LWPOLYLINE
  5
15E1
330
1F
100
AcDbEntity
  8
SANINDUSA
  6
Continuous
100
AcDbPolyline
 90
       20
 70
   128
 43
0.0
 10
19438.38528416043
 20
-303.5022939694061
 10
19438.41525228537
 20
-303.502535590352
 10
19438.47517253906
 20
-303.5031164127707
 10
19438.53508868076
 20
-303.503976909714
 10
19438.55296655224
 20
-303.5043329806011
 10
19438.5649220645
 20
-303.5046289225982
 10
19438.57291616525
 20
-303.5048736924842
 10
19438.57826066579
 20
-303.505075631681
 10
19438.58183306091
 20
-303.5052421114727
 10
19438.58422026452
 20
-303.5053794684432
 10
19438.58581477107
 20
-303.5054930712408
 10
19438.58687897591
 20
-303.5055874404356
 10
19438.58758817825
 20
-303.5056663842624
 10
19438.58805929707
 20
-303.5057331338274
 10
19438.58847983013
 20
-303.50581586555
 10
19438.58864019566
 20
-303.5058636084591
 10
19438.58875737929
 20
-303.505924612908
 10
19438.58877149652
 20
-303.5059401629621
 10
19438.58877907077
 20
-303.5059552432078
 10
19438.58878067782
 20
-303.5059636503567
  0
LINE
  5
15E6
330
1F
100
AcDbEntity
  8
SANINDUSA
  6
Continuous
100
AcDbLine
 10
19438.54851045339
 20
-303.7688336191618
 30
0.0
 11
19438.59051045339
 21
-303.7688336191618
 31
0.0
  0
LINE
  5
15EA
330
1F
100
AcDbEntity
  8
SANINDUSA
  6
Continuous
100
AcDbLine
 10
19438.36851045339
 20
-303.568889168157
 30
0.0
 11
19438.36851045339
 21
-303.6256959873839
 31
0.0
  0
LINE
  5
15EE
330
1F
100
AcDbEntity
  8
SANINDUSA
  6
Continuous
100
AcDbLine
 10
19438.40651045339
 20
-303.7688336191618
 30
0.0
 11
19438.43851045339
 21
-303.7688336191618
 31
0.0
  0
LINE
  5
15F0
330
1F
100
AcDbEntity
  8
SANINDUSA
  6
Continuous
100
AcDbLine
 10
19438.36851045339
 20
-303.6998930175579
 30
0.0
 11
19438.36851045339
 21
-303.7541295024368
 31
0.0
  0
LINE
  5
15F3
330
1F
100
AcDbEntity
  8
SANINDUSA
  6
Continuous
100
AcDbLine
 10
19438.36851045339
 20
-303.7541295024368
 30
0.0
 11
19438.36851045339
 21
-303.7608336191618
 31
0.0
  0
ARC
  5
15F5
330
1F
100
AcDbEntity
  8
SANINDUSA
  6
Continuous
100
AcDbCircle
 10
19438.37051045339
 20
-303.7608336191618
 30
0.0
 40
0.002
100
AcDbArc
 50
90.0
 51
180.0
  0
ARC
  5
15F6
330
1F
100
AcDbEntity
  8
SANINDUSA
  6
Continuous
100
AcDbCircle
 10
19438.40651045339
 20
-303.7608336191618
 30
0.0
 40
0.0020000000000002
100
AcDbArc
 50
0.0
 51
90.0
  0
LINE
  5
15F8
330
1F
100
AcDbEntity
  8
SANINDUSA
  6
Continuous
100
AcDbLine
 10
19438.40651045339
 20
-303.7688336191618
 30
0.0
 11
19438.37051045339
 21
-303.7688336191618
 31
0.0
  0
LINE
  5
15F9
330
1F
100
AcDbEntity
  8
SANINDUSA
  6
Continuous
100
AcDbLine
 10
19438.37051045339
 20
-303.7588336191618
 30
0.0
 11
19438.40651045339
 21
-303.7588336191618
 31
0.0
  0
LINE
  5
15FA
330
1F
100
AcDbEntity
  8
SANINDUSA
  6
Continuous
100
AcDbLine
 10
19438.36851045339
 20
-303.7608336191618
 30
0.0
 11
19438.36851045339
 21
-303.7668336191618
 31
0.0
  0
ARC
  5
15FB
330
1F
100
AcDbEntity
  8
SANINDUSA
  6
Continuous
100
AcDbCircle
 10
19438.37051045339
 20
-303.7668336191618
 30
0.0
 40
0.0019999999999999
100
AcDbArc
 50
180.0
 51
270.0
  0
LINE
  5
15FC
330
1F
100
AcDbEntity
  8
SANINDUSA
  6
Continuous
100
AcDbLine
 10
19438.40851045339
 20
-303.7608336191618
 30
0.0
 11
19438.40851045339
 21
-303.7668336191618
 31
0.0
  0
ARC
  5
15FD
330
1F
100
AcDbEntity
  8
SANINDUSA
  6
Continuous
100
AcDbCircle
 10
19438.40651045339
 20
-303.7668336191618
 30
0.0
 40
0.0020000000000002
100
AcDbArc
 50
270.0
 51
0.0
  0
LINE
  5
15FF
330
1F
100
AcDbEntity
  8
SANINDUSA
  6
Continuous
100
AcDbLine
 10
19438.36851045339
 20
-303.63368401156
 30
0.0
 11
19438.36851045339
 21
-303.691978606107
 31
0.0
  0
LINE
  5
1602
330
1F
100
AcDbEntity
  8
SANINDUSA
  6
Continuous
100
AcDbLine
 10
19438.4090576539
 20
-303.6922239847438
 30
0.0
 11
19438.37045637397
 21
-303.6930134577103
 31
0.0
  0
LINE
  5
1604
330
1F
100
AcDbEntity
  8
SANINDUSA
  6
Continuous
100
AcDbLine
 10
19438.36851045339
 20
-303.691978606107
 30
0.0
 11
19438.36851045339
 21
-303.6936672511286
 31
0.0
  0
LINE
  5
1606
330
1F
100
AcDbEntity
  8
SANINDUSA
  6
Continuous
100
AcDbLine
 10
19438.36851045339
 20
-303.6936672511286
 30
0.0
 11
19438.36851045339
 21
-303.6944567240949
 31
0.0
  0
LINE
  5
1607
330
1F
100
AcDbEntity
  8
SANINDUSA
  6
Continuous
100
AcDbLine
 10
19438.36851045339
 20
-303.6944567240949
 30
0.0
 11
19438.36851045339
 21
-303.6998930175579
 31
0.0
  0
LWPOLYLINE
  5
1608
330
1F
100
AcDbEntity
  8
SANINDUSA
  6
Continuous
100
AcDbPolyline
 90
        9
 70
   128
 43
0.0
 10
19438.37045637397
 20
-303.6930134577103
 10
19438.37007397039
 20
-303.693047732762
 10
19438.36970776979
 20
-303.6931343119558
 10
19438.36937136617
 20
-303.6932699813254
 10
19438.36907724739
 20
-303.6934497045944
 10
19438.36883633165
 20
-303.693666810131
 10
19438.36865756214
 20
-303.6939132386103
 10
19438.36854757508
 20
-303.6941798421902
 10
19438.36851045339
 20
-303.6944567240949
  0
LWPOLYLINE
  5
1611
330
1F
100
AcDbEntity
  8
SANINDUSA
  6
Continuous
100
AcDbPolyline
 90
        3
 70
   128
 43
0.0
 10
19438.37045403937
 20
-303.63295301118
 10
19438.3777366263
 20
-303.6331034107632
 10
19438.38696279922
 20
-303.633293940674
  0
LINE
  5
1612
330
1F
100
AcDbEntity
  8
SANINDUSA
  6
Continuous
100
AcDbLine
 10
19438.36851045339
 20
-303.6319104906271
 30
0.0
 11
19438.36851045339
 21
-303.63368401156
 31
0.0
  0
LINE
  5
1613
330
1F
100
AcDbEntity
  8
SANINDUSA
  6
Continuous
100
AcDbLine
 10
19438.36851045339
 20
-303.6315695611331
 30
0.0
 11
19438.36851045339
 21
-303.6319104906271
 31
0.0
  0
LWPOLYLINE
  5
1616
330
1F
100
AcDbEntity
  8
SANINDUSA
  6
Continuous
100
AcDbPolyline
 90
        9
 70
   128
 43
0.0
 10
19438.37045403937
 20
-303.63295301118
 10
19438.37007197632
 20
-303.6329198909166
 10
19438.36970616574
 20
-303.632836719698
 10
19438.36937016668
 20
-303.6327065803257
 10
19438.36907643316
 20
-303.6325342965104
 10
19438.36883585265
 20
-303.6323262540769
 10
19438.36865734243
 20
-303.6320901642693
 10
19438.36854751912
 20
-303.6318347779279
 10
19438.36851045339
 20
-303.6315695611331
  0
LINE
  5
161A
330
1F
100
AcDbEntity
  8
SANINDUSA
  6
Continuous
100
AcDbLine
 10
19438.36851045339
 20
-303.6256959873839
 30
0.0
 11
19438.36851045339
 21
-303.6315695611331
 31
0.0
  0
LINE
  5
161C
330
1F
100
AcDbEntity
  8
SANINDUSA
  6
Continuous
100
AcDbLine
 10
19438.43851045339
 20
-303.7688336191618
 30
0.0
 11
19438.54851045339
 21
-303.7688336191618
 31
0.0
  0
LWPOLYLINE
  5
1626
330
1F
100
AcDbEntity
  8
SANINDUSA
  6
Continuous
100
AcDbPolyline
 90
       21
 70
   128
 43
0.0
 10
19438.398511196
 20
-303.4689197908382
 10
19438.39851081106
 20
-303.4687738149151
 10
19438.39881218038
 20
-303.4671229962586
 10
19438.39964180429
 20
-303.4656660405651
 10
19438.40090672222
 20
-303.4645650615603
 10
19438.40246536631
 20
-303.4639440595716
 10
19438.40414300905
 20
-303.463873793223
 10
19438.40575040506
 20
-303.4643634271619
 10
19438.40710522099
 20
-303.4653583283979
 10
19438.40805364817
 20
-303.4667457060523
 10
19438.40848881289
 20
-303.4683689292421
 10
19438.40847615932
 20
-303.4694182255202
 10
19438.40800336495
 20
-303.4710276441558
 10
19438.40702531445
 20
-303.4723897057332
 10
19438.4056516695
 20
-303.4733519367216
 10
19438.40403605272
 20
-303.4738059169547
 10
19438.40235989799
 20
-303.4736994410116
 10
19438.40081266934
 20
-303.4730433651433
 10
19438.39957003909
 20
-303.4719114650191
 10
19438.39877291936
 20
-303.4704322971531
 10
19438.398511196
 20
-303.4689197908382
  0
LINE
  5
1628
330
1F
100
AcDbEntity
  8
SANINDUSA
  6
Continuous
100
AcDbLine
 10
19438.36851045339
 20
-303.4337068114234
 30
0.0
 11
19438.36851045339
 21
-303.4946997989052
 31
0.0
  0
LINE
  5
162A
330
1F
100
AcDbEntity
  8
SANINDUSA
  6
Continuous
100
AcDbLine
 10
19438.36851045339
 20
-303.5023071368943
 30
0.0
 11
19438.36851045339
 21
-303.5614181098613
 31
0.0
  0
LWPOLYLINE
  5
162D
330
1F
100
AcDbEntity
  8
SANINDUSA
  6
Continuous
100
AcDbPolyline
 90
        3
 70
   128
 43
0.0
 10
19438.40532596426
 20
-303.5612239713598
 10
19438.38691820891
 20
-303.5616386061704
 10
19438.37045399843
 20
-303.5620094281656
  0
LINE
  5
1630
330
1F
100
AcDbEntity
  8
SANINDUSA
  6
Continuous
100
AcDbLine
 10
19438.36851045339
 20
-303.5614181098613
 30
0.0
 11
19438.36851045339
 21
-303.5626671903376
 31
0.0
  0
LINE
  5
1631
330
1F
100
AcDbEntity
  8
SANINDUSA
  6
Continuous
100
AcDbLine
 10
19438.36851045339
 20
-303.5626671903376
 30
0.0
 11
19438.36851045339
 21
-303.5634526471434
 31
0.0
  0
LINE
  5
1633
330
1F
100
AcDbEntity
  8
SANINDUSA
  6
Continuous
100
AcDbLine
 10
19438.36851045339
 20
-303.5634526471434
 30
0.0
 11
19438.36851045339
 21
-303.568889168157
 31
0.0
  0
LWPOLYLINE
  5
1634
330
1F
100
AcDbEntity
  8
SANINDUSA
  6
Continuous
100
AcDbPolyline
 90
        9
 70
   128
 43
0.0
 10
19438.37045399843
 20
-303.5620094281656
 10
19438.37007194135
 20
-303.5620439841759
 10
19438.36970613762
 20
-303.5621307519211
 10
19438.36937014564
 20
-303.5622665153769
 10
19438.36907641889
 20
-303.5624462425052
 10
19438.36883584425
 20
-303.5626632717657
 10
19438.36865733858
 20
-303.562909559024
 10
19438.36854751814
 20
-303.5631759757054
 10
19438.36851045339
 20
-303.5634526471434
  0
LWPOLYLINE
  5
163A
330
1F
100
AcDbEntity
  8
SANINDUSA
  6
Continuous
100
AcDbPolyline
 90
        3
 70
   128
 43
0.0
 10
19438.37045156145
 20
-303.5019570265348
 10
19438.37689730689
 20
-303.5021034537045
 10
19438.38528416043
 20
-303.5022939694061
  0
LINE
  5
163C
330
1F
100
AcDbEntity
  8
SANINDUSA
  6
Continuous
100
AcDbLine
 10
19438.36851045339
 20
-303.5009105688092
 30
0.0
 11
19438.36851045339
 21
-303.5023071368943
 31
0.0
  0
LWPOLYLINE
  5
1640
330
1F
100
AcDbEntity
  8
SANINDUSA
  6
Continuous
100
AcDbPolyline
 90
        9
 70
   128
 43
0.0
 10
19438.37045156145
 20
-303.5019570265348
 10
19438.37006986027
 20
-303.5019236258489
 10
19438.36970446384
 20
-303.5018402665664
 10
19438.36936889416
 20
-303.5017100335118
 10
19438.36907556944
 20
-303.5015377461376
 10
19438.36883534457
 20
-303.5013297801744
 10
19438.3686571094
 20
-303.5010938316875
 10
19438.36854745976
 20
-303.500838632274
 10
19438.36851045339
 20
-303.5005736259379
  0
LINE
  5
1641
330
1F
100
AcDbEntity
  8
SANINDUSA
  6
Continuous
100
AcDbLine
 10
19438.36851045339
 20
-303.4946997989052
 30
0.0
 11
19438.36851045339
 21
-303.5005736259379
 31
0.0
  0
ARC
  5
1648
330
1F
100
AcDbEntity
  8
SANINDUSA
  6
Continuous
100
AcDbCircle
 10
19438.37351045339
 20
-303.4238336191618
 30
0.0
 40
0.005
100
AcDbArc
 50
90.0
 51
180.0
  0
LINE
  5
164B
330
1F
100
AcDbEntity
  8
SANINDUSA
  6
Continuous
100
AcDbLine
 10
19438.36851045339
 20
-303.4238336191618
 30
0.0
 11
19438.36851045339
 21
-303.4257584498276
 31
0.0
  0
LINE
  5
164C
330
1F
100
AcDbEntity
  8
SANINDUSA
  6
Continuous
100
AcDbLine
 10
19438.36851045339
 20
-303.4257584498276
 30
0.0
 11
19438.36851045339
 21
-303.4306057249385
 31
0.0
  0
LINE
  5
164D
330
1F
100
AcDbEntity
  8
SANINDUSA
  6
Continuous
100
AcDbLine
 10
19438.36851045339
 20
-303.4308336191618
 30
0.0
 11
19438.36851045339
 21
-303.4337068114234
 31
0.0
  0
ARC
  5
164E
330
1F
100
AcDbEntity
  8
SANINDUSA
  6
Continuous
100
AcDbCircle
 10
19438.37051045339
 20
-303.4308336191618
 30
0.0
 40
0.0020000000000005
100
AcDbArc
 50
90.0
 51
180.0
  0
LINE
  5
1654
330
1F
100
AcDbEntity
  8
SANINDUSA
  6
Continuous
100
AcDbLine
 10
19438.6761774699
 20
-303.5052385576689
 30
0.0
 11
19438.6637002044
 21
-303.7291118553786
 31
0.0
  0
LINE
  5
1656
330
1F
100
AcDbEntity
  8
SANINDUSA
  6
Continuous
100
AcDbLine
 10
19438.69089097753
 20
-303.4209449136485
 30
0.0
 11
19438.67160715088
 21
-303.7669449136485
 31
0.0
  0
LINE
  5
1658
330
1F
100
AcDbEntity
  8
SANINDUSA
  6
Continuous
100
AcDbLine
 10
19438.64816613504
 20
-303.7338336191618
 30
0.0
 11
19438.65870795194
 21
-303.7338336191618
 31
0.0
  0
LINE
  5
1659
330
1F
100
AcDbEntity
  8
SANINDUSA
  6
Continuous
100
AcDbLine
 10
19438.66182242194
 20
-303.7438336191618
 30
0.0
 11
19438.6538410449
 21
-303.7438336191618
 31
0.0
  0
LINE
  5
165A
330
1F
100
AcDbEntity
  8
SANINDUSA
  6
Continuous
100
AcDbLine
 10
19438.65311650806
 20
-303.7588336191618
 30
0.0
 11
19438.6610978851
 21
-303.7588336191618
 31
0.0
  0
LINE
  5
165B
330
1F
100
AcDbEntity
  8
SANINDUSA
  6
Continuous
100
AcDbLine
 10
19438.6696102499
 20
-303.7688336191618
 30
0.0
 11
19438.59051045339
 21
-303.7688336191618
 31
0.0
  0
ARC
  5
165E
330
1F
100
AcDbEntity
  8
SANINDUSA
  6
Continuous
100
AcDbCircle
 10
19438.65311650806
 20
-303.7578336191618
 30
0.0
 40
0.001
100
AcDbArc
 50
176.8100000000001
 51
270.0
  0
ARC
  5
1662
330
1F
100
AcDbEntity
  8
SANINDUSA
  6
Continuous
100
AcDbCircle
 10
19438.59051045339
 20
-303.7608336191618
 30
0.0
 40
0.002
100
AcDbArc
 50
90.0
 51
180.0
  0
ARC
  5
1663
330
1F
100
AcDbEntity
  8
SANINDUSA
  6
Continuous
100
AcDbCircle
 10
19438.63731461187
 20
-303.7538336191618
 30
0.0
 40
0.0050000000000001
100
AcDbArc
 50
270.0
 51
356.8100000000001
  0
LINE
  5
1664
330
1F
100
AcDbEntity
  8
SANINDUSA
  6
Continuous
100
AcDbLine
 10
19438.59051045339
 20
-303.7588336191618
 30
0.0
 11
19438.63731461187
 21
-303.7588336191618
 31
0.0
  0
ARC
  5
1665
330
1F
100
AcDbEntity
  8
SANINDUSA
  6
Continuous
100
AcDbCircle
 10
19438.59051045339
 20
-303.7668336191618
 30
0.0
 40
0.0019999999999999
100
AcDbArc
 50
180.0
 51
270.0
  0
LINE
  5
1666
330
1F
100
AcDbEntity
  8
SANINDUSA
  6
Continuous
100
AcDbLine
 10
19438.58851045339
 20
-303.7668336191618
 30
0.0
 11
19438.58851045339
 21
-303.7608336191618
 31
0.0
  0
ARC
  5
166C
330
1F
100
AcDbEntity
  8
SANINDUSA
  6
Continuous
100
AcDbCircle
 10
19438.6538410449
 20
-303.7448336191618
 30
0.0
 40
0.001
100
AcDbArc
 50
90.0
 51
176.8100000000001
  0
ARC
  5
166F
330
1F
100
AcDbEntity
  8
SANINDUSA
  6
Continuous
100
AcDbCircle
 10
19438.64816613504
 20
-303.7388336191618
 30
0.0
 40
0.0050000000000001
100
AcDbArc
 50
90.0
 51
176.809999999935
  0
LINE
  5
1673
330
1F
100
AcDbEntity
  8
SANINDUSA
  6
Continuous
100
AcDbLine
 10
19438.65284259441
 20
-303.7447779719185
 30
0.0
 11
19438.65211805757
 21
-303.7577779719185
 31
0.0
  0
LINE
  5
1675
330
1F
100
AcDbEntity
  8
SANINDUSA
  6
Continuous
100
AcDbLine
 10
19438.64317388258
 20
-303.738555382945
 30
0.0
 11
19438.64230686432
 21
-303.7541118553786
 31
0.0
  0
ARC
  5
1677
330
1F
100
AcDbEntity
  8
SANINDUSA
  6
Continuous
100
AcDbCircle
 10
19438.6610978851
 20
-303.7578336191618
 30
0.0
 40
0.001
100
AcDbArc
 50
270.0
 51
356.8100000000131
  0
ARC
  5
1679
330
1F
100
AcDbEntity
  8
SANINDUSA
  6
Continuous
100
AcDbCircle
 10
19438.6696102499
 20
-303.7668336191618
 30
0.0
 40
0.0019999999999999
100
AcDbArc
 50
270.0
 51
356.8100000000001
  0
ARC
  5
167A
330
1F
100
AcDbEntity
  8
SANINDUSA
  6
Continuous
100
AcDbCircle
 10
19438.66182242194
 20
-303.7448336191618
 30
0.0
 40
0.001
100
AcDbArc
 50
356.8100000000131
 51
90.0
  0
ARC
  5
167D
330
1F
100
AcDbEntity
  8
SANINDUSA
  6
Continuous
100
AcDbCircle
 10
19438.65870795194
 20
-303.7288336191618
 30
0.0
 40
0.005
100
AcDbArc
 50
270.0
 51
356.8099999999611
  0
LINE
  5
167E
330
1F
100
AcDbEntity
  8
SANINDUSA
  6
Continuous
100
AcDbLine
 10
19438.66282087243
 20
-303.7448892664051
 30
0.0
 11
19438.66209633559
 21
-303.7578892664052
 31
0.0
  0
LINE
  5
1684
330
1F
100
AcDbEntity
  8
SANINDUSA
  6
Continuous
100
AcDbLine
 10
19438.66229239536
 20
-303.4348731776159
 30
0.0
 11
19438.67556838318
 21
-303.4973317896437
 31
0.0
  0
ARC
  5
168C
330
1F
100
AcDbEntity
  8
SANINDUSA
  6
Continuous
100
AcDbCircle
 10
19438.64622395515
 20
-303.5035691403682
 30
0.0
 40
0.0299999999999999
100
AcDbArc
 50
356.8100000000001
 51
12.00000000000297
  0
LINE
  5
168E
330
1F
100
AcDbEntity
  8
SANINDUSA
  6
Continuous
100
AcDbLine
 10
19438.68511974494
 20
-303.4188336191618
 30
0.0
 11
19438.62369972299
 21
-303.4188336191618
 31
0.0
  0
LINE
  5
1690
330
1F
100
AcDbEntity
  8
SANINDUSA
  6
Continuous
100
AcDbLine
 10
19438.66718313336
 20
-303.4288336191618
 30
0.0
 11
19438.63052173051
 21
-303.4288336191618
 31
0.0
  0
LINE
  5
1691
330
1F
100
AcDbEntity
  8
SANINDUSA
  6
Continuous
100
AcDbLine
 10
19438.63052173051
 20
-303.4288336191618
 30
0.0
 11
19438.61369362755
 21
-303.4288336191618
 31
0.0
  0
ARC
  5
1698
330
1F
100
AcDbEntity
  8
SANINDUSA
  6
Continuous
100
AcDbCircle
 10
19438.67794272586
 20
-303.4555951159557
 30
0.0
 40
0.001
100
AcDbArc
 50
192.0000000000029
 51
356.8100000000001
  0
ARC
  5
1699
330
1F
100
AcDbEntity
  8
SANINDUSA
  6
Continuous
100
AcDbCircle
 10
19438.67882117087
 20
-303.4398336191618
 30
0.0
 40
0.001
100
AcDbArc
 50
356.8100000000001
 51
90.0
  0
ARC
  5
169A
330
1F
100
AcDbEntity
  8
SANINDUSA
  6
Continuous
100
AcDbCircle
 10
19438.6745925163
 20
-303.4398336191618
 30
0.0
 40
0.001
100
AcDbArc
 50
90.0
 51
192.0000000000029
  0
ARC
  5
169B
330
1F
100
AcDbEntity
  8
SANINDUSA
  6
Continuous
100
AcDbCircle
 10
19438.68889407655
 20
-303.4208336191619
 30
0.0
 40
0.0019999999999999
100
AcDbArc
 50
356.8100000000001
 51
90.0
  0
LINE
  5
169C
330
1F
100
AcDbEntity
  8
SANINDUSA
  6
Continuous
100
AcDbLine
 10
19438.67882117087
 20
-303.4388336191618
 30
0.0
 11
19438.6745925163
 21
-303.4388336191618
 31
0.0
  0
LINE
  5
169D
330
1F
100
AcDbEntity
  8
SANINDUSA
  6
Continuous
100
AcDbLine
 10
19438.67097760932
 20
-303.4288336191618
 30
0.0
 11
19438.66718313336
 21
-303.4288336191618
 31
0.0
  0
LINE
  5
169E
330
1F
100
AcDbEntity
  8
SANINDUSA
  6
Continuous
100
AcDbLine
 10
19438.68889407655
 20
-303.4188336191618
 30
0.0
 11
19438.68511974494
 21
-303.4188336191618
 31
0.0
  0
ARC
  5
169F
330
1F
100
AcDbEntity
  8
SANINDUSA
  6
Continuous
100
AcDbCircle
 10
19438.67097760932
 20
-303.4188336191618
 30
0.0
 40
0.01
100
AcDbArc
 50
270.0
 51
340.5287793655164
  0
ARC
  5
16A0
330
1F
100
AcDbEntity
  8
SANINDUSA
  6
Continuous
100
AcDbCircle
 10
19438.68511974494
 20
-303.4238336191618
 30
0.0
 40
0.005
100
AcDbArc
 50
90.0
 51
160.5287793655164
  0
LINE
  5
16A1
330
1F
100
AcDbEntity
  8
SANINDUSA
  6
Continuous
100
AcDbLine
 10
19438.6736143687
 20
-303.4400415308526
 30
0.0
 11
19438.67696457827
 21
-303.4558030276465
 31
0.0
  0
LINE
  5
16A2
330
1F
100
AcDbEntity
  8
SANINDUSA
  6
Continuous
100
AcDbLine
 10
19438.67981962136
 20
-303.4398892664051
 30
0.0
 11
19438.67894117636
 21
-303.455650763199
 31
0.0
  0
ARC
  5
16A3
330
1F
100
AcDbEntity
  8
SANINDUSA
  6
Continuous
100
AcDbCircle
 10
19438.66718313336
 20
-303.4338336191618
 30
0.0
 40
0.005
100
AcDbArc
 50
90.0
 51
192.0000000000029
  0
LINE
  5
1721
330
1F
100
AcDbEntity
  8
SANINDUSA
  6
Continuous
100
AcDbLine
 10
19438.48053682651
 20
-303.4188336191618
 30
0.0
 11
19438.37351045339
 21
-303.4188336191618
 31
0.0
  0
LINE
  5
1723
330
1F
100
AcDbEntity
  8
SANINDUSA
  6
Continuous
100
AcDbLine
 10
19438.48230009631
 20
-303.4288336191618
 30
0.0
 11
19438.37051045339
 21
-303.4288336191618
 31
0.0
  0
ENDSEC
  0
SECTION
  2
OBJECTS
  0
DICTIONARY
  5
C
330
0
100
AcDbDictionary
281
     1
  3
ACAD_COLOR
350
1754
  3
ACAD_GROUP
350
D
  3
ACAD_LAYOUT
350
1A
  3
ACAD_MATERIAL
350
1727
  3
ACAD_MLEADERSTYLE
350
1769
  3
ACAD_MLINESTYLE
350
17
  3
ACAD_PLOTSETTINGS
350
19
  3
ACAD_PLOTSTYLENAME
350
E
  3
ACAD_SCALELIST
350
1757
  3
ACAD_TABLESTYLE
350
1755
  3
ACAD_VISUALSTYLE
350
1740
  3
ACDB_RECOMPOSE_DATA
350
1798
  3
AcDbVariableDictionary
350
3D
  3
ASE_INDEX_DICTIONARY
350
1151
  3
DWGPROPS
350
1799
  0
DICTIONARY
  5
1770
330
10
100
AcDbDictionary
280
     1
281
     1
  3
ADSK_XREC_LAYER_RECONCILED
360
1771
  0
DICTIONARY
  5
1772
330
2F
100
AcDbDictionary
280
     1
281
     1
  3
ADSK_XREC_LAYER_RECONCILED
360
1773
  0
DICTIONARY
  5
1774
330
30
100
AcDbDictionary
280
     1
281
     1
  3
ADSK_XREC_LAYER_RECONCILED
360
1775
  0
DICTIONARY
  5
1776
330
31
100
AcDbDictionary
280
     1
281
     1
  3
ADSK_XREC_LAYER_RECONCILED
360
1777
  0
DICTIONARY
  5
1778
330
32
100
AcDbDictionary
280
     1
281
     1
  3
ADSK_XREC_LAYER_RECONCILED
360
1779
  0
DICTIONARY
  5
177A
330
33
100
AcDbDictionary
280
     1
281
     1
  3
ADSK_XREC_LAYER_RECONCILED
360
177B
  0
DICTIONARY
  5
177C
330
34
100
AcDbDictionary
280
     1
281
     1
  3
ADSK_XREC_LAYER_RECONCILED
360
177D
  0
DICTIONARY
  5
177E
330
35
100
AcDbDictionary
280
     1
281
     1
  3
ADSK_XREC_LAYER_RECONCILED
360
177F
  0
DICTIONARY
  5
1780
330
36
100
AcDbDictionary
280
     1
281
     1
  3
ADSK_XREC_LAYER_RECONCILED
360
1781
  0
DICTIONARY
  5
1782
330
37
100
AcDbDictionary
280
     1
281
     1
  3
ADSK_XREC_LAYER_RECONCILED
360
1783
  0
DICTIONARY
  5
1784
330
5D6
100
AcDbDictionary
280
     1
281
     1
  3
ADSK_XREC_LAYER_RECONCILED
360
1785
  0
DICTIONARY
  5
1786
330
8AF
100
AcDbDictionary
280
     1
281
     1
  3
ADSK_XREC_LAYER_RECONCILED
360
1787
  0
DICTIONARY
  5
1788
330
8F8
100
AcDbDictionary
280
     1
281
     1
  3
ADSK_XREC_LAYER_RECONCILED
360
1789
  0
DICTIONARY
  5
178A
330
91D
100
AcDbDictionary
280
     1
281
     1
  3
ADSK_XREC_LAYER_RECONCILED
360
178B
  0
DICTIONARY
  5
178C
330
114D
100
AcDbDictionary
280
     1
281
     1
  3
ADSK_XREC_LAYER_RECONCILED
360
178D
  0
DICTIONARY
  5
178E
330
14FE
100
AcDbDictionary
280
     1
281
     1
  3
ADSK_XREC_LAYER_RECONCILED
360
178F
  0
DICTIONARY
  5
1754
102
{ACAD_REACTORS
330
C
102
}
330
C
100
AcDbDictionary
281
     1
  0
DICTIONARY
  5
D
102
{ACAD_REACTORS
330
C
102
}
330
C
100
AcDbDictionary
281
     1
  0
DICTIONARY
  5
1A
102
{ACAD_REACTORS
330
C
102
}
330
C
100
AcDbDictionary
281
     1
  3
Layout1
350
1E
  3
Layout2
350
26
  3
Model
350
22
  0
DICTIONARY
  5
1727
102
{ACAD_REACTORS
330
C
102
}
330
C
100
AcDbDictionary
281
     1
  3
ByBlock
350
1730
  3
ByLayer
350
1728
  3
Global
350
1738
  0
DICTIONARY
  5
1769
102
{ACAD_REACTORS
330
C
102
}
330
C
100
AcDbDictionary
281
     1
  3
Standard
350
176A
  0
DICTIONARY
  5
17
102
{ACAD_REACTORS
330
C
102
}
330
C
100
AcDbDictionary
281
     1
  3
Standard
350
18
  0
DICTIONARY
  5
19
102
{ACAD_REACTORS
330
C
102
}
330
C
100
AcDbDictionary
281
     1
  0
ACDBDICTIONARYWDFLT
  5
E
102
{ACAD_REACTORS
330
C
102
}
330
C
100
AcDbDictionary
281
     1
  3
Normal
350
F
100
AcDbDictionaryWithDefault
340
F
  0
DICTIONARY
  5
1757
102
{ACAD_REACTORS
330
C
102
}
330
C
100
AcDbDictionary
281
     1
  3
A0
350
1758
  3
A1
350
1759
  3
A2
350
175A
  3
A3
350
175B
  3
A4
350
175C
  3
A5
350
175D
  3
A6
350
175E
  3
A7
350
175F
  3
A8
350
1760
  3
A9
350
1761
  3
B0
350
1762
  3
B1
350
1763
  3
B2
350
1764
  3
B3
350
1765
  3
B4
350
1766
  3
B5
350
1767
  3
B6
350
1768
  0
DICTIONARY
  5
1755
102
{ACAD_REACTORS
330
C
102
}
330
C
100
AcDbDictionary
281
     1
  3
Standard
350
1756
  0
DICTIONARY
  5
1740
102
{ACAD_REACTORS
330
C
102
}
330
C
100
AcDbDictionary
281
     1
  3
2dWireframe
350
1746
  3
3D Hidden
350
1748
  3
3dWireframe
350
1747
  3
Basic
350
1745
  3
Brighten
350
174C
  3
ColorChange
350
1750
  3
Conceptual
350
1749
  3
Dim
350
174B
  3
EdgeColorOff
350
1753
  3
Facepattern
350
174F
  3
Flat
350
1741
  3
FlatWithEdges
350
1742
  3
Gouraud
350
1743
  3
GouraudWithEdges
350
1744
  3
JitterOff
350
1751
  3
Linepattern
350
174E
  3
OverhangOff
350
1752
  3
Realistic
350
174A
  3
Thicken
350
174D
  0
XRECORD
  5
1798
102
{ACAD_REACTORS
330
C
102
}
330
C
100
AcDbXrecord
280
     1
 90
        1
330
1756
  0
DICTIONARY
  5
3D
102
{ACAD_REACTORS
330
C
102
}
330
C
100
AcDbDictionary
281
     1
  3
CANNOSCALE
350
1792
  3
CMLEADERSTYLE
350
1791
  3
CTABLESTYLE
350
1790
  3
DIMASSOC
350
3F
  3
HIDETEXT
350
3E
  3
INDEXCTL
350
1794
  3
SORTENTS
350
1793
  3
XCLIPFRAME
350
1795
  0
DICTIONARY
  5
1151
102
{ACAD_REACTORS
330
C
102
}
330
C
100
AcDbDictionary
281
     1
  3
ASEBlockHierarchyIndexRecord
350
1152
1001
DCO15
1040
1757682081.187
  0
XRECORD
  5
1799
102
{ACAD_REACTORS
330
C
102
}
330
C
100
AcDbXrecord
280
     1
  1
DWGPROPS COOKIE
  2

  3

  4

  6

  7

  8
Julio
  9

300
=
301
=
302
=
303
=
304
=
305
=
306
=
307
=
308
=
309
=
 40
0.0104304050925926
 41
2453480.611989109
 42
2456146.754458183
  1

 90
        0
  0
XRECORD
  5
1771
102
{ACAD_REACTORS
330
1770
102
}
330
1770
100
AcDbXrecord
280
     1
290
     1
  0
XRECORD
  5
1773
102
{ACAD_REACTORS
330
1772
102
}
330
1772
100
AcDbXrecord
280
     1
290
     1
  0
XRECORD
  5
1775
102
{ACAD_REACTORS
330
1774
102
}
330
1774
100
AcDbXrecord
280
     1
290
     1
  0
XRECORD
  5
1777
102
{ACAD_REACTORS
330
1776
102
}
330
1776
100
AcDbXrecord
280
     1
290
     1
  0
XRECORD
  5
1779
102
{ACAD_REACTORS
330
1778
102
}
330
1778
100
AcDbXrecord
280
     1
290
     1
  0
XRECORD
  5
177B
102
{ACAD_REACTORS
330
177A
102
}
330
177A
100
AcDbXrecord
280
     1
290
     1
  0
XRECORD
  5
177D
102
{ACAD_REACTORS
330
177C
102
}
330
177C
100
AcDbXrecord
280
     1
290
     1
  0
XRECORD
  5
177F
102
{ACAD_REACTORS
330
177E
102
}
330
177E
100
AcDbXrecord
280
     1
290
     1
  0
XRECORD
  5
1781
102
{ACAD_REACTORS
330
1780
102
}
330
1780
100
AcDbXrecord
280
     1
290
     1
  0
XRECORD
  5
1783
102
{ACAD_REACTORS
330
1782
102
}
330
1782
100
AcDbXrecord
280
     1
290
     1
  0
XRECORD
  5
1785
102
{ACAD_REACTORS
330
1784
102
}
330
1784
100
AcDbXrecord
280
     1
290
     1
  0
XRECORD
  5
1787
102
{ACAD_REACTORS
330
1786
102
}
330
1786
100
AcDbXrecord
280
     1
290
     1
  0
XRECORD
  5
1789
102
{ACAD_REACTORS
330
1788
102
}
330
1788
100
AcDbXrecord
280
     1
290
     1
  0
XRECORD
  5
178B
102
{ACAD_REACTORS
330
178A
102
}
330
178A
100
AcDbXrecord
280
     1
290
     1
  0
XRECORD
  5
178D
102
{ACAD_REACTORS
330
178C
102
}
330
178C
100
AcDbXrecord
280
     1
290
     1
  0
XRECORD
  5
178F
102
{ACAD_REACTORS
330
178E
102
}
330
178E
100
AcDbXrecord
280
     1
290
     1
  0
LAYOUT
  5
1E
102
{ACAD_XDICTIONARY
360
179A
102
}
102
{ACAD_REACTORS
330
1A
102
}
330
1A
100
AcDbPlotSettings
  1

  2
Ploter HP500
  4

  6

 40
0.0
 41
0.0
 42
0.0
 43
0.0
 44
0.0
 45
0.0
 46
0.0
 47
0.0
 48
0.0
 49
0.0
140
0.0
141
0.0
142
1.0
143
1.0
 70
   688
 72
     0
 73
     0
 74
     5
  7
monochrome.ctb
 75
    16
147
1.0
148
0.0
149
0.0
100
AcDbLayout
  1
Layout1
 70
     1
 71
     1
 10
0.0
 20
0.0
 11
420.0
 21
297.0
 12
0.0
 22
0.0
 32
0.0
 14
1.000000000000000E+20
 24
1.000000000000000E+20
 34
1.000000000000000E+20
 15
-1.000000000000000E+20
 25
-1.000000000000000E+20
 35
-1.000000000000000E+20
146
0.0
 13
0.0
 23
0.0
 33
0.0
 16
1.0
 26
0.0
 36
0.0
 17
0.0
 27
1.0
 37
0.0
 76
     0
330
1B
  0
LAYOUT
  5
26
102
{ACAD_XDICTIONARY
360
179E
102
}
102
{ACAD_REACTORS
330
1A
102
}
330
1A
100
AcDbPlotSettings
  1

  2
Ploter HP500
  4

  6

 40
0.0
 41
0.0
 42
0.0
 43
0.0
 44
0.0
 45
0.0
 46
0.0
 47
0.0
 48
0.0
 49
0.0
140
0.0
141
0.0
142
1.0
143
1.0
 70
   688
 72
     0
 73
     0
 74
     5
  7
monochrome.ctb
 75
    16
147
1.0
148
0.0
149
0.0
100
AcDbLayout
  1
Layout2
 70
     1
 71
     2
 10
0.0
 20
0.0
 11
12.0
 21
9.0
 12
0.0
 22
0.0
 32
0.0
 14
0.0
 24
0.0
 34
0.0
 15
0.0
 25
0.0
 35
0.0
146
0.0
 13
0.0
 23
0.0
 33
0.0
 16
1.0
 26
0.0
 36
0.0
 17
0.0
 27
1.0
 37
0.0
 76
     0
330
23
  0
LAYOUT
  5
22
102
{ACAD_XDICTIONARY
360
179C
102
}
102
{ACAD_REACTORS
330
1A
102
}
330
1A
100
AcDbPlotSettings
  1

  2
Ploter HP500
  4
User268
  6

 40
4.995333194732666
 41
16.97565841674804
 42
4.995330810546875
 43
16.97567749023437
 44
209.9733276367187
 45
296.9259948730469
 46
0.0
 47
0.0
 48
0.0
 49
0.0
140
0.0
141
0.0
142
1.0
143
1.0
 70
 11952
 72
     1
 73
     1
 74
     0
  7

 75
     0
147
1.0
148
-427.5957866592534
149
7.362384574453926
100
AcDbLayout
  1
Model
 70
     1
 71
     0
 10
0.0
 20
0.0
 11
12.0
 21
9.0
 12
0.0
 22
0.0
 32
0.0
 14
0.0
 24
0.0
 34
0.0
 15
0.0
 25
0.0
 35
0.0
146
0.0
 13
0.0
 23
0.0
 33
0.0
 16
1.0
 26
0.0
 36
0.0
 17
0.0
 27
1.0
 37
0.0
 76
     0
330
1F
331
1725
  0
MATERIAL
  5
1730
102
{ACAD_XDICTIONARY
360
1731
102
}
102
{ACAD_REACTORS
330
1727
102
}
330
1727
100
AcDbMaterial
  1
ByBlock
 72
     0
 43
0.0008202099737533
 43
0.0
 43
0.0
 43
0.0
 43
0.0
 43
0.0008202099737533
 43
0.0
 43
0.0
 43
0.0
 43
0.0
 43
1.0
 43
0.0
 43
0.0
 43
0.0
 43
0.0
 43
1.0
 77
     0
 47
0.0008202099737533
 47
0.0
 47
0.0
 47
0.0
 47
0.0
 47
0.0008202099737533
 47
0.0
 47
0.0
 47
0.0
 47
0.0
 47
1.0
 47
0.0
 47
0.0
 47
0.0
 47
0.0
 47
1.0
171
     0
 49
0.0008202099737533
 49
0.0
 49
0.0
 49
0.0
 49
0.0
 49
0.0008202099737533
 49
0.0
 49
0.0
 49
0.0
 49
0.0
 49
1.0
 49
0.0
 49
0.0
 49
0.0
 49
0.0
 49
1.0
175
     0
142
0.0008202099737533
142
0.0
142
0.0
142
0.0
142
0.0
142
0.0008202099737533
142
0.0
142
0.0
142
0.0
142
0.0
142
1.0
142
0.0
142
0.0
142
0.0
142
0.0
142
1.0
179
     0
144
0.0008202099737533
144
0.0
144
0.0
144
0.0
144
0.0
144
0.0008202099737533
144
0.0
144
0.0
144
0.0
144
0.0
144
1.0
144
0.0
144
0.0
144
0.0
144
0.0
144
1.0
147
0.0008202099737533
147
0.0
147
0.0
147
0.0
147
0.0
147
0.0008202099737533
147
0.0
147
0.0
147
0.0
147
0.0
147
1.0
147
0.0
147
0.0
147
0.0
147
0.0
147
1.0
  0
MATERIAL
  5
1728
102
{ACAD_XDICTIONARY
360
1729
102
}
102
{ACAD_REACTORS
330
1727
102
}
330
1727
100
AcDbMaterial
  1
ByLayer
 72
     0
 43
0.0008202099737533
 43
0.0
 43
0.0
 43
0.0
 43
0.0
 43
0.0008202099737533
 43
0.0
 43
0.0
 43
0.0
 43
0.0
 43
1.0
 43
0.0
 43
0.0
 43
0.0
 43
0.0
 43
1.0
 77
     0
 47
0.0008202099737533
 47
0.0
 47
0.0
 47
0.0
 47
0.0
 47
0.0008202099737533
 47
0.0
 47
0.0
 47
0.0
 47
0.0
 47
1.0
 47
0.0
 47
0.0
 47
0.0
 47
0.0
 47
1.0
171
     0
 49
0.0008202099737533
 49
0.0
 49
0.0
 49
0.0
 49
0.0
 49
0.0008202099737533
 49
0.0
 49
0.0
 49
0.0
 49
0.0
 49
1.0
 49
0.0
 49
0.0
 49
0.0
 49
0.0
 49
1.0
175
     0
142
0.0008202099737533
142
0.0
142
0.0
142
0.0
142
0.0
142
0.0008202099737533
142
0.0
142
0.0
142
0.0
142
0.0
142
1.0
142
0.0
142
0.0
142
0.0
142
0.0
142
1.0
179
     0
144
0.0008202099737533
144
0.0
144
0.0
144
0.0
144
0.0
144
0.0008202099737533
144
0.0
144
0.0
144
0.0
144
0.0
144
1.0
144
0.0
144
0.0
144
0.0
144
0.0
144
1.0
147
0.0008202099737533
147
0.0
147
0.0
147
0.0
147
0.0
147
0.0008202099737533
147
0.0
147
0.0
147
0.0
147
0.0
147
1.0
147
0.0
147
0.0
147
0.0
147
0.0
147
1.0
  0
MATERIAL
  5
1738
102
{ACAD_XDICTIONARY
360
1739
102
}
102
{ACAD_REACTORS
330
1727
102
}
330
1727
100
AcDbMaterial
  1
Global
 72
     0
 43
0.0008202099737533
 43
0.0
 43
0.0
 43
0.0
 43
0.0
 43
0.0008202099737533
 43
0.0
 43
0.0
 43
0.0
 43
0.0
 43
1.0
 43
0.0
 43
0.0
 43
0.0
 43
0.0
 43
1.0
 77
     0
 47
0.0008202099737533
 47
0.0
 47
0.0
 47
0.0
 47
0.0
 47
0.0008202099737533
 47
0.0
 47
0.0
 47
0.0
 47
0.0
 47
1.0
 47
0.0
 47
0.0
 47
0.0
 47
0.0
 47
1.0
171
     0
 49
0.0008202099737533
 49
0.0
 49
0.0
 49
0.0
 49
0.0
 49
0.0008202099737533
 49
0.0
 49
0.0
 49
0.0
 49
0.0
 49
1.0
 49
0.0
 49
0.0
 49
0.0
 49
0.0
 49
1.0
175
     0
142
0.0008202099737533
142
0.0
142
0.0
142
0.0
142
0.0
142
0.0008202099737533
142
0.0
142
0.0
142
0.0
142
0.0
142
1.0
142
0.0
142
0.0
142
0.0
142
0.0
142
1.0
179
     0
144
0.0008202099737533
144
0.0
144
0.0
144
0.0
144
0.0
144
0.0008202099737533
144
0.0
144
0.0
144
0.0
144
0.0
144
1.0
144
0.0
144
0.0
144
0.0
144
0.0
144
1.0
147
0.0008202099737533
147
0.0
147
0.0
147
0.0
147
0.0
147
0.0008202099737533
147
0.0
147
0.0
147
0.0
147
0.0
147
1.0
147
0.0
147
0.0
147
0.0
147
0.0
147
1.0
  0
MLEADERSTYLE
  5
176A
102
{ACAD_REACTORS
330
1769
102
}
330
1769
100
AcDbMLeaderStyle
170
     2
171
     1
172
     0
 90
        2
 40
0.0
 41
0.0
173
     1
 91
-1056964608
340
14
 92
       -2
290
     1
 42
2.0
291
     1
 43
0.36
  3
Standard
 44
4.0
300

342
11
174
     1
178
     6
175
     1
176
     0
 93
-1056964608
 45
4.0
292
     0
297
     0
 46
4.0
 94
-1056964608
 47
1.0
 49
1.0
140
1.0
293
     1
141
0.0
294
     1
177
     0
142
1.0
295
     0
296
     0
143
0.125
1001
ACAD_MLEADERVER
1070
     2
  0
MLINESTYLE
  5
18
102
{ACAD_REACTORS
330
17
102
}
330
17
100
AcDbMlineStyle
  2
STANDARD
 70
     0
  3

 62
   256
 51
90.0
 52
90.0
 71
     2
 49
0.5
 62
   256
  6
BYLAYER
 49
-0.5
 62
   256
  6
BYLAYER
  0
ACDBPLACEHOLDER
  5
F
102
{ACAD_REACTORS
330
E
102
}
330
E
  0
SCALE
  5
1758
102
{ACAD_REACTORS
330
1757
102
}
330
1757
100
AcDbScale
 70
     0
300
1:1
140
1.0
141
1.0
290
     1
  0
SCALE
  5
1759
102
{ACAD_REACTORS
330
1757
102
}
330
1757
100
AcDbScale
 70
     0
300
1:2
140
1.0
141
2.0
290
     0
  0
SCALE
  5
175A
102
{ACAD_REACTORS
330
1757
102
}
330
1757
100
AcDbScale
 70
     0
300
1:4
140
1.0
141
4.0
290
     0
  0
SCALE
  5
175B
102
{ACAD_REACTORS
330
1757
102
}
330
1757
100
AcDbScale
 70
     0
300
1:5
140
1.0
141
5.0
290
     0
  0
SCALE
  5
175C
102
{ACAD_REACTORS
330
1757
102
}
330
1757
100
AcDbScale
 70
     0
300
1:8
140
1.0
141
8.0
290
     0
  0
SCALE
  5
175D
102
{ACAD_REACTORS
330
1757
102
}
330
1757
100
AcDbScale
 70
     0
300
1:10
140
1.0
141
10.0
290
     0
  0
SCALE
  5
175E
102
{ACAD_REACTORS
330
1757
102
}
330
1757
100
AcDbScale
 70
     0
300
1:16
140
1.0
141
16.0
290
     0
  0
SCALE
  5
175F
102
{ACAD_REACTORS
330
1757
102
}
330
1757
100
AcDbScale
 70
     0
300
1:20
140
1.0
141
20.0
290
     0
  0
SCALE
  5
1760
102
{ACAD_REACTORS
330
1757
102
}
330
1757
100
AcDbScale
 70
     0
300
1:30
140
1.0
141
30.0
290
     0
  0
SCALE
  5
1761
102
{ACAD_REACTORS
330
1757
102
}
330
1757
100
AcDbScale
 70
     0
300
1:40
140
1.0
141
40.0
290
     0
  0
SCALE
  5
1762
102
{ACAD_REACTORS
330
1757
102
}
330
1757
100
AcDbScale
 70
     0
300
1:50
140
1.0
141
50.0
290
     0
  0
SCALE
  5
1763
102
{ACAD_REACTORS
330
1757
102
}
330
1757
100
AcDbScale
 70
     0
300
1:100
140
1.0
141
100.0
290
     0
  0
SCALE
  5
1764
102
{ACAD_REACTORS
330
1757
102
}
330
1757
100
AcDbScale
 70
     0
300
2:1
140
2.0
141
1.0
290
     0
  0
SCALE
  5
1765
102
{ACAD_REACTORS
330
1757
102
}
330
1757
100
AcDbScale
 70
     0
300
4:1
140
4.0
141
1.0
290
     0
  0
SCALE
  5
1766
102
{ACAD_REACTORS
330
1757
102
}
330
1757
100
AcDbScale
 70
     0
300
8:1
140
8.0
141
1.0
290
     0
  0
SCALE
  5
1767
102
{ACAD_REACTORS
330
1757
102
}
330
1757
100
AcDbScale
 70
     0
300
10:1
140
10.0
141
1.0
290
     0
  0
SCALE
  5
1768
102
{ACAD_REACTORS
330
1757
102
}
330
1757
100
AcDbScale
 70
     0
300
100:1
140
100.0
141
1.0
290
     0
  0
TABLESTYLE
  5
1756
102
{ACAD_XDICTIONARY
360
1796
102
}
102
{ACAD_REACTORS
330
1755
102
}
330
1755
100
AcDbTableStyle
  3
Standard
 70
     0
 71
     0
 40
1.5
 41
1.5
280
     0
281
     0
  7
Standard
140
4.5
170
     2
 62
     0
 63
     7
283
     0
274
    -2
284
     1
 64
     0
275
    -2
285
     1
 65
     0
276
    -2
286
     1
 66
     0
277
    -2
287
     1
 67
     0
278
    -2
288
     1
 68
     0
279
    -2
289
     1
 69
     0
  7
Standard
140
6.0
170
     5
 62
     0
 63
     7
283
     0
274
    -2
284
     1
 64
     0
275
    -2
285
     1
 65
     0
276
    -2
286
     1
 66
     0
277
    -2
287
     1
 67
     0
278
    -2
288
     1
 68
     0
279
    -2
289
     1
 69
     0
  7
Standard
140
4.5
170
     5
 62
     0
 63
     7
283
     0
274
    -2
284
     1
 64
     0
275
    -2
285
     1
 65
     0
276
    -2
286
     1
 66
     0
277
    -2
287
     1
 67
     0
278
    -2
288
     1
 68
     0
279
    -2
289
     1
 69
     0
  0
VISUALSTYLE
  5
1746
102
{ACAD_XDICTIONARY
360
17B9
102
}
102
{ACAD_REACTORS
330
1740
102
}
330
1740
100
AcDbVisualStyle
  2
2dWireframe
 70
     4
 71
     0
 72
     2
 73
     0
 90
        0
 40
-0.6
 41
-30.0
 62
     5
 63
     7
 74
     1
 91
        4
 64
     7
 65
   257
 75
     1
175
     1
 42
1.0
 92
        0
 66
   257
 43
1.0
 76
     1
 77
     6
 78
     2
 67
     7
 79
     5
170
     0
171
     0
290
     0
174
     0
 93
        1
 44
0.0
173
     0
291
     0
 45
0.0
1001
ACAD
1000
AcDbSavedByObjectVersion
1070
     0
  0
VISUALSTYLE
  5
1748
102
{ACAD_XDICTIONARY
360
17BD
102
}
102
{ACAD_REACTORS
330
1740
102
}
330
1740
100
AcDbVisualStyle
  2
3D Hidden
 70
     6
 71
     1
 72
     2
 73
     2
 90
        0
 40
-0.6
 41
-30.0
 62
     5
 63
     7
 74
     2
 91
        2
 64
     7
 65
   257
 75
     2
175
     1
 42
179.0
 92
        0
 66
   257
 43
1.0
 76
     1
 77
     6
 78
     2
 67
     7
 79
     3
170
     0
171
     0
290
     0
174
     0
 93
        1
 44
0.0
173
     0
291
     0
 45
0.0
1001
ACAD
1000
AcDbSavedByObjectVersion
1070
     0
  0
VISUALSTYLE
  5
1747
102
{ACAD_XDICTIONARY
360
17BB
102
}
102
{ACAD_REACTORS
330
1740
102
}
330
1740
100
AcDbVisualStyle
  2
3dWireframe
 70
     5
 71
     0
 72
     2
 73
     0
 90
        0
 40
-0.6
 41
-30.0
 62
     5
 63
     7
 74
     1
 91
        4
 64
     7
 65
   257
 75
     1
175
     1
 42
1.0
 92
        0
 66
   257
 43
1.0
 76
     1
 77
     6
 78
     2
 67
     7
 79
     5
170
     0
171
     0
290
     0
174
     0
 93
        1
 44
0.0
173
     0
291
     0
 45
0.0
1001
ACAD
1000
AcDbSavedByObjectVersion
1070
     0
  0
VISUALSTYLE
  5
1745
102
{ACAD_XDICTIONARY
360
17B7
102
}
102
{ACAD_REACTORS
330
1740
102
}
330
1740
100
AcDbVisualStyle
  2
Basic
 70
     7
 71
     1
 72
     0
 73
     1
 90
        0
 40
-0.6
 41
-30.0
 62
     5
 63
     7
 74
     0
 91
        4
 64
     7
 65
   257
 75
     1
175
     1
 42
1.0
 92
        8
 66
     7
 43
1.0
 76
     1
 77
     6
 78
     2
 67
     7
 79
     5
170
     0
171
     0
290
     0
174
     0
 93
        1
 44
0.0
173
     0
291
     1
 45
0.0
1001
ACAD
1000
AcDbSavedByObjectVersion
1070
     0
  0
VISUALSTYLE
  5
174C
102
{ACAD_XDICTIONARY
360
17C5
102
}
102
{ACAD_REACTORS
330
1740
102
}
330
1740
100
AcDbVisualStyle
  2
Brighten
 70
    12
 71
     2
 72
     2
 73
     0
 90
        0
 40
-0.6
 41
-30.0
 62
     5
 63
     7
 74
     1
 91
        4
 64
     7
 65
   257
 75
     1
175
     1
 42
1.0
 92
        8
 66
     7
 43
1.0
 76
     1
 77
     6
 78
     2
 67
     7
 79
     5
170
     0
171
     0
290
     0
174
     0
 93
        1
 44
50.0
173
     0
291
     1
 45
0.0
1001
ACAD
1000
AcDbSavedByObjectVersion
1070
     0
  0
VISUALSTYLE
  5
1750
102
{ACAD_XDICTIONARY
360
17CD
102
}
102
{ACAD_REACTORS
330
1740
102
}
330
1740
100
AcDbVisualStyle
  2
ColorChange
 70
    16
 71
     2
 72
     2
 73
     3
 90
        0
 40
-0.6
 41
-30.0
 62
     5
 63
     8
 74
     1
 91
        4
 64
     7
 65
   257
 75
     1
175
     1
 42
1.0
 92
        8
 66
     8
 43
1.0
 76
     1
 77
     6
 78
     2
 67
     7
 79
     5
170
     0
171
     0
290
     0
174
     0
 93
        1
 44
0.0
173
     0
291
     1
 45
0.0
1001
ACAD
1000
AcDbSavedByObjectVersion
1070
     0
  0
VISUALSTYLE
  5
1749
102
{ACAD_XDICTIONARY
360
17BF
102
}
102
{ACAD_REACTORS
330
1740
102
}
330
1740
100
AcDbVisualStyle
  2
Conceptual
 70
     9
 71
     3
 72
     2
 73
     0
 90
        0
 40
-0.6
 41
-30.0
 62
     5
 63
     7
 74
     2
 91
        2
 64
     7
 65
   257
 75
     1
175
     1
 42
179.0
 92
        8
 66
     7
 43
1.0
 76
     1
 77
     6
 78
     2
 67
     7
 79
     3
170
     0
171
     0
290
     0
174
     0
 93
        1
 44
0.0
173
     0
291
     0
 45
0.0
1001
ACAD
1000
AcDbSavedByObjectVersion
1070
     0
  0
VISUALSTYLE
  5
174B
102
{ACAD_XDICTIONARY
360
17C3
102
}
102
{ACAD_REACTORS
330
1740
102
}
330
1740
100
AcDbVisualStyle
  2
Dim
 70
    11
 71
     2
 72
     2
 73
     0
 90
        0
 40
-0.6
 41
-30.0
 62
     5
 63
     7
 74
     1
 91
        4
 64
     7
 65
   257
 75
     1
175
     1
 42
1.0
 92
        8
 66
     7
 43
1.0
 76
     1
 77
     6
 78
     2
 67
     7
 79
     5
170
     0
171
     0
290
     0
174
     0
 93
        1
 44
-50.0
173
     0
291
     1
 45
0.0
1001
ACAD
1000
AcDbSavedByObjectVersion
1070
     0
  0
VISUALSTYLE
  5
1753
102
{ACAD_XDICTIONARY
360
17D3
102
}
102
{ACAD_REACTORS
330
1740
102
}
330
1740
100
AcDbVisualStyle
  2
EdgeColorOff
 70
    22
 71
     2
 72
     2
 73
     0
 90
        0
 40
-0.6
 41
-30.0
 62
     5
 63
     7
 74
     1
 91
        4
 64
     7
 65
   257
 75
     1
175
     1
 42
1.0
 92
        8
 66
     7
 43
1.0
 76
     1
 77
     6
 78
     2
 67
     7
 79
     5
170
     0
171
     0
290
     0
174
     0
 93
        1
 44
0.0
173
     0
291
     1
 45
0.0
1001
ACAD
1000
AcDbSavedByObjectVersion
1070
     0
  0
VISUALSTYLE
  5
174F
102
{ACAD_XDICTIONARY
360
17CB
102
}
102
{ACAD_REACTORS
330
1740
102
}
330
1740
100
AcDbVisualStyle
  2
Facepattern
 70
    15
 71
     2
 72
     2
 73
     0
 90
        0
 40
-0.6
 41
-30.0
 62
     5
 63
     7
 74
     1
 91
        4
 64
     7
 65
   257
 75
     1
175
     1
 42
1.0
 92
        8
 66
     7
 43
1.0
 76
     1
 77
     6
 78
     2
 67
     7
 79
     5
170
     0
171
     0
290
     0
174
     0
 93
        1
 44
0.0
173
     0
291
     1
 45
0.0
1001
ACAD
1000
AcDbSavedByObjectVersion
1070
     0
  0
VISUALSTYLE
  5
1741
102
{ACAD_XDICTIONARY
360
17AF
102
}
102
{ACAD_REACTORS
330
1740
102
}
330
1740
100
AcDbVisualStyle
  2
Flat
 70
     0
 71
     2
 72
     1
 73
     1
 90
        2
 40
-0.6
 41
30.0
 62
     5
 63
     7
 74
     0
 91
        4
 64
     7
 65
   257
 75
     1
175
     1
 42
1.0
 92
        8
 66
     7
 43
1.0
 76
     1
 77
     6
 78
     2
 67
     7
 79
     5
170
     0
171
     0
290
     0
174
     0
 93
       13
 44
0.0
173
     0
291
     1
 45
0.0
1001
ACAD
1000
AcDbSavedByObjectVersion
1070
     0
  0
VISUALSTYLE
  5
1742
102
{ACAD_XDICTIONARY
360
17B1
102
}
102
{ACAD_REACTORS
330
1740
102
}
330
1740
100
AcDbVisualStyle
  2
FlatWithEdges
 70
     1
 71
     2
 72
     1
 73
     1
 90
        2
 40
-0.6
 41
30.0
 62
     5
 63
     7
 74
     1
 91
        4
 64
     7
 65
   257
 75
     1
175
     1
 42
1.0
 92
        0
 66
   257
 43
1.0
 76
     1
 77
     6
 78
     2
 67
     7
 79
     5
170
     0
171
     0
290
     0
174
     0
 93
       13
 44
0.0
173
     0
291
     1
 45
0.0
1001
ACAD
1000
AcDbSavedByObjectVersion
1070
     0
  0
VISUALSTYLE
  5
1743
102
{ACAD_XDICTIONARY
360
17B3
102
}
102
{ACAD_REACTORS
330
1740
102
}
330
1740
100
AcDbVisualStyle
  2
Gouraud
 70
     2
 71
     2
 72
     2
 73
     1
 90
        2
 40
-0.6
 41
30.0
 62
     5
 63
     7
 74
     0
 91
        4
 64
     7
 65
   257
 75
     1
175
     1
 42
1.0
 92
        0
 66
     7
 43
1.0
 76
     1
 77
     6
 78
     2
 67
     7
 79
     5
170
     0
171
     0
290
     0
174
     0
 93
       13
 44
0.0
173
     0
291
     1
 45
0.0
1001
ACAD
1000
AcDbSavedByObjectVersion
1070
     0
  0
VISUALSTYLE
  5
1744
102
{ACAD_XDICTIONARY
360
17B5
102
}
102
{ACAD_REACTORS
330
1740
102
}
330
1740
100
AcDbVisualStyle
  2
GouraudWithEdges
 70
     3
 71
     2
 72
     2
 73
     1
 90
        2
 40
-0.6
 41
30.0
 62
     5
 63
     7
 74
     1
 91
        4
 64
     7
 65
   257
 75
     1
175
     1
 42
1.0
 92
        0
 66
   257
 43
1.0
 76
     1
 77
     6
 78
     2
 67
     7
 79
     5
170
     0
171
     0
290
     0
174
     0
 93
       13
 44
0.0
173
     0
291
     1
 45
0.0
1001
ACAD
1000
AcDbSavedByObjectVersion
1070
     0
  0
VISUALSTYLE
  5
1751
102
{ACAD_XDICTIONARY
360
17CF
102
}
102
{ACAD_REACTORS
330
1740
102
}
330
1740
100
AcDbVisualStyle
  2
JitterOff
 70
    20
 71
     2
 72
     2
 73
     0
 90
        0
 40
-0.6
 41
-30.0
 62
     5
 63
     7
 74
     1
 91
        4
 64
     7
 65
   257
 75
     1
175
     1
 42
1.0
 92
       10
 66
     7
 43
1.0
 76
     1
 77
     6
 78
     2
 67
     7
 79
     5
170
     0
171
     0
290
     0
174
     0
 93
        1
 44
0.0
173
     0
291
     1
 45
0.0
1001
ACAD
1000
AcDbSavedByObjectVersion
1070
     0
  0
VISUALSTYLE
  5
174E
102
{ACAD_XDICTIONARY
360
17C9
102
}
102
{ACAD_REACTORS
330
1740
102
}
330
1740
100
AcDbVisualStyle
  2
Linepattern
 70
    14
 71
     2
 72
     2
 73
     0
 90
        0
 40
-0.6
 41
-30.0
 62
     5
 63
     7
 74
     1
 91
        4
 64
     7
 65
   257
 75
     7
175
     7
 42
1.0
 92
        8
 66
     7
 43
1.0
 76
     1
 77
     6
 78
     2
 67
     7
 79
     5
170
     0
171
     0
290
     0
174
     0
 93
        1
 44
0.0
173
     0
291
     1
 45
0.0
1001
ACAD
1000
AcDbSavedByObjectVersion
1070
     0
  0
VISUALSTYLE
  5
1752
102
{ACAD_XDICTIONARY
360
17D1
102
}
102
{ACAD_REACTORS
330
1740
102
}
330
1740
100
AcDbVisualStyle
  2
OverhangOff
 70
    21
 71
     2
 72
     2
 73
     0
 90
        0
 40
-0.6
 41
-30.0
 62
     5
 63
     7
 74
     1
 91
        4
 64
     7
 65
   257
 75
     1
175
     1
 42
1.0
 92
        9
 66
     7
 43
1.0
 76
     1
 77
     6
 78
     2
 67
     7
 79
     5
170
     0
171
     0
290
     0
174
     0
 93
        1
 44
0.0
173
     0
291
     1
 45
0.0
1001
ACAD
1000
AcDbSavedByObjectVersion
1070
     0
  0
VISUALSTYLE
  5
174A
102
{ACAD_XDICTIONARY
360
17C1
102
}
102
{ACAD_REACTORS
330
1740
102
}
330
1740
100
AcDbVisualStyle
  2
Realistic
 70
     8
 71
     2
 72
     2
 73
     0
 90
        0
 40
-0.6
 41
-30.0
 62
     5
 63
     7
 74
     1
 91
        0
 64
     7
 65
   257
 75
     1
175
     1
 42
1.0
 92
        8
 66
     8
 43
1.0
 76
     1
 77
     6
 78
     2
 67
     7
 79
     5
170
     0
171
     0
290
     0
174
     0
 93
       13
 44
0.0
173
     0
291
     0
 45
0.0
1001
ACAD
1000
AcDbSavedByObjectVersion
1070
     0
  0
VISUALSTYLE
  5
174D
102
{ACAD_XDICTIONARY
360
17C7
102
}
102
{ACAD_REACTORS
330
1740
102
}
330
1740
100
AcDbVisualStyle
  2
Thicken
 70
    13
 71
     2
 72
     2
 73
     0
 90
        0
 40
-0.6
 41
-30.0
 62
     5
 63
     7
 74
     1
 91
        4
 64
     7
 65
   257
 75
     1
175
     1
 42
1.0
 92
       12
 66
     7
 43
1.0
 76
     1
 77
     6
 78
     2
 67
     7
 79
     5
170
     0
171
     0
290
     0
174
     0
 93
        1
 44
0.0
173
     0
291
     1
 45
0.0
1001
ACAD
1000
AcDbSavedByObjectVersion
1070
     0
  0
DICTIONARYVAR
  5
1792
102
{ACAD_REACTORS
330
3D
102
}
330
3D
100
DictionaryVariables
280
     0
  1
1:1
  0
DICTIONARYVAR
  5
1791
102
{ACAD_REACTORS
330
3D
102
}
330
3D
100
DictionaryVariables
280
     0
  1
STANDARD
  0
DICTIONARYVAR
  5
1790
102
{ACAD_REACTORS
330
3D
102
}
330
3D
100
DictionaryVariables
280
     0
  1
STANDARD
  0
DICTIONARYVAR
  5
3F
102
{ACAD_REACTORS
330
3D
102
}
330
3D
100
DictionaryVariables
280
     0
  1
2
  0
DICTIONARYVAR
  5
3E
102
{ACAD_REACTORS
330
3D
102
}
330
3D
100
DictionaryVariables
280
     0
  1
1
  0
DICTIONARYVAR
  5
1794
102
{ACAD_REACTORS
330
3D
102
}
330
3D
100
DictionaryVariables
280
     0
  1
0
  0
DICTIONARYVAR
  5
1793
102
{ACAD_REACTORS
330
3D
102
}
330
3D
100
DictionaryVariables
280
     0
  1
127
  0
DICTIONARYVAR
  5
1795
102
{ACAD_REACTORS
330
3D
102
}
330
3D
100
DictionaryVariables
280
     0
  1
2
  0
XRECORD
  5
1152
102
{ACAD_REACTORS
330
1151
102
}
330
1151
100
AcDbXrecord
280
     1
  0
DICTIONARY
  5
179A
330
1E
100
AcDbDictionary
280
     1
281
     1
  3
ACAD_XREC_ROUNDTRIP
360
179B
  0
DICTIONARY
  5
179E
330
26
100
AcDbDictionary
280
     1
281
     1
  3
ACAD_XREC_ROUNDTRIP
360
179F
  0
DICTIONARY
  5
179C
330
22
100
AcDbDictionary
280
     1
281
     1
  3
ACAD_XREC_ROUNDTRIP
360
179D
  0
DICTIONARY
  5
1731
330
1730
100
AcDbDictionary
280
     1
281
     1
  3
ACAD_XREC_ROUNDTRIP
360
17AD
  3
BUMPTILE
360
1733
  3
DIFFUSETILE
360
1732
  3
OPACITYTILE
360
1736
  3
REFLECTIONTILE
360
1735
  3
REFRACTIONTILE
360
1737
  3
SPECULARTILE
360
1734
  0
DICTIONARY
  5
1729
330
1728
100
AcDbDictionary
280
     1
281
     1
  3
ACAD_XREC_ROUNDTRIP
360
17AC
  3
BUMPTILE
360
172B
  3
DIFFUSETILE
360
172A
  3
OPACITYTILE
360
172E
  3
REFLECTIONTILE
360
172D
  3
REFRACTIONTILE
360
172F
  3
SPECULARTILE
360
172C
  0
DICTIONARY
  5
1739
330
1738
100
AcDbDictionary
280
     1
281
     1
  3
ACAD_XREC_ROUNDTRIP
360
17AE
  3
BUMPTILE
360
173B
  3
DIFFUSETILE
360
173A
  3
OPACITYTILE
360
173E
  3
REFLECTIONTILE
360
173D
  3
REFRACTIONTILE
360
173F
  3
SPECULARTILE
360
173C
  0
DICTIONARY
  5
1796
330
1756
100
AcDbDictionary
280
     1
281
     1
  3
ACAD_ROUNDTRIP_2008_TABLESTYLE_CELLSTYLEMAP
360
1797
  3
ACAD_XREC_ROUNDTRIP
360
17D5
  0
DICTIONARY
  5
17B9
330
1746
100
AcDbDictionary
280
     1
281
     1
  3
ACAD_XREC_ROUNDTRIP
360
17BA
  0
DICTIONARY
  5
17BD
330
1748
100
AcDbDictionary
280
     1
281
     1
  3
ACAD_XREC_ROUNDTRIP
360
17BE
  0
DICTIONARY
  5
17BB
330
1747
100
AcDbDictionary
280
     1
281
     1
  3
ACAD_XREC_ROUNDTRIP
360
17BC
  0
DICTIONARY
  5
17B7
330
1745
100
AcDbDictionary
280
     1
281
     1
  3
ACAD_XREC_ROUNDTRIP
360
17B8
  0
DICTIONARY
  5
17C5
330
174C
100
AcDbDictionary
280
     1
281
     1
  3
ACAD_XREC_ROUNDTRIP
360
17C6
  0
DICTIONARY
  5
17CD
330
1750
100
AcDbDictionary
280
     1
281
     1
  3
ACAD_XREC_ROUNDTRIP
360
17CE
  0
DICTIONARY
  5
17BF
330
1749
100
AcDbDictionary
280
     1
281
     1
  3
ACAD_XREC_ROUNDTRIP
360
17C0
  0
DICTIONARY
  5
17C3
330
174B
100
AcDbDictionary
280
     1
281
     1
  3
ACAD_XREC_ROUNDTRIP
360
17C4
  0
DICTIONARY
  5
17D3
330
1753
100
AcDbDictionary
280
     1
281
     1
  3
ACAD_XREC_ROUNDTRIP
360
17D4
  0
DICTIONARY
  5
17CB
330
174F
100
AcDbDictionary
280
     1
281
     1
  3
ACAD_XREC_ROUNDTRIP
360
17CC
  0
DICTIONARY
  5
17AF
330
1741
100
AcDbDictionary
280
     1
281
     1
  3
ACAD_XREC_ROUNDTRIP
360
17B0
  0
DICTIONARY
  5
17B1
330
1742
100
AcDbDictionary
280
     1
281
     1
  3
ACAD_XREC_ROUNDTRIP
360
17B2
  0
DICTIONARY
  5
17B3
330
1743
100
AcDbDictionary
280
     1
281
     1
  3
ACAD_XREC_ROUNDTRIP
360
17B4
  0
DICTIONARY
  5
17B5
330
1744
100
AcDbDictionary
280
     1
281
     1
  3
ACAD_XREC_ROUNDTRIP
360
17B6
  0
DICTIONARY
  5
17CF
330
1751
100
AcDbDictionary
280
     1
281
     1
  3
ACAD_XREC_ROUNDTRIP
360
17D0
  0
DICTIONARY
  5
17C9
330
174E
100
AcDbDictionary
280
     1
281
     1
  3
ACAD_XREC_ROUNDTRIP
360
17CA
  0
DICTIONARY
  5
17D1
330
1752
100
AcDbDictionary
280
     1
281
     1
  3
ACAD_XREC_ROUNDTRIP
360
17D2
  0
DICTIONARY
  5
17C1
330
174A
100
AcDbDictionary
280
     1
281
     1
  3
ACAD_XREC_ROUNDTRIP
360
17C2
  0
DICTIONARY
  5
17C7
330
174D
100
AcDbDictionary
280
     1
281
     1
  3
ACAD_XREC_ROUNDTRIP
360
17C8
  0
XRECORD
  5
179B
102
{ACAD_REACTORS
330
179A
102
}
330
179A
100
AcDbXrecord
280
     1
102
SHADEPLOT
 70
     0
102
SHADEPLOTRESLEVEL
 70
     2
102
SHADEPLOTCUSTOMDPI
 70
   300
  0
XRECORD
  5
179F
102
{ACAD_REACTORS
330
179E
102
}
330
179E
100
AcDbXrecord
280
     1
102
SHADEPLOT
 70
     0
102
SHADEPLOTRESLEVEL
 70
     2
102
SHADEPLOTCUSTOMDPI
 70
   300
  0
XRECORD
  5
179D
102
{ACAD_REACTORS
330
179C
102
}
330
179C
100
AcDbXrecord
280
     1
102
SHADEPLOT
 70
     0
102
SHADEPLOTRESLEVEL
 70
     2
102
SHADEPLOTCUSTOMDPI
 70
   300
  0
XRECORD
  5
17AD
102
{ACAD_REACTORS
330
1731
102
}
330
1731
100
AcDbXrecord
280
     1
102
MATERIAL
148
0.0
149
0.0
149
0.0
 93
        0
 94
      127
282
     0
 72
     0
 77
     0
171
     0
175
     0
179
     0
273
     0
  0
XRECORD
  5
1733
102
{ACAD_REACTORS
330
1731
102
}
330
1731
100
AcDbXrecord
280
     1
270
     1
271
     1
  0
XRECORD
  5
1732
102
{ACAD_REACTORS
330
1731
102
}
330
1731
100
AcDbXrecord
280
     1
270
     1
271
     1
  0
XRECORD
  5
1736
102
{ACAD_REACTORS
330
1731
102
}
330
1731
100
AcDbXrecord
280
     1
270
     1
271
     1
  0
XRECORD
  5
1735
102
{ACAD_REACTORS
330
1731
102
}
330
1731
100
AcDbXrecord
280
     1
270
     1
271
     1
  0
XRECORD
  5
1737
102
{ACAD_REACTORS
330
1731
102
}
330
1731
100
AcDbXrecord
280
     1
270
     1
271
     1
  0
XRECORD
  5
1734
102
{ACAD_REACTORS
330
1731
102
}
330
1731
100
AcDbXrecord
280
     1
270
     1
271
     1
  0
XRECORD
  5
17AC
102
{ACAD_REACTORS
330
1729
102
}
330
1729
100
AcDbXrecord
280
     1
102
MATERIAL
148
0.0
149
0.0
149
0.0
 93
        0
 94
      127
282
     0
 72
     0
 77
     0
171
     0
175
     0
179
     0
273
     0
  0
XRECORD
  5
172B
102
{ACAD_REACTORS
330
1729
102
}
330
1729
100
AcDbXrecord
280
     1
270
     1
271
     1
  0
XRECORD
  5
172A
102
{ACAD_REACTORS
330
1729
102
}
330
1729
100
AcDbXrecord
280
     1
270
     1
271
     1
  0
XRECORD
  5
172E
102
{ACAD_REACTORS
330
1729
102
}
330
1729
100
AcDbXrecord
280
     1
270
     1
271
     1
  0
XRECORD
  5
172D
102
{ACAD_REACTORS
330
1729
102
}
330
1729
100
AcDbXrecord
280
     1
270
     1
271
     1
  0
XRECORD
  5
172F
102
{ACAD_REACTORS
330
1729
102
}
330
1729
100
AcDbXrecord
280
     1
270
     1
271
     1
  0
XRECORD
  5
172C
102
{ACAD_REACTORS
330
1729
102
}
330
1729
100
AcDbXrecord
280
     1
270
     1
271
     1
  0
XRECORD
  5
17AE
102
{ACAD_REACTORS
330
1739
102
}
330
1739
100
AcDbXrecord
280
     1
102
MATERIAL
148
0.0
149
0.0
149
0.0
 93
        0
 94
      127
282
     0
 72
     0
 77
     0
171
     0
175
     0
179
     0
273
     0
  0
XRECORD
  5
173B
102
{ACAD_REACTORS
330
1739
102
}
330
1739
100
AcDbXrecord
280
     1
270
     1
271
     1
  0
XRECORD
  5
173A
102
{ACAD_REACTORS
330
1739
102
}
330
1739
100
AcDbXrecord
280
     1
270
     1
271
     1
  0
XRECORD
  5
173E
102
{ACAD_REACTORS
330
1739
102
}
330
1739
100
AcDbXrecord
280
     1
270
     1
271
     1
  0
XRECORD
  5
173D
102
{ACAD_REACTORS
330
1739
102
}
330
1739
100
AcDbXrecord
280
     1
270
     1
271
     1
  0
XRECORD
  5
173F
102
{ACAD_REACTORS
330
1739
102
}
330
1739
100
AcDbXrecord
280
     1
270
     1
271
     1
  0
XRECORD
  5
173C
102
{ACAD_REACTORS
330
1739
102
}
330
1739
100
AcDbXrecord
280
     1
270
     1
271
     1
  0
CELLSTYLEMAP
  5
1797
102
{ACAD_REACTORS
330
1796
102
}
330
1796
100
AcDbCellStyleMap
 90
        3
300
CELLSTYLE
  1
TABLEFORMAT_BEGIN
 90
        5
170
     1
 91
        0
 92
    32768
 62
   257
 93
        1
300
CONTENTFORMAT
  1
CONTENTFORMAT_BEGIN
 90
        0
 91
        0
 92
      512
 93
        0
300

 40
0.0
140
1.0
 94
        5
 62
     0
340
11
144
6.0
309
CONTENTFORMAT_END
171
     1
301
MARGIN
  1
CELLMARGIN_BEGIN
 40
1.5
 40
1.5
 40
1.5
 40
1.5
 40
4.5
 40
4.5
309
CELLMARGIN_END
 94
        6
 95
        1
302
GRIDFORMAT
  1
GRIDFORMAT_BEGIN
 90
        0
 91
        1
 62
     0
 92
       -2
340
0
 93
        0
 40
1.125
309
GRIDFORMAT_END
 95
        2
302
GRIDFORMAT
  1
GRIDFORMAT_BEGIN
 90
        0
 91
        1
 62
     0
 92
       -2
340
0
 93
        0
 40
1.125
309
GRIDFORMAT_END
 95
        4
302
GRIDFORMAT
  1
GRIDFORMAT_BEGIN
 90
        0
 91
        1
 62
     0
 92
       -2
340
0
 93
        0
 40
1.125
309
GRIDFORMAT_END
 95
        8
302
GRIDFORMAT
  1
GRIDFORMAT_BEGIN
 90
        0
 91
        1
 62
     0
 92
       -2
340
0
 93
        0
 40
1.125
309
GRIDFORMAT_END
 95
       16
302
GRIDFORMAT
  1
GRIDFORMAT_BEGIN
 90
        0
 91
        1
 62
     0
 92
       -2
340
0
 93
        0
 40
1.125
309
GRIDFORMAT_END
 95
       32
302
GRIDFORMAT
  1
GRIDFORMAT_BEGIN
 90
        0
 91
        1
 62
     0
 92
       -2
340
0
 93
        0
 40
1.125
309
GRIDFORMAT_END
309
TABLEFORMAT_END
  1
CELLSTYLE_BEGIN
 90
        1
 91
        1
300
_TITLE
309
CELLSTYLE_END
300
CELLSTYLE
  1
TABLEFORMAT_BEGIN
 90
        5
170
     1
 91
        0
 92
        0
 62
   257
 93
        1
300
CONTENTFORMAT
  1
CONTENTFORMAT_BEGIN
 90
        0
 91
        0
 92
      512
 93
        0
300

 40
0.0
140
1.0
 94
        5
 62
     0
340
11
144
4.5
309
CONTENTFORMAT_END
171
     1
301
MARGIN
  1
CELLMARGIN_BEGIN
 40
1.5
 40
1.5
 40
1.5
 40
1.5
 40
4.5
 40
4.5
309
CELLMARGIN_END
 94
        6
 95
        1
302
GRIDFORMAT
  1
GRIDFORMAT_BEGIN
 90
        0
 91
        1
 62
     0
 92
       -2
340
0
 93
        0
 40
1.125
309
GRIDFORMAT_END
 95
        2
302
GRIDFORMAT
  1
GRIDFORMAT_BEGIN
 90
        0
 91
        1
 62
     0
 92
       -2
340
0
 93
        0
 40
1.125
309
GRIDFORMAT_END
 95
        4
302
GRIDFORMAT
  1
GRIDFORMAT_BEGIN
 90
        0
 91
        1
 62
     0
 92
       -2
340
0
 93
        0
 40
1.125
309
GRIDFORMAT_END
 95
        8
302
GRIDFORMAT
  1
GRIDFORMAT_BEGIN
 90
        0
 91
        1
 62
     0
 92
       -2
340
0
 93
        0
 40
1.125
309
GRIDFORMAT_END
 95
       16
302
GRIDFORMAT
  1
GRIDFORMAT_BEGIN
 90
        0
 91
        1
 62
     0
 92
       -2
340
0
 93
        0
 40
1.125
309
GRIDFORMAT_END
 95
       32
302
GRIDFORMAT
  1
GRIDFORMAT_BEGIN
 90
        0
 91
        1
 62
     0
 92
       -2
340
0
 93
        0
 40
1.125
309
GRIDFORMAT_END
309
TABLEFORMAT_END
  1
CELLSTYLE_BEGIN
 90
        2
 91
        1
300
_HEADER
309
CELLSTYLE_END
300
CELLSTYLE
  1
TABLEFORMAT_BEGIN
 90
        5
170
     1
 91
        0
 92
        0
 62
   257
 93
        1
300
CONTENTFORMAT
  1
CONTENTFORMAT_BEGIN
 90
        0
 91
        0
 92
      512
 93
        0
300

 40
0.0
140
1.0
 94
        2
 62
     0
340
11
144
4.5
309
CONTENTFORMAT_END
171
     1
301
MARGIN
  1
CELLMARGIN_BEGIN
 40
1.5
 40
1.5
 40
1.5
 40
1.5
 40
4.5
 40
4.5
309
CELLMARGIN_END
 94
        6
 95
        1
302
GRIDFORMAT
  1
GRIDFORMAT_BEGIN
 90
        0
 91
        1
 62
     0
 92
       -2
340
0
 93
        0
 40
1.125
309
GRIDFORMAT_END
 95
        2
302
GRIDFORMAT
  1
GRIDFORMAT_BEGIN
 90
        0
 91
        1
 62
     0
 92
       -2
340
0
 93
        0
 40
1.125
309
GRIDFORMAT_END
 95
        4
302
GRIDFORMAT
  1
GRIDFORMAT_BEGIN
 90
        0
 91
        1
 62
     0
 92
       -2
340
0
 93
        0
 40
1.125
309
GRIDFORMAT_END
 95
        8
302
GRIDFORMAT
  1
GRIDFORMAT_BEGIN
 90
        0
 91
        1
 62
     0
 92
       -2
340
0
 93
        0
 40
1.125
309
GRIDFORMAT_END
 95
       16
302
GRIDFORMAT
  1
GRIDFORMAT_BEGIN
 90
        0
 91
        1
 62
     0
 92
       -2
340
0
 93
        0
 40
1.125
309
GRIDFORMAT_END
 95
       32
302
GRIDFORMAT
  1
GRIDFORMAT_BEGIN
 90
        0
 91
        1
 62
     0
 92
       -2
340
0
 93
        0
 40
1.125
309
GRIDFORMAT_END
309
TABLEFORMAT_END
  1
CELLSTYLE_BEGIN
 90
        3
 91
        2
300
_DATA
309
CELLSTYLE_END
  0
XRECORD
  5
17D5
102
{ACAD_REACTORS
330
1796
102
}
330
1796
100
AcDbXrecord
280
     1
102
ACAD_ROUNDTRIP_PRE2007_TABLESTYLE
 90
      512
 91
        0
  1

 92
      512
 93
        0
  2

 94
      512
 95
        0
  3

  0
XRECORD
  5
17BA
102
{ACAD_REACTORS
330
17B9
102
}
330
17B9
100
AcDbXrecord
280
     1
102
RTVSPropertyOp0
 70
     1
102
RTVSPropertyOp1
 70
     1
102
RTVSPropertyOp2
 70
     1
102
RTVSPropertyOp3
 70
     1
102
RTVSPropertyOp4
 70
     1
102
RTVSPropertyOp5
 70
     1
102
RTVSPropertyOp6
 70
     1
102
RTVSPropertyOp7
 70
     1
102
RTVSPropertyOp8
 70
     1
102
RTVSPropertyOp9
 70
     1
102
RTVSPropertyOp10
 70
     1
102
RTVSPropertyOp11
 70
     1
102
RTVSPropertyOp12
 70
     1
102
RTVSPropertyOp13
 70
     1
102
RTVSPropertyOp14
 70
     1
102
RTVSPropertyOp15
 70
     1
102
RTVSPropertyOp16
 70
     1
102
RTVSPropertyOp17
 70
     1
102
RTVSPropertyOp18
 70
     1
102
RTVSPropertyOp19
 70
     1
102
RTVSPropertyOp20
 70
     1
102
RTVSPropertyOp21
 70
     1
102
RTVSPropertyOp22
 70
     1
102
RTVSPropertyOp23
 70
     1
102
RTVSPropertyOp24
 70
     1
102
RTVSPropertyOp25
 70
     1
102
RTVSPropertyOp26
 70
     1
102
RTVSPropertyOp27
 70
     1
  0
XRECORD
  5
17BE
102
{ACAD_REACTORS
330
17BD
102
}
330
17BD
100
AcDbXrecord
280
     1
102
RTVSPropertyOp0
 70
     1
102
RTVSPropertyOp1
 70
     1
102
RTVSPropertyOp2
 70
     1
102
RTVSPropertyOp3
 70
     1
102
RTVSPropertyOp4
 70
     1
102
RTVSPropertyOp5
 70
     1
102
RTVSPropertyOp6
 70
     1
102
RTVSPropertyOp7
 70
     1
102
RTVSPropertyOp8
 70
     1
102
RTVSPropertyOp9
 70
     1
102
RTVSPropertyOp10
 70
     1
102
RTVSPropertyOp11
 70
     1
102
RTVSPropertyOp12
 70
     1
102
RTVSPropertyOp13
 70
     1
102
RTVSPropertyOp14
 70
     1
102
RTVSPropertyOp15
 70
     1
102
RTVSPropertyOp16
 70
     1
102
RTVSPropertyOp17
 70
     1
102
RTVSPropertyOp18
 70
     1
102
RTVSPropertyOp19
 70
     1
102
RTVSPropertyOp20
 70
     1
102
RTVSPropertyOp21
 70
     1
102
RTVSPropertyOp22
 70
     1
102
RTVSPropertyOp23
 70
     1
102
RTVSPropertyOp24
 70
     1
102
RTVSPropertyOp25
 70
     1
102
RTVSPropertyOp26
 70
     1
102
RTVSPropertyOp27
 70
     1
  0
XRECORD
  5
17BC
102
{ACAD_REACTORS
330
17BB
102
}
330
17BB
100
AcDbXrecord
280
     1
102
RTVSPropertyOp0
 70
     1
102
RTVSPropertyOp1
 70
     1
102
RTVSPropertyOp2
 70
     1
102
RTVSPropertyOp3
 70
     1
102
RTVSPropertyOp4
 70
     1
102
RTVSPropertyOp5
 70
     1
102
RTVSPropertyOp6
 70
     1
102
RTVSPropertyOp7
 70
     1
102
RTVSPropertyOp8
 70
     1
102
RTVSPropertyOp9
 70
     1
102
RTVSPropertyOp10
 70
     1
102
RTVSPropertyOp11
 70
     1
102
RTVSPropertyOp12
 70
     1
102
RTVSPropertyOp13
 70
     1
102
RTVSPropertyOp14
 70
     1
102
RTVSPropertyOp15
 70
     1
102
RTVSPropertyOp16
 70
     1
102
RTVSPropertyOp17
 70
     1
102
RTVSPropertyOp18
 70
     1
102
RTVSPropertyOp19
 70
     1
102
RTVSPropertyOp20
 70
     1
102
RTVSPropertyOp21
 70
     1
102
RTVSPropertyOp22
 70
     1
102
RTVSPropertyOp23
 70
     1
102
RTVSPropertyOp24
 70
     1
102
RTVSPropertyOp25
 70
     1
102
RTVSPropertyOp26
 70
     1
102
RTVSPropertyOp27
 70
     1
  0
XRECORD
  5
17B8
102
{ACAD_REACTORS
330
17B7
102
}
330
17B7
100
AcDbXrecord
280
     1
102
RTVSPropertyOp0
 70
     1
102
RTVSPropertyOp1
 70
     1
102
RTVSPropertyOp2
 70
     1
102
RTVSPropertyOp3
 70
     1
102
RTVSPropertyOp4
 70
     1
102
RTVSPropertyOp5
 70
     1
102
RTVSPropertyOp6
 70
     1
102
RTVSPropertyOp7
 70
     1
102
RTVSPropertyOp8
 70
     1
102
RTVSPropertyOp9
 70
     1
102
RTVSPropertyOp10
 70
     1
102
RTVSPropertyOp11
 70
     1
102
RTVSPropertyOp12
 70
     1
102
RTVSPropertyOp13
 70
     1
102
RTVSPropertyOp14
 70
     1
102
RTVSPropertyOp15
 70
     1
102
RTVSPropertyOp16
 70
     1
102
RTVSPropertyOp17
 70
     1
102
RTVSPropertyOp18
 70
     1
102
RTVSPropertyOp19
 70
     1
102
RTVSPropertyOp20
 70
     1
102
RTVSPropertyOp21
 70
     1
102
RTVSPropertyOp22
 70
     1
102
RTVSPropertyOp23
 70
     1
102
RTVSPropertyOp24
 70
     1
102
RTVSPropertyOp25
 70
     1
102
RTVSPropertyOp26
 70
     1
102
RTVSPropertyOp27
 70
     1
  0
XRECORD
  5
17C6
102
{ACAD_REACTORS
330
17C5
102
}
330
17C5
100
AcDbXrecord
280
     1
102
RTVSPropertyOp0
 70
     1
102
RTVSPropertyOp1
 70
     1
102
RTVSPropertyOp2
 70
     1
102
RTVSPropertyOp3
 70
     1
102
RTVSPropertyOp4
 70
     1
102
RTVSPropertyOp5
 70
     1
102
RTVSPropertyOp6
 70
     1
102
RTVSPropertyOp7
 70
     1
102
RTVSPropertyOp8
 70
     1
102
RTVSPropertyOp9
 70
     1
102
RTVSPropertyOp10
 70
     1
102
RTVSPropertyOp11
 70
     1
102
RTVSPropertyOp12
 70
     1
102
RTVSPropertyOp13
 70
     1
102
RTVSPropertyOp14
 70
     1
102
RTVSPropertyOp15
 70
     1
102
RTVSPropertyOp16
 70
     1
102
RTVSPropertyOp17
 70
     1
102
RTVSPropertyOp18
 70
     1
102
RTVSPropertyOp19
 70
     1
102
RTVSPropertyOp20
 70
     1
102
RTVSPropertyOp21
 70
     1
102
RTVSPropertyOp22
 70
     1
102
RTVSPropertyOp23
 70
     1
102
RTVSPropertyOp24
 70
     1
102
RTVSPropertyOp25
 70
     1
102
RTVSPropertyOp26
 70
     1
102
RTVSPropertyOp27
 70
     1
  0
XRECORD
  5
17CE
102
{ACAD_REACTORS
330
17CD
102
}
330
17CD
100
AcDbXrecord
280
     1
102
RTVSPropertyOp0
 70
     1
102
RTVSPropertyOp1
 70
     1
102
RTVSPropertyOp2
 70
     1
102
RTVSPropertyOp3
 70
     1
102
RTVSPropertyOp4
 70
     1
102
RTVSPropertyOp5
 70
     1
102
RTVSPropertyOp6
 70
     1
102
RTVSPropertyOp7
 70
     1
102
RTVSPropertyOp8
 70
     1
102
RTVSPropertyOp9
 70
     1
102
RTVSPropertyOp10
 70
     1
102
RTVSPropertyOp11
 70
     1
102
RTVSPropertyOp12
 70
     1
102
RTVSPropertyOp13
 70
     1
102
RTVSPropertyOp14
 70
     1
102
RTVSPropertyOp15
 70
     1
102
RTVSPropertyOp16
 70
     1
102
RTVSPropertyOp17
 70
     1
102
RTVSPropertyOp18
 70
     1
102
RTVSPropertyOp19
 70
     1
102
RTVSPropertyOp20
 70
     1
102
RTVSPropertyOp21
 70
     1
102
RTVSPropertyOp22
 70
     1
102
RTVSPropertyOp23
 70
     1
102
RTVSPropertyOp24
 70
     1
102
RTVSPropertyOp25
 70
     1
102
RTVSPropertyOp26
 70
     1
102
RTVSPropertyOp27
 70
     1
  0
XRECORD
  5
17C0
102
{ACAD_REACTORS
330
17BF
102
}
330
17BF
100
AcDbXrecord
280
     1
102
RTVSPropertyOp0
 70
     1
102
RTVSPropertyOp1
 70
     1
102
RTVSPropertyOp2
 70
     1
102
RTVSPropertyOp3
 70
     1
102
RTVSPropertyOp4
 70
     1
102
RTVSPropertyOp5
 70
     1
102
RTVSPropertyOp6
 70
     1
102
RTVSPropertyOp7
 70
     1
102
RTVSPropertyOp8
 70
     1
102
RTVSPropertyOp9
 70
     1
102
RTVSPropertyOp10
 70
     1
102
RTVSPropertyOp11
 70
     1
102
RTVSPropertyOp12
 70
     1
102
RTVSPropertyOp13
 70
     1
102
RTVSPropertyOp14
 70
     1
102
RTVSPropertyOp15
 70
     1
102
RTVSPropertyOp16
 70
     1
102
RTVSPropertyOp17
 70
     1
102
RTVSPropertyOp18
 70
     1
102
RTVSPropertyOp19
 70
     1
102
RTVSPropertyOp20
 70
     1
102
RTVSPropertyOp21
 70
     1
102
RTVSPropertyOp22
 70
     1
102
RTVSPropertyOp23
 70
     1
102
RTVSPropertyOp24
 70
     1
102
RTVSPropertyOp25
 70
     1
102
RTVSPropertyOp26
 70
     1
102
RTVSPropertyOp27
 70
     1
  0
XRECORD
  5
17C4
102
{ACAD_REACTORS
330
17C3
102
}
330
17C3
100
AcDbXrecord
280
     1
102
RTVSPropertyOp0
 70
     1
102
RTVSPropertyOp1
 70
     1
102
RTVSPropertyOp2
 70
     1
102
RTVSPropertyOp3
 70
     1
102
RTVSPropertyOp4
 70
     1
102
RTVSPropertyOp5
 70
     1
102
RTVSPropertyOp6
 70
     1
102
RTVSPropertyOp7
 70
     1
102
RTVSPropertyOp8
 70
     1
102
RTVSPropertyOp9
 70
     1
102
RTVSPropertyOp10
 70
     1
102
RTVSPropertyOp11
 70
     1
102
RTVSPropertyOp12
 70
     1
102
RTVSPropertyOp13
 70
     1
102
RTVSPropertyOp14
 70
     1
102
RTVSPropertyOp15
 70
     1
102
RTVSPropertyOp16
 70
     1
102
RTVSPropertyOp17
 70
     1
102
RTVSPropertyOp18
 70
     1
102
RTVSPropertyOp19
 70
     1
102
RTVSPropertyOp20
 70
     1
102
RTVSPropertyOp21
 70
     1
102
RTVSPropertyOp22
 70
     1
102
RTVSPropertyOp23
 70
     1
102
RTVSPropertyOp24
 70
     1
102
RTVSPropertyOp25
 70
     1
102
RTVSPropertyOp26
 70
     1
102
RTVSPropertyOp27
 70
     1
  0
XRECORD
  5
17D4
102
{ACAD_REACTORS
330
17D3
102
}
330
17D3
100
AcDbXrecord
280
     1
102
RTVSPropertyOp0
 70
     0
102
RTVSPropertyOp1
 70
     0
102
RTVSPropertyOp2
 70
     0
102
RTVSPropertyOp3
 70
     0
102
RTVSPropertyOp4
 70
     0
102
RTVSPropertyOp5
 70
     0
102
RTVSPropertyOp6
 70
     0
102
RTVSPropertyOp7
 70
     0
102
RTVSPropertyOp8
 70
     0
102
RTVSPropertyOp9
 70
     0
102
RTVSPropertyOp10
 70
     0
102
RTVSPropertyOp11
 70
     0
102
RTVSPropertyOp12
 70
     0
102
RTVSPropertyOp13
 70
     0
102
RTVSPropertyOp14
 70
     2
102
RTVSPropertyOp15
 70
     0
102
RTVSPropertyOp16
 70
     0
102
RTVSPropertyOp17
 70
     0
102
RTVSPropertyOp18
 70
     0
102
RTVSPropertyOp19
 70
     0
102
RTVSPropertyOp20
 70
     0
102
RTVSPropertyOp21
 70
     0
102
RTVSPropertyOp22
 70
     0
102
RTVSPropertyOp23
 70
     0
102
RTVSPropertyOp24
 70
     0
102
RTVSPropertyOp25
 70
     0
102
RTVSPropertyOp26
 70
     0
102
RTVSPropertyOp27
 70
     0
  0
XRECORD
  5
17CC
102
{ACAD_REACTORS
330
17CB
102
}
330
17CB
100
AcDbXrecord
280
     1
102
RTVSPropertyOp0
 70
     1
102
RTVSPropertyOp1
 70
     1
102
RTVSPropertyOp2
 70
     1
102
RTVSPropertyOp3
 70
     1
102
RTVSPropertyOp4
 70
     1
102
RTVSPropertyOp5
 70
     1
102
RTVSPropertyOp6
 70
     1
102
RTVSPropertyOp7
 70
     1
102
RTVSPropertyOp8
 70
     1
102
RTVSPropertyOp9
 70
     1
102
RTVSPropertyOp10
 70
     1
102
RTVSPropertyOp11
 70
     1
102
RTVSPropertyOp12
 70
     1
102
RTVSPropertyOp13
 70
     1
102
RTVSPropertyOp14
 70
     1
102
RTVSPropertyOp15
 70
     1
102
RTVSPropertyOp16
 70
     1
102
RTVSPropertyOp17
 70
     1
102
RTVSPropertyOp18
 70
     1
102
RTVSPropertyOp19
 70
     1
102
RTVSPropertyOp20
 70
     1
102
RTVSPropertyOp21
 70
     1
102
RTVSPropertyOp22
 70
     1
102
RTVSPropertyOp23
 70
     1
102
RTVSPropertyOp24
 70
     1
102
RTVSPropertyOp25
 70
     1
102
RTVSPropertyOp26
 70
     1
102
RTVSPropertyOp27
 70
     1
  0
XRECORD
  5
17B0
102
{ACAD_REACTORS
330
17AF
102
}
330
17AF
100
AcDbXrecord
280
     1
102
RTVSPropertyOp0
 70
     1
102
RTVSPropertyOp1
 70
     1
102
RTVSPropertyOp2
 70
     1
102
RTVSPropertyOp3
 70
     1
102
RTVSPropertyOp4
 70
     1
102
RTVSPropertyOp5
 70
     1
102
RTVSPropertyOp6
 70
     1
102
RTVSPropertyOp7
 70
     1
102
RTVSPropertyOp8
 70
     1
102
RTVSPropertyOp9
 70
     1
102
RTVSPropertyOp10
 70
     1
102
RTVSPropertyOp11
 70
     1
102
RTVSPropertyOp12
 70
     1
102
RTVSPropertyOp13
 70
     1
102
RTVSPropertyOp14
 70
     1
102
RTVSPropertyOp15
 70
     1
102
RTVSPropertyOp16
 70
     1
102
RTVSPropertyOp17
 70
     1
102
RTVSPropertyOp18
 70
     1
102
RTVSPropertyOp19
 70
     1
102
RTVSPropertyOp20
 70
     1
102
RTVSPropertyOp21
 70
     1
102
RTVSPropertyOp22
 70
     1
102
RTVSPropertyOp23
 70
     1
102
RTVSPropertyOp24
 70
     1
102
RTVSPropertyOp25
 70
     1
102
RTVSPropertyOp26
 70
     1
102
RTVSPropertyOp27
 70
     1
  0
XRECORD
  5
17B2
102
{ACAD_REACTORS
330
17B1
102
}
330
17B1
100
AcDbXrecord
280
     1
102
RTVSPropertyOp0
 70
     1
102
RTVSPropertyOp1
 70
     1
102
RTVSPropertyOp2
 70
     1
102
RTVSPropertyOp3
 70
     1
102
RTVSPropertyOp4
 70
     1
102
RTVSPropertyOp5
 70
     1
102
RTVSPropertyOp6
 70
     1
102
RTVSPropertyOp7
 70
     1
102
RTVSPropertyOp8
 70
     1
102
RTVSPropertyOp9
 70
     1
102
RTVSPropertyOp10
 70
     1
102
RTVSPropertyOp11
 70
     1
102
RTVSPropertyOp12
 70
     1
102
RTVSPropertyOp13
 70
     1
102
RTVSPropertyOp14
 70
     1
102
RTVSPropertyOp15
 70
     1
102
RTVSPropertyOp16
 70
     1
102
RTVSPropertyOp17
 70
     1
102
RTVSPropertyOp18
 70
     1
102
RTVSPropertyOp19
 70
     1
102
RTVSPropertyOp20
 70
     1
102
RTVSPropertyOp21
 70
     1
102
RTVSPropertyOp22
 70
     1
102
RTVSPropertyOp23
 70
     1
102
RTVSPropertyOp24
 70
     1
102
RTVSPropertyOp25
 70
     1
102
RTVSPropertyOp26
 70
     1
102
RTVSPropertyOp27
 70
     1
  0
XRECORD
  5
17B4
102
{ACAD_REACTORS
330
17B3
102
}
330
17B3
100
AcDbXrecord
280
     1
102
RTVSPropertyOp0
 70
     1
102
RTVSPropertyOp1
 70
     1
102
RTVSPropertyOp2
 70
     1
102
RTVSPropertyOp3
 70
     1
102
RTVSPropertyOp4
 70
     1
102
RTVSPropertyOp5
 70
     1
102
RTVSPropertyOp6
 70
     1
102
RTVSPropertyOp7
 70
     1
102
RTVSPropertyOp8
 70
     1
102
RTVSPropertyOp9
 70
     1
102
RTVSPropertyOp10
 70
     1
102
RTVSPropertyOp11
 70
     1
102
RTVSPropertyOp12
 70
     1
102
RTVSPropertyOp13
 70
     1
102
RTVSPropertyOp14
 70
     1
102
RTVSPropertyOp15
 70
     1
102
RTVSPropertyOp16
 70
     1
102
RTVSPropertyOp17
 70
     1
102
RTVSPropertyOp18
 70
     1
102
RTVSPropertyOp19
 70
     1
102
RTVSPropertyOp20
 70
     1
102
RTVSPropertyOp21
 70
     1
102
RTVSPropertyOp22
 70
     1
102
RTVSPropertyOp23
 70
     1
102
RTVSPropertyOp24
 70
     1
102
RTVSPropertyOp25
 70
     1
102
RTVSPropertyOp26
 70
     1
102
RTVSPropertyOp27
 70
     1
  0
XRECORD
  5
17B6
102
{ACAD_REACTORS
330
17B5
102
}
330
17B5
100
AcDbXrecord
280
     1
102
RTVSPropertyOp0
 70
     1
102
RTVSPropertyOp1
 70
     1
102
RTVSPropertyOp2
 70
     1
102
RTVSPropertyOp3
 70
     1
102
RTVSPropertyOp4
 70
     1
102
RTVSPropertyOp5
 70
     1
102
RTVSPropertyOp6
 70
     1
102
RTVSPropertyOp7
 70
     1
102
RTVSPropertyOp8
 70
     1
102
RTVSPropertyOp9
 70
     1
102
RTVSPropertyOp10
 70
     1
102
RTVSPropertyOp11
 70
     1
102
RTVSPropertyOp12
 70
     1
102
RTVSPropertyOp13
 70
     1
102
RTVSPropertyOp14
 70
     1
102
RTVSPropertyOp15
 70
     1
102
RTVSPropertyOp16
 70
     1
102
RTVSPropertyOp17
 70
     1
102
RTVSPropertyOp18
 70
     1
102
RTVSPropertyOp19
 70
     1
102
RTVSPropertyOp20
 70
     1
102
RTVSPropertyOp21
 70
     1
102
RTVSPropertyOp22
 70
     1
102
RTVSPropertyOp23
 70
     1
102
RTVSPropertyOp24
 70
     1
102
RTVSPropertyOp25
 70
     1
102
RTVSPropertyOp26
 70
     1
102
RTVSPropertyOp27
 70
     1
  0
XRECORD
  5
17D0
102
{ACAD_REACTORS
330
17CF
102
}
330
17CF
100
AcDbXrecord
280
     1
102
RTVSPropertyOp0
 70
     0
102
RTVSPropertyOp1
 70
     0
102
RTVSPropertyOp2
 70
     0
102
RTVSPropertyOp3
 70
     0
102
RTVSPropertyOp4
 70
     0
102
RTVSPropertyOp5
 70
     0
102
RTVSPropertyOp6
 70
     0
102
RTVSPropertyOp7
 70
     0
102
RTVSPropertyOp8
 70
     0
102
RTVSPropertyOp9
 70
     0
102
RTVSPropertyOp10
 70
     0
102
RTVSPropertyOp11
 70
     0
102
RTVSPropertyOp12
 70
     0
102
RTVSPropertyOp13
 70
     0
102
RTVSPropertyOp14
 70
     2
102
RTVSPropertyOp15
 70
     0
102
RTVSPropertyOp16
 70
     0
102
RTVSPropertyOp17
 70
     0
102
RTVSPropertyOp18
 70
     0
102
RTVSPropertyOp19
 70
     0
102
RTVSPropertyOp20
 70
     0
102
RTVSPropertyOp21
 70
     0
102
RTVSPropertyOp22
 70
     0
102
RTVSPropertyOp23
 70
     0
102
RTVSPropertyOp24
 70
     0
102
RTVSPropertyOp25
 70
     0
102
RTVSPropertyOp26
 70
     0
102
RTVSPropertyOp27
 70
     0
  0
XRECORD
  5
17CA
102
{ACAD_REACTORS
330
17C9
102
}
330
17C9
100
AcDbXrecord
280
     1
102
RTVSPropertyOp0
 70
     1
102
RTVSPropertyOp1
 70
     1
102
RTVSPropertyOp2
 70
     1
102
RTVSPropertyOp3
 70
     1
102
RTVSPropertyOp4
 70
     1
102
RTVSPropertyOp5
 70
     1
102
RTVSPropertyOp6
 70
     1
102
RTVSPropertyOp7
 70
     1
102
RTVSPropertyOp8
 70
     1
102
RTVSPropertyOp9
 70
     1
102
RTVSPropertyOp10
 70
     1
102
RTVSPropertyOp11
 70
     1
102
RTVSPropertyOp12
 70
     1
102
RTVSPropertyOp13
 70
     1
102
RTVSPropertyOp14
 70
     1
102
RTVSPropertyOp15
 70
     1
102
RTVSPropertyOp16
 70
     1
102
RTVSPropertyOp17
 70
     1
102
RTVSPropertyOp18
 70
     1
102
RTVSPropertyOp19
 70
     1
102
RTVSPropertyOp20
 70
     1
102
RTVSPropertyOp21
 70
     1
102
RTVSPropertyOp22
 70
     1
102
RTVSPropertyOp23
 70
     1
102
RTVSPropertyOp24
 70
     1
102
RTVSPropertyOp25
 70
     1
102
RTVSPropertyOp26
 70
     1
102
RTVSPropertyOp27
 70
     1
  0
XRECORD
  5
17D2
102
{ACAD_REACTORS
330
17D1
102
}
330
17D1
100
AcDbXrecord
280
     1
102
RTVSPropertyOp0
 70
     0
102
RTVSPropertyOp1
 70
     0
102
RTVSPropertyOp2
 70
     0
102
RTVSPropertyOp3
 70
     0
102
RTVSPropertyOp4
 70
     0
102
RTVSPropertyOp5
 70
     0
102
RTVSPropertyOp6
 70
     0
102
RTVSPropertyOp7
 70
     0
102
RTVSPropertyOp8
 70
     0
102
RTVSPropertyOp9
 70
     0
102
RTVSPropertyOp10
 70
     0
102
RTVSPropertyOp11
 70
     0
102
RTVSPropertyOp12
 70
     0
102
RTVSPropertyOp13
 70
     0
102
RTVSPropertyOp14
 70
     2
102
RTVSPropertyOp15
 70
     0
102
RTVSPropertyOp16
 70
     0
102
RTVSPropertyOp17
 70
     0
102
RTVSPropertyOp18
 70
     0
102
RTVSPropertyOp19
 70
     0
102
RTVSPropertyOp20
 70
     0
102
RTVSPropertyOp21
 70
     0
102
RTVSPropertyOp22
 70
     0
102
RTVSPropertyOp23
 70
     0
102
RTVSPropertyOp24
 70
     0
102
RTVSPropertyOp25
 70
     0
102
RTVSPropertyOp26
 70
     0
102
RTVSPropertyOp27
 70
     0
  0
XRECORD
  5
17C2
102
{ACAD_REACTORS
330
17C1
102
}
330
17C1
100
AcDbXrecord
280
     1
102
RTVSPropertyOp0
 70
     1
102
RTVSPropertyOp1
 70
     1
102
RTVSPropertyOp2
 70
     1
102
RTVSPropertyOp3
 70
     1
102
RTVSPropertyOp4
 70
     1
102
RTVSPropertyOp5
 70
     1
102
RTVSPropertyOp6
 70
     1
102
RTVSPropertyOp7
 70
     1
102
RTVSPropertyOp8
 70
     1
102
RTVSPropertyOp9
 70
     1
102
RTVSPropertyOp10
 70
     1
102
RTVSPropertyOp11
 70
     1
102
RTVSPropertyOp12
 70
     1
102
RTVSPropertyOp13
 70
     1
102
RTVSPropertyOp14
 70
     1
102
RTVSPropertyOp15
 70
     1
102
RTVSPropertyOp16
 70
     1
102
RTVSPropertyOp17
 70
     1
102
RTVSPropertyOp18
 70
     1
102
RTVSPropertyOp19
 70
     1
102
RTVSPropertyOp20
 70
     1
102
RTVSPropertyOp21
 70
     1
102
RTVSPropertyOp22
 70
     1
102
RTVSPropertyOp23
 70
     1
102
RTVSPropertyOp24
 70
     1
102
RTVSPropertyOp25
 70
     1
102
RTVSPropertyOp26
 70
     1
102
RTVSPropertyOp27
 70
     1
  0
XRECORD
  5
17C8
102
{ACAD_REACTORS
330
17C7
102
}
330
17C7
100
AcDbXrecord
280
     1
102
RTVSPropertyOp0
 70
     1
102
RTVSPropertyOp1
 70
     1
102
RTVSPropertyOp2
 70
     1
102
RTVSPropertyOp3
 70
     1
102
RTVSPropertyOp4
 70
     1
102
RTVSPropertyOp5
 70
     1
102
RTVSPropertyOp6
 70
     1
102
RTVSPropertyOp7
 70
     1
102
RTVSPropertyOp8
 70
     1
102
RTVSPropertyOp9
 70
     1
102
RTVSPropertyOp10
 70
     1
102
RTVSPropertyOp11
 70
     1
102
RTVSPropertyOp12
 70
     1
102
RTVSPropertyOp13
 70
     1
102
RTVSPropertyOp14
 70
     1
102
RTVSPropertyOp15
 70
     1
102
RTVSPropertyOp16
 70
     1
102
RTVSPropertyOp17
 70
     1
102
RTVSPropertyOp18
 70
     1
102
RTVSPropertyOp19
 70
     1
102
RTVSPropertyOp20
 70
     1
102
RTVSPropertyOp21
 70
     1
102
RTVSPropertyOp22
 70
     1
102
RTVSPropertyOp23
 70
     1
102
RTVSPropertyOp24
 70
     1
102
RTVSPropertyOp25
 70
     1
102
RTVSPropertyOp26
 70
     1
102
RTVSPropertyOp27
 70
     1
  0
ENDSEC
  0
EOF
