  0
SECTION
  2
HEADER
  9
$ACADVER
  1
AC1015
  9
$ACADMAINTVER
 70
    20
  9
$DWGCODEPAGE
  3
ANSI_1252
  9
$INSBASE
 10
0.0
 20
0.0
 30
0.0
  9
$EXTMIN
 10
225.373709297414
 20
125.3640777925546
 30
0.0
  9
$EXTMAX
 10
227.9309216678374
 20
125.8090777925545
 30
0.0
  9
$LIMMIN
 10
0.0
 20
0.0
  9
$LIMMAX
 10
420.0
 20
297.0
  9
$ORTHOMODE
 70
     0
  9
$REGENMODE
 70
     1
  9
$FILLMODE
 70
     1
  9
$QTEXTMODE
 70
     0
  9
$MIRRTEXT
 70
     1
  9
$LTSCALE
 40
1.0
  9
$ATTMODE
 70
     1
  9
$TEXTSIZE
 40
2.5
  9
$TRACEWID
 40
1.0
  9
$TEXTSTYLE
  7
Standard
  9
$CLAYER
  8
3
  9
$CELTYPE
  6
ByLayer
  9
$CECOLOR
 62
   256
  9
$CELTSCALE
 40
1.0
  9
$DISPSILH
 70
     0
  9
$DIMSCALE
 40
1.0
  9
$DIMASZ
 40
2.5
  9
$DIMEXO
 40
0.625
  9
$DIMDLI
 40
3.75
  9
$DIMRND
 40
0.0
  9
$DIMDLE
 40
0.0
  9
$DIMEXE
 40
1.25
  9
$DIMTP
 40
0.0
  9
$DIMTM
 40
0.0
  9
$DIMTXT
 40
2.5
  9
$DIMCEN
 40
2.5
  9
$DIMTSZ
 40
0.0
  9
$DIMTOL
 70
     0
  9
$DIMLIM
 70
     0
  9
$DIMTIH
 70
     0
  9
$DIMTOH
 70
     0
  9
$DIMSE1
 70
     0
  9
$DIMSE2
 70
     0
  9
$DIMTAD
 70
     1
  9
$DIMZIN
 70
     8
  9
$DIMBLK
  1

  9
$DIMASO
 70
     1
  9
$DIMSHO
 70
     1
  9
$DIMPOST
  1

  9
$DIMAPOST
  1

  9
$DIMALT
 70
     0
  9
$DIMALTD
 70
     3
  9
$DIMALTF
 40
0.03937007874016
  9
$DIMLFAC
 40
1.0
  9
$DIMTOFL
 70
     1
  9
$DIMTVP
 40
0.0
  9
$DIMTIX
 70
     0
  9
$DIMSOXD
 70
     0
  9
$DIMSAH
 70
     0
  9
$DIMBLK1
  1

  9
$DIMBLK2
  1

  9
$DIMSTYLE
  2
ISO-25
  9
$DIMCLRD
 70
     0
  9
$DIMCLRE
 70
     0
  9
$DIMCLRT
 70
     0
  9
$DIMTFAC
 40
1.0
  9
$DIMGAP
 40
0.625
  9
$DIMJUST
 70
     0
  9
$DIMSD1
 70
     0
  9
$DIMSD2
 70
     0
  9
$DIMTOLJ
 70
     0
  9
$DIMTZIN
 70
     8
  9
$DIMALTZ
 70
     0
  9
$DIMALTTZ
 70
     0
  9
$DIMUPT
 70
     0
  9
$DIMDEC
 70
     2
  9
$DIMTDEC
 70
     2
  9
$DIMALTU
 70
     2
  9
$DIMALTTD
 70
     3
  9
$DIMTXSTY
  7
Standard
  9
$DIMAUNIT
 70
     0
  9
$DIMADEC
 70
     0
  9
$DIMALTRND
 40
0.0
  9
$DIMAZIN
 70
     0
  9
$DIMDSEP
 70
    44
  9
$DIMATFIT
 70
     3
  9
$DIMFRAC
 70
     0
  9
$DIMLDRBLK
  1

  9
$DIMLUNIT
 70
     2
  9
$DIMLWD
 70
    -2
  9
$DIMLWE
 70
    -2
  9
$DIMTMOVE
 70
     0
  9
$LUNITS
 70
     2
  9
$LUPREC
 70
     4
  9
$SKETCHINC
 40
1.0
  9
$FILLETRAD
 40
0.0
  9
$AUNITS
 70
     0
  9
$AUPREC
 70
     0
  9
$MENU
  1
.
  9
$ELEVATION
 40
0.0
  9
$PELEVATION
 40
0.0
  9
$THICKNESS
 40
0.0
  9
$LIMCHECK
 70
     0
  9
$CHAMFERA
 40
10.0
  9
$CHAMFERB
 40
10.0
  9
$CHAMFERC
 40
20.0
  9
$CHAMFERD
 40
0.0
  9
$SKPOLY
 70
     0
  9
$TDCREATE
 40
2452842.732206111
  9
$TDUCREATE
 40
2452842.690539445
  9
$TDUPDATE
 40
2456146.587674514
  9
$TDUUPDATE
 40
2456146.546007847
  9
$TDINDWG
 40
0.0101132060
  9
$TDUSRTIMER
 40
0.0101132060
  9
$USRTIMER
 70
     1
  9
$ANGBASE
 50
0.0
  9
$ANGDIR
 70
     0
  9
$PDMODE
 70
     0
  9
$PDSIZE
 40
0.0
  9
$PLINEWID
 40
0.0
  9
$SPLFRAME
 70
     0
  9
$SPLINETYPE
 70
     6
  9
$SPLINESEGS
 70
     8
  9
$HANDSEED
  5
A5C
  9
$SURFTAB1
 70
     6
  9
$SURFTAB2
 70
     6
  9
$SURFTYPE
 70
     6
  9
$SURFU
 70
     6
  9
$SURFV
 70
     6
  9
$UCSBASE
  2

  9
$UCSNAME
  2

  9
$UCSORG
 10
0.0
 20
0.0
 30
0.0
  9
$UCSXDIR
 10
1.0
 20
0.0
 30
0.0
  9
$UCSYDIR
 10
0.0
 20
1.0
 30
0.0
  9
$UCSORTHOREF
  2

  9
$UCSORTHOVIEW
 70
     0
  9
$UCSORGTOP
 10
0.0
 20
0.0
 30
0.0
  9
$UCSORGBOTTOM
 10
0.0
 20
0.0
 30
0.0
  9
$UCSORGLEFT
 10
0.0
 20
0.0
 30
0.0
  9
$UCSORGRIGHT
 10
0.0
 20
0.0
 30
0.0
  9
$UCSORGFRONT
 10
0.0
 20
0.0
 30
0.0
  9
$UCSORGBACK
 10
0.0
 20
0.0
 30
0.0
  9
$PUCSBASE
  2

  9
$PUCSNAME
  2

  9
$PUCSORG
 10
0.0
 20
0.0
 30
0.0
  9
$PUCSXDIR
 10
1.0
 20
0.0
 30
0.0
  9
$PUCSYDIR
 10
0.0
 20
1.0
 30
0.0
  9
$PUCSORTHOREF
  2

  9
$PUCSORTHOVIEW
 70
     0
  9
$PUCSORGTOP
 10
0.0
 20
0.0
 30
0.0
  9
$PUCSORGBOTTOM
 10
0.0
 20
0.0
 30
0.0
  9
$PUCSORGLEFT
 10
0.0
 20
0.0
 30
0.0
  9
$PUCSORGRIGHT
 10
0.0
 20
0.0
 30
0.0
  9
$PUCSORGFRONT
 10
0.0
 20
0.0
 30
0.0
  9
$PUCSORGBACK
 10
0.0
 20
0.0
 30
0.0
  9
$USERI1
 70
     0
  9
$USERI2
 70
     0
  9
$USERI3
 70
     0
  9
$USERI4
 70
     0
  9
$USERI5
 70
     0
  9
$USERR1
 40
0.0
  9
$USERR2
 40
0.0
  9
$USERR3
 40
0.0
  9
$USERR4
 40
0.0
  9
$USERR5
 40
0.0
  9
$WORLDVIEW
 70
     1
  9
$SHADEDGE
 70
     3
  9
$SHADEDIF
 70
    70
  9
$TILEMODE
 70
     1
  9
$MAXACTVP
 70
    64
  9
$PINSBASE
 10
0.0
 20
0.0
 30
0.0
  9
$PLIMCHECK
 70
     0
  9
$PEXTMIN
 10
1.000000000000000E+20
 20
1.000000000000000E+20
 30
1.000000000000000E+20
  9
$PEXTMAX
 10
-1.000000000000000E+20
 20
-1.000000000000000E+20
 30
-1.000000000000000E+20
  9
$PLIMMIN
 10
0.0
 20
0.0
  9
$PLIMMAX
 10
420.0
 20
297.0
  9
$UNITMODE
 70
     0
  9
$VISRETAIN
 70
     1
  9
$PLINEGEN
 70
     0
  9
$PSLTSCALE
 70
     1
  9
$TREEDEPTH
 70
  3020
  9
$CMLSTYLE
  2
Standard
  9
$CMLJUST
 70
     0
  9
$CMLSCALE
 40
20.0
  9
$PROXYGRAPHICS
 70
     1
  9
$MEASUREMENT
 70
     1
  9
$CELWEIGHT
370
    -1
  9
$ENDCAPS
280
     0
  9
$JOINSTYLE
280
     0
  9
$LWDISPLAY
290
     0
  9
$INSUNITS
 70
     6
  9
$HYPERLINKBASE
  1

  9
$STYLESHEET
  1

  9
$XEDIT
290
     1
  9
$CEPSNTYPE
380
     0
  9
$PSTYLEMODE
290
     1
  9
$FINGERPRINTGUID
  2
{29E6678B-D699-41A2-9C23-7ADD0F33AC5E}
  9
$VERSIONGUID
  2
{E50333C9-5DA6-4BF8-9137-F25112305D6B}
  9
$EXTNAMES
290
     1
  9
$PSVPSCALE
 40
0.0
  9
$OLESTARTUP
290
     0
  0
ENDSEC
  0
SECTION
  2
CLASSES
  0
CLASS
  1
ACDBDICTIONARYWDFLT
  2
AcDbDictionaryWithDefault
  3
ObjectDBX Classes
 90
        0
280
     0
281
     0
  0
CLASS
  1
ACDBPLACEHOLDER
  2
AcDbPlaceHolder
  3
ObjectDBX Classes
 90
        0
280
     0
281
     0
  0
CLASS
  1
LAYOUT
  2
AcDbLayout
  3
ObjectDBX Classes
 90
        0
280
     0
281
     0
  0
CLASS
  1
DIMASSOC
  2
AcDbDimAssoc
  3
"AcDbDimAssoc|Product Desc:     AcDim ARX App For Dimension|Company:          Autodesk, Inc.|WEB Address:      www.autodesk.com"
 90
    32768
280
     0
281
     0
  0
CLASS
  1
DICTIONARYVAR
  2
AcDbDictionaryVar
  3
ObjectDBX Classes
 90
        0
280
     0
281
     0
  0
CLASS
  1
TABLESTYLE
  2
AcDbTableStyle
  3
ObjectDBX Classes
 90
     4095
280
     0
281
     0
  0
CLASS
  1
MATERIAL
  2
AcDbMaterial
  3
ObjectDBX Classes
 90
     1153
280
     0
281
     0
  0
CLASS
  1
VISUALSTYLE
  2
AcDbVisualStyle
  3
ObjectDBX Classes
 90
     4095
280
     0
281
     0
  0
CLASS
  1
SCALE
  2
AcDbScale
  3
ObjectDBX Classes
 90
     1153
280
     0
281
     0
  0
CLASS
  1
MLEADERSTYLE
  2
AcDbMLeaderStyle
  3
ACDB_MLEADERSTYLE_CLASS
 90
     4095
280
     0
281
     0
  0
CLASS
  1
CELLSTYLEMAP
  2
AcDbCellStyleMap
  3
ObjectDBX Classes
 90
     1152
280
     0
281
     0
  0
ENDSEC
  0
SECTION
  2
TABLES
  0
TABLE
  2
VPORT
  5
8
330
0
100
AcDbSymbolTable
 70
     1
  0
VPORT
  5
9C7
330
8
100
AcDbSymbolTableRecord
100
AcDbViewportTableRecord
  2
*Active
 70
     0
 10
0.0
 20
0.0
 11
1.0
 21
1.0
 12
226.6886867960086
 22
125.5801169367974
 13
0.0
 23
0.0
 14
10.0
 24
10.0
 15
10.0
 25
10.0
 16
0.0
 26
0.0
 36
1.0
 17
0.0
 27
0.0
 37
0.0
 40
1.63455303291809
 41
1.645464025026068
 42
50.0
 43
0.0
 44
0.0
 50
0.0
 51
0.0
 71
     0
 72
   100
 73
     1
 74
     3
 75
     0
 76
     0
 77
     0
 78
     0
281
     0
 65
     1
110
0.0
120
0.0
130
0.0
111
1.0
121
0.0
131
0.0
112
0.0
122
1.0
132
0.0
 79
     0
146
0.0
  0
ENDTAB
  0
TABLE
  2
LTYPE
  5
5
330
0
100
AcDbSymbolTable
 70
     2
  0
LTYPE
  5
14
330
5
100
AcDbSymbolTableRecord
100
AcDbLinetypeTableRecord
  2
ByBlock
 70
     0
  3

 72
    65
 73
     0
 40
0.0
  0
LTYPE
  5
15
330
5
100
AcDbSymbolTableRecord
100
AcDbLinetypeTableRecord
  2
ByLayer
 70
     0
  3

 72
    65
 73
     0
 40
0.0
  0
LTYPE
  5
16
330
5
100
AcDbSymbolTableRecord
100
AcDbLinetypeTableRecord
  2
Continuous
 70
     0
  3
Solid line
 72
    65
 73
     0
 40
0.0
  0
LTYPE
  5
114
330
5
100
AcDbSymbolTableRecord
100
AcDbLinetypeTableRecord
  2
CENTER
 70
     0
  3
Center ____ _ ____ _ ____ _ ____ _ ____ _ ____
 72
    65
 73
     4
 40
10.16
 49
6.349999999999999
 74
     0
 49
-1.27
 74
     0
 49
1.27
 74
     0
 49
-1.27
 74
     0
  0
ENDTAB
  0
TABLE
  2
LAYER
  5
2
330
0
100
AcDbSymbolTable
 70
     7
  0
LAYER
  5
10
102
{ACAD_XDICTIONARY
360
A14
102
}
330
2
100
AcDbSymbolTableRecord
100
AcDbLayerTableRecord
  2
0
 70
     0
 62
     7
  6
Continuous
370
    -3
390
F
  0
LAYER
  5
115
102
{ACAD_XDICTIONARY
360
A16
102
}
330
2
100
AcDbSymbolTableRecord
100
AcDbLayerTableRecord
  2
3
 70
     0
 62
     3
  6
Continuous
370
    -3
390
F
  0
LAYER
  5
116
330
2
100
AcDbSymbolTableRecord
100
AcDbLayerTableRecord
  2
Defpoints
 70
     0
 62
     7
  6
Continuous
290
     0
370
    -3
390
F
  0
LAYER
  5
117
102
{ACAD_XDICTIONARY
360
A18
102
}
330
2
100
AcDbSymbolTableRecord
100
AcDbLayerTableRecord
  2
9
 70
     0
 62
     9
  6
Continuous
370
    -3
390
F
  0
LAYER
  5
118
102
{ACAD_XDICTIONARY
360
A1A
102
}
330
2
100
AcDbSymbolTableRecord
100
AcDbLayerTableRecord
  2
COTAS
 70
     0
 62
     1
  6
Continuous
370
    -3
390
F
  0
LAYER
  5
119
102
{ACAD_XDICTIONARY
360
A1C
102
}
330
2
100
AcDbSymbolTableRecord
100
AcDbLayerTableRecord
  2
INDUSA CEN
 70
     0
 62
     9
  6
CENTER
370
    -3
390
F
  0
LAYER
  5
5E8
102
{ACAD_XDICTIONARY
360
A1E
102
}
330
2
100
AcDbSymbolTableRecord
100
AcDbLayerTableRecord
  2
hatch
 70
     0
 62
     9
  6
Continuous
370
    -3
390
F
  0
ENDTAB
  0
TABLE
  2
STYLE
  5
3
330
0
100
AcDbSymbolTable
 70
     2
  0
STYLE
  5
11
330
3
100
AcDbSymbolTableRecord
100
AcDbTextStyleTableRecord
  2
Standard
 70
     0
 40
0.0
 41
1.0
 50
0.0
 71
     0
 42
2.5
  3
txt
  4

  0
STYLE
  5
11A
330
3
100
AcDbSymbolTableRecord
100
AcDbTextStyleTableRecord
  2
SANINDUSA
 70
     0
 40
0.0
 41
1.0
 50
0.0
 71
     0
 42
2.5
  3
simplex.shx
  4

  0
ENDTAB
  0
TABLE
  2
VIEW
  5
6
330
0
100
AcDbSymbolTable
 70
     0
  0
ENDTAB
  0
TABLE
  2
UCS
  5
7
330
0
100
AcDbSymbolTable
 70
     0
  0
ENDTAB
  0
TABLE
  2
APPID
  5
9
330
0
100
AcDbSymbolTable
 70
     3
  0
APPID
  5
12
330
9
100
AcDbSymbolTableRecord
100
AcDbRegAppTableRecord
  2
ACAD
 70
     0
  0
APPID
  5
9A7
330
9
100
AcDbSymbolTableRecord
100
AcDbRegAppTableRecord
  2
DCO15
 70
     0
  0
APPID
  5
A5B
330
9
100
AcDbSymbolTableRecord
100
AcDbRegAppTableRecord
  2
ACAD_MLEADERVER
 70
     0
  0
ENDTAB
  0
TABLE
  2
DIMSTYLE
  5
A
330
0
100
AcDbSymbolTable
 70
     3
100
AcDbDimStyleTable
 71
     0
  0
DIMSTYLE
105
27
330
A
100
AcDbSymbolTableRecord
100
AcDbDimStyleTableRecord
  2
ISO-25
 70
     0
 41
2.5
 42
0.625
 43
3.75
 44
1.25
 73
     0
 74
     0
 77
     1
 78
     8
140
2.5
141
2.5
143
0.03937007874016
147
0.625
171
     3
172
     1
271
     2
272
     2
274
     3
278
    44
283
     0
284
     8
340
11
  0
DIMSTYLE
105
39
330
A
100
AcDbSymbolTableRecord
100
AcDbDimStyleTableRecord
  2
STANDARD
 70
     0
289
     0
340
11
  0
DIMSTYLE
105
11B
330
A
100
AcDbSymbolTableRecord
100
AcDbDimStyleTableRecord
  2
SANINDUSA
 70
     0
 41
3.0
 42
1.0
 43
1.0
 44
1.0
 73
     0
 74
     0
 77
     1
 78
     8
140
2.0
141
0.0
143
0.03937007874016
147
1.0
171
     3
172
     1
176
     1
177
     1
178
     1
179
     1
271
     1
272
     1
274
     3
278
    44
283
     0
284
     8
340
11A
371
    -1
372
    -1
  0
ENDTAB
  0
TABLE
  2
BLOCK_RECORD
  5
1
330
0
100
AcDbSymbolTable
 70
     5
  0
BLOCK_RECORD
  5
1F
330
1
100
AcDbSymbolTableRecord
100
AcDbBlockTableRecord
  2
*Model_Space
340
22
  0
BLOCK_RECORD
  5
1B
330
1
100
AcDbSymbolTableRecord
100
AcDbBlockTableRecord
  2
*Paper_Space
340
1E
  0
BLOCK_RECORD
  5
23
330
1
100
AcDbSymbolTableRecord
100
AcDbBlockTableRecord
  2
*Paper_Space0
340
26
  0
BLOCK_RECORD
  5
2B
330
1
100
AcDbSymbolTableRecord
100
AcDbBlockTableRecord
  2
SW_CENTERMARK20
340
0
102
{BLKREFS
331
49
102
}
  0
BLOCK_RECORD
  5
32
330
1
100
AcDbSymbolTableRecord
100
AcDbBlockTableRecord
  2
SW_CENTERMARK21
340
0
102
{BLKREFS
331
4C
102
}
  0
BLOCK_RECORD
  5
3A
330
1
100
AcDbSymbolTableRecord
100
AcDbBlockTableRecord
  2
A$C1CA47F7B
340
0
  0
BLOCK_RECORD
  5
D4
330
1
100
AcDbSymbolTableRecord
100
AcDbBlockTableRecord
  2
_DotSmall
340
0
  0
ENDTAB
  0
ENDSEC
  0
SECTION
  2
BLOCKS
  0
BLOCK
  5
20
330
1F
100
AcDbEntity
  8
0
100
AcDbBlockBegin
  2
*Model_Space
 70
     0
 10
0.0
 20
0.0
 30
0.0
  3
*Model_Space
  1

  0
ENDBLK
  5
21
330
1F
100
AcDbEntity
  8
0
100
AcDbBlockEnd
  0
BLOCK
  5
1C
330
1B
100
AcDbEntity
 67
     1
  8
0
100
AcDbBlockBegin
  2
*Paper_Space
 70
     0
 10
0.0
 20
0.0
 30
0.0
  3
*Paper_Space
  1

  0
ENDBLK
  5
1D
330
1B
100
AcDbEntity
 67
     1
  8
0
100
AcDbBlockEnd
  0
BLOCK
  5
24
330
23
100
AcDbEntity
 67
     1
  8
0
100
AcDbBlockBegin
  2
*Paper_Space0
 70
     0
 10
0.0
 20
0.0
 30
0.0
  3
*Paper_Space0
  1

  0
ENDBLK
  5
25
330
23
100
AcDbEntity
 67
     1
  8
0
100
AcDbBlockEnd
  0
BLOCK
  5
30
330
2B
100
AcDbEntity
  8
0
 62
     0
100
AcDbBlockBegin
  2
SW_CENTERMARK20
 70
     0
 10
0.0
 20
0.0
 30
0.0
  3
SW_CENTERMARK20
  1

  0
LINE
  5
2C
330
2B
100
AcDbEntity
  8
0
  6
Continuous
 62
     7
100
AcDbLine
 10
141.4744481843455
 20
204.1703796429477
 30
0.0
 11
141.4744481843455
 21
204.6703796429477
 31
0.0
  0
LINE
  5
2D
330
2B
100
AcDbEntity
  8
0
  6
Continuous
 62
     7
100
AcDbLine
 10
141.4744481843455
 20
204.1703796429477
 30
0.0
 11
140.9744481843455
 21
204.1703796429477
 31
0.0
  0
LINE
  5
2E
330
2B
100
AcDbEntity
  8
0
  6
Continuous
 62
     7
100
AcDbLine
 10
141.4744481843455
 20
204.1703796429477
 30
0.0
 11
141.4744481843455
 21
203.6703796429478
 31
0.0
  0
LINE
  5
2F
330
2B
100
AcDbEntity
  8
0
  6
Continuous
 62
     7
100
AcDbLine
 10
141.4744481843455
 20
204.1703796429477
 30
0.0
 11
141.9744481843455
 21
204.1703796429477
 31
0.0
  0
ENDBLK
  5
31
330
2B
100
AcDbEntity
  8
0
100
AcDbBlockEnd
  0
BLOCK
  5
37
330
32
100
AcDbEntity
  8
0
 62
     0
100
AcDbBlockBegin
  2
SW_CENTERMARK21
 70
     0
 10
0.0
 20
0.0
 30
0.0
  3
SW_CENTERMARK21
  1

  0
LINE
  5
33
330
32
100
AcDbEntity
  8
0
  6
Continuous
 62
     7
100
AcDbLine
 10
111.6207722527519
 20
263.3616402765711
 30
0.0
 11
111.6207722527519
 21
263.8616402765711
 31
0.0
  0
LINE
  5
34
330
32
100
AcDbEntity
  8
0
  6
Continuous
 62
     7
100
AcDbLine
 10
111.6207722527519
 20
263.3616402765711
 30
0.0
 11
111.1207722527519
 21
263.3616402765711
 31
0.0
  0
LINE
  5
35
330
32
100
AcDbEntity
  8
0
  6
Continuous
 62
     7
100
AcDbLine
 10
111.6207722527519
 20
263.3616402765711
 30
0.0
 11
111.6207722527519
 21
262.8616402765711
 31
0.0
  0
LINE
  5
36
330
32
100
AcDbEntity
  8
0
  6
Continuous
 62
     7
100
AcDbLine
 10
111.6207722527519
 20
263.3616402765711
 30
0.0
 11
112.1207722527519
 21
263.3616402765711
 31
0.0
  0
ENDBLK
  5
38
330
32
100
AcDbEntity
  8
0
100
AcDbBlockEnd
  0
BLOCK
  5
D2
330
3A
100
AcDbEntity
  8
0
100
AcDbBlockBegin
  2
A$C1CA47F7B
 70
     0
 10
0.0
 20
0.0
 30
0.0
  3
A$C1CA47F7B
  1

  0
LWPOLYLINE
  5
3B
330
3A
100
AcDbEntity
  8
0
  6
Continuous
 62
     7
100
AcDbPolyline
 90
       20
 70
   128
 43
0.0
 10
36.03219370317518
 20
6.015766424465709
 10
33.33910113412662
 20
6.224363764447531
 10
30.68671337304784
 20
6.671975308708198
 10
28.0750143141455
 20
7.35850648578156
 10
25.51960100351536
 20
8.283735754128741
 10
23.38563174018052
 20
9.267234999099628
 10
21.34067975515784
 20
10.41136048766159
 10
19.3848456723409
 20
11.71629378948685
 10
17.52380938838527
 20
13.18178255571979
 10
15.79435279537264
 20
14.77940858810524
 10
14.20250410353114
 20
16.49953308281979
 10
12.747648675736
 20
18.34160889030278
 10
11.43196074479266
 20
20.30700945446887
 10
10.27721164659056
 20
22.36590855995823
 10
9.293785605319214
 20
24.49514472102874
 10
8.479886539343141
 20
26.69406683061936
 10
7.836965430085953
 20
28.96334221632958
 10
7.372427408244078
 20
31.28762513089109
 10
7.093480977607768
 20
33.63360519281196
 10
6.999999285285383
 20
36.00019307118237
  0
LWPOLYLINE
  5
3C
330
3A
100
AcDbEntity
  8
0
  6
Continuous
 62
     7
100
AcDbPolyline
 90
       12
 70
   128
 43
0.0
 10
36.03220335808899
 20
6.015784421410415
 10
36.03233134002949
 20
6.0364183478097
 10
36.03322788025091
 20
6.181012023025544
 10
36.03497383827187
 20
6.463209133771016
 10
36.0377998294309
 20
6.921335056510997
 10
36.04158846689634
 20
7.539054558696875
 10
36.04631225521291
 20
8.315249240152809
 10
36.05194369892519
 20
9.248800700703043
 10
36.05862239117352
 20
10.36715920440395
 10
36.06618911365013
 20
11.64972716687762
 10
36.07459253255212
 20
13.09398643570458
 10
36.08378131407665
 20
14.69741885846525
  0
LWPOLYLINE
  5
3D
330
3A
100
AcDbEntity
  8
0
  6
Continuous
 62
     7
100
AcDbPolyline
 90
        3
 70
   128
 43
0.0
 10
39.00416982533716
 20
12.2057130308363
 10
38.97280922207219
 20
11.00295554333073
 10
38.96201715289985
 20
9.863900455362824
  0
LWPOLYLINE
  5
3E
330
3A
100
AcDbEntity
  8
0
  6
Continuous
 62
     7
100
AcDbPolyline
 90
        3
 70
   128
 43
0.0
 10
38.2629412549158
 20
9.182937493280775
 10
38.27349758052719
 20
10.33471461097579
 10
38.30472546911421
 20
11.55209199357523
  0
LINE
  5
3F
330
3A
100
AcDbEntity
  8
0
  6
Continuous
 62
     7
100
AcDbLine
 10
36.86441919553408
 20
11.22978017728971
 30
0.0
 11
36.86441919553391
 21
-0.0000003179887926
 31
0.0
  0
LINE
  5
40
330
3A
100
AcDbEntity
  8
0
  6
Continuous
 62
     7
100
AcDbLine
 10
36.46441919553411
 20
11.59327293287569
 30
0.0
 11
36.46441919553391
 21
0.3999996820111278
 31
0.0
  0
LWPOLYLINE
  5
41
330
3A
100
AcDbEntity
  8
0
  6
Continuous
 62
     7
100
AcDbPolyline
 90
       11
 70
   128
 43
0.0
 10
38.96201715289985
 20
9.863900455362852
 10
38.96081383587705
 20
8.039660639840462
 10
38.95992179818922
 20
6.412953109453894
 10
38.9593732061667
 20
4.977509868871237
 10
38.95918390808257
 20
3.747639254093286
 10
38.95931216928889
 20
2.836089545186041
 10
38.95969465404113
 20
2.086868967445894
 10
38.9603039845187
 20
1.501519653955256
 10
38.96112028568501
 20
1.076725004950048
 10
38.96209772218526
 20
0.8210152338746752
 10
38.9628056684291
 20
0.7655708241730679
  0
LWPOLYLINE
  5
42
330
3A
100
AcDbEntity
  8
0
  6
Continuous
 62
     7
100
AcDbPolyline
 90
       12
 70
   128
 43
0.0
 10
38.26406991297247
 20
-0.0000003179888495
 10
38.26275430733659
 20
0.1385961800195332
 10
38.26164501648043
 20
0.5537622598835981
 10
38.26105342580996
 20
0.9884146813718928
 10
38.26061087418063
 20
1.547538269720973
 10
38.26033697231963
 20
2.230278758364647
 10
38.26025019071128
 20
3.061531765140927
 10
38.26036979469922
 20
4.022468482909033
 10
38.26070062957498
 20
5.11153414431763
 10
38.26125043593564
 20
6.340655649197145
 10
38.26200323129384
 20
7.698536973401928
 10
38.2629412549158
 20
9.182937493280803
  0
LINE
  5
43
330
3A
100
AcDbEntity
  8
0
  6
Continuous
 62
     7
100
AcDbLine
 10
38.40712191812429
 20
0.0195230163249107
 30
0.0
 11
38.3537535422328
 21
0.012239450860676
 31
0.0
  0
LWPOLYLINE
  5
44
330
3A
100
AcDbEntity
  8
0
  6
Continuous
 62
     7
100
AcDbPolyline
 90
        5
 70
   128
 43
0.0
 10
38.96319657795436
 20
0.7349558614322973
 10
38.93535665663484
 20
0.5015705165555176
 10
38.83183425154241
 20
0.2905565548756783
 10
38.6643007274578
 20
0.1257041968102328
 10
38.47663308972375
 20
0.0373624369112236
  0
LINE
  5
45
330
3A
100
AcDbEntity
  8
0
  6
Continuous
 62
     7
100
AcDbLine
 10
38.35459914587071
 20
0.0060435165116814
 30
0.0
 11
38.40712191812432
 21
0.0195230163249107
 31
0.0
  0
LWPOLYLINE
  5
46
330
3A
100
AcDbEntity
  8
0
  6
Continuous
 62
     7
100
AcDbPolyline
 90
       13
 70
   128
 43
0.0
 10
38.35459914588245
 20
0.0060435165132162
 10
38.54038133307725
 20
0.0537228534995222
 10
38.68932335259842
 20
0.1384099442351783
 10
38.79982410894891
 20
0.2408383470272213
 10
38.87623259286363
 20
0.3474970438905416
 10
38.92312481710559
 20
0.4443479015184551
 10
38.94770822466202
 20
0.5190654260141514
 10
38.95889528745738
 20
0.5676755224220642
 10
38.96534330466437
 20
0.6070292601967538
 10
38.9689724879338
 20
0.6395179792689874
 10
38.97079149576621
 20
0.6650476260082599
 10
38.9716941584955
 20
0.6871644402746711
 10
38.97185663935415
 20
0.6961688308072099
  0
ARC
  5
47
330
3A
100
AcDbEntity
  8
0
  6
Continuous
 62
     7
100
AcDbCircle
 10
36.86441919553391
 20
0.3999996820111278
 30
0.0
 40
0.4000000000000057
100
AcDbArc
 50
180.0
 51
270.0000000000008
  0
LINE
  5
48
330
3A
100
AcDbEntity
  8
0
  6
Continuous
 62
     7
100
AcDbLine
 10
36.86441919553391
 20
-0.0000003179888779
 30
0.0
 11
38.26406991297247
 21
-0.0000003179888779
 31
0.0
  0
INSERT
  5
49
330
3A
100
AcDbEntity
  8
0
100
AcDbBlockReference
  2
SW_CENTERMARK20
 10
-105.4745039571348
 20
-199.1540930688968
 30
0.0
  0
LWPOLYLINE
  5
4A
330
3A
100
AcDbEntity
  8
0
  6
Continuous
 62
     7
100
AcDbPolyline
 90
        3
 70
   128
 43
0.0
 10
36.03220276778888
 20
6.015766131900875
 10
36.33088621003324
 20
5.959937676951625
 10
36.46441919553405
 20
5.884127513568529
  0
LWPOLYLINE
  5
4B
330
3A
100
AcDbEntity
  8
0
  6
Continuous
 62
     7
100
AcDbPolyline
 90
        9
 70
   128
 43
0.0
 10
38.2629412549158
 20
9.182937493280803
 10
38.4039117487614
 20
9.196195327731487
 10
38.53910579955599
 20
9.235452565557181
 10
38.66298366125793
 20
9.299100592128951
 10
38.77046928288752
 20
9.384531349612984
 10
38.85715830609132
 20
9.48824420541635
 10
38.91949853925794
 20
9.60598939500403
 10
38.9549355130311
 20
9.73294216133911
 10
38.96201715289982
 20
9.863900455361942
  0
INSERT
  5
4C
330
3A
100
AcDbEntity
  8
0
100
AcDbBlockReference
  2
SW_CENTERMARK21
 10
-105.4745039571348
 20
-199.1540930688968
 30
0.0
  0
LWPOLYLINE
  5
4D
330
3A
100
AcDbEntity
  8
0
  6
Continuous
 62
     7
100
AcDbPolyline
 90
       11
 70
   128
 43
0.0
 10
2.155878611746416
 20
64.48465760238764
 10
2.237317164795982
 20
65.05613489132997
 10
2.400164152125569
 20
65.60993935900552
 10
2.641028096629938
 20
66.13453738601061
 10
2.954892727718743
 20
66.61900361089237
 10
3.335221450960972
 20
67.05324846345451
 10
3.774093480234043
 20
67.42822829174059
 10
4.26236879726791
 20
67.73613370656022
 10
4.789878503110642
 20
67.97055222106251
 10
5.345636597225805
 20
68.12660179820136
 10
5.918068773676537
 20
68.20103252481101
  0
LWPOLYLINE
  5
4E
330
3A
100
AcDbEntity
  8
0
  6
Continuous
 62
     7
100
AcDbPolyline
 90
        5
 70
   128
 43
0.0
 10
5.491059687835587
 20
52.76958265430912
 10
5.649651754400764
 20
52.79452327626742
 10
5.790481864136282
 20
52.8707774711402
 10
5.93314930505052
 20
53.02424784843904
 10
6.012716109002411
 20
53.17697818972277
  0
LWPOLYLINE
  5
4F
330
3A
100
AcDbEntity
  8
0
  6
Continuous
 62
     7
100
AcDbPolyline
 90
       11
 70
   128
 43
0.0
 10
5.915099755155452
 20
67.80168399309736
 10
5.399910796349814
 20
67.73469633914868
 10
4.899728511646159
 20
67.59425171972367
 10
4.424969776387683
 20
67.38327505667161
 10
3.985521991057211
 20
67.10616018333394
 10
3.590537164711463
 20
66.76867833787645
 10
3.248241313793442
 20
66.37785797057057
 10
2.965763145813525
 20
65.94183836817695
 10
2.748985595759606
 20
65.46970014387245
 10
2.602423307162965
 20
64.97127612296441
 10
2.52912860941835
 20
64.45694656291625
  0
LWPOLYLINE
  5
50
330
3A
100
AcDbEntity
  8
0
  6
Continuous
 62
     7
100
AcDbPolyline
 90
        5
 70
   128
 43
0.0
 10
6.344698014688887
 20
53.03915384147439
 10
6.135278015862922
 20
52.74195808181201
 10
5.836903045847051
 20
52.54216562719958
 10
5.520047569551806
 20
52.47097933415171
 10
5.475270646077518
 20
52.47013193489067
  0
ARC
  5
51
330
3A
100
AcDbEntity
  8
0
  6
Continuous
 62
     7
100
AcDbCircle
 10
5.450270823684832
 20
39.86338862774255
 30
0.0
 40
1.000000000000011
100
AcDbArc
 50
26.56505117655219
 51
88.5674664417653
  0
LINE
  5
52
330
3A
100
AcDbEntity
  8
0
  6
Continuous
 62
     7
100
AcDbLine
 10
-0.0000004105019826
 20
41.39012168350169
 30
0.0
 11
-0.0000004105019542
 21
47.49999968201115
 31
0.0
  0
LINE
  5
53
330
3A
100
AcDbEntity
  8
0
  6
Continuous
 62
     7
100
AcDbLine
 10
0.3899996605409655
 20
47.49999968201115
 30
0.0
 11
0.389999660540937
 21
40.99024670126243
 31
0.0
  0
LINE
  5
54
330
3A
100
AcDbEntity
  8
0
  6
Continuous
 62
     7
100
AcDbLine
 10
5.475270646077504
 20
40.86307608334073
 30
0.0
 11
5.475270646077518
 21
52.47013193489067
 31
0.0
  0
ARC
  5
55
330
3A
100
AcDbEntity
  8
0
  6
Continuous
 62
     7
100
AcDbCircle
 10
0.3999995894980373
 20
41.39012168350169
 30
0.0
 40
0.4000000000000199
100
AcDbArc
 50
180.0
 51
268.5674664417621
  0
LINE
  5
56
330
3A
100
AcDbEntity
  8
0
  6
Continuous
 62
     7
100
AcDbLine
 10
0.389999660540937
 20
40.99024670126243
 30
0.0
 11
5.475270646077504
 21
40.86307608334073
 31
0.0
  0
LINE
  5
57
330
3A
100
AcDbEntity
  8
0
  6
Continuous
 62
     7
100
AcDbLine
 10
1.384242104535843
 20
53.37309189855557
 30
0.0
 11
2.155878611746402
 21
64.48465760238764
 31
0.0
  0
LINE
  5
58
330
3A
100
AcDbEntity
  8
0
  6
Continuous
 62
     7
100
AcDbLine
 10
2.52912860941835
 20
64.45694656291625
 30
0.0
 11
1.723349884325955
 21
52.85373292158585
 31
0.0
  0
LINE
  5
59
330
3A
100
AcDbEntity
  8
0
  6
Continuous
 62
     7
100
AcDbLine
 10
-0.0000004105019542
 20
47.49999968201115
 30
0.0
 11
-0.0000004105019826
 21
53.60987768052059
 31
0.0
  0
LINE
  5
5A
330
3A
100
AcDbEntity
  8
0
  6
Continuous
 62
     7
100
AcDbLine
 10
0.389999660540937
 20
54.00975266275986
 30
0.0
 11
0.3899996605409655
 21
47.49999968201115
 31
0.0
  0
ARC
  5
5B
330
3A
100
AcDbEntity
  8
0
  6
Continuous
 62
     7
100
AcDbCircle
 10
0.3999995894980373
 20
53.60987768052059
 30
0.0
 40
0.4000000000000453
100
AcDbArc
 50
91.43253355823876
 51
180.0
  0
LWPOLYLINE
  5
5C
330
3A
100
AcDbEntity
  8
0
  6
Continuous
 62
     7
100
AcDbPolyline
 90
        7
 70
   128
 43
0.0
 10
1.384242104535843
 20
53.37309189855557
 10
1.422734568590115
 20
53.10895235566718
 10
1.489290285174604
 20
52.98385863841025
 10
1.569655868688357
 20
52.90280266364286
 10
1.639527765607454
 20
52.86643086472884
 10
1.708855910329774
 20
52.85376538414559
 10
1.723349884325955
 20
52.85373292158585
  0
LWPOLYLINE
  5
5D
330
3A
100
AcDbEntity
  8
0
  6
Continuous
 62
     7
100
AcDbPolyline
 90
        9
 70
   128
 43
0.0
 10
0.9952030651058549
 20
53.06005716675031
 10
1.068868814677728
 20
53.06609070055199
 10
1.139653263680855
 20
53.08365114212708
 10
1.205118718705492
 20
53.11213374038548
 10
1.26301066325081
 20
53.15055760414205
 10
1.311335399355158
 20
53.19759948230461
 10
1.348428707089027
 20
53.25163933434183
 10
1.373013157397295
 20
53.31081612166343
 10
1.384242104535843
 20
53.37309189855557
  0
LWPOLYLINE
  5
5E
330
3A
100
AcDbEntity
  8
0
  6
Continuous
 62
     7
100
AcDbPolyline
 90
        9
 70
   128
 43
0.0
 10
1.707560842567886
 20
52.54537134826225
 10
1.710267031928736
 20
52.57520817326775
 10
1.71281944992765
 20
52.60841574682189
 10
1.715187206816736
 20
52.64459218585668
 10
1.717341647644659
 20
52.68329967764606
 10
1.719256699043327
 20
52.72406977828111
 10
1.720909184771613
 20
52.76640908184976
 10
1.722279106197774
 20
52.80980519170879
 10
1.723349884325955
 20
52.85373292158585
  0
LWPOLYLINE
  5
5F
330
3A
100
AcDbEntity
  8
0
  6
Continuous
 62
     7
100
AcDbPolyline
 90
        9
 70
   128
 43
0.0
 10
5.475270646077518
 20
52.47013193489067
 10
5.477916639699188
 20
52.49979044441582
 10
5.480421242649171
 20
52.53246542834432
 10
5.482756451633079
 20
52.56779155643673
 10
5.484896157305001
 20
52.60537385672114
 10
5.486816436189201
 20
52.64479213156878
 10
5.488495818162022
 20
52.68560565581146
 10
5.489915526503651
 20
52.72735810437126
 10
5.491059687835587
 20
52.76958265430912
  0
LWPOLYLINE
  5
60
330
3A
100
AcDbEntity
  8
0
  6
Continuous
 62
     7
100
AcDbPolyline
 90
        3
 70
   128
 43
0.0
 10
1.72334988432614
 20
52.8537329215859
 10
3.614665225160948
 20
52.81284314988392
 10
5.491059687835814
 20
52.76958265430917
  0
LWPOLYLINE
  5
61
330
3A
100
AcDbEntity
  8
0
  6
Continuous
 62
     7
100
AcDbPolyline
 90
        3
 70
   128
 43
0.0
 10
5.475270646077518
 20
52.47013193489067
 10
4.676973804681196
 20
52.48694904853284
 10
1.707560842567886
 20
52.54537134826225
  0
LWPOLYLINE
  5
62
330
3A
100
AcDbEntity
  8
0
  6
Continuous
 62
     7
100
AcDbPolyline
 90
        6
 70
   128
 43
0.0
 10
1.707560842567886
 20
52.54537134826225
 10
1.48422838243465
 20
52.57501088880587
 10
1.291571657714456
 20
52.64854253426062
 10
1.136472041050652
 20
52.75791745645472
 10
1.026638377213828
 20
52.90452686283629
 10
0.9952030651058549
 20
53.06005716675031
  0
LWPOLYLINE
  5
63
330
3A
100
AcDbEntity
  8
0
  6
Continuous
 62
     7
100
AcDbPolyline
 90
        5
 70
   128
 43
0.0
 10
0.9952030651058549
 20
53.06005716675031
 10
1.022995043582099
 20
53.43718810003228
 10
1.05020653659622
 20
53.80644635343322
 10
1.064403331645777
 20
53.99909789876969
 10
1.066435062251144
 20
54.02666871468008
  0
ARC
  5
64
330
3A
100
AcDbEntity
  8
0
  6
Continuous
 62
     7
100
AcDbCircle
 10
1.056435133294073
 20
54.42654369691934
 30
0.0
 40
0.4000000000000017
100
AcDbArc
 50
271.3956923368643
 51
356.0275040592517
  0
LINE
  5
65
330
3A
100
AcDbEntity
  8
0
  6
Continuous
 62
     7
100
AcDbLine
 10
1.066177940342768
 20
54.02666236738418
 30
0.0
 11
0.389999660540937
 21
54.00975266275989
 31
0.0
  0
LWPOLYLINE
  5
66
330
3A
100
AcDbEntity
  8
0
  6
Continuous
 62
     7
100
AcDbPolyline
 90
        9
 70
   128
 43
0.0
 10
2.52912860941835
 20
64.45694656291625
 10
2.455043159028562
 20
64.46214465034177
 10
2.384488654581844
 20
64.46715896533078
 10
2.319959469897639
 20
64.47181223251118
 10
2.263736960505781
 20
64.47593994094325
 10
2.217808808930442
 20
64.47939616021574
 10
2.183798752447728
 20
64.4820586996488
 10
2.162909177711128
 20
64.48383342820562
 10
2.155878611746402
 20
64.48465760238764
  0
LINE
  5
67
330
3A
100
AcDbEntity
  8
0
  6
Continuous
 62
     7
100
AcDbLine
 10
36.86441919553414
 20
79.0916621257673
 30
0.0
 11
36.86441919553411
 21
13.77001451708884
 31
0.0
  0
LINE
  5
68
330
3A
100
AcDbEntity
  8
0
  6
Continuous
 62
     7
100
AcDbLine
 10
38.99994422721099
 20
80.35123169503766
 30
0.0
 11
38.99994422721099
 21
51.83758320334428
 31
0.0
  0
LINE
  5
69
330
3A
100
AcDbEntity
  8
0
  6
Continuous
 62
     7
100
AcDbLine
 10
38.299944227211
 20
51.76364390084896
 30
0.0
 11
38.299944227211
 21
80.30973112802774
 31
0.0
  0
LINE
  5
6A
330
3A
100
AcDbEntity
  8
0
  6
Continuous
 62
     7
100
AcDbLine
 10
36.46441919553416
 20
79.11616768938478
 30
0.0
 11
36.46441919553411
 21
13.83693673499769
 31
0.0
  0
LINE
  5
6B
330
3A
100
AcDbEntity
  8
0
  6
Continuous
 62
     7
100
AcDbLine
 10
6.344698014688887
 20
53.03915384147439
 30
0.0
 11
6.344698014688859
 21
40.31060222323429
 31
0.0
  0
LWPOLYLINE
  5
6C
330
3A
100
AcDbEntity
  8
0
  6
Continuous
 62
     7
100
AcDbPolyline
 90
       16
 70
   128
 43
0.0
 10
6.788853667356704
 20
39.42430912558009
 10
6.793214148627171
 20
39.57605435936847
 10
6.803897308583287
 20
39.96393065632913
 10
6.819816671892212
 20
40.58107186739866
 10
6.838996380664411
 20
41.40894260306152
 10
6.858878010125934
 20
42.40959626981191
 10
6.877425932919294
 20
43.56558111727671
 10
6.892003512102945
 20
44.80958146592397
 10
6.901563391323279
 20
46.13385525596067
 10
6.904821776659147
 20
47.46537571273978
 10
6.901885483411319
 20
48.79789118160087
 10
6.893049514324545
 20
50.07894541492297
 10
6.879428188449423
 20
51.28831891738181
 10
6.862238968257784
 20
52.40122425649599
 10
6.843499506485571
 20
53.37969050902327
 10
6.824903982860888
 20
54.20920857238769
  0
LWPOLYLINE
  5
6D
330
3A
100
AcDbEntity
  8
0
  6
Continuous
 62
     7
100
AcDbPolyline
 90
       17
 70
   128
 43
0.0
 10
7.030799975458592
 20
55.17856363745974
 10
7.048703390436216
 20
54.31701312504748
 10
7.068371296524702
 20
53.22231747983801
 10
7.086867201692612
 20
51.95702426828262
 10
7.101698435338818
 20
50.58267333473731
 10
7.11162137192565
 20
49.11774972402767
 10
7.115307441379229
 20
47.63200229264436
 10
7.112732819895782
 20
46.14247793957656
 10
7.104120569098029
 20
44.70411379281793
 10
7.09058512137318
 20
43.34379269046894
 10
7.073406568161416
 20
42.09310730247776
 10
7.054604672829526
 20
40.99183496388312
 10
7.035904232162067
 20
40.05679849012977
 10
7.019617156927466
 20
39.32910123543931
 10
7.007403948542972
 20
38.82233831291808
 10
7.000823494971726
 20
38.56226100119622
 10
6.999999285285383
 20
38.53011714138819
  0
LWPOLYLINE
  5
6E
330
3A
100
AcDbEntity
  8
0
  6
Continuous
 62
     7
100
AcDbPolyline
 90
        3
 70
   128
 43
0.0
 10
8.506419069398234
 20
41.44457273008777
 10
8.462147638705346
 20
45.41444935434376
 10
8.340963766747492
 20
56.61003113442873
  0
LINE
  5
6F
330
3A
100
AcDbEntity
  8
0
  6
Continuous
 62
     7
100
AcDbLine
 10
36.27494205989103
 20
16.78814279885242
 30
0.0
 11
36.27494205989007
 21
58.81835373179097
 31
0.0
  0
LINE
  5
70
330
3A
100
AcDbEntity
  8
0
  6
Continuous
 62
     7
100
AcDbLine
 10
9.783576944621273
 20
56.837341481673
 30
0.0
 11
9.94812046038011
 21
41.67188307733201
 31
0.0
  0
LWPOLYLINE
  5
71
330
3A
100
AcDbEntity
  8
0
  6
Continuous
 62
     7
100
AcDbPolyline
 90
        5
 70
   128
 43
0.0
 10
38.9787831053942
 20
51.53893709238653
 10
38.97767898244149
 20
42.8385811491207
 10
38.97625483190356
 20
34.15149978926578
 10
38.97434747640605
 20
25.47594745123476
 10
38.97166488112009
 20
16.81729354411826
  0
LWPOLYLINE
  5
72
330
3A
100
AcDbEntity
  8
0
  6
Continuous
 62
     7
100
AcDbPolyline
 90
        6
 70
   128
 43
0.0
 10
38.27219664154777
 20
16.6993189684658
 10
38.27458950742417
 20
24.59147582326935
 10
38.27634143772525
 20
32.50048399306408
 10
38.27767906715101
 20
40.42769326334741
 10
38.27873336876596
 20
48.36911362709694
 10
38.279085630434
 20
51.46254773993629
  0
LWPOLYLINE
  5
73
330
3A
100
AcDbEntity
  8
0
  6
Continuous
 62
     7
100
AcDbPolyline
 90
       20
 70
   128
 43
0.0
 10
36.08378131407665
 20
14.69741885846525
 10
34.60640184449434
 20
14.70526477281018
 10
33.13366102239215
 20
14.78761556923933
 10
30.72028011657991
 20
15.09032147923162
 10
28.33813253429529
 20
15.60130471496143
 10
26.01332236245062
 20
16.31720147942596
 10
23.77195368795824
 20
17.23464797562252
 10
21.63381453887571
 20
18.35083916549038
 10
19.59781536121542
 20
19.66460758693805
 10
17.68858862744024
 20
21.16119101585366
 10
15.93076681001305
 20
22.82582722812541
 10
14.41546993052891
 20
24.55426592625907
 10
13.0499380876098
 20
26.42229125785571
 10
11.84854286262315
 20
28.40855489084265
 10
10.82565583693642
 20
30.4917084931474
 10
10.00488902485884
 20
32.61216380936281
 10
9.359138558499807
 20
34.80887285201382
 10
8.892124182838685
 20
37.05866211774455
 10
8.607565642854879
 20
39.33835810319905
 10
8.506419069398219
 20
41.44457273008777
  0
LWPOLYLINE
  5
74
330
3A
100
AcDbEntity
  8
0
  6
Continuous
 62
     7
100
AcDbPolyline
 90
       20
 70
   128
 43
0.0
 10
9.94812046038011
 20
41.67188307733201
 10
10.05949107370634
 20
39.49322651411069
 10
10.34411231143143
 20
37.32966390317253
 10
10.80079263684041
 20
35.20388547840184
 10
11.42834051321834
 20
33.13858147368307
 10
12.23010169698803
 20
31.14000883982863
 10
13.20082471328072
 20
29.21841580340961
 10
14.32916225036834
 20
27.39468323612724
 10
15.6037669965228
 20
25.68969200968272
 10
16.98859765075451
 20
24.14475880311272
 10
18.50256360960014
 20
22.72409527930173
 10
20.12858810726
 20
21.44041113566772
 10
21.84959437793437
 20
20.30641606962854
 10
23.68565520150952
 20
19.31353276271133
 10
25.60485833863277
 20
18.47802587032086
 10
27.58755864615387
 20
17.80474101101774
 10
29.6141109809227
 20
17.29852380336254
 10
31.8114823352235
 20
16.94339014592327
 10
34.03905690665695
 20
16.77384044192058
 10
36.27494205989103
 20
16.78814279885242
  0
LINE
  5
75
330
3A
100
AcDbEntity
  8
0
  6
Continuous
 62
     7
100
AcDbLine
 10
6.78885366735669
 20
39.42229091787817
 30
0.0
 11
6.788853667356704
 21
39.42430912558007
 31
0.0
  0
LWPOLYLINE
  5
76
330
3A
100
AcDbEntity
  8
0
  6
Continuous
 62
     7
100
AcDbPolyline
 90
        5
 70
   128
 43
0.0
 10
6.788853667356704
 20
39.42430912558007
 10
6.834675467733177
 20
39.32612309440947
 10
6.887248898056242
 20
39.19197044547099
 10
6.970790913135232
 20
38.87057129514213
 10
6.999999285285383
 20
38.53011714138819
  0
LINE
  5
77
330
3A
100
AcDbEntity
  8
0
  6
Continuous
 62
     7
100
AcDbLine
 10
6.999999285285383
 20
38.53011714138819
 30
0.0
 11
6.999999285285383
 21
38.53009312759485
 31
0.0
  0
LINE
  5
78
330
3A
100
AcDbEntity
  8
0
  6
Continuous
 62
     7
100
AcDbLine
 10
6.999999285285383
 20
38.53009312759485
 30
0.0
 11
6.999999285285383
 21
36.00019307118211
 31
0.0
  0
LWPOLYLINE
  5
79
330
3A
100
AcDbEntity
  8
0
  6
Continuous
 62
     7
100
AcDbPolyline
 90
        9
 70
   128
 43
0.0
 10
8.506419069398234
 20
41.44457273008777
 10
8.21064065957637
 20
40.34914081448746
 10
7.944464357634743
 20
39.37489421755001
 10
7.665187149812553
 20
38.36388023819333
 10
7.43276108833956
 20
37.53104928837587
 10
7.245144132067267
 20
36.86425855126143
 10
7.109817918332197
 20
36.38639018601756
 10
7.028726189116454
 20
36.10104671229627
 10
6.999999285285383
 20
36.00019307118211
  0
LWPOLYLINE
  5
7A
330
3A
100
AcDbEntity
  8
0
  6
Continuous
 62
     7
100
AcDbPolyline
 90
        9
 70
   128
 43
0.0
 10
9.94812046038011
 20
41.67188307733201
 10
9.666572505177072
 20
41.65616532854548
 10
9.403752538965292
 20
41.63568210052662
 10
9.165579781509251
 20
41.61089471563954
 10
8.957418349217718
 20
41.58236143428064
 10
8.783956444748923
 20
41.55072488176261
 10
8.649100769515712
 20
41.51669757513525
 10
8.55588853712743
 20
41.48104587590762
 10
8.506419069398234
 20
41.44457273008777
  0
ARC
  5
7B
330
3A
100
AcDbEntity
  8
0
  6
Continuous
 62
     7
100
AcDbCircle
 10
4.999999285295132
 20
38.52786372686793
 30
0.0
 40
2.000000000016012
100
AcDbArc
 50
8.685298881618605
 51
26.56505117746943
  0
LINE
  5
7C
330
3A
100
AcDbEntity
  8
0
  6
Continuous
 62
     7
100
AcDbLine
 10
6.344698014688859
 20
40.31060222323429
 30
0.0
 11
6.788853667303186
 21
39.42229091788721
 31
0.0
  0
LWPOLYLINE
  5
7D
330
3A
100
AcDbEntity
  8
0
  6
Continuous
 62
     7
100
AcDbPolyline
 90
        3
 70
   128
 43
0.0
 10
36.46441919553411
 20
16.79711026286745
 10
36.42598643130913
 20
16.79485038233599
 10
36.27494205989103
 20
16.78814279885242
  0
LWPOLYLINE
  5
7E
330
3A
100
AcDbEntity
  8
0
  6
Continuous
 62
     7
100
AcDbPolyline
 90
        4
 70
   128
 43
0.0
 10
36.46441919553408
 20
14.59491285476144
 10
36.43999102592065
 20
14.60636445676598
 10
36.26647634927929
 20
14.66723510791348
 10
36.08378131407665
 20
14.69741885846525
  0
LWPOLYLINE
  5
7F
330
3A
100
AcDbEntity
  8
0
  6
Continuous
 62
     7
100
AcDbPolyline
 90
        6
 70
   128
 43
0.0
 10
36.08378131407653
 20
14.6974188584652
 10
36.16320833098655
 20
15.0903170696404
 10
36.19768388989718
 20
15.36211609405319
 10
36.22737407927516
 20
15.67564148043129
 10
36.2655902027214
 20
16.34300771511681
 10
36.27494205989103
 20
16.78814279885239
  0
LWPOLYLINE
  5
80
330
3A
100
AcDbEntity
  8
0
  6
Continuous
 62
     7
100
AcDbPolyline
 90
        9
 70
   128
 43
0.0
 10
36.86441919553408
 20
11.22978017728971
 10
36.77909554940445
 20
11.23814605028897
 10
36.69769939165735
 20
11.26285858413737
 10
36.62397742650015
 20
11.30278024904106
 10
36.56132311137196
 20
11.35607343160404
 10
36.51262045446916
 20
11.42028502105481
 10
36.48011126246391
 20
11.49245932711252
 10
36.46529194906705
 20
11.56927413182913
 10
36.46442949778165
 20
11.59588175192377
  0
LINE
  5
81
330
3A
100
AcDbEntity
  8
0
  6
Continuous
 62
     7
100
AcDbLine
 10
36.85336928851408
 20
11.5520919935752
 30
0.0
 11
36.86441919553408
 21
11.22978017728971
 31
0.0
  0
LINE
  5
82
330
3A
100
AcDbEntity
  8
0
  6
Continuous
 62
     7
100
AcDbLine
 10
38.30472546911423
 20
11.5520919935752
 30
0.0
 11
36.85336928851408
 21
11.5520919935752
 31
0.0
  0
LWPOLYLINE
  5
83
330
3A
100
AcDbEntity
  8
0
  6
Continuous
 62
     7
100
AcDbPolyline
 90
        9
 70
   128
 43
0.0
 10
36.85336928851408
 20
11.5520919935752
 10
36.76882384012654
 20
11.55925295135898
 10
36.68810181097931
 20
11.58248100260601
 10
36.61485371290055
 20
11.62072569954236
 10
36.55239206232792
 20
11.67225749299774
 10
36.50354157757724
 20
11.73474594822568
 10
36.47051143592367
 20
11.8053651347169
 10
36.45479536744389
 20
11.88092142393768
 10
36.45424253114035
 20
11.88812360267928
  0
LWPOLYLINE
  5
84
330
3A
100
AcDbEntity
  8
0
  6
Continuous
 62
     7
100
AcDbPolyline
 90
        4
 70
   128
 43
0.0
 10
36.85346005084006
 20
13.02729418452017
 10
36.84373668921842
 20
12.39439670158631
 10
36.84439209505672
 20
11.87056686467602
 10
36.85336928851408
 20
11.5520919935752
  0
LWPOLYLINE
  5
85
330
3A
100
AcDbEntity
  8
0
  6
Continuous
 62
     7
100
AcDbPolyline
 90
        9
 70
   128
 43
0.0
 10
38.30472546911423
 20
11.5520919935752
 10
38.44446406617393
 20
11.56401468104508
 10
38.57857619429604
 20
11.60099606065026
 10
38.70166193005991
 20
11.6615471051069
 10
38.80876531939484
 20
11.74322977239993
 10
38.89557392532282
 20
11.84275517170073
 10
38.95859246497256
 20
11.95611598806948
 10
38.99528354450092
 20
12.07874783396073
 10
39.00416982533716
 20
12.2057130308363
  0
LWPOLYLINE
  5
86
330
3A
100
AcDbEntity
  8
0
  6
Continuous
 62
     7
100
AcDbPolyline
 90
        4
 70
   128
 43
0.0
 10
39.00214595503624
 20
13.16086127983169
 10
39.00727615868468
 20
12.75187819805325
 10
39.00775474960457
 20
12.41332464507829
 10
39.00416982533707
 20
12.2057130308363
  0
LWPOLYLINE
  5
87
330
3A
100
AcDbEntity
  8
0
  6
Continuous
 62
     7
100
AcDbPolyline
 90
        4
 70
   128
 43
0.0
 10
38.30472546911418
 20
11.5520919935752
 10
38.30851139911769
 20
11.93419544527202
 10
38.30736370459519
 20
12.47746979402029
 10
38.30265900872516
 20
13.02729418452017
  0
LWPOLYLINE
  5
88
330
3A
100
AcDbEntity
  8
0
  6
Continuous
 62
     7
100
AcDbPolyline
 90
        9
 70
   128
 43
0.0
 10
36.85346005084006
 20
13.0272941845202
 10
36.7689116724633
 20
13.03124351981452
 10
36.68818715304033
 20
13.03806273409486
 10
36.61493741033337
 20
13.04744341560825
 10
36.55247530131126
 20
13.05896130544297
 10
36.50362579198097
 20
13.07209548543335
 10
36.47059819300253
 20
13.08625193766065
 10
36.45488623947179
 20
13.10079041002734
 10
36.45364451463164
 20
13.10675468360918
  0
LWPOLYLINE
  5
89
330
3A
100
AcDbEntity
  8
0
  6
Continuous
 62
     7
100
AcDbPolyline
 90
        9
 70
   128
 43
0.0
 10
38.30265900872518
 20
13.0272941845202
 10
38.44215644413069
 20
13.03196389026439
 10
38.57605626299798
 20
13.04117951303976
 10
38.69898546446595
 20
13.05457125735651
 10
38.80601126586967
 20
13.07160175240744
 10
38.89283904061472
 20
13.09158761515772
 10
38.95598464874911
 20
13.11372687247055
 10
38.99291424512091
 20
13.13713114189983
 10
39.00214595503624
 20
13.16086127983169
  0
LINE
  5
8A
330
3A
100
AcDbEntity
  8
0
  6
Continuous
 62
     7
100
AcDbLine
 10
38.97166488112009
 20
16.81729354411826
 30
0.0
 11
39.00214595503624
 21
13.16086127983169
 31
0.0
  0
LWPOLYLINE
  5
8B
330
3A
100
AcDbEntity
  8
0
  6
Continuous
 62
     7
100
AcDbPolyline
 90
        9
 70
   128
 43
0.0
 10
38.27219664154777
 20
16.6993189684658
 10
38.41210337331592
 20
16.70156585958162
 10
38.54636433196612
 20
16.70831374619473
 10
38.6695615729752
 20
16.71929032520455
 10
38.77672361525211
 20
16.73405264955696
 10
38.86352605946374
 20
16.75200500285615
 10
38.92646609413061
 20
16.77242293880581
 10
38.96300384750185
 20
16.79448251539514
 10
38.97166488112009
 20
16.81729354411826
  0
LWPOLYLINE
  5
8C
330
3A
100
AcDbEntity
  8
0
  6
Continuous
 62
     7
100
AcDbPolyline
 90
        9
 70
   128
 43
0.0
 10
36.86441919553411
 20
13.77001451708884
 10
36.77909554940462
 20
13.77155474799372
 10
36.69769939165761
 20
13.77610454314057
 10
36.62397742650046
 20
13.7834544732751
 10
36.56132311137231
 20
13.79326621758557
 10
36.51262045446944
 20
13.8050881367723
 10
36.48011126246414
 20
13.81837606222106
 10
36.46529194906714
 20
13.832518344346
 10
36.46441919553411
 20
13.83693673499769
  0
LINE
  5
8D
330
3A
100
AcDbEntity
  8
0
  6
Continuous
 62
     7
100
AcDbLine
 10
36.86441919553411
 20
13.77001451708884
 30
0.0
 11
36.85346005084006
 21
13.0272941845202
 31
0.0
  0
LINE
  5
8E
330
3A
100
AcDbEntity
  8
0
  6
Continuous
 62
     7
100
AcDbLine
 10
36.85346005084006
 20
13.0272941845202
 30
0.0
 11
38.30265900872518
 21
13.0272941845202
 31
0.0
  0
LINE
  5
8F
330
3A
100
AcDbEntity
  8
0
  6
Continuous
 62
     7
100
AcDbLine
 10
38.30265900872518
 20
13.0272941845202
 30
0.0
 11
38.27219664154777
 21
16.6993189684658
 31
0.0
  0
LWPOLYLINE
  5
90
330
3A
100
AcDbEntity
  8
0
  6
Continuous
 62
     7
100
AcDbPolyline
 90
        3
 70
   128
 43
0.0
 10
36.452351959444
 20
11.88770527914133
 10
36.46166494219278
 20
11.74614824559808
 10
36.45808648898185
 20
11.59481188597331
  0
LWPOLYLINE
  5
91
330
3A
100
AcDbEntity
  8
0
  6
Continuous
 62
     7
100
AcDbPolyline
 90
        6
 70
   128
 43
0.0
 10
36.45387890922908
 20
13.10708051224461
 10
36.44714528571538
 20
12.83606353651936
 10
36.4433791347532
 20
12.54596409016551
 10
36.44312795359198
 20
12.28637157374635
 10
36.44651545153127
 20
12.06403394417029
 10
36.45439164996722
 20
11.88802579616535
  0
LWPOLYLINE
  5
92
330
3A
100
AcDbEntity
  8
0
  6
Continuous
 62
     7
100
AcDbPolyline
 90
        3
 70
   128
 43
0.0
 10
36.46229443815389
 20
13.83695537364875
 10
36.46181615455589
 20
13.47816312760327
 10
36.4470736732707
 20
13.10681471390322
  0
LINE
  5
93
330
3A
100
AcDbEntity
  8
0
  6
Continuous
 62
     7
100
AcDbLine
 10
5.918068773676537
 20
68.20103252481101
 30
0.0
 11
36.46441919553414
 21
69.94654102421264
 31
0.0
  0
LINE
  5
94
330
3A
100
AcDbEntity
  8
0
  6
Continuous
 62
     7
100
AcDbLine
 10
36.46441919553414
 20
69.54736215096858
 30
0.0
 11
5.915099755155452
 21
67.80168399309736
 31
0.0
  0
LINE
  5
95
330
3A
100
AcDbEntity
  8
0
  6
Continuous
 62
     7
100
AcDbLine
 10
8.740001883514565
 20
62.29763108625684
 30
0.0
 11
36.10517383926762
 21
65.88353493997885
 31
0.0
  0
LWPOLYLINE
  5
96
330
3A
100
AcDbEntity
  8
0
  6
Continuous
 62
     7
100
AcDbPolyline
 90
        5
 70
   128
 43
0.0
 10
36.13234529611364
 20
65.48745167584235
 10
35.34072200970232
 20
65.38387986350824
 10
32.1742401112194
 20
64.96950381673116
 10
19.50850485321027
 20
63.31048353158746
 10
8.767129659622625
 20
61.90139124842494
  0
LWPOLYLINE
  5
97
330
3A
100
AcDbEntity
  8
0
  6
Continuous
 62
     7
100
AcDbPolyline
 90
        5
 70
   128
 43
0.0
 10
10.05720417260822
 20
58.53883437135016
 10
13.8968938848799
 20
58.83414338312213
 10
21.57695722261853
 20
59.41311829293778
 10
29.28806493536436
 20
59.9800892637391
 10
36.14104903362124
 20
60.47320851745786
  0
LINE
  5
98
330
3A
100
AcDbEntity
  8
0
  6
Continuous
 62
     7
100
AcDbLine
 10
36.27494205989007
 20
58.81835373179097
 30
0.0
 11
9.783576944621273
 21
56.837341481673
 31
0.0
  0
LWPOLYLINE
  5
99
330
3A
100
AcDbEntity
  8
0
  6
Continuous
 62
     7
100
AcDbPolyline
 90
        6
 70
   128
 43
0.0
 10
6.65662295014151
 20
59.92291621606415
 10
6.791149164829747
 20
60.71487069616598
 10
7.179745753679071
 20
61.41755000103888
 10
7.778262566118002
 20
61.95170054521025
 10
8.520496249071214
 20
62.258366520256
 10
8.740001883514565
 20
62.29763108625684
  0
LWPOLYLINE
  5
9A
330
3A
100
AcDbEntity
  8
0
  6
Continuous
 62
     7
100
AcDbPolyline
 90
        6
 70
   128
 43
0.0
 10
8.767129659622625
 20
61.901391248425
 10
8.124163219396137
 20
61.70306282130536
 10
7.583178322654461
 20
61.30173177622566
 10
7.208162021522596
 20
60.74610369335886
 10
7.038586137737908
 20
60.09940013765515
 10
7.030799975458606
 20
59.92291621606415
  0
LWPOLYLINE
  5
9B
330
3A
100
AcDbEntity
  8
0
  6
Continuous
 62
     7
100
AcDbPolyline
 90
        7
 70
   128
 43
0.0
 10
8.767129659622625
 20
61.901391248425
 10
8.878485396955554
 20
61.61401860190943
 10
9.069929812213345
 20
61.11825920685555
 10
9.256568328961307
 20
60.63363550250699
 10
9.483441926027751
 20
60.04283436377858
 10
9.750841815556483
 20
59.34375735548804
 10
10.05720417260822
 20
58.53883437135016
  0
LWPOLYLINE
  5
9C
330
3A
100
AcDbEntity
  8
0
  6
Continuous
 62
     7
100
AcDbPolyline
 90
        9
 70
   128
 43
0.0
 10
6.344698014688887
 20
53.03915384147439
 10
6.324893511362233
 20
53.04839132691785
 10
6.29722415834199
 20
53.06062117026758
 10
6.262333851944376
 20
53.07555876960055
 10
6.221034528022855
 20
53.09285651052985
 10
6.174287267326832
 20
53.11211185557465
 10
6.123179930094025
 20
53.13287671165039
 10
6.068901840344764
 20
53.15466785768851
 10
6.012716109002411
 20
53.17697818972277
  0
LINE
  5
9D
330
3A
100
AcDbEntity
  8
0
  6
Continuous
 62
     7
100
AcDbLine
 10
7.030799975458592
 20
55.17856363745974
 30
0.0
 11
6.65662295014151
 21
55.17856363745974
 31
0.0
  0
LWPOLYLINE
  5
9E
330
3A
100
AcDbEntity
  8
0
  6
Continuous
 62
     7
100
AcDbPolyline
 90
        9
 70
   128
 43
0.0
 10
6.824903982860888
 20
54.20920857238769
 10
6.806466656829229
 20
54.21854203199081
 10
6.77970176428569
 20
54.23126045640401
 10
6.74526614102676
 20
54.24705172345395
 10
6.704004869841213
 20
54.26552830050034
 10
6.656930541378528
 20
54.2862367548542
 10
6.605198404215968
 20
54.30866888144456
 10
6.550078013964963
 20
54.33227417465261
 10
6.492922077175023
 20
54.35647333824047
  0
LINE
  5
9F
330
3A
100
AcDbEntity
  8
0
  6
Continuous
 62
     7
100
AcDbLine
 10
7.030799975458606
 20
59.92291621606432
 30
0.0
 11
6.65662295014151
 21
59.92291621606415
 31
0.0
  0
LINE
  5
A0
330
3A
100
AcDbEntity
  8
0
  6
Continuous
 62
     7
100
AcDbLine
 10
6.012716109002411
 20
53.17697818972277
 30
0.0
 11
6.492922077175023
 21
54.35647333824047
 31
0.0
  0
LWPOLYLINE
  5
A1
330
3A
100
AcDbEntity
  8
0
  6
Continuous
 62
     7
100
AcDbPolyline
 90
        3
 70
   128
 43
0.0
 10
6.492922077175023
 20
54.35647333824047
 10
6.61386961446739
 20
54.75105636911118
 10
6.656622950141496
 20
55.17856363745974
  0
LINE
  5
A2
330
3A
100
AcDbEntity
  8
0
  6
Continuous
 62
     7
100
AcDbLine
 10
6.65662295014151
 20
55.17856363745974
 30
0.0
 11
6.65662295014151
 21
59.92291621606415
 31
0.0
  0
LWPOLYLINE
  5
A3
330
3A
100
AcDbEntity
  8
0
  6
Continuous
 62
     7
100
AcDbPolyline
 90
        4
 70
   128
 43
0.0
 10
6.824903982860888
 20
54.20920857238769
 10
6.670495079958783
 20
53.84046407456526
 10
6.518383979463081
 20
53.4707527970917
 10
6.344698014688887
 20
53.03915384147439
  0
LWPOLYLINE
  5
A4
330
3A
100
AcDbEntity
  8
0
  6
Continuous
 62
     7
100
AcDbPolyline
 90
        6
 70
   128
 43
0.0
 10
7.030799975458592
 20
55.17856363745974
 10
7.022360732523424
 20
54.97948794669579
 10
6.997337861186153
 20
54.78056109928752
 10
6.954738851258369
 20
54.58032521356878
 10
6.894546717115957
 20
54.38317705714982
 10
6.824903982860888
 20
54.20920857238769
  0
LWPOLYLINE
  5
A5
330
3A
100
AcDbEntity
  8
0
  6
Continuous
 62
     7
100
AcDbPolyline
 90
        9
 70
   128
 43
0.0
 10
10.05720417260824
 20
58.53883437135016
 10
9.714684593095526
 20
58.45492803520698
 10
9.391424780689547
 20
58.31360859091597
 10
9.097484566138376
 20
58.1192738931947
 10
8.842011355630361
 20
57.87797162905064
 10
8.632955463927018
 20
57.59721111403519
 10
8.476822700927158
 20
57.28572960268298
 10
8.37847191115685
 20
56.95322038554576
 10
8.340963766747492
 20
56.61003113442873
  0
LWPOLYLINE
  5
A6
330
3A
100
AcDbEntity
  8
0
  6
Continuous
 62
     7
100
AcDbPolyline
 90
        8
 70
   128
 43
0.0
 10
8.340963766747492
 20
56.61003113442873
 10
8.034811173246524
 20
57.39011456462361
 10
7.766962273972481
 20
58.06943016959826
 10
7.537546836186081
 20
58.64911720227434
 10
7.348127580668062
 20
59.12640360735366
 10
7.198005335753748
 20
59.50382208598864
 10
7.089737083509305
 20
59.77539280411463
 10
7.030799975458606
 20
59.92291621606432
  0
LINE
  5
A7
330
3A
100
AcDbEntity
  8
0
  6
Continuous
 62
     7
100
AcDbLine
 10
7.030799975458606
 20
59.92291621606432
 30
0.0
 11
7.030799975458592
 21
55.17856363745974
 31
0.0
  0
LWPOLYLINE
  5
A8
330
3A
100
AcDbEntity
  8
0
  6
Continuous
 62
     7
100
AcDbPolyline
 90
        9
 70
   128
 43
0.0
 10
9.783576944621273
 20
56.837341481673
 10
9.50086400225193
 20
56.82174684533902
 10
9.237064986229242
 20
56.80134335351169
 10
8.998171758668064
 20
56.77659444578819
 10
8.789610478093564
 20
56.74806226240995
 10
8.616118351090307
 20
56.71639487595595
 10
8.481636032626198
 20
56.68231157119084
 10
8.389218119042297
 20
56.64658650741848
 10
8.340963766747492
 20
56.61003113442873
  0
LWPOLYLINE
  5
A9
330
3A
100
AcDbEntity
  8
0
  6
Continuous
 62
     7
100
AcDbPolyline
 90
        9
 70
   128
 43
0.0
 10
9.783576944621273
 20
56.837341481673
 10
9.777437135966479
 20
57.13075029073468
 10
9.783775687871283
 20
57.41247539737805
 10
9.802450378269696
 20
57.67619555862592
 10
9.833042191416424
 20
57.91599351975794
 10
9.874864719606051
 20
58.12648878346664
 10
9.926979564533397
 20
58.30295833545176
 10
9.988217392725047
 20
58.44144261765535
 10
10.05720417260824
 20
58.53883437135016
  0
LWPOLYLINE
  5
AA
330
3A
100
AcDbEntity
  8
0
  6
Continuous
 62
     7
100
AcDbPolyline
 90
        9
 70
   128
 43
0.0
 10
5.915099755155452
 20
67.80168399309736
 10
5.911169744151422
 20
67.87941346418711
 10
5.908376491732937
 20
67.95416976330051
 10
5.906826840513232
 20
68.02309344304319
 10
5.906580065044295
 20
68.08354815519038
 10
5.907645604550424
 20
68.1332214916751
 10
5.90998270187535
 20
68.17021343478285
 10
5.913501962453835
 20
68.19310903331097
 10
5.918068773676537
 20
68.20103252481101
  0
LWPOLYLINE
  5
AB
330
3A
100
AcDbEntity
  8
0
  6
Continuous
 62
     7
100
AcDbPolyline
 90
        9
 70
   128
 43
0.0
 10
8.767129659622625
 20
61.901391248425
 10
8.770631977243724
 20
61.91184863542554
 10
8.772083599611605
 20
61.93632827267947
 10
8.771431763797124
 20
61.97394038513625
 10
8.768700162440737
 20
62.0233178643329
 10
8.763988082582955
 20
62.08266595944877
 10
8.757466796822711
 20
62.14982751211653
 10
8.749373337976578
 20
62.22236136386249
 10
8.740001883514565
 20
62.29763108625684
  0
LWPOLYLINE
  5
AC
330
3A
100
AcDbEntity
  8
0
  6
Continuous
 62
     7
100
AcDbPolyline
 90
        5
 70
   128
 43
0.0
 10
36.27494205989103
 20
58.81835373179097
 10
36.27263709793684
 20
59.41138810794661
 10
36.24476627211897
 20
59.91629585514431
 10
36.19370191199633
 20
60.29357160807979
 10
36.14104903362266
 20
60.47320851745803
  0
LWPOLYLINE
  5
AD
330
3A
100
AcDbEntity
  8
0
  6
Continuous
 62
     7
100
AcDbPolyline
 90
        9
 70
   128
 43
0.0
 10
38.98973121730918
 20
51.69020063740245
 10
38.98330092748626
 20
51.68192800862789
 10
38.94969349250886
 20
51.67186034466067
 10
38.88876955261699
 20
51.66659496090028
 10
38.80307661862534
 20
51.66635202731772
 10
38.69619790718863
 20
51.671141702086
 10
38.57260250999269
 20
51.6807637068205
 10
38.43745852042687
 20
51.69481570114129
 10
38.29641693177175
 20
51.7127101063796
  0
LWPOLYLINE
  5
AE
330
3A
100
AcDbEntity
  8
0
  6
Continuous
 62
     7
100
AcDbPolyline
 90
        9
 70
   128
 43
0.0
 10
38.9787831053942
 20
51.53893709238653
 10
38.9689209500703
 20
51.52414175918244
 10
38.93155048265692
 20
51.50985235832703
 10
38.86816191168825
 20
51.49663870306003
 10
38.78128296014904
 20
51.48502770950557
 10
38.67437806838453
 20
51.47548238502967
 10
38.55171024387326
 20
51.46838336506409
 10
38.41817106682859
 20
51.46401373464541
 10
38.279085630434
 20
51.46254773993629
  0
LINE
  5
AF
330
3A
100
AcDbEntity
  8
0
  6
Continuous
 62
     7
100
AcDbLine
 10
38.279085630434
 20
51.46254773993629
 30
0.0
 11
38.29641693177175
 21
51.7127101063796
 31
0.0
  0
LINE
  5
B0
330
3A
100
AcDbEntity
  8
0
  6
Continuous
 62
     7
100
AcDbLine
 10
38.29641693177175
 20
51.7127101063796
 30
0.0
 11
38.299944227211
 21
51.76364390084896
 31
0.0
  0
LWPOLYLINE
  5
B1
330
3A
100
AcDbEntity
  8
0
  6
Continuous
 62
     7
100
AcDbPolyline
 90
        9
 70
   128
 43
0.0
 10
38.299944227211
 20
51.76364390084896
 10
38.43650745262227
 20
51.76506462381357
 10
38.56782262986653
 20
51.76927219512072
 10
38.68884339032471
 20
51.77610492016459
 10
38.79491897404157
 20
51.78530022115362
 10
38.88197295582276
 20
51.79650472782762
 10
38.94665989996889
 20
51.80928785727871
 10
38.98649392349324
 20
51.82315836101079
 10
38.99994422721099
 20
51.83758320334428
  0
LWPOLYLINE
  5
B2
330
3A
100
AcDbEntity
  8
0
  6
Continuous
 62
     7
100
AcDbPolyline
 90
        3
 70
   128
 43
0.0
 10
38.98767321100289
 20
51.69052747447626
 10
38.99826420882599
 20
51.77769505426209
 10
38.99438636998349
 20
51.83716311635663
  0
LWPOLYLINE
  5
B3
330
3A
100
AcDbEntity
  8
0
  6
Continuous
 62
     7
100
AcDbPolyline
 90
        3
 70
   128
 43
0.0
 10
38.97971904421508
 20
51.4990490833313
 10
38.98134871104904
 20
51.60662701653589
 10
38.99641488935404
 20
51.68833481362688
  0
LWPOLYLINE
  5
B4
330
3A
100
AcDbEntity
  8
0
  6
Continuous
 62
     7
100
AcDbPolyline
 90
        3
 70
   128
 43
0.0
 10
36.46441919553408
 20
58.82732119580601
 10
36.42598643130833
 20
58.82506131527458
 10
36.27494205989007
 20
58.81835373179097
  0
LWPOLYLINE
  5
B5
330
3A
100
AcDbEntity
  8
0
  6
Continuous
 62
     7
100
AcDbPolyline
 90
        4
 70
   128
 43
0.0
 10
36.10517383926762
 20
65.88353493997885
 10
36.29728830589821
 20
65.94272662295509
 10
36.45900731383932
 20
66.0623512446893
 10
36.46441919553414
 20
66.07032949577074
  0
LWPOLYLINE
  5
B6
330
3A
100
AcDbEntity
  8
0
  6
Continuous
 62
     7
100
AcDbPolyline
 90
        9
 70
   128
 43
0.0
 10
36.13234529611364
 20
65.48745167584235
 10
36.13573870924009
 20
65.49850359423243
 10
36.13710896362113
 20
65.5233785196242
 10
36.13640686576613
 20
65.56118341753716
 10
36.13365762168408
 20
65.61056105465957
 10
36.12895993196293
 20
65.66973872486943
 10
36.12248244832054
 20
65.73659189114232
 10
36.11445771884098
 20
65.80872045853613
 10
36.10517383926762
 20
65.88353493997885
  0
LWPOLYLINE
  5
B7
330
3A
100
AcDbEntity
  8
0
  6
Continuous
 62
     7
100
AcDbPolyline
 90
        3
 70
   128
 43
0.0
 10
36.46441919553414
 20
65.60323955185305
 10
36.22058054445628
 20
65.50314240580149
 10
36.13234529611364
 20
65.48745167584235
  0
LWPOLYLINE
  5
B8
330
3A
100
AcDbEntity
  8
0
  6
Continuous
 62
     7
100
AcDbPolyline
 90
        9
 70
   128
 43
0.0
 10
36.14104903362122
 20
60.47320851745786
 10
36.14011933084436
 20
60.98325123469357
 10
36.13842854879584
 20
61.92522902479396
 10
36.13695979913081
 20
62.76190584673975
 10
36.13547143681456
 20
63.62855674796475
 10
36.13426740295643
 20
64.34110365900557
 10
36.13332995415118
 20
64.89846661120873
 10
36.1327403819875
 20
65.24901646102188
 10
36.13234529611364
 20
65.48745167584235
  0
LWPOLYLINE
  5
B9
330
3A
100
AcDbEntity
  8
0
  6
Continuous
 62
     7
100
AcDbPolyline
 90
        3
 70
   128
 43
0.0
 10
36.46441919553408
 20
60.57398109189477
 10
36.31472879693075
 20
60.51261815029551
 10
36.14104903362124
 20
60.47320851745786
  0
LINE
  5
BA
330
3A
100
AcDbEntity
  8
0
  6
Continuous
 62
     7
100
AcDbLine
 10
38.99994422721076
 20
88.29999968201116
 30
0.0
 11
38.99994422721099
 21
81.69634136043345
 31
0.0
  0
LINE
  5
BB
330
3A
100
AcDbEntity
  8
0
  6
Continuous
 62
     7
100
AcDbLine
 10
38.299944227211
 20
82.37913061325214
 30
0.0
 11
38.2999442272108
 21
88.99999968201115
 31
0.0
  0
LINE
  5
BC
330
3A
100
AcDbEntity
  8
0
  6
Continuous
 62
     7
100
AcDbLine
 10
36.86441919553394
 20
88.99999968201143
 30
0.0
 11
36.86441919553414
 21
82.6468750664867
 31
0.0
  0
LINE
  5
BD
330
3A
100
AcDbEntity
  8
0
  6
Continuous
 62
     7
100
AcDbLine
 10
36.46441919553394
 20
88.59999968201112
 30
0.0
 11
36.46441919553414
 21
82.25631206856808
 31
0.0
  0
LWPOLYLINE
  5
BE
330
3A
100
AcDbEntity
  8
0
  6
Continuous
 62
     7
100
AcDbPolyline
 90
        9
 70
   128
 43
0.0
 10
36.86441919553414
 20
82.6468750664867
 10
36.77909554940465
 20
82.63788616536396
 10
36.69769939165772
 20
82.61133322542878
 10
36.6239774265006
 20
82.56843849125038
 10
36.56132311137245
 20
82.51117642803047
 10
36.51262045446959
 20
82.44218283602197
 10
36.48011126246425
 20
82.36463352337869
 10
36.46529194906717
 20
82.28209812218143
 10
36.46441995321365
 20
82.255551884672
  0
LINE
  5
BF
330
3A
100
AcDbEntity
  8
0
  6
Continuous
 62
     7
100
AcDbLine
 10
36.86441919553414
 20
82.6468750664867
 30
0.0
 11
36.84306621504052
 21
82.37913061325214
 31
0.0
  0
LWPOLYLINE
  5
C0
330
3A
100
AcDbEntity
  8
0
  6
Continuous
 62
     7
100
AcDbPolyline
 90
        9
 70
   128
 43
0.0
 10
36.86441919553414
 20
79.0916621257673
 10
36.77909554940453
 20
79.09222612719469
 10
36.69769939165744
 20
79.0938921702205
 10
36.62397742650024
 20
79.09658356608457
 10
36.56132311137205
 20
79.10017642854359
 10
36.51262045446922
 20
79.10450537641418
 10
36.48011126246397
 20
79.10937114614819
 10
36.46529194906711
 20
79.11454976402928
 10
36.46442333826619
 20
79.11627921945984
  0
LWPOLYLINE
  5
C1
330
3A
100
AcDbEntity
  8
0
  6
Continuous
 62
     7
100
AcDbPolyline
 90
        3
 70
   128
 43
0.0
 10
36.84310795340906
 20
80.30973112802774
 10
36.85908415935813
 20
79.70086409895396
 10
36.86441919553414
 20
79.0916621257673
  0
LWPOLYLINE
  5
C2
330
3A
100
AcDbEntity
  8
0
  6
Continuous
 62
     7
100
AcDbPolyline
 90
        9
 70
   128
 43
0.0
 10
38.299944227211
 20
80.30973112802774
 10
38.43650745262229
 20
80.31052854978595
 10
38.56782262986655
 20
80.31289017058952
 10
38.68884339032471
 20
80.31672523467557
 10
38.79491897404157
 20
80.32188636268182
 10
38.88197295582276
 20
80.32817521535349
 10
38.94665989996886
 20
80.33535011560918
 10
38.98649392349322
 20
80.34313533605587
 10
38.99994422721099
 20
80.35123169503766
  0
LINE
  5
C3
330
3A
100
AcDbEntity
  8
0
  6
Continuous
 62
     7
100
AcDbLine
 10
38.99994422721099
 20
81.69634136043345
 30
0.0
 11
38.99994422721099
 21
80.35123169503766
 31
0.0
  0
LWPOLYLINE
  5
C4
330
3A
100
AcDbEntity
  8
0
  6
Continuous
 62
     7
100
AcDbPolyline
 90
        9
 70
   128
 43
0.0
 10
38.299944227211
 20
82.37913061325214
 10
38.43650745262229
 20
82.36601100921552
 10
38.56782262986659
 20
82.3271563761313
 10
38.68884339032476
 20
82.26405987575896
 10
38.79491897404162
 20
82.17914627122286
 10
38.88197295582285
 20
82.07567874472516
 10
38.94665989996898
 20
81.95763349528409
 10
38.98649392349333
 20
81.829546935635
 10
38.99994422721099
 20
81.69634136043345
  0
LINE
  5
C5
330
3A
100
AcDbEntity
  8
0
  6
Continuous
 62
     7
100
AcDbLine
 10
38.299944227211
 20
80.30973112802774
 30
0.0
 11
36.84310795340906
 21
80.30973112802774
 31
0.0
  0
LINE
  5
C6
330
3A
100
AcDbEntity
  8
0
  6
Continuous
 62
     7
100
AcDbLine
 10
38.299944227211
 20
80.30973112802774
 30
0.0
 11
38.299944227211
 21
82.37913061325214
 31
0.0
  0
LINE
  5
C7
330
3A
100
AcDbEntity
  8
0
  6
Continuous
 62
     7
100
AcDbLine
 10
36.84306621504052
 20
82.37913061325214
 30
0.0
 11
38.299944227211
 21
82.37913061325214
 31
0.0
  0
LWPOLYLINE
  5
C8
330
3A
100
AcDbEntity
  8
0
  6
Continuous
 62
     7
100
AcDbPolyline
 90
        8
 70
   128
 43
0.0
 10
36.84306621504052
 20
82.37913061325214
 10
36.75923101818987
 20
82.37109819433175
 10
36.67912439017721
 20
82.34607042311722
 10
36.60630907181013
 20
82.30516040927318
 10
36.54402352303373
 20
82.25018762491288
 10
36.49503789248431
 20
82.18359698360956
 10
36.46153081517957
 20
82.10835010291049
 10
36.44826806485685
 20
82.0532634009416
  0
LWPOLYLINE
  5
C9
330
3A
100
AcDbEntity
  8
0
  6
Continuous
 62
     7
100
AcDbPolyline
 90
        9
 70
   128
 43
0.0
 10
36.84310795340906
 20
80.30973112802774
 10
36.75927145050631
 20
80.30733528989623
 10
36.6791637130174
 20
80.30610075658449
 10
36.60634766342358
 20
80.30608243597811
 10
36.54406191447578
 20
80.30728114291605
 10
36.49507672660252
 20
80.30964356294902
 10
36.461570796052
 20
80.31306462358719
 10
36.44503435381754
 20
80.3173921675703
 10
36.44335181092112
 20
80.31949326856466
  0
LWPOLYLINE
  5
CA
330
3A
100
AcDbEntity
  8
0
  6
Continuous
 62
     7
100
AcDbPolyline
 90
        6
 70
   128
 43
0.0
 10
36.84306621504052
 20
82.37913061325206
 10
36.83015596292805
 20
82.12356733534381
 10
36.82615342734763
 20
81.67711346997004
 10
36.82891896505649
 20
81.08992511198772
 10
36.83999726670155
 20
80.42827732193046
 10
36.84310795340906
 20
80.30973112802774
  0
LWPOLYLINE
  5
CB
330
3A
100
AcDbEntity
  8
0
  6
Continuous
 62
     7
100
AcDbPolyline
 90
        3
 70
   128
 43
0.0
 10
36.46289360124456
 20
82.25593521012132
 10
36.46351690389034
 20
82.20886930889946
 10
36.43998384499497
 20
82.04881739752966
  0
LINE
  5
CC
330
3A
100
AcDbEntity
  8
0
  6
Continuous
 62
     7
100
AcDbLine
 10
36.44132627832164
 20
80.31938159562765
 30
0.0
 11
36.44575536486033
 21
80.20215018709393
 31
0.0
  0
LWPOLYLINE
  5
CD
330
3A
100
AcDbEntity
  8
0
  6
Continuous
 62
     7
100
AcDbPolyline
 90
        3
 70
   128
 43
0.0
 10
36.44575536486033
 20
80.20215018709393
 10
36.45227668950108
 20
80.02954031224362
 10
36.45694525397209
 20
79.1161449789866
  0
LWPOLYLINE
  5
CE
330
3A
100
AcDbEntity
  8
0
  6
Continuous
 62
     7
100
AcDbPolyline
 90
       10
 70
   128
 43
0.0
 10
36.44904245761248
 20
82.05315405259836
 10
36.44351207810215
 20
82.01904021085841
 10
36.43471795358641
 20
81.90978775252778
 10
36.42898976980067
 20
81.73980910693178
 10
36.42638739444715
 20
81.50895961958587
 10
36.42645679984264
 20
81.24510125274827
 10
36.42894187964444
 20
80.95326802928758
 10
36.43427577003135
 20
80.641462914687
 10
36.44333532983023
 20
80.31995170193516
 10
36.4447270666887
 20
80.28790473291365
  0
ARC
  5
CF
330
3A
100
AcDbEntity
  8
0
  6
Continuous
 62
     7
100
AcDbCircle
 10
36.86441919553394
 20
88.59999968201112
 30
0.0
 40
0.4000000000000341
100
AcDbArc
 50
90.0
 51
180.0
  0
ARC
  5
D0
330
3A
100
AcDbEntity
  8
0
  6
Continuous
 62
     7
100
AcDbCircle
 10
38.2999442272108
 20
88.29999968201116
 30
0.0
 40
0.6999999999999887
100
AcDbArc
 50
0.0
 51
90.0
  0
LINE
  5
D1
330
3A
100
AcDbEntity
  8
0
  6
Continuous
 62
     7
100
AcDbLine
 10
38.2999442272108
 20
88.99999968201115
 30
0.0
 11
36.86441919553394
 21
88.99999968201115
 31
0.0
  0
ENDBLK
  5
D3
330
3A
100
AcDbEntity
  8
0
100
AcDbBlockEnd
  0
BLOCK
  5
D6
330
D4
100
AcDbEntity
  8
0
100
AcDbBlockBegin
  2
_DotSmall
 70
     0
 10
0.0
 20
0.0
 30
0.0
  3
_DotSmall
  1

  0
LWPOLYLINE
  5
D5
330
D4
100
AcDbEntity
  8
0
  6
ByBlock
 62
     0
100
AcDbPolyline
 90
        2
 70
     1
 43
0.5
 10
-0.0625
 20
0.0
 42
1.0
 10
0.0625
 20
0.0
 42
1.0
  0
ENDBLK
  5
D7
330
D4
100
AcDbEntity
  8
0
100
AcDbBlockEnd
  0
ENDSEC
  0
SECTION
  2
ENTITIES
  0
LWPOLYLINE
  5
30B
330
1F
100
AcDbEntity
  8
3
  6
Continuous
100
AcDbPolyline
 90
        5
 70
   128
 43
0.0
 10
227.1594622378206
 20
125.4905985862412
 10
227.1599531679764
 20
125.490827695243
 10
227.1606239312211
 20
125.4910905623946
 10
227.1622309269727
 20
125.49150827247
 10
227.1639331977415
 20
125.4916543143308
  0
LWPOLYLINE
  5
30D
330
1F
100
AcDbEntity
  8
3
  6
Continuous
100
AcDbPolyline
 90
       20
 70
   128
 43
0.0
 10
227.2830966891561
 20
125.6370732244747
 10
227.2830574595844
 20
125.6296863271268
 10
227.2826457056023
 20
125.6223226230163
 10
227.2811321760523
 20
125.6102557184873
 10
227.2785772598736
 20
125.5983449805758
 10
227.2749977760513
 20
125.5867209297166
 10
227.2704105435703
 20
125.5755140863442
 10
227.264829587621
 20
125.5648233905988
 10
227.2582607455138
 20
125.5546433947104
 10
227.2507778283692
 20
125.5450972610416
 10
227.2424546473078
 20
125.5363081519544
 10
227.2338124538171
 20
125.528731667557
 10
227.2244723271592
 20
125.5219040083424
 10
227.2145410089942
 20
125.5158970322175
 10
227.2041252409827
 20
125.510782597089
 10
227.1935229644016
 20
125.5066787630287
 10
227.1825394191884
 20
125.5034500106969
 10
227.1712904728597
 20
125.5011149388186
 10
227.1598919929324
 20
125.4996921461186
 10
227.149360919798
 20
125.4991864132513
  0
LWPOLYLINE
  5
30F
330
1F
100
AcDbEntity
  8
3
  6
Continuous
100
AcDbPolyline
 90
        5
 70
   128
 43
0.0
 10
227.0988890979865
 20
125.6515482334313
 10
227.1423908777028
 20
125.6515427128166
 10
227.1858262845021
 20
125.6515355920639
 10
227.2292040461923
 20
125.6515260552864
 10
227.2724973157278
 20
125.65151264231
  0
LINE
  5
312
330
1F
100
AcDbEntity
  8
3
  6
Continuous
100
AcDbLine
 10
226.9610029450015
 20
125.638976413882
 30
0.0
 11
227.2873990997735
 21
125.638976413882
 31
0.0
  0
LWPOLYLINE
  5
318
330
1F
100
AcDbEntity
  8
3
  6
Continuous
100
AcDbPolyline
 90
        5
 70
   128
 43
0.0
 10
227.0638896115917
 20
125.5069403387674
 10
227.0624130665328
 20
125.5261387873288
 10
227.0595181919838
 20
125.5645391040175
 10
227.0566833371297
 20
125.6030946425812
 10
227.0542177408612
 20
125.6373595630725
  0
LINE
  5
31A
330
1F
100
AcDbEntity
  8
3
  6
Continuous
100
AcDbLine
 10
227.0450956280171
 20
125.500354327322
 30
0.0
 11
227.0271661087486
 21
125.6371801871007
 31
0.0
  0
LINE
  5
31C
330
1F
100
AcDbEntity
  8
3
  6
Continuous
100
AcDbLine
 10
227.0155786208244
 20
125.4862446617728
 30
0.0
 11
227.0068510783274
 21
125.638976413882
 31
0.0
  0
LWPOLYLINE
  5
31E
330
1F
100
AcDbEntity
  8
3
  6
Continuous
100
AcDbPolyline
 90
       36
 70
   128
 43
0.0
 10
226.1936184012939
 20
125.6379899207831
 10
226.1950881618756
 20
125.6328147101223
 10
226.1970053530505
 20
125.6261975453564
 10
226.1989433141121
 20
125.6196398511266
 10
226.2008988177735
 20
125.6131528077318
 10
226.2028383467164
 20
125.6068467818212
 10
226.2047935421392
 20
125.6006141140365
 10
226.2067711421309
 20
125.5944330853672
 10
226.2087634967131
 20
125.5883285531557
 10
226.2107627055178
 20
125.5823254938109
 10
226.2127599553068
 20
125.5764508722528
 10
226.2147476768347
 20
125.5707272077442
 10
226.2167186611649
 20
125.5651753866275
 10
226.2186662041304
 20
125.5598143278761
 10
226.2205842385967
 20
125.5546607216058
 10
226.2224674540582
 20
125.5497288443362
 10
226.2243114655829
 20
125.5450303066413
 10
226.2261168839457
 20
125.5405645710362
 10
226.2278698274555
 20
125.5363623645042
 10
226.2296091007802
 20
125.532329239804
 10
226.2313304154147
 20
125.5284791230537
 10
226.2330304480468
 20
125.5248242074486
 10
226.2347071219016
 20
125.5213749509055
 10
226.2363605778032
 20
125.5181390232581
 10
226.2379948652617
 20
125.5151197689775
 10
226.2396211737848
 20
125.5123137198073
 10
226.241264719808
 20
125.5097061072554
 10
226.2429813682131
 20
125.5072620808554
 10
226.2449015205974
 20
125.5049123787907
 10
226.2465795639144
 20
125.5032164276998
 10
226.2480876018853
 20
125.5019722309681
 10
226.2495738228545
 20
125.5009909867215
 10
226.2511000001712
 20
125.5002173700889
 10
226.2527014361562
 20
125.4996403496741
 10
226.2543907080655
 20
125.4992745084129
 10
226.255020753707
 20
125.4992291007034
  0
LWPOLYLINE
  5
320
330
1F
100
AcDbEntity
  8
3
  6
Continuous
100
AcDbPolyline
 90
       37
 70
   128
 43
0.0
 10
226.5854052280661
 20
125.4992188657297
 10
226.5856552841022
 20
125.4992292125875
 10
226.5873598964183
 20
125.499549527847
 10
226.5889469327696
 20
125.5000733043505
 10
226.5904307691416
 20
125.5007728631771
 10
226.5918454773886
 20
125.5016440217859
 10
226.5932425430052
 20
125.5027156399256
 10
226.5946942519532
 20
125.5040658949326
 10
226.5963035624298
 20
125.5058548863119
 10
226.5980914651911
 20
125.5081946334887
 10
226.5997528833403
 20
125.5106695027778
 10
226.6015209203216
 20
125.513581561056
 10
226.6032330191113
 20
125.5166402969297
 10
226.6049333543089
 20
125.5198825603086
 10
226.6066434377016
 20
125.5233269688267
 10
226.6083718888283
 20
125.5269777765811
 10
226.6101210387785
 20
125.5308314403527
 10
226.6118898687669
 20
125.5348797830995
 10
226.6136754957785
 20
125.5391117467844
 10
226.6154740171974
 20
125.5435145190348
 10
226.6172808341706
 20
125.5480732294087
 10
226.6191146975052
 20
125.5528302157289
 10
226.6209921314795
 20
125.5578275907081
 10
226.622902467089
 20
125.5630379700164
 10
226.6248411126892
 20
125.5684493492813
 10
226.6268026541021
 20
125.5740472553601
 10
226.6287809781497
 20
125.5798149249331
 10
226.6307693709113
 20
125.5857334509335
 10
226.6327606310989
 20
125.5917820017545
 10
226.6347471990408
 20
125.5979381149682
 10
226.6367207669877
 20
125.6041763619144
 10
226.6386728970344
 20
125.6104701178969
 10
226.6405959132566
 20
125.6167944436249
 10
226.6424843777266
 20
125.6231279107843
 10
226.6443853394815
 20
125.6296276890308
 10
226.6462652058484
 20
125.6361826467438
 10
226.6467734132928
 20
125.6379902349031
  0
LWPOLYLINE
  5
321
330
1F
100
AcDbEntity
  8
3
  6
Continuous
100
AcDbPolyline
 90
        9
 70
   128
 43
0.0
 10
226.5853562154824
 20
125.4991864132513
 10
226.565856617489
 20
125.4975100336783
 10
226.5459921441224
 20
125.4960199932397
 10
226.525910091933
 20
125.4947361552702
 10
226.5055629275126
 20
125.4936632888706
 10
226.4846914996237
 20
125.49280098534
 10
226.463694344998
 20
125.4921758020566
 10
226.4426282865358
 20
125.4917926263577
 10
226.4211960604907
 20
125.4916543143308
  0
LWPOLYLINE
  5
322
330
1F
100
AcDbEntity
  8
3
  6
Continuous
100
AcDbPolyline
 90
        9
 70
   128
 43
0.0
 10
226.255035905499
 20
125.4991864132513
 10
226.2745997791382
 20
125.4975049494079
 10
226.2944146929934
 20
125.4960188760324
 10
226.3146345495636
 20
125.4947273600669
 10
226.3350392228476
 20
125.4936534082366
 10
226.355838400786
 20
125.4927957468252
 10
226.3767528023335
 20
125.4921740297044
 10
226.3978868299884
 20
125.4917911104509
 10
226.4191960604907
 20
125.4916543143308
  0
LWPOLYLINE
  5
323
330
1F
100
AcDbEntity
  8
3
  6
Continuous
100
AcDbPolyline
 90
        6
 70
   128
 43
0.0
 10
226.3747916568826
 20
125.492215185779
 10
226.375106757024
 20
125.4921909107238
 10
226.375960432439
 20
125.4920737575139
 10
226.3769057530693
 20
125.4918543901822
 10
226.3779291988826
 20
125.4915030436898
 10
226.3784740322306
 20
125.4912205023949
  0
ARC
  5
325
330
1F
100
AcDbEntity
  8
3
  6
Continuous
100
AcDbCircle
 10
226.4583791157621
 20
125.4839056720228
 30
0.0
 40
0.005
100
AcDbArc
 50
116.5650511765438
 51
178.5674664417433
  0
LINE
  5
326
330
1F
100
AcDbEntity
  8
3
  6
Continuous
100
AcDbLine
 10
226.4507454504261
 20
125.4566543158519
 30
0.0
 11
226.3896466704982
 21
125.4566543158519
 31
0.0
  0
LINE
  5
328
330
1F
100
AcDbEntity
  8
3
  6
Continuous
100
AcDbLine
 10
226.3870114424974
 20
125.4840306711348
 30
0.0
 11
226.387647295587
 21
125.4586043162071
 31
0.0
  0
ARC
  5
329
330
1F
100
AcDbEntity
  8
3
  6
Continuous
100
AcDbCircle
 10
226.3896466704982
 20
125.4586543158519
 30
0.0
 40
0.0020000000000002
100
AcDbArc
 50
181.4325335582306
 51
270.0
  0
ARC
  5
32A
330
1F
100
AcDbEntity
  8
3
  6
Continuous
100
AcDbCircle
 10
226.3820130052194
 20
125.4839056720228
 30
0.0
 40
0.0049999999999999
100
AcDbArc
 50
1.432533558282757
 51
63.43494882345619
  0
LINE
  5
32B
330
1F
100
AcDbEntity
  8
3
  6
Continuous
100
AcDbLine
 10
226.3786625180261
 20
125.4911710855631
 30
0.0
 11
226.3842490731969
 21
125.4883778079778
 31
0.0
  0
LINE
  5
32C
330
1F
100
AcDbEntity
  8
3
  6
Continuous
100
AcDbLine
 10
226.4527448253945
 20
125.4586043162071
 30
0.0
 11
226.4533806784841
 21
125.4840306711348
 31
0.0
  0
ARC
  5
32D
330
1F
100
AcDbEntity
  8
3
  6
Continuous
100
AcDbCircle
 10
226.4507454504833
 20
125.4586543158519
 30
0.0
 40
0.0020000000000001
100
AcDbArc
 50
270.0
 51
358.5674664417693
  0
LINE
  5
330
330
1F
100
AcDbEntity
  8
3
  6
Continuous
100
AcDbLine
 10
226.4211960604907
 20
125.4916543143308
 30
0.0
 11
226.4191960604907
 21
125.4916543143308
 31
0.0
  0
LINE
  5
331
330
1F
100
AcDbEntity
  8
3
  6
Continuous
100
AcDbLine
 10
226.4561430477846
 20
125.4883778079778
 30
0.0
 11
226.4617363757256
 21
125.4911744719482
 31
0.0
  0
LWPOLYLINE
  5
332
330
1F
100
AcDbEntity
  8
3
  6
Continuous
100
AcDbPolyline
 90
        7
 70
   128
 43
0.0
 10
226.4617415930101
 20
125.4911645300825
 10
226.461954290443
 20
125.4912804107837
 10
226.4629379865656
 20
125.4916815578175
 10
226.4638368820572
 20
125.4919470464548
 10
226.4646099877038
 20
125.4921044432705
 10
226.4652188955526
 20
125.4921844682314
 10
226.465600481623
 20
125.4922147118325
  0
LWPOLYLINE
  5
334
330
1F
100
AcDbEntity
  8
3
  6
Continuous
100
AcDbPolyline
 90
        3
 70
   128
 43
0.0
 10
227.0848014167572
 20
125.4891189282902
 10
227.0828285016029
 20
125.4897236659767
 10
227.0806909652611
 20
125.4899374326551
  0
LWPOLYLINE
  5
336
330
1F
100
AcDbEntity
  8
3
  6
Continuous
100
AcDbPolyline
 90
        3
 70
   128
 43
0.0
 10
227.149360919798
 20
125.4991864132513
 10
227.1295115366767
 20
125.4989650560979
 10
227.0735336277763
 20
125.4983591367381
  0
LINE
  5
338
330
1F
100
AcDbEntity
  8
3
  6
Continuous
100
AcDbLine
 10
227.0897183239557
 20
125.4635755284271
 30
0.0
 11
227.0341604954365
 21
125.4674337109631
 31
0.0
  0
LWPOLYLINE
  5
33A
330
1F
100
AcDbEntity
  8
3
  6
Continuous
100
AcDbPolyline
 90
        9
 70
   128
 43
0.0
 10
227.0638896115917
 20
125.5069403387674
 10
227.0643091432724
 20
125.5052277408698
 10
227.0650157404939
 20
125.5036114418078
 10
227.0659874139825
 20
125.5021417407351
 10
227.0671939253032
 20
125.5008643746825
 10
227.0685977278783
 20
125.499819095224
 10
227.070155135435
 20
125.499038431409
 10
227.0718176815207
 20
125.4985466774602
 10
227.0735336277763
 20
125.4983591367381
  0
LWPOLYLINE
  5
33D
330
1F
100
AcDbEntity
  8
3
  6
Continuous
100
AcDbPolyline
 90
       11
 70
   128
 43
0.0
 10
227.0341604954365
 20
125.4674337109631
 10
227.0313031089918
 20
125.4678409037284
 10
227.0285340866534
 20
125.468655138665
 10
227.0259110965184
 20
125.4698594583875
 10
227.023488765394
 20
125.471428781543
 10
227.0213175411312
 20
125.4733304251592
 10
227.0194426419898
 20
125.4755247853055
 10
227.0179031149156
 20
125.4779661618907
 10
227.0167310223431
 20
125.4806037104199
 10
227.0159507744574
 20
125.4833825008905
 10
227.0155786208244
 20
125.4862446617728
  0
LINE
  5
340
330
1F
100
AcDbEntity
  8
3
  6
Continuous
100
AcDbLine
 10
227.0806909652611
 20
125.4899374326551
 30
0.0
 11
227.0569692023681
 21
125.4899374326551
 31
0.0
  0
LWPOLYLINE
  5
342
330
1F
100
AcDbEntity
  8
3
  6
Continuous
100
AcDbPolyline
 90
        6
 70
   128
 43
0.0
 10
227.0569692023681
 20
125.4899374326551
 10
227.0530094299676
 20
125.4906100637285
 10
227.0494960334432
 20
125.4925530466728
 10
227.0468252807224
 20
125.4955456307349
 10
227.0452919508472
 20
125.4992567991497
 10
227.0450956280171
 20
125.500354327322
  0
LINE
  5
348
330
1F
100
AcDbEntity
  8
3
  6
Continuous
100
AcDbLine
 10
227.1496331750309
 20
125.4566543158519
 30
0.0
 11
227.1190837850384
 21
125.4566543158519
 31
0.0
  0
LINE
  5
34A
330
1F
100
AcDbEntity
  8
3
  6
Continuous
100
AcDbLine
 10
227.0906988924998
 20
125.4867178984494
 30
0.0
 11
227.0848014167572
 21
125.4891189282902
 31
0.0
  0
LINE
  5
34B
330
1F
100
AcDbEntity
  8
3
  6
Continuous
100
AcDbLine
 10
227.0864504716115
 20
125.4619852076061
 30
0.0
 11
227.0865350201347
 21
125.4586043162071
 31
0.0
  0
ARC
  5
34C
330
1F
100
AcDbEntity
  8
3
  6
Continuous
100
AcDbCircle
 10
227.0844510649638
 20
125.4619364935708
 30
0.0
 40
0.002
100
AcDbArc
 50
1.39569233686427
 51
86.02750405925013
  0
LWPOLYLINE
  5
350
330
1F
100
AcDbEntity
  8
3
  6
Continuous
100
AcDbPolyline
 90
        3
 70
   128
 43
0.0
 10
227.0923151188405
 20
125.465271067326
 10
227.092519567699
 20
125.4747276440302
 10
227.0927358701769
 20
125.4841096163435
  0
LWPOLYLINE
  5
351
330
1F
100
AcDbEntity
  8
3
  6
Continuous
100
AcDbPolyline
 90
        7
 70
   128
 43
0.0
 10
227.0897183239557
 20
125.4635755284271
 10
227.0910390216701
 20
125.4637679907473
 10
227.0916644902564
 20
125.4641007693303
 10
227.0920697701302
 20
125.4645025972478
 10
227.0922516291248
 20
125.4648519567324
 10
227.0923149565277
 20
125.465198597456
 10
227.0923151188405
 20
125.465271067326
  0
ARC
  5
352
330
1F
100
AcDbEntity
  8
3
  6
Continuous
100
AcDbCircle
 10
227.0885343950459
 20
125.4586543158519
 30
0.0
 40
0.0020000000000002
100
AcDbArc
 50
181.4325335582371
 51
270.0
  0
LINE
  5
354
330
1F
100
AcDbEntity
  8
3
  6
Continuous
100
AcDbLine
 10
227.1190837850384
 20
125.4566543158519
 30
0.0
 11
227.0885343950459
 21
125.4566543158519
 31
0.0
  0
LWPOLYLINE
  5
356
330
1F
100
AcDbEntity
  8
3
  6
Continuous
100
AcDbPolyline
 90
        5
 70
   128
 43
0.0
 10
227.0927358701769
 20
125.4841096163435
 10
227.0926111670671
 20
125.4849025766764
 10
227.0922298960927
 20
125.4856067272251
 10
227.0914625442062
 20
125.4863200644296
 10
227.0906988924998
 20
125.4867178984494
  0
LINE
  5
357
330
1F
100
AcDbEntity
  8
3
  6
Continuous
100
AcDbLine
 10
227.1550307723323
 20
125.4883778079778
 30
0.0
 11
227.159472328859
 21
125.4905985862409
 31
0.0
  0
LINE
  5
359
330
1F
100
AcDbEntity
  8
3
  6
Continuous
100
AcDbLine
 10
227.1516325499421
 20
125.4586043162071
 30
0.0
 11
227.1522684030317
 21
125.4840306711348
 31
0.0
  0
ARC
  5
35A
330
1F
100
AcDbEntity
  8
3
  6
Continuous
100
AcDbCircle
 10
227.1496331750309
 20
125.4586543158519
 30
0.0
 40
0.0020000000000001
100
AcDbArc
 50
270.0
 51
358.5674664417628
  0
ARC
  5
35B
330
1F
100
AcDbEntity
  8
3
  6
Continuous
100
AcDbCircle
 10
227.1572668403098
 20
125.4839056720228
 30
0.0
 40
0.0050000000000001
100
AcDbArc
 50
116.5650511765518
 51
178.5674664417661
  0
LINE
  5
35F
330
1F
100
AcDbEntity
  8
3
  6
Continuous
100
AcDbLine
 10
226.2458869742029
 20
125.6516540390404
 30
0.0
 11
226.5945051467785
 21
125.6516540390404
 31
0.0
  0
LINE
  5
361
330
1F
100
AcDbEntity
  8
3
  6
Continuous
100
AcDbLine
 10
226.1642549536021
 20
125.638976413882
 30
0.0
 11
226.6761371673793
 21
125.638976413882
 31
0.0
  0
LINE
  5
366
330
1F
100
AcDbEntity
  8
3
  6
Continuous
100
AcDbLine
 10
226.21761396793
 20
125.6516540390404
 30
0.0
 11
226.2233668431083
 21
125.6516540390404
 31
0.0
  0
LINE
  5
367
330
1F
100
AcDbEntity
  8
3
  6
Continuous
100
AcDbLine
 10
226.126615035866
 20
125.638976413882
 30
0.0
 11
226.1556527613141
 21
125.638976413882
 31
0.0
  0
LINE
  5
368
330
1F
100
AcDbEntity
  8
3
  6
Continuous
100
AcDbLine
 10
226.1305664267459
 20
125.6516540390404
 30
0.0
 11
226.1573967248247
 21
125.6516540390404
 31
0.0
  0
LWPOLYLINE
  5
36C
330
1F
100
AcDbEntity
  8
3
  6
Continuous
100
AcDbPolyline
 90
       15
 70
   128
 43
0.0
 10
226.1159103482202
 20
125.6398994788294
 10
226.1159103482202
 20
125.6398994788294
 10
226.1162499821032
 20
125.6394412362635
 10
226.1166218602876
 20
125.6391447936986
 10
226.1169625733389
 20
125.6389748887786
 10
226.1172155679817
 20
125.6388942914742
 10
226.1174109552714
 20
125.6388535780468
 10
226.1176335217593
 20
125.6388249742574
 10
226.1179847578592
 20
125.6388025968204
 10
226.1186826944209
 20
125.6387874738947
 10
226.119576713004
 20
125.6387854623667
 10
226.1207556232875
 20
125.6387949851434
 10
226.1221192490884
 20
125.6388181727707
 10
226.1236184997081
 20
125.6388586554547
 10
226.1266150358659
 20
125.638976413882
  0
LINE
  5
36D
330
1F
100
AcDbEntity
  8
3
  6
Continuous
100
AcDbLine
 10
226.1191687496758
 20
125.6516540390404
 30
0.0
 11
226.1191801831304
 21
125.6516540390404
 31
0.0
  0
LINE
  5
370
330
1F
100
AcDbEntity
  8
3
  6
Continuous
100
AcDbLine
 10
226.1191801831304
 20
125.6516540390404
 30
0.0
 11
226.1305664267459
 21
125.6516540390404
 31
0.0
  0
ARC
  5
376
330
1F
100
AcDbEntity
  8
3
  6
Continuous
100
AcDbCircle
 10
226.1191687496758
 20
125.6481540390404
 30
0.0
 40
0.0035
100
AcDbArc
 50
90.0
 51
180.0
  0
LINE
  5
377
330
1F
100
AcDbEntity
  8
3
  6
Continuous
100
AcDbLine
 10
226.1156687496758
 20
125.6481540390404
 30
0.0
 11
226.1156687496758
 21
125.640854302053
 31
0.0
  0
ARC
  5
378
330
1F
100
AcDbEntity
  8
3
100
AcDbCircle
 10
226.1177072996081
 20
125.6408606386697
 30
0.0
 40
0.0020378573377492
100
AcDbArc
 50
180.160679685464
 51
208.1415961636099
  0
LINE
  5
37A
330
1F
100
AcDbEntity
  8
3
  6
Continuous
100
AcDbLine
 10
226.1633208359523
 20
125.6516540390404
 30
0.0
 11
226.21761396793
 21
125.6516540390404
 31
0.0
  0
LWPOLYLINE
  5
37D
330
1F
100
AcDbEntity
  8
3
  6
Continuous
100
AcDbPolyline
 90
        9
 70
   128
 43
0.0
 10
226.1599401025268
 20
125.6409211643469
 10
226.1599703128312
 20
125.640498437105
 10
226.160037419147
 20
125.6400948269593
 10
226.1601383867091
 20
125.6397285864689
 10
226.1602686494369
 20
125.639416278216
 10
226.1604223164276
 20
125.6391720257923
 10
226.1605924383619
 20
125.639006875084
 10
226.1607713217744
 20
125.6389282947416
 10
226.1608518777068
 20
125.6389222479019
  0
LWPOLYLINE
  5
37E
330
1F
100
AcDbEntity
  8
3
  6
Continuous
100
AcDbPolyline
 90
        3
 70
   128
 43
0.0
 10
226.1608511999863
 20
125.6389117853373
 10
226.1624755437085
 20
125.638961631467
 10
226.1642576140807
 20
125.6389435364327
  0
LWPOLYLINE
  5
380
330
1F
100
AcDbEntity
  8
3
  6
Continuous
100
AcDbPolyline
 90
        8
 70
   128
 43
0.0
 10
226.1559349430727
 20
125.6389551450289
 10
226.1561227551866
 20
125.6389250846017
 10
226.1565106330508
 20
125.6388933855077
 10
226.157261861944
 20
125.6388715371423
 10
226.1582100791371
 20
125.6388696319354
 10
226.1594391419119
 20
125.6388858641388
 10
226.1608304442653
 20
125.638921560379
 10
226.1609931993936
 20
125.6389278443311
  0
LWPOLYLINE
  5
388
330
1F
100
AcDbEntity
  8
3
  6
Continuous
100
AcDbPolyline
 90
        9
 70
   128
 43
0.0
 10
226.1599401025268
 20
125.6481779452499
 10
226.1599789784409
 20
125.6488766382352
 10
226.1600759054889
 20
125.6495471988759
 10
226.1602269809766
 20
125.6501626275547
 10
226.1604261219637
 20
125.6506981445013
 10
226.1606653101889
 20
125.651132187531
 10
226.1609349149193
 20
125.6514472802292
 10
226.1612240807242
 20
125.6516307356269
 10
226.1615211645611
 20
125.6516751670311
  0
LINE
  5
389
330
1F
100
AcDbEntity
  8
3
  6
Continuous
100
AcDbLine
 10
226.1599401025268
 20
125.6481779452499
 30
0.0
 11
226.1599401025268
 21
125.6409211643469
 31
0.0
  0
LWPOLYLINE
  5
38A
330
1F
100
AcDbEntity
  8
3
  6
Continuous
100
AcDbPolyline
 90
        6
 70
   128
 43
0.0
 10
226.1614799094102
 20
125.6516771872036
 10
226.1603067664745
 20
125.651692310186
 10
226.1592314344435
 20
125.6516977061404
 10
226.1583635604028
 20
125.6516919513888
 10
226.1576810771824
 20
125.6516705415509
 10
226.1574026611852
 20
125.6516469007058
  0
LINE
  5
38B
330
1F
100
AcDbEntity
  8
3
100
AcDbLine
 10
226.1615211645611
 20
125.6516751670311
 30
0.0
 11
226.1633208359523
 21
125.6516540390404
 31
0.0
  0
LWPOLYLINE
  5
38E
330
1F
100
AcDbEntity
  8
3
  6
Continuous
100
AcDbPolyline
 90
        3
 70
   128
 43
0.0
 10
226.1936136897836
 20
125.6379921609325
 10
226.1933338355821
 20
125.6387537325863
 10
226.1932240045185
 20
125.638976413882
  0
LINE
  5
38F
330
1F
100
AcDbEntity
  8
3
  6
Continuous
100
AcDbLine
 10
226.2346158869209
 20
125.6516540390404
 30
0.0
 11
226.2458869742029
 21
125.6516540390404
 31
0.0
  0
LINE
  5
390
330
1F
100
AcDbEntity
  8
3
  6
Continuous
100
AcDbLine
 10
226.2233668431083
 20
125.6516540390404
 30
0.0
 11
226.2346158869209
 21
125.6516540390404
 31
0.0
  0
LINE
  5
392
330
1F
100
AcDbEntity
  8
3
  6
Continuous
100
AcDbLine
 10
226.6847393596674
 20
125.638976413882
 30
0.0
 11
226.7133812816309
 21
125.638976413882
 31
0.0
  0
LINE
  5
394
330
1F
100
AcDbEntity
  8
3
  6
Continuous
100
AcDbLine
 10
226.7098256942356
 20
125.6516540390404
 30
0.0
 11
226.682925983769
 21
125.6516540390404
 31
0.0
  0
LINE
  5
396
330
1F
100
AcDbEntity
  8
3
  6
Continuous
100
AcDbLine
 10
226.6170252778732
 20
125.6516540390404
 30
0.0
 11
226.6057762340606
 21
125.6516540390404
 31
0.0
  0
LINE
  5
397
330
1F
100
AcDbEntity
  8
3
  6
Continuous
100
AcDbLine
 10
226.6057762340606
 20
125.6516540390404
 30
0.0
 11
226.5945051467785
 21
125.6516540390404
 31
0.0
  0
LINE
  5
398
330
1F
100
AcDbEntity
  8
3
  6
Continuous
100
AcDbLine
 10
226.6770712850292
 20
125.6516540390404
 30
0.0
 11
226.6227781530515
 21
125.6516540390404
 31
0.0
  0
LWPOLYLINE
  5
39B
330
1F
100
AcDbEntity
  8
3
  6
Continuous
100
AcDbPolyline
 90
        3
 70
   128
 43
0.0
 10
226.647168116463
 20
125.638976413882
 10
226.6470602407936
 20
125.6387579533439
 10
226.6467798566744
 20
125.6379972824915
  0
LINE
  5
39C
330
1F
100
AcDbEntity
  8
3
  6
Continuous
100
AcDbLine
 10
226.6227781530515
 20
125.6516540390404
 30
0.0
 11
226.6170252778732
 21
125.6516540390404
 31
0.0
  0
LWPOLYLINE
  5
39E
330
1F
100
AcDbEntity
  8
3
  6
Continuous
100
AcDbPolyline
 90
        9
 70
   128
 43
0.0
 10
226.6804520184547
 20
125.6409211643469
 10
226.6804218081502
 20
125.640498437105
 10
226.6803547018344
 20
125.6400948269593
 10
226.6802537342724
 20
125.6397285864689
 10
226.6801234715446
 20
125.639416278216
 10
226.6799698045538
 20
125.6391720257923
 10
226.6797996826195
 20
125.639006875084
 10
226.6796207992071
 20
125.6389282947416
 10
226.6795399100979
 20
125.6389222604573
  0
LWPOLYLINE
  5
3A0
330
1F
100
AcDbEntity
  8
3
  6
Continuous
100
AcDbPolyline
 90
        7
 70
   128
 43
0.0
 10
226.6795320121925
 20
125.638923836778
 10
226.6806875790979
 20
125.6388913478882
 10
226.6819206691165
 20
125.6388716773965
 10
226.682948383821
 20
125.6388697185373
 10
226.6837568698715
 20
125.6388873575024
 10
226.6843791588288
 20
125.6389397691657
 10
226.6844626017949
 20
125.6389579962097
  0
LINE
  5
3A1
330
1F
100
AcDbEntity
  8
3
  6
Continuous
100
AcDbLine
 10
226.6761343273008
 20
125.6389489269347
 30
0.0
 11
226.6795409606493
 21
125.63890975495
 31
0.0
  0
LWPOLYLINE
  5
3A6
330
1F
100
AcDbEntity
  8
3
  6
Continuous
100
AcDbPolyline
 90
        9
 70
   128
 43
0.0
 10
226.6804520184547
 20
125.6481779452499
 10
226.6804131425406
 20
125.6488766382352
 10
226.6803162154925
 20
125.6495471988759
 10
226.6801651400049
 20
125.6501626275547
 10
226.6799659990178
 20
125.6506981445013
 10
226.6797268107926
 20
125.651132187531
 10
226.6794572060622
 20
125.6514472802292
 10
226.6791680402573
 20
125.6516307356269
 10
226.6788709564203
 20
125.6516751670311
  0
LINE
  5
3A8
330
1F
100
AcDbEntity
  8
3
  6
Continuous
100
AcDbLine
 10
226.6804520184547
 20
125.6481779452499
 30
0.0
 11
226.6804520184547
 21
125.6409211643469
 31
0.0
  0
LWPOLYLINE
  5
3A9
330
1F
100
AcDbEntity
  8
3
  6
Continuous
100
AcDbPolyline
 90
        7
 70
   128
 43
0.0
 10
226.6829836726437
 20
125.6516483066586
 10
226.6828599220226
 20
125.651660603411
 10
226.6825313301007
 20
125.6516790714567
 10
226.6818036422139
 20
125.6516947914097
 10
226.6809156610726
 20
125.6516973952149
 10
226.6797584027492
 20
125.6516889561755
 10
226.6789033287709
 20
125.6516764848556
  0
LINE
  5
3AD
330
1F
100
AcDbEntity
  8
3
100
AcDbLine
 10
226.6770712850292
 20
125.6516540390404
 30
0.0
 11
226.6789033287709
 21
125.6516764848556
 31
0.0
  0
LWPOLYLINE
  5
3AE
330
1F
100
AcDbEntity
  8
3
  6
Continuous
100
AcDbPolyline
 90
       12
 70
   128
 43
0.0
 10
226.713381281631
 20
125.638976413882
 10
226.7174166946429
 20
125.6388392433265
 10
226.7188598428765
 20
125.6388066750646
 10
226.7201377828441
 20
125.6387896256686
 10
226.7212059621258
 20
125.6387850035024
 10
226.7220467770947
 20
125.6387922350725
 10
226.7226884721898
 20
125.6388188395299
 10
226.7230013395307
 20
125.6388570245229
 10
226.7232739062284
 20
125.6389212766831
 10
226.7236109551476
 20
125.6390555170356
 10
226.7240658567258
 20
125.6393680507484
 10
226.7244690909095
 20
125.6398763812969
  0
LINE
  5
3AF
330
1F
100
AcDbEntity
  8
3
  6
Continuous
100
AcDbLine
 10
226.721211937851
 20
125.6516540390404
 30
0.0
 11
226.7098256942356
 21
125.6516540390404
 31
0.0
  0
LINE
  5
3B3
330
1F
100
AcDbEntity
  8
3
  6
Continuous
100
AcDbLine
 10
226.7212233713056
 20
125.6516540390404
 30
0.0
 11
226.721211937851
 21
125.6516540390404
 31
0.0
  0
ARC
  5
3B7
330
1F
100
AcDbEntity
  8
3
  6
Continuous
100
AcDbCircle
 10
226.7212233713056
 20
125.6481540390404
 30
0.0
 40
0.0035
100
AcDbArc
 50
0.0
 51
90.0
  0
ARC
  5
3B9
330
1F
100
AcDbEntity
  8
3
100
AcDbCircle
 10
226.72246167562
 20
125.6409203717908
 30
0.0
 40
0.0022626604464183
100
AcDbArc
 50
332.5225456721559
 51
1.673220587915366
  0
LINE
  5
3BD
330
1F
100
AcDbEntity
  8
3
  6
Continuous
100
AcDbLine
 10
226.9548276249733
 20
125.6516540390404
 30
0.0
 11
227.0973958674317
 21
125.6516540390404
 31
0.0
  0
LINE
  5
3BE
330
1F
100
AcDbEntity
  8
3
  6
Continuous
100
AcDbLine
 10
226.9135837850384
 20
125.638976413882
 30
0.0
 11
226.9453022231056
 21
125.638976413882
 31
0.0
  0
LINE
  5
3C1
330
1F
100
AcDbEntity
  8
3
  6
Continuous
100
AcDbLine
 10
226.9150837850384
 20
125.6516540390404
 30
0.0
 11
226.9481020766463
 21
125.6516540390404
 31
0.0
  0
LINE
  5
3C2
330
1F
100
AcDbEntity
  8
3
  6
Continuous
100
AcDbLine
 10
226.9115837850384
 20
125.6481540390404
 30
0.0
 11
226.9115837850384
 21
125.640976413882
 31
0.0
  0
ARC
  5
3C3
330
1F
100
AcDbEntity
  8
3
  6
Continuous
100
AcDbCircle
 10
226.9150837850384
 20
125.6481540390404
 30
0.0
 40
0.0034999999999999
100
AcDbArc
 50
90.0
 51
180.0
  0
ARC
  5
3C4
330
1F
100
AcDbEntity
  8
3
  6
Continuous
100
AcDbCircle
 10
226.9135837850384
 20
125.640976413882
 30
0.0
 40
0.0020000000000002
100
AcDbArc
 50
180.0
 51
270.0
  0
LWPOLYLINE
  5
3C5
330
1F
100
AcDbEntity
  8
3
  6
Continuous
100
AcDbPolyline
 90
       10
 70
   128
 43
0.0
 10
226.9463180131854
 20
125.6388995301924
 10
226.9464885823941
 20
125.6388718782949
 10
226.9470348446858
 20
125.6388279076723
 10
226.9478847379138
 20
125.6387992667534
 10
226.9490389853505
 20
125.6387862548766
 10
226.9503582771847
 20
125.6387866019036
 10
226.951817443302
 20
125.6387990273026
 10
226.953376468875
 20
125.6388256967545
 10
226.9549840249388
 20
125.6388709945535
 10
226.9551442597839
 20
125.6388779532378
  0
LWPOLYLINE
  5
3C6
330
1F
100
AcDbEntity
  8
3
  6
Continuous
100
AcDbPolyline
 90
        3
 70
   128
 43
0.0
 10
226.955573032513
 20
125.6388830947287
 10
226.9564360818872
 20
125.6389157013519
 10
226.9610030585535
 20
125.6389390441742
  0
LWPOLYLINE
  5
3C8
330
1F
100
AcDbEntity
  8
3
  6
Continuous
100
AcDbPolyline
 90
        3
 70
   128
 43
0.0
 10
226.9453041073978
 20
125.6389687859106
 10
226.9455394369039
 20
125.6389719024238
 10
226.9463396964608
 20
125.6388542371293
  0
LWPOLYLINE
  5
3CB
330
1F
100
AcDbEntity
  8
3
  6
Continuous
100
AcDbPolyline
 90
        8
 70
   128
 43
0.0
 10
226.9446881303822
 20
125.6408696489796
 10
226.9447282924768
 20
125.6404504729953
 10
226.9448534313329
 20
125.6400499398552
 10
226.9450579814021
 20
125.6396858632634
 10
226.9453328453239
 20
125.6393744355195
 10
226.9456657985304
 20
125.6391295073668
 10
226.9460420329339
 20
125.6389619719803
 10
226.9463174664437
 20
125.6388956582286
  0
LINE
  5
3CC
330
1F
100
AcDbEntity
  8
3
  6
Continuous
100
AcDbLine
 10
226.9446881303822
 20
125.6408696489796
 30
0.0
 11
226.9446881303822
 21
125.6481540390404
 31
0.0
  0
LWPOLYLINE
  5
3CF
330
1F
100
AcDbEntity
  8
3
  6
Continuous
100
AcDbPolyline
 90
        9
 70
   128
 43
0.0
 10
226.9446881303822
 20
125.6481540390404
 10
226.9447537284023
 20
125.6488368551675
 10
226.9449480015678
 20
125.6494934310537
 10
226.9452634840696
 20
125.650098534856
 10
226.9456880520923
 20
125.6506289127746
 10
226.9462053897248
 20
125.6510641826835
 10
226.946795615972
 20
125.6513876174042
 10
226.9474360487703
 20
125.6515867875218
 10
226.9481020766463
 20
125.6516540390404
  0
LINE
  5
3D0
330
1F
100
AcDbEntity
  8
3
  6
Continuous
100
AcDbLine
 10
226.9481020766463
 20
125.6516540390404
 30
0.0
 11
226.9548276249733
 21
125.6516540390404
 31
0.0
  0
LWPOLYLINE
  5
3D7
330
1F
100
AcDbEntity
  8
3
  6
Continuous
100
AcDbPolyline
 90
        4
 70
   128
 43
0.0
 10
227.0271661087486
 20
125.6371801871007
 10
227.0268701503337
 20
125.6381407594339
 10
227.026272027225
 20
125.6389493544736
 10
227.0262321359696
 20
125.638976413882
  0
LWPOLYLINE
  5
3D8
330
1F
100
AcDbEntity
  8
3
  6
Continuous
100
AcDbPolyline
 90
        3
 70
   128
 43
0.0
 10
227.053713877989
 20
125.638976413882
 10
227.054020692697
 20
125.638227961889
 10
227.0542177408612
 20
125.6373595630725
  0
LWPOLYLINE
  5
3DF
330
1F
100
AcDbEntity
  8
3
  6
Continuous
100
AcDbPolyline
 90
       20
 70
   128
 43
0.0
 10
227.3265049513261
 20
125.6368152864203
 10
227.3254619646262
 20
125.623349823575
 10
227.3232239069049
 20
125.6100878847696
 10
227.3197912510195
 20
125.5970293894751
 10
227.3151651046778
 20
125.5842523229219
 10
227.310247608453
 20
125.5735824766053
 10
227.3045269810101
 20
125.5633577166802
 10
227.298002314501
 20
125.5535785462661
 10
227.2906748706699
 20
125.5442733648463
 10
227.2826867405079
 20
125.5356260818812
 10
227.2740861180344
 20
125.527666838422
 10
227.2648757389969
 20
125.520392561283
 10
227.2550487361761
 20
125.5138141216283
 10
227.2447542406486
 20
125.5080403761373
 10
227.2341080598433
 20
125.503123245931
 10
227.2231134492953
 20
125.4990537506011
 10
227.2117670723668
 20
125.4958391450548
 10
227.200145657794
 20
125.4935164549456
 10
227.1884157574844
 20
125.4921217227924
 10
227.1765828180925
 20
125.4916543143308
  0
LINE
  5
3E0
330
1F
100
AcDbEntity
  8
3
  6
Continuous
100
AcDbLine
 10
227.1639333178105
 20
125.4916543143308
 30
0.0
 11
227.1765828180925
 21
125.4916543143308
 31
0.0
  0
LWPOLYLINE
  5
3E3
330
1F
100
AcDbEntity
  8
3
  6
Continuous
100
AcDbPolyline
 90
       11
 70
   128
 43
0.0
 10
227.3072642811716
 20
125.6514644036689
 10
227.3163854802493
 20
125.6514583870838
 10
227.3245190179012
 20
125.6514539268953
 10
227.3316962341041
 20
125.6514511839352
 10
227.337845587178
 20
125.6514502374448
 10
227.3424033357225
 20
125.6514508787508
 10
227.3461494386112
 20
125.6514527911746
 10
227.3490761851787
 20
125.651455837827
 10
227.3512001584237
 20
125.6514599193328
 10
227.3524787072791
 20
125.6514648065153
 10
227.3527559293276
 20
125.6514683462465
  0
LINE
  5
3E4
330
1F
100
AcDbEntity
  8
3
  6
Continuous
100
AcDbLine
 10
227.298617418784
 20
125.638976413882
 30
0.0
 11
227.3545837850384
 21
125.638976413882
 31
0.0
  0
LINE
  5
3E8
330
1F
100
AcDbEntity
  8
3
  6
Continuous
100
AcDbLine
 10
227.2724973157278
 20
125.65151264231
 30
0.0
 11
227.2907794770493
 21
125.6516650476795
 31
0.0
  0
LWPOLYLINE
  5
3EB
330
1F
100
AcDbEntity
  8
3
  6
Continuous
100
AcDbPolyline
 90
        3
 70
   128
 43
0.0
 10
227.2873990065802
 20
125.6389657900951
 10
227.2891929678104
 20
125.6389633986771
 10
227.2910497098789
 20
125.6388896862707
  0
LWPOLYLINE
  5
3EC
330
1F
100
AcDbEntity
  8
3
  6
Continuous
100
AcDbPolyline
 90
        6
 70
   128
 43
0.0
 10
227.2910483808872
 20
125.6389237124505
 10
227.2924034657659
 20
125.6388900443329
 10
227.2938539629976
 20
125.6388712135781
 10
227.2951519255797
 20
125.6388699576723
 10
227.2962636137276
 20
125.638886895162
 10
227.2971436544676
 20
125.6389262761542
  0
LWPOLYLINE
  5
3F3
330
1F
100
AcDbEntity
  8
3
  6
Continuous
100
AcDbPolyline
 90
        4
 70
   128
 43
0.0
 10
227.2907794770493
 20
125.6516650476795
 10
227.2928243924582
 20
125.6516906986978
 10
227.2945171602231
 20
125.6516930916524
 10
227.2955552182942
 20
125.6516751670311
  0
LWPOLYLINE
  5
3F4
330
1F
100
AcDbEntity
  8
3
  6
Continuous
100
AcDbPolyline
 90
        9
 70
   128
 43
0.0
 10
227.2988233234806
 20
125.6481779452499
 10
227.2987637100432
 20
125.6488766382352
 10
227.2985788031452
 20
125.6495471988759
 10
227.2982760479229
 20
125.6501626275547
 10
227.2978676345864
 20
125.6506981445013
 10
227.2973700075899
 20
125.651132187531
 10
227.2968032035081
 20
125.6514472802292
 10
227.2961900442787
 20
125.6516307356269
 10
227.2955552182942
 20
125.6516751670311
  0
LWPOLYLINE
  5
3F6
330
1F
100
AcDbEntity
  8
3
  6
Continuous
100
AcDbPolyline
 90
        9
 70
   128
 43
0.0
 10
227.2988233234806
 20
125.6409211643469
 10
227.2987875186917
 20
125.640498437105
 10
227.2986713784354
 20
125.6400948269593
 10
227.2984801549507
 20
125.6397285864689
 10
227.2982224959835
 20
125.639416278216
 10
227.2979100537073
 20
125.6391720257923
 10
227.2975569577749
 20
125.639006875084
 10
227.2971791763287
 20
125.6389282947416
 10
227.2971431654351
 20
125.6389255305601
  0
LINE
  5
3F7
330
1F
100
AcDbEntity
  8
3
  6
Continuous
100
AcDbLine
 10
227.2988233234806
 20
125.6481779452499
 30
0.0
 11
227.2988233234806
 21
125.6409211643469
 31
0.0
  0
LWPOLYLINE
  5
3F9
330
1F
100
AcDbEntity
  8
3
  6
Continuous
100
AcDbPolyline
 90
        4
 70
   128
 43
0.0
 10
227.2836092191746
 20
125.638976413882
 10
227.2835519611646
 20
125.638854273034
 10
227.2832476079089
 20
125.6379866996508
 10
227.2830966891561
 20
125.6370732244747
  0
LWPOLYLINE
  5
3FB
330
1F
100
AcDbEntity
  8
3
  6
Continuous
100
AcDbPolyline
 90
        3
 70
   128
 43
0.0
 10
227.2955552182942
 20
125.6516751670311
 10
227.3015690057318
 20
125.6515183640147
 10
227.3072642811716
 20
125.6514644036689
  0
ARC
  5
3FC
330
1F
100
AcDbEntity
  8
3
100
AcDbCircle
 10
227.3528202030558
 20
125.6476949298412
 30
0.0
 40
0.0037739637623919
100
AcDbArc
 50
4.250835349134025
 51
90.97584175198454
  0
LWPOLYLINE
  5
3FD
330
1F
100
AcDbEntity
  8
3
  6
Continuous
100
AcDbPolyline
 90
        3
 70
   128
 43
0.0
 10
227.3265049527889
 20
125.6368153317433
 10
227.3267840950637
 20
125.6383087489545
 10
227.3271631458806
 20
125.638976413882
  0
LINE
  5
3FE
330
1F
100
AcDbEntity
  8
3
  6
Continuous
100
AcDbLine
 10
227.3565837850384
 20
125.640976413882
 30
0.0
 11
227.3565837850384
 21
125.6479746674692
 31
0.0
  0
ARC
  5
3FF
330
1F
100
AcDbEntity
  8
3
  6
Continuous
100
AcDbCircle
 10
227.3545837850384
 20
125.640976413882
 30
0.0
 40
0.002
100
AcDbArc
 50
270.0
 51
0.0
  0
LWPOLYLINE
  5
403
330
1F
100
AcDbEntity
  8
3
  6
Continuous
100
AcDbPolyline
 90
        5
 70
   128
 43
0.0
 10
225.8663567872393
 20
125.4357403168859
 10
225.8528141917931
 20
125.4312261143924
 10
225.8391622944023
 20
125.427053986675
 10
225.8253749202672
 20
125.4232166615851
 10
225.8114955069276
 20
125.4197267522253
  0
LWPOLYLINE
  5
405
330
1F
100
AcDbEntity
  8
3
  6
Continuous
100
AcDbPolyline
 90
       12
 70
   128
 43
0.0
 10
225.6782366082289
 20
125.3640777925546
 10
225.7074204615718
 20
125.3647707750446
 10
225.7365386425084
 20
125.3668466054439
 10
225.7560568773574
 20
125.3690198675514
 10
225.7755007918201
 20
125.3718154854931
 10
225.7948406781208
 20
125.3752291879363
 10
225.8146185543776
 20
125.3793854529702
 10
225.8342546074698
 20
125.384190136559
 10
225.8537170668541
 20
125.3896354648661
 10
225.8731793882012
 20
125.3957810723905
 10
225.8924325408893
 20
125.4025704790115
 10
225.911444755575
 20
125.4099924816109
  0
ARC
  5
408
330
1F
100
AcDbEntity
  8
3
  6
Continuous
100
AcDbCircle
 10
225.6782366082289
 20
124.462649221126
 30
0.0
 40
1.31546069246706
100
AcDbArc
 50
82.4061897489711
 51
97.59381025102889
  0
ARC
  5
40B
330
1F
100
AcDbEntity
  8
3
  6
Continuous
100
AcDbCircle
 10
225.6782366082289
 20
124.462649221126
 30
0.0
 40
1.346428571428572
100
AcDbArc
 50
77.26841902969742
 51
102.7315809703025
  0
LWPOLYLINE
  5
40E
330
1F
100
AcDbEntity
  8
3
  6
Continuous
100
AcDbPolyline
 90
       12
 70
   128
 43
0.0
 10
225.679236608229
 20
125.6830985542309
 10
225.689236506252
 20
125.6830168520169
 10
225.7092301823492
 20
125.6824449045429
 10
225.7292156882072
 20
125.6813275475567
 10
225.7518984961503
 20
125.6793951952728
 10
225.7632215077728
 20
125.678164738225
 10
225.7745104981468
 20
125.6767605985675
 10
225.7971166858319
 20
125.6734121135166
 10
225.8197177685886
 20
125.6693400439349
 10
225.8309746469818
 20
125.6670378781915
 10
225.8421803974981
 20
125.6645629082891
 10
225.8645698947399
 20
125.6590623745295
  0
ARC
  5
418
330
1F
100
AcDbEntity
  8
3
  6
Continuous
100
AcDbCircle
 10
228.4483091888733
 20
125.9482289446282
 30
0.0
 40
3.08
100
AcDbArc
 50
183.3988607155817
 51
185.990085078119
  0
LWPOLYLINE
  5
41E
330
1F
100
AcDbEntity
  8
3
  6
Continuous
100
AcDbPolyline
 90
        4
 70
   128
 43
0.0
 10
225.4899899730467
 20
125.6583989957057
 10
225.4871622421744
 20
125.6565001302755
 10
225.4851334518766
 20
125.6537432547551
 10
225.4846742911075
 20
125.6526161372458
  0
LWPOLYLINE
  5
41F
330
1F
100
AcDbEntity
  8
3
  6
Continuous
100
AcDbPolyline
 90
        5
 70
   128
 43
0.0
 10
225.4805346650282
 20
125.6562996491171
 10
225.482620606962
 20
125.6578109830855
 10
225.4837223774197
 20
125.6593694438678
 10
225.4843497894658
 20
125.6610470456865
 10
225.4847608682443
 20
125.662842618737
  0
LWPOLYLINE
  5
421
330
1F
100
AcDbEntity
  8
3
  6
Continuous
100
AcDbPolyline
 90
        5
 70
   128
 43
0.0
 10
225.4901164292185
 20
125.4357403168859
 10
225.5036590246646
 20
125.4312261143924
 10
225.5173109220554
 20
125.427053986675
 10
225.5310982961905
 20
125.4232166615851
 10
225.5449777095302
 20
125.4197267522253
  0
LWPOLYLINE
  5
422
330
1F
100
AcDbEntity
  8
3
  6
Continuous
100
AcDbPolyline
 90
       12
 70
   128
 43
0.0
 10
225.6782366082289
 20
125.3640777925546
 10
225.6490527548859
 20
125.3647707750446
 10
225.6199345739493
 20
125.3668466054439
 10
225.6004163391003
 20
125.3690198675514
 10
225.5809724246377
 20
125.3718154854931
 10
225.561632538337
 20
125.3752291879363
 10
225.5418546620802
 20
125.3793854529702
 10
225.522218608988
 20
125.384190136559
 10
225.5027561496036
 20
125.3896354648661
 10
225.4832938282566
 20
125.3957810723905
 10
225.4640406755684
 20
125.4025704790115
 10
225.4450284608828
 20
125.4099924816109
  0
LWPOLYLINE
  5
427
330
1F
100
AcDbEntity
  8
3
  6
Continuous
100
AcDbPolyline
 90
        3
 70
   128
 43
0.0
 10
225.4450284608828
 20
125.4099924816109
 10
225.4314373595415
 20
125.4157513671994
 10
225.4179806502649
 20
125.4218382541124
  0
LWPOLYLINE
  5
42B
330
1F
100
AcDbEntity
  8
3
  6
Continuous
100
AcDbPolyline
 90
        5
 70
   128
 43
0.0
 10
225.4842682718436
 20
125.6507807917849
 10
225.478952499784
 20
125.6065486243767
 10
225.4736313008826
 20
125.5623171802908
 10
225.4683034552755
 20
125.5180866073852
 10
225.4629667665103
 20
125.473857242615
  0
LWPOLYLINE
  5
42E
330
1F
100
AcDbEntity
  8
3
  6
Continuous
100
AcDbPolyline
 90
        5
 70
   128
 43
0.0
 10
225.4092723322499
 20
125.4475743889868
 10
225.4023068943522
 20
125.491862839651
 10
225.3959855739815
 20
125.5362574043815
 10
225.3903078494357
 20
125.5807676432674
 10
225.3852781577658
 20
125.6253653473116
  0
LINE
  5
432
330
1F
100
AcDbEntity
  8
3
  6
Continuous
100
AcDbLine
 10
225.4123540241188
 20
125.4292142650671
 30
0.0
 11
225.40927233225
 21
125.4475743889868
 31
0.0
  0
LWPOLYLINE
  5
434
330
1F
100
AcDbEntity
  8
3
  6
Continuous
100
AcDbPolyline
 90
        4
 70
   128
 43
0.0
 10
225.4179806502649
 20
125.4218382541124
 10
225.4152203969961
 20
125.4237487713709
 10
225.4132478989616
 20
125.4264651431146
 10
225.4123540241188
 20
125.4292142650671
  0
LWPOLYLINE
  5
43A
330
1F
100
AcDbEntity
  8
3
  6
Continuous
100
AcDbPolyline
 90
        6
 70
   128
 43
0.0
 10
225.4616033013552
 20
125.4626810712445
 10
225.4614951036988
 20
125.459449556582
 10
225.4619517681442
 20
125.4561504987594
 10
225.4629194196008
 20
125.4530681541038
 10
225.4644084944019
 20
125.4501049628831
 10
225.4656347548017
 20
125.4483034335166
  0
LINE
  5
43C
330
1F
100
AcDbEntity
  8
3
  6
Continuous
100
AcDbLine
 10
225.4752877087724
 20
125.4411233475615
 30
0.0
 11
225.4901164292185
 21
125.4357403168859
 31
0.0
  0
LWPOLYLINE
  5
43D
330
1F
100
AcDbEntity
  8
3
  6
Continuous
100
AcDbPolyline
 90
        4
 70
   128
 43
0.0
 10
225.4656347548017
 20
125.4483034335166
 10
225.468039385896
 20
125.4456313711578
 10
225.4709432953877
 20
125.4433389324516
 10
225.4752877087723
 20
125.4411233475615
  0
LWPOLYLINE
  5
440
330
1F
100
AcDbEntity
  8
3
  6
Continuous
100
AcDbPolyline
 90
        3
 70
   128
 43
0.0
 10
225.4629667665103
 20
125.473857242615
 10
225.4622883531181
 20
125.4682686852147
 10
225.4616033013552
 20
125.4626810712445
  0
LWPOLYLINE
  5
443
330
1F
100
AcDbEntity
  8
3
  6
Continuous
100
AcDbPolyline
 90
        5
 70
   128
 43
0.0
 10
225.3888342777846
 20
125.6264659838418
 10
225.3933162515646
 20
125.6279523809853
 10
225.4168439633362
 20
125.6361884468605
 10
225.4465465753519
 20
125.6459184476327
 10
225.4766063239276
 20
125.6546109357562
  0
LINE
  5
444
330
1F
100
AcDbEntity
  8
3
  6
Continuous
100
AcDbLine
 10
225.3852781577658
 20
125.6253653473116
 30
0.0
 11
225.3851504410902
 21
125.6265793124509
 31
0.0
  0
LINE
  5
447
330
1F
100
AcDbEntity
  8
3
  6
Continuous
100
AcDbLine
 10
225.3851504410902
 20
125.6265793124509
 30
0.0
 11
225.3851260845928
 21
125.6268113507568
 31
0.0
  0
LWPOLYLINE
  5
449
330
1F
100
AcDbEntity
  8
3
  6
Continuous
100
AcDbPolyline
 90
        9
 70
   128
 43
0.0
 10
225.3888342777846
 20
125.6264659838418
 10
225.3881336749312
 20
125.6263982102099
 10
225.3874532634057
 20
125.6263526154702
 10
225.3868206509832
 20
125.6263310496346
 10
225.3862615059847
 20
125.6263343877393
 10
225.3857985157823
 20
125.6263624943403
 10
225.3854504662561
 20
125.6264142290091
 10
225.3852314795553
 20
125.6264874926055
 10
225.3851504410902
 20
125.6265793124509
  0
LINE
  5
44C
330
1F
100
AcDbEntity
  8
3
  6
Continuous
100
AcDbLine
 10
225.4784126627491
 20
125.6552485914854
 30
0.0
 11
225.4805346650282
 21
125.6562996491171
 31
0.0
  0
LINE
  5
44D
330
1F
100
AcDbEntity
  8
3
  6
Continuous
100
AcDbLine
 10
225.4766063239276
 20
125.6546109357561
 30
0.0
 11
225.4784126627491
 21
125.6552485914854
 31
0.0
  0
LINE
  5
450
330
1F
100
AcDbEntity
  8
3
  6
Continuous
100
AcDbLine
 10
225.4846742911075
 20
125.6526161372458
 30
0.0
 11
225.4842682718436
 21
125.6507807917849
 31
0.0
  0
LWPOLYLINE
  5
453
330
1F
100
AcDbEntity
  8
3
  6
Continuous
100
AcDbPolyline
 90
        9
 70
   128
 43
0.0
 10
225.5449777095302
 20
125.4197267522253
 10
225.5612446357045
 20
125.4161010348532
 10
225.577609754684
 20
125.4129480086101
 10
225.5941150759501
 20
125.4102622815429
 10
225.6106914712389
 20
125.4080573790578
 10
225.6274973190582
 20
125.4063200800365
 10
225.6443469222837
 20
125.4050770037707
 10
225.6612844072685
 20
125.4043277037391
 10
225.6782366082289
 20
125.4040777925546
  0
LWPOLYLINE
  5
455
330
1F
100
AcDbEntity
  8
3
  6
Continuous
100
AcDbPolyline
 90
        9
 70
   128
 43
0.0
 10
225.8114955069276
 20
125.4197267522253
 10
225.7952285807533
 20
125.4161010348532
 10
225.7788634617738
 20
125.4129480086101
 10
225.7623581405077
 20
125.4102622815429
 10
225.7457817452188
 20
125.4080573790578
 10
225.7289758973996
 20
125.4063200800365
 10
225.712126294174
 20
125.4050770037707
 10
225.6951888091892
 20
125.4043277037391
 10
225.6782366082289
 20
125.4040777925546
  0
CIRCLE
  5
463
330
1F
100
AcDbEntity
  8
3
  6
Continuous
100
AcDbCircle
 10
225.6782366082289
 20
125.6015777925546
 30
0.0
 40
0.0225
  0
LWPOLYLINE
  5
470
330
1F
100
AcDbEntity
  8
3
  6
Continuous
100
AcDbPolyline
 90
       12
 70
   128
 43
0.0
 10
225.6772366082288
 20
125.6830985542309
 10
225.6672367102057
 20
125.6830168520169
 10
225.6472430341085
 20
125.6824449045429
 10
225.6272575282505
 20
125.6813275475567
 10
225.6045747203075
 20
125.6793951952728
 10
225.593251708685
 20
125.678164738225
 10
225.5819627183109
 20
125.6767605985675
 10
225.5593565306258
 20
125.6734121135166
 10
225.5367554478692
 20
125.6693400439349
 10
225.5254985694759
 20
125.6670378781915
 10
225.5142928189597
 20
125.6645629082891
 10
225.4919033217179
 20
125.6590623745295
  0
LWPOLYLINE
  5
474
330
1F
100
AcDbEntity
  8
3
  6
Continuous
100
AcDbPolyline
 90
        6
 70
   128
 43
0.0
 10
225.4962021120042
 20
125.7585347519438
 10
225.4968590534491
 20
125.7609741977212
 10
225.4984484898079
 20
125.7634548419532
 10
225.5008383658825
 20
125.765377408221
 10
225.5038316546977
 20
125.7664808166134
 10
225.5043993893538
 20
125.7665730895936
  0
ARC
  5
476
330
1F
100
AcDbEntity
  8
3
  6
Continuous
100
AcDbCircle
 10
225.383709297414
 20
125.7662193150276
 30
0.0
 40
0.0100000000000001
100
AcDbArc
 50
102.7315809703025
 51
183.3988607155817
  0
LINE
  5
47A
330
1F
100
AcDbEntity
  8
3
  6
Continuous
100
AcDbLine
 10
225.484953068192
 20
125.6640427839209
 30
0.0
 11
225.4962021120042
 21
125.7585347519438
 31
0.0
  0
LINE
  5
47F
330
1F
100
AcDbEntity
  8
3
  6
Continuous
100
AcDbLine
 10
225.4919033217179
 20
125.6590623745295
 30
0.0
 11
225.4899899730467
 21
125.6583989957057
 31
0.0
  0
LINE
  5
484
330
1F
100
AcDbEntity
  8
3
  6
Continuous
100
AcDbLine
 10
225.4848975495268
 20
125.66364147097
 30
0.0
 11
225.484953068192
 21
125.6640427839209
 31
0.0
  0
LWPOLYLINE
  5
48D
330
1F
100
AcDbEntity
  8
3
  6
Continuous
100
AcDbPolyline
 90
       19
 70
   128
 43
0.0
 10
225.679236830365
 20
125.6779833397114
 10
225.6817600351037
 20
125.6780254932416
 10
225.6842543162701
 20
125.6781176226225
 10
225.6865100847877
 20
125.6782531920071
 10
225.6885931477385
 20
125.6784378365376
 10
225.6903384185079
 20
125.6786592232689
 10
225.6917874422418
 20
125.6789250305837
 10
225.6928303134037
 20
125.6792180088069
 10
225.6934833748902
 20
125.6795457369755
 10
225.6936943542555
 20
125.6798854557902
 10
225.6934617959758
 20
125.680244080005
 10
225.6928000825474
 20
125.6805934226832
 10
225.6916893206438
 20
125.6809401269243
 10
225.6902238586064
 20
125.6812527196058
 10
225.6883575651297
 20
125.6815383239795
 10
225.6862691019358
 20
125.6817679609868
 10
225.6838791146493
 20
125.6819486642425
 10
225.6815987395628
 20
125.6820556329938
 10
225.6792366990076
 20
125.6821080229171
  0
LWPOLYLINE
  5
491
330
1F
100
AcDbEntity
  8
3
  6
Continuous
100
AcDbPolyline
 90
        4
 70
   128
 43
0.0
 10
225.6792366082289
 20
125.6779833140539
 10
225.6785701474906
 20
125.6779794870269
 10
225.6779030689672
 20
125.6779794870269
 10
225.6772366082289
 20
125.6779833140539
  0
LWPOLYLINE
  5
494
330
1F
100
AcDbEntity
  8
3
  6
Continuous
100
AcDbPolyline
 90
        4
 70
   128
 43
0.0
 10
225.6772366082289
 20
125.6821080471227
 10
225.6779030689672
 20
125.6821118741497
 10
225.6785701474906
 20
125.6821118741497
 10
225.6792366082289
 20
125.6821080471227
  0
LINE
  5
495
330
1F
100
AcDbEntity
  8
3
  6
Continuous
100
AcDbLine
 10
225.6792366990076
 20
125.6821080229171
 30
0.0
 11
225.6792366082291
 21
125.6821080472524
 31
0.0
  0
LINE
  5
496
330
1F
100
AcDbEntity
  8
3
  6
Continuous
100
AcDbLine
 10
225.6792366082293
 20
125.6779833143649
 30
0.0
 11
225.679236830365
 21
125.6779833397114
 31
0.0
  0
LWPOLYLINE
  5
498
330
1F
100
AcDbEntity
  8
3
  6
Continuous
100
AcDbPolyline
 90
       19
 70
   128
 43
0.0
 10
225.6772363860928
 20
125.6779833397114
 10
225.6747131813541
 20
125.6780254932416
 10
225.6722189001877
 20
125.6781176226225
 10
225.6699631316701
 20
125.6782531920071
 10
225.6678800687192
 20
125.6784378365376
 10
225.6661347979498
 20
125.6786592232689
 10
225.6646857742159
 20
125.6789250305837
 10
225.6636429030541
 20
125.6792180088069
 10
225.6629898415676
 20
125.6795457369755
 10
225.6627788622022
 20
125.6798854557902
 10
225.663011420482
 20
125.680244080005
 10
225.6636731339103
 20
125.6805934226832
 10
225.664783895814
 20
125.6809401269243
 10
225.6662493578513
 20
125.6812527196058
 10
225.668115651328
 20
125.6815383239795
 10
225.670204114522
 20
125.6817679609868
 10
225.6725941018085
 20
125.6819486642425
 10
225.6748744768949
 20
125.6820556329938
 10
225.6772365174501
 20
125.6821080229171
  0
LINE
  5
49A
330
1F
100
AcDbEntity
  8
3
  6
Continuous
100
AcDbLine
 10
225.6792366082289
 20
125.6830985542479
 30
0.0
 11
225.6772366082289
 21
125.6830985542479
 31
0.0
  0
CIRCLE
  5
49C
330
1F
100
AcDbEntity
  8
3
  6
Continuous
100
AcDbCircle
 10
225.6782366082289
 20
125.7415777925546
 30
0.0
 40
0.0175
  0
ARC
  5
49E
330
1F
100
AcDbEntity
  8
3
  6
Continuous
100
AcDbCircle
 10
222.9081640275844
 20
125.9482289446282
 30
0.0
 40
3.08
100
AcDbArc
 50
354.009914921881
 51
356.6011392844183
  0
LWPOLYLINE
  5
4A2
330
1F
100
AcDbEntity
  8
3
  6
Continuous
100
AcDbPolyline
 90
        7
 70
   128
 43
0.0
 10
225.8664832434111
 20
125.6583989957057
 10
225.867956095397
 20
125.6575798327352
 10
225.8693109742833
 20
125.6565001302755
 10
225.8704322980324
 20
125.6552364227654
 10
225.8713397645812
 20
125.6537432547551
 10
225.8715874104014
 20
125.6531886267309
 10
225.8717989253502
 20
125.6526161372458
  0
LWPOLYLINE
  5
4A4
330
1F
100
AcDbEntity
  8
3
  6
Continuous
100
AcDbPolyline
 90
        5
 70
   128
 43
0.0
 10
225.8759385514296
 20
125.6562996491171
 10
225.8738526094958
 20
125.6578109830855
 10
225.872750839038
 20
125.6593694438678
 10
225.8721234269919
 20
125.6610470456865
 10
225.8717123482134
 20
125.662842618737
  0
LWPOLYLINE
  5
4A6
330
1F
100
AcDbEntity
  8
3
  6
Continuous
100
AcDbPolyline
 90
        3
 70
   128
 43
0.0
 10
225.911444755575
 20
125.4099924816109
 10
225.9250358569163
 20
125.4157513671994
 10
225.9384925661928
 20
125.4218382541124
  0
LWPOLYLINE
  5
4AB
330
1F
100
AcDbEntity
  8
3
  6
Continuous
100
AcDbPolyline
 90
        5
 70
   128
 43
0.0
 10
225.9472008842078
 20
125.4475743889868
 10
225.9541670090545
 20
125.4918675414117
 10
225.9604876424763
 20
125.5362574043815
 10
225.9661659181186
 20
125.580772374934
 10
225.971195058692
 20
125.6253653473116
  0
LWPOLYLINE
  5
4AE
330
1F
100
AcDbEntity
  8
3
  6
Continuous
100
AcDbPolyline
 90
        9
 70
   128
 43
0.0
 10
225.9676389386731
 20
125.6264659838418
 10
225.9683395415265
 20
125.6263982102099
 10
225.969019953052
 20
125.6263526154702
 10
225.9696525654746
 20
125.6263310496346
 10
225.9702117104731
 20
125.6263343877393
 10
225.9706747006755
 20
125.6263624943403
 10
225.9710227502016
 20
125.6264142290091
 10
225.9712417369025
 20
125.6264874926055
 10
225.9713227753675
 20
125.6265793124509
  0
LINE
  5
4AF
330
1F
100
AcDbEntity
  8
3
  6
Continuous
100
AcDbLine
 10
225.8722049446141
 20
125.6507807917849
 30
0.0
 11
225.8935064499475
 21
125.473857242615
 31
0.0
  0
LWPOLYLINE
  5
4B4
330
1F
100
AcDbEntity
  8
3
  6
Continuous
100
AcDbPolyline
 90
        4
 70
   128
 43
0.0
 10
225.8908384616561
 20
125.4483034335166
 10
225.8884338305618
 20
125.4456313711578
 10
225.88552992107
 20
125.4433389324516
 10
225.8811855076854
 20
125.4411233475615
  0
LINE
  5
4B8
330
1F
100
AcDbEntity
  8
3
  6
Continuous
100
AcDbLine
 10
225.8811855076854
 20
125.4411233475615
 30
0.0
 11
225.8663567872393
 21
125.4357403168859
 31
0.0
  0
LWPOLYLINE
  5
4BA
330
1F
100
AcDbEntity
  8
3
  6
Continuous
100
AcDbPolyline
 90
        6
 70
   128
 43
0.0
 10
225.8948699151026
 20
125.4626810712445
 10
225.894978112759
 20
125.459449556582
 10
225.8945214483135
 20
125.4561504987594
 10
225.893553796857
 20
125.4530681541038
 10
225.8920647220558
 20
125.4501049628831
 10
225.8908384616561
 20
125.4483034335166
  0
LINE
  5
4BE
330
1F
100
AcDbEntity
  8
3
  6
Continuous
100
AcDbLine
 10
225.8935064499475
 20
125.473857242615
 30
0.0
 11
225.8948699151026
 21
125.4626810712445
 31
0.0
  0
LWPOLYLINE
  5
4C0
330
1F
100
AcDbEntity
  8
3
  6
Continuous
100
AcDbPolyline
 90
        4
 70
   128
 43
0.0
 10
225.9384925661928
 20
125.4218382541124
 10
225.9412528194617
 20
125.4237487713709
 10
225.9432253174961
 20
125.4264651431146
 10
225.944119192339
 20
125.4292142650671
  0
LINE
  5
4C5
330
1F
100
AcDbEntity
  8
3
  6
Continuous
100
AcDbLine
 10
225.944119192339
 20
125.4292142650671
 30
0.0
 11
225.9472008842078
 21
125.4475743889868
 31
0.0
  0
LWPOLYLINE
  5
4C7
330
1F
100
AcDbEntity
  8
3
  6
Continuous
100
AcDbPolyline
 90
        5
 70
   128
 43
0.0
 10
225.9676389386731
 20
125.6264659838418
 10
225.9631569648931
 20
125.6279523809853
 10
225.9396292531215
 20
125.6361884468605
 10
225.9099266411059
 20
125.6459184476327
 10
225.8798668925301
 20
125.6546109357562
  0
LWPOLYLINE
  5
4D2
330
1F
100
AcDbEntity
  8
3
  6
Continuous
100
AcDbPolyline
 90
        5
 70
   128
 43
0.0
 10
225.8717989253502
 20
125.6526161372458
 10
225.8719348942045
 20
125.6521688893498
 10
225.872048106167
 20
125.6517139895221
 10
225.8721384897767
 20
125.6512500542793
 10
225.8722049446141
 20
125.6507807917849
  0
LINE
  5
4D7
330
1F
100
AcDbEntity
  8
3
  6
Continuous
100
AcDbLine
 10
225.8780605537087
 20
125.6552485914854
 30
0.0
 11
225.8759385514296
 21
125.6562996491171
 31
0.0
  0
LINE
  5
4D8
330
1F
100
AcDbEntity
  8
3
  6
Continuous
100
AcDbLine
 10
225.8798668925301
 20
125.6546109357561
 30
0.0
 11
225.8780605537087
 21
125.6552485914854
 31
0.0
  0
LINE
  5
4DC
330
1F
100
AcDbEntity
  8
3
  6
Continuous
100
AcDbLine
 10
225.971195058692
 20
125.6253653473116
 30
0.0
 11
225.9713227753675
 21
125.6265793124509
 31
0.0
  0
LINE
  5
4DD
330
1F
100
AcDbEntity
  8
3
  6
Continuous
100
AcDbLine
 10
225.9713227753675
 20
125.6265793124509
 30
0.0
 11
225.971347131865
 21
125.6268113507568
 31
0.0
  0
LINE
  5
4E0
330
1F
100
AcDbEntity
  8
3
  6
Continuous
100
AcDbLine
 10
225.8715201482658
 20
125.6640427839209
 30
0.0
 11
225.8602711044535
 21
125.7585347519438
 31
0.0
  0
LWPOLYLINE
  5
4E4
330
1F
100
AcDbEntity
  8
3
  6
Continuous
100
AcDbPolyline
 90
        5
 70
   128
 43
0.0
 10
225.8645698947399
 20
125.6590623745295
 10
225.8650564611398
 20
125.6589310740895
 10
225.8655376242935
 20
125.6587770921328
 10
225.8660143121875
 20
125.6585995366195
 10
225.8664832434111
 20
125.6583989957057
  0
LINE
  5
4EA
330
1F
100
AcDbEntity
  8
3
  6
Continuous
100
AcDbLine
 10
225.8717123482134
 20
125.662842618737
 30
0.0
 11
225.871575666931
 21
125.66364147097
 31
0.0
  0
LWPOLYLINE
  5
4ED
330
1F
100
AcDbEntity
  8
3
  6
Continuous
100
AcDbPolyline
 90
        6
 70
   128
 43
0.0
 10
225.8602711044535
 20
125.7585347519438
 10
225.8596141630086
 20
125.7609741977212
 10
225.8580247266498
 20
125.7634548419532
 10
225.8556348505752
 20
125.765377408221
 10
225.8526415617601
 20
125.7664808166134
 10
225.8520738271039
 20
125.7665730895936
  0
ARC
  5
4F2
330
1F
100
AcDbEntity
  8
3
  6
Continuous
100
AcDbCircle
 10
225.9727639190438
 20
125.7662193150276
 30
0.0
 40
0.0100000000000001
100
AcDbArc
 50
356.6011392844183
 51
77.26841902969742
  0
LINE
  5
6F9
330
1F
100
AcDbEntity
  8
3
100
AcDbLine
 10
227.5360426040017
 20
125.6514688936036
 30
0.0
 11
227.5133188325847
 21
125.6514688936036
 31
0.0
  0
LINE
  5
6FB
330
1F
100
AcDbEntity
  8
3
100
AcDbLine
 10
227.6484326838494
 20
125.501469170415
 30
0.0
 11
227.6485609880624
 21
125.501469170415
 31
0.0
  0
LINE
  5
6FC
330
1F
100
AcDbEntity
  8
3
100
AcDbLine
 10
227.8693740720577
 20
125.6514989839049
 30
0.0
 11
227.8816021639707
 21
125.651279258232
 31
0.0
  0
LINE
  5
701
330
1F
100
AcDbEntity
  8
3
  6
Continuous
100
AcDbLine
 10
227.5022337854602
 20
125.640915711247
 30
0.0
 11
227.4882183487433
 21
125.6388133957395
 31
0.0
  0
ARC
  5
702
330
1F
100
AcDbEntity
  8
3
  6
Continuous
100
AcDbCircle
 10
227.4879216678374
 20
125.6407912684452
 30
0.0
 40
0.0019999999999999
100
AcDbArc
 50
180.0
 51
278.530765610376
  0
LINE
  5
703
330
1F
100
AcDbEntity
  8
3
  6
Continuous
100
AcDbLine
 10
227.4859216678374
 20
125.6479688936036
 30
0.0
 11
227.4859216678374
 21
125.6407912684452
 31
0.0
  0
ARC
  5
704
330
1F
100
AcDbEntity
  8
3
  6
Continuous
100
AcDbCircle
 10
227.4894216678374
 20
125.6479688936036
 30
0.0
 40
0.0034999999999999
100
AcDbArc
 50
90.0
 51
180.0
  0
ARC
  5
705
330
1F
100
AcDbEntity
  8
3
  6
Continuous
100
AcDbCircle
 10
227.5133188325847
 20
125.6464688936036
 30
0.0
 40
0.005
100
AcDbArc
 50
44.42700399885676
 51
90.0
  0
ARC
  5
706
330
1F
100
AcDbEntity
  8
3
  6
Continuous
100
AcDbCircle
 10
227.5204602610132
 20
125.6534688936036
 30
0.0
 40
0.005000000000086
100
AcDbArc
 50
224.4270040017673
 51
270.0
  0
LINE
  5
707
330
1F
100
AcDbEntity
  8
3
  6
Continuous
100
AcDbLine
 10
227.5339216678375
 20
125.6484688936036
 30
0.0
 11
227.5204602610132
 21
125.6484688936036
 31
0.0
  0
ARC
  5
708
330
1F
100
AcDbEntity
  8
3
  6
Continuous
100
AcDbCircle
 10
227.5339216678375
 20
125.6464688936036
 30
0.0
 40
0.0020000000000002
100
AcDbArc
 50
0.0
 51
90.0
  0
LINE
  5
709
330
1F
100
AcDbEntity
  8
3
  6
Continuous
100
AcDbLine
 10
227.5359216678374
 20
125.6434688936036
 30
0.0
 11
227.5359216678374
 21
125.6464688936036
 31
0.0
  0
ARC
  5
70A
330
1F
100
AcDbEntity
  8
3
  6
Continuous
100
AcDbCircle
 10
227.5339216678375
 20
125.6434688936036
 30
0.0
 40
0.0020000000000002
100
AcDbArc
 50
270.0
 51
0.0
  0
LINE
  5
70B
330
1F
100
AcDbEntity
  8
3
  6
Continuous
100
AcDbLine
 10
227.5096508081067
 20
125.6414688936036
 30
0.0
 11
227.5339216678375
 21
125.6414688936036
 31
0.0
  0
LINE
  5
712
330
1F
100
AcDbEntity
  8
3
  6
Continuous
100
AcDbLine
 10
227.5353226519685
 20
125.6388133957395
 30
0.0
 11
227.5293094976459
 21
125.6387001868934
 31
0.0
  0
LWPOLYLINE
  5
713
330
1F
100
AcDbEntity
  8
3
  6
Continuous
100
AcDbPolyline
 90
        6
 70
   128
 43
0.0
 10
227.5293094976459
 20
125.6387001868934
 10
227.526712315123
 20
125.6386342742036
 10
227.5243454840132
 20
125.638612943444
 10
227.5224975730852
 20
125.6386259331713
 10
227.5213523682606
 20
125.638679000068
 10
227.5211941153284
 20
125.6386999651711
  0
LINE
  5
714
330
1F
100
AcDbEntity
  8
3
  6
Continuous
100
AcDbLine
 10
227.5211941153284
 20
125.6386999651711
 30
0.0
 11
227.5199297873647
 21
125.6388133957395
 31
0.0
  0
ARC
  5
715
330
1F
100
AcDbEntity
  8
3
  6
Continuous
100
AcDbCircle
 10
227.5096508081067
 20
125.5914688936036
 30
0.0
 40
0.0500000000000003
100
AcDbArc
 50
90.0
 51
98.53076560995615
  0
LINE
  5
716
330
1F
100
AcDbEntity
  8
3
  6
Continuous
100
AcDbLine
 10
227.4894216678374
 20
125.6514688936036
 30
0.0
 11
227.5133188325847
 21
125.6514688936036
 31
0.0
  0
LINE
  5
717
330
1F
100
AcDbEntity
  8
3
  6
Continuous
100
AcDbLine
 10
227.4882183487433
 20
125.6388133957395
 30
0.0
 11
227.5199297873647
 21
125.6388133957395
 31
0.0
  0
ARC
  5
718
330
1F
100
AcDbEntity
  8
3
  6
Continuous
100
AcDbCircle
 10
227.5791469769723
 20
125.6394688936036
 30
0.0
 40
0.0020000000000002
100
AcDbArc
 50
3.270493085145353
 51
90.0
  0
ARC
  5
719
330
1F
100
AcDbEntity
  8
3
  6
Continuous
100
AcDbCircle
 10
227.5729216678374
 20
125.6434688936036
 30
0.0
 40
0.0019999999999999
100
AcDbArc
 50
180.0
 51
270.0
  0
LINE
  5
71A
330
1F
100
AcDbEntity
  8
3
  6
Continuous
100
AcDbLine
 10
227.5709216678374
 20
125.6464688936036
 30
0.0
 11
227.5709216678374
 21
125.6434688936036
 31
0.0
  0
ARC
  5
71B
330
1F
100
AcDbEntity
  8
3
  6
Continuous
100
AcDbCircle
 10
227.5729216678374
 20
125.6464688936036
 30
0.0
 40
0.0019999999999999
100
AcDbArc
 50
90.0
 51
180.0
  0
LINE
  5
71C
330
1F
100
AcDbEntity
  8
3
  6
Continuous
100
AcDbLine
 10
227.5729216678374
 20
125.6414688936036
 30
0.0
 11
227.5791469769723
 21
125.6414688936036
 31
0.0
  0
LINE
  5
71D
330
1F
100
AcDbEntity
  8
3
  6
Continuous
100
AcDbLine
 10
227.6128871076977
 20
125.6367332217273
 30
0.0
 11
227.6119009061441
 21
125.6441297139129
 31
0.0
  0
ARC
  5
71E
330
1F
100
AcDbEntity
  8
3
  6
Continuous
100
AcDbCircle
 10
227.6109046519875
 20
125.6364688936036
 30
0.0
 40
0.0020000000000002
100
AcDbArc
 50
270.0
 51
7.594663123666085
  0
LINE
  5
71F
330
1F
100
AcDbEntity
  8
3
  6
Continuous
100
AcDbLine
 10
227.6048515442139
 20
125.6344688936036
 30
0.0
 11
227.6109046519875
 21
125.6344688936036
 31
0.0
  0
ARC
  5
720
330
1F
100
AcDbEntity
  8
3
  6
Continuous
100
AcDbCircle
 10
227.6048515442139
 20
125.6364688936036
 30
0.0
 40
0.0020000000000002
100
AcDbArc
 50
187.5946626106746
 51
270.0
  0
LINE
  5
721
330
1F
100
AcDbEntity
  8
3
  6
Continuous
100
AcDbLine
 10
227.6027457350689
 20
125.6371297138685
 30
0.0
 11
227.6028690885012
 21
125.6362045654976
 31
0.0
  0
ARC
  5
722
330
1F
100
AcDbEntity
  8
3
  6
Continuous
100
AcDbCircle
 10
227.5977895957874
 20
125.6364688936036
 30
0.0
 40
0.005
100
AcDbArc
 50
7.594662610674678
 51
90.0
  0
LINE
  5
723
330
1F
100
AcDbEntity
  8
3
  6
Continuous
100
AcDbLine
 10
227.5931698155589
 20
125.6414688936036
 30
0.0
 11
227.5977895957874
 21
125.6414688936036
 31
0.0
  0
ARC
  5
724
330
1F
100
AcDbEntity
  8
3
  6
Continuous
100
AcDbCircle
 10
227.5931698155589
 20
125.6394688936036
 30
0.0
 40
0.0020000000000002
100
AcDbArc
 50
90.0
 51
183.2704930851454
  0
ARC
  5
725
330
1F
100
AcDbEntity
  8
3
  6
Continuous
100
AcDbCircle
 10
227.6069447668685
 20
125.6434688936036
 30
0.0
 40
0.0050000000000021
100
AcDbArc
 50
7.594663123692386
 51
90.0
  0
LINE
  5
72A
330
1F
100
AcDbEntity
  8
3
  6
Continuous
100
AcDbLine
 10
227.6069447713956
 20
125.6484688936036
 30
0.0
 11
227.5729216678374
 21
125.6484688936036
 31
0.0
  0
ARC
  5
72B
330
1F
100
AcDbEntity
  8
3
  6
Continuous
100
AcDbCircle
 10
227.6089848881432
 20
125.6054688936036
 30
0.0
 40
0.0019999999999998
100
AcDbArc
 50
90.0
 51
187.5946626107009
  0
LINE
  5
72C
330
1F
100
AcDbEntity
  8
3
  6
Continuous
100
AcDbLine
 10
227.6150379961994
 20
125.6074688936036
 30
0.0
 11
227.6089848881432
 21
125.6074688936036
 31
0.0
  0
ARC
  5
72D
330
1F
100
AcDbEntity
  8
3
  6
Continuous
100
AcDbCircle
 10
227.6150379961994
 20
125.6054688936036
 30
0.0
 40
0.002
100
AcDbArc
 50
7.594663123666085
 51
90.0
  0
LINE
  5
73D
330
1F
100
AcDbEntity
  8
3
  6
Continuous
100
AcDbLine
 10
227.6370524438181
 20
125.6514688936036
 30
0.0
 11
227.6305345720277
 21
125.6514688936036
 31
0.0
  0
LINE
  5
744
330
1F
100
AcDbEntity
  8
3
  6
Continuous
100
AcDbLine
 10
227.6678228623694
 20
125.6514688936036
 30
0.0
 11
227.6370524438181
 21
125.6514688936036
 31
0.0
  0
LINE
  5
752
330
1F
100
AcDbEntity
  8
3
  6
Continuous
100
AcDbLine
 10
227.8468351985269
 20
125.6513274968731
 30
0.0
 11
227.8651173598483
 21
125.6514799022427
 31
0.0
  0
LWPOLYLINE
  5
753
330
1F
100
AcDbEntity
  8
3
  6
Continuous
100
AcDbPolyline
 90
        4
 70
   128
 43
0.0
 10
227.8651173598483
 20
125.6514799022427
 10
227.8671622752572
 20
125.651505553261
 10
227.8688550430221
 20
125.6515079462156
 10
227.8698931010933
 20
125.6514900215942
  0
LWPOLYLINE
  5
75A
330
1F
100
AcDbEntity
  8
3
  6
Continuous
100
AcDbPolyline
 90
        5
 70
   128
 43
0.0
 10
227.6692568120866
 20
125.6513635233958
 10
227.7137544630548
 20
125.6513579892501
 10
227.7581835281599
 20
125.6513508162291
 10
227.8025533435432
 20
125.6513411632165
 10
227.8468351985269
 20
125.6513274968731
  0
ARC
  5
75B
330
1F
100
AcDbEntity
  8
3
  6
Continuous
100
AcDbCircle
 10
227.6098839302091
 20
125.4872005139456
 30
0.0
 40
0.0100000000000003
100
AcDbArc
 50
183.2704930851454
 51
266.0275040592607
  0
ARC
  5
75C
330
1F
100
AcDbEntity
  8
3
  6
Continuous
100
AcDbCircle
 10
227.6098839302091
 20
125.4872005139456
 30
0.0
 40
0.0200000000000001
100
AcDbArc
 50
183.2704930851454
 51
266.0275040592347
  0
LINE
  5
763
330
1F
100
AcDbEntity
  8
3
  6
Continuous
100
AcDbLine
 10
227.6681577358149
 20
125.4928511364263
 30
0.0
 11
227.6530331240174
 21
125.500413442325
 31
0.0
  0
ARC
  5
766
330
1F
100
AcDbEntity
  8
3
  6
Continuous
100
AcDbCircle
 10
227.6485609880624
 20
125.491469170415
 30
0.0
 40
0.01
100
AcDbArc
 50
63.43494882290967
 51
90.0
  0
ARC
  5
767
330
1F
100
AcDbEntity
  8
3
  6
Continuous
100
AcDbCircle
 10
227.6485609880623
 20
125.4814691688944
 30
0.0
 40
0.01
100
AcDbArc
 50
63.43494882345875
 51
90.0
  0
LINE
  5
768
330
1F
100
AcDbEntity
  8
3
  6
Continuous
100
AcDbLine
 10
227.6309223543826
 20
125.4914691688944
 30
0.0
 11
227.6485609880624
 21
125.4914691688944
 31
0.0
  0
ARC
  5
769
330
1F
100
AcDbEntity
  8
3
  6
Continuous
100
AcDbCircle
 10
227.6587889477629
 20
125.461751348134
 30
0.0
 40
0.0019999999999999
100
AcDbArc
 50
1.432533558230666
 51
86.02750405926068
  0
LINE
  5
76A
330
1F
100
AcDbEntity
  8
3
  6
Continuous
100
AcDbLine
 10
227.6574746805435
 20
125.488192662541
 30
0.0
 11
227.6530331240166
 21
125.4904134408044
 31
0.0
  0
ARC
  5
76B
330
1F
100
AcDbEntity
  8
3
  6
Continuous
100
AcDbCircle
 10
227.6699216678374
 20
125.4720047345918
 30
0.0
 40
0.0010000000000001
100
AcDbArc
 50
0.0
 51
86.02750405902479
  0
LINE
  5
76C
330
1F
100
AcDbEntity
  8
3
  6
Continuous
100
AcDbLine
 10
227.6709216678374
 20
125.4830872028829
 30
0.0
 11
227.6709216678374
 21
125.4883790004713
 31
0.0
  0
ARC
  5
76F
330
1F
100
AcDbEntity
  8
3
  6
Continuous
100
AcDbCircle
 10
227.6699216678374
 20
125.4830872028829
 30
0.0
 40
0.0010000000000001
100
AcDbArc
 50
243.4349488234587
 51
0.0
  0
ARC
  5
773
330
1F
100
AcDbEntity
  8
3
  6
Continuous
100
AcDbCircle
 10
227.6659216678374
 20
125.4883790004713
 30
0.0
 40
0.005
100
AcDbArc
 50
0.0
 51
63.43494882293436
  0
LINE
  5
774
330
1F
100
AcDbEntity
  8
3
  6
Continuous
100
AcDbLine
 10
227.6574746805435
 20
125.488192662541
 30
0.0
 11
227.6694744542419
 21
125.4821927756919
 31
0.0
  0
LINE
  5
777
330
1F
100
AcDbEntity
  8
3
  6
Continuous
100
AcDbLine
 10
227.6091911542223
 20
125.477224539736
 30
0.0
 11
227.6699909454361
 21
125.4730023320128
 31
0.0
  0
LINE
  5
778
330
1F
100
AcDbEntity
  8
3
  6
Continuous
100
AcDbLine
 10
227.6084983782356
 20
125.4672485655263
 30
0.0
 11
227.6589275029603
 21
125.463746542976
 31
0.0
  0
ARC
  5
779
330
1F
100
AcDbEntity
  8
3
  6
Continuous
100
AcDbCircle
 10
227.630922351854
 20
125.5014691688944
 30
0.0
 40
0.0100000000000003
100
AcDbArc
 50
187.5946626140918
 51
270.0
  0
ARC
  5
77A
330
1F
100
AcDbEntity
  8
3
  6
Continuous
100
AcDbCircle
 10
227.6484326838494
 20
125.521469170415
 30
0.0
 40
0.0200000000000003
100
AcDbArc
 50
187.5946631236923
 51
270.0
  0
ARC
  5
77B
330
1F
100
AcDbEntity
  8
3
  6
Continuous
100
AcDbCircle
 10
227.6628722778449
 20
125.458469170415
 30
0.0
 40
0.0020000000000002
100
AcDbArc
 50
181.4325335582306
 51
270.0
  0
ARC
  5
77C
330
1F
100
AcDbEntity
  8
3
  6
Continuous
100
AcDbCircle
 10
227.6689216678374
 20
125.458469170415
 30
0.0
 40
0.0020000000000002
100
AcDbArc
 50
270.0
 51
0.0
  0
LINE
  5
77D
330
1F
100
AcDbEntity
  8
3
  6
Continuous
100
AcDbLine
 10
227.6689216678374
 20
125.456469170415
 30
0.0
 11
227.6628722778449
 21
125.456469170415
 31
0.0
  0
LINE
  5
77E
330
1F
100
AcDbEntity
  8
3
  6
Continuous
100
AcDbLine
 10
227.6709216678374
 20
125.458469170415
 30
0.0
 11
227.6709216678374
 21
125.4720047345918
 31
0.0
  0
LINE
  5
77F
330
1F
100
AcDbEntity
  8
3
  6
Continuous
100
AcDbLine
 10
227.6608729029337
 20
125.4584191707703
 30
0.0
 11
227.6607883226741
 21
125.4618013477788
 31
0.0
  0
LINE
  5
782
330
1F
100
AcDbEntity
  8
3
  6
Continuous
100
AcDbLine
 10
227.7338102116574
 20
125.500413442325
 30
0.0
 11
227.7186855998599
 21
125.4928511364263
 31
0.0
  0
LINE
  5
783
330
1F
100
AcDbEntity
  8
3
  6
Continuous
100
AcDbLine
 10
227.7382823476131
 20
125.491469168894
 30
0.0
 11
227.7509207008916
 21
125.491469168894
 31
0.0
  0
ARC
  5
784
330
1F
100
AcDbEntity
  8
3
  6
Continuous
100
AcDbCircle
 10
227.7382823476131
 20
125.481469168894
 30
0.0
 40
0.0100000000002975
100
AcDbArc
 50
90.0
 51
116.5650511799553
  0
ARC
  5
785
330
1F
100
AcDbEntity
  8
3
  6
Continuous
100
AcDbCircle
 10
227.7382823476124
 20
125.491469170415
 30
0.0
 40
0.01
100
AcDbArc
 50
90.0
 51
116.5650511770656
  0
LINE
  5
786
330
1F
100
AcDbEntity
  8
3
  6
Continuous
100
AcDbLine
 10
227.7509206901535
 20
125.501469170415
 30
0.0
 11
227.7382823476124
 21
125.501469170415
 31
0.0
  0
LINE
  5
787
330
1F
100
AcDbEntity
  8
3
  6
Continuous
100
AcDbLine
 10
227.7338102116575
 20
125.4904134408041
 30
0.0
 11
227.7293686551313
 21
125.488192662541
 31
0.0
  0
ARC
  5
788
330
1F
100
AcDbEntity
  8
3
  6
Continuous
100
AcDbCircle
 10
227.7316047231088
 20
125.483720526586
 30
0.0
 40
0.0050000000000001
100
AcDbArc
 50
116.5650511765412
 51
178.5674664417693
  0
ARC
  5
789
330
1F
100
AcDbEntity
  8
3
  6
Continuous
100
AcDbCircle
 10
227.7209216678374
 20
125.4883790004713
 30
0.0
 40
0.005
100
AcDbArc
 50
116.5650511770656
 51
180.0
  0
ARC
  5
78B
330
1F
100
AcDbEntity
  8
3
  6
Continuous
100
AcDbCircle
 10
227.7239710578299
 20
125.458469170415
 30
0.0
 40
0.0020000000000002
100
AcDbArc
 50
270.0
 51
358.5674664417693
  0
LINE
  5
78C
330
1F
100
AcDbEntity
  8
3
  6
Continuous
100
AcDbLine
 10
227.7239710578299
 20
125.456469170415
 30
0.0
 11
227.7179216678374
 21
125.456469170415
 31
0.0
  0
ARC
  5
78D
330
1F
100
AcDbEntity
  8
3
  6
Continuous
100
AcDbCircle
 10
227.7179216678374
 20
125.458469170415
 30
0.0
 40
0.0020000000000002
100
AcDbArc
 50
180.0
 51
270.0
  0
LINE
  5
78E
330
1F
100
AcDbEntity
  8
3
  6
Continuous
100
AcDbLine
 10
227.7266062858308
 20
125.4838455256979
 30
0.0
 11
227.7259704327411
 21
125.4584191707703
 31
0.0
  0
LINE
  5
78F
330
1F
100
AcDbEntity
  8
3
  6
Continuous
100
AcDbLine
 10
227.7159216678374
 20
125.4883790004713
 30
0.0
 11
227.7159216678374
 21
125.458469170415
 31
0.0
  0
LINE
  5
793
330
1F
100
AcDbEntity
  8
3
  6
Continuous
100
AcDbLine
 10
227.7179216678374
 20
125.456469170415
 30
0.0
 11
227.6689216678374
 21
125.456469170415
 31
0.0
  0
LINE
  5
795
330
1F
100
AcDbEntity
  8
3
  6
Continuous
100
AcDbLine
 10
227.5911730729003
 20
125.6393547938426
 30
0.0
 11
227.5999002169163
 21
125.4866300151408
 31
0.0
  0
LINE
  5
796
330
1F
100
AcDbEntity
  8
3
  6
Continuous
100
AcDbLine
 10
227.5811437196309
 20
125.6395829933646
 30
0.0
 11
227.5899165036234
 21
125.4860595163359
 31
0.0
  0
LINE
  5
797
330
1F
100
AcDbEntity
  8
3
  6
Continuous
100
AcDbLine
 10
227.6286081267472
 20
125.5188258891779
 30
0.0
 11
227.6170204519096
 21
125.6057332217273
 31
0.0
  0
LINE
  5
798
330
1F
100
AcDbEntity
  8
3
  6
Continuous
100
AcDbLine
 10
227.6070024324306
 20
125.6052045654976
 30
0.0
 11
227.6210100732912
 21
125.500147528364
 31
0.0
  0
LINE
  5
79F
330
1F
100
AcDbEntity
  8
3
  6
Continuous
100
AcDbLine
 10
227.6305345720277
 20
125.6514688936036
 30
0.0
 11
227.5360426040017
 21
125.6514688936036
 31
0.0
  0
LINE
  5
7A0
330
1F
100
AcDbEntity
  8
3
  6
Continuous
100
AcDbLine
 10
227.5811876967076
 20
125.6388133957395
 30
0.0
 11
227.5353226519685
 21
125.6388133957395
 31
0.0
  0
ARC
  5
7A1
330
1F
100
AcDbEntity
  8
3
  6
Continuous
100
AcDbCircle
 10
227.9071925275681
 20
125.5914688936036
 30
0.0
 40
0.0500000000000003
100
AcDbArc
 50
81.46923439004385
 51
90.0
  0
LINE
  5
7A2
330
1F
100
AcDbEntity
  8
3
  6
Continuous
100
AcDbLine
 10
227.9058402333772
 20
125.6414688936036
 30
0.0
 11
227.9071925275681
 21
125.6414688936036
 31
0.0
  0
ARC
  5
7A3
330
1F
100
AcDbEntity
  8
3
  6
Continuous
100
AcDbCircle
 10
227.9058402333772
 20
125.6364688936036
 30
0.0
 40
0.0050000000000001
100
AcDbArc
 50
90.0
 51
178.1524403530843
  0
LINE
  5
7A4
330
1F
100
AcDbEntity
  8
3
  6
Continuous
100
AcDbLine
 10
227.8909216678374
 20
125.6447126382959
 30
0.0
 11
227.8909216678374
 21
125.6414688936036
 31
0.0
  0
LWPOLYLINE
  5
7A5
330
1F
100
AcDbEntity
  8
3
  6
Continuous
100
AcDbPolyline
 90
        6
 70
   128
 43
0.0
 10
227.8909216678374
 20
125.6447126382959
 10
227.8912035253493
 20
125.6463676760933
 10
227.8920173212366
 20
125.6478361209597
 10
227.893271304909
 20
125.6489524140325
 10
227.8948240949096
 20
125.6495907008896
 10
227.8956719815317
 20
125.6497064169485
  0
LWPOLYLINE
  5
7A8
330
1F
100
AcDbEntity
  8
3
  6
Continuous
100
AcDbPolyline
 90
        6
 70
   128
 43
0.0
 10
227.9272468869403
 20
125.6512851553573
 10
227.9284138136647
 20
125.6511459557507
 10
227.9294688834731
 20
125.6506283437253
 10
227.9302931452634
 20
125.6497906761048
 10
227.9307936697792
 20
125.6487273935349
 10
227.9309216678374
 20
125.6477895220324
  0
LINE
  5
7A9
330
1F
100
AcDbEntity
  8
3
  6
Continuous
100
AcDbLine
 10
227.9309216678374
 20
125.6407912684452
 30
0.0
 11
227.9309216678374
 21
125.6477895220324
 31
0.0
  0
ARC
  5
7AA
330
1F
100
AcDbEntity
  8
3
  6
Continuous
100
AcDbCircle
 10
227.9289216678374
 20
125.6407912684452
 30
0.0
 40
0.0020000000000003
100
AcDbArc
 50
261.4692343900438
 51
0.0
  0
LINE
  5
7AB
330
1F
100
AcDbEntity
  8
3
  6
Continuous
100
AcDbLine
 10
227.9286249869316
 20
125.6388133957395
 30
0.0
 11
227.9146095502146
 21
125.640915711247
 31
0.0
  0
LINE
  5
7AC
330
1F
100
AcDbEntity
  8
3
  6
Continuous
100
AcDbLine
 10
227.8956719815317
 20
125.6497064169485
 30
0.0
 11
227.9272468869403
 21
125.6512851553573
 31
0.0
  0
LWPOLYLINE
  5
7AD
330
1F
100
AcDbEntity
  8
3
  6
Continuous
100
AcDbPolyline
 90
       10
 70
   128
 43
0.0
 10
227.8816021639707
 20
125.651279258232
 10
227.8907161635529
 20
125.6512732424956
 10
227.8988701766779
 20
125.6512687751756
 10
227.9060285367368
 20
125.6512660354242
 10
227.912183469977
 20
125.651265092008
 10
227.9167450769782
 20
125.65126573454
 10
227.9204935247704
 20
125.6512676504286
 10
227.9234210834355
 20
125.6512707023536
 10
227.9255356765873
 20
125.6512747658089
 10
227.926274300277
 20
125.6512778920206
  0
LINE
  5
7AE
330
1F
100
AcDbEntity
  8
3
  6
Continuous
100
AcDbLine
 10
227.9014239782063
 20
125.6388133957395
 30
0.0
 11
227.9286249869316
 21
125.6388133957395
 31
0.0
  0
LWPOLYLINE
  5
7AF
330
1F
100
AcDbEntity
  8
3
  6
Continuous
100
AcDbPolyline
 90
       19
 70
   128
 43
0.0
 10
227.7509207008916
 20
125.491469168894
 10
227.7630363033403
 20
125.4919592207199
 10
227.7750438738171
 20
125.4934215308859
 10
227.7869338597536
 20
125.4958564815562
 10
227.7985217610144
 20
125.4992223154452
 10
227.8097416329496
 20
125.503483254273
 10
227.8205960255633
 20
125.5086333049693
 10
227.8329043824784
 20
125.5158558929519
 10
227.8444254282887
 20
125.5241793631242
 10
227.8550542613387
 20
125.5335050950637
 10
227.8647927289667
 20
125.5438310135744
 10
227.8726782760387
 20
125.5538613578879
 10
227.8796326000217
 20
125.5644411493815
 10
227.8856542324945
 20
125.5755378281401
 10
227.8907411039085
 20
125.5871525410846
 10
227.8948511675363
 20
125.5992309964984
 10
227.8979002265548
 20
125.6115182319593
 10
227.899898328556
 20
125.6239844484297
 10
227.9008428326631
 20
125.6366300956586
  0
LWPOLYLINE
  5
7B0
330
1F
100
AcDbEntity
  8
3
  6
Continuous
100
AcDbPolyline
 90
       18
 70
   128
 43
0.0
 10
227.8909207985864
 20
125.6414688936036
 10
227.8902391355182
 20
125.6276704882393
 10
227.8882194883024
 20
125.6140999454321
 10
227.8848701609028
 20
125.6007558509929
 10
227.8801899124623
 20
125.5877150723085
 10
227.8742961629661
 20
125.5752987354367
 10
227.867360364826
 20
125.563739936539
 10
227.8592780273989
 20
125.5528197695377
 10
227.8501984889677
 20
125.5427577500026
 10
227.8402500923654
 20
125.5336717662628
 10
227.8306365630804
 20
125.5263804814665
 10
227.8203519583841
 20
125.5198989630909
 10
227.8096198751822
 20
125.5143690419298
 10
227.7984930271888
 20
125.5097994761563
 10
227.7869713719084
 20
125.50619036915
 10
227.7750907235428
 20
125.5035712838482
 10
227.763063869932
 20
125.5019967752971
 10
227.7509206901535
 20
125.501469170415
  0
ARC
  5
99C
330
1F
100
AcDbEntity
  8
3
100
AcDbCircle
 10
226.1557167257159
 20
125.6379425138885
 30
0.0
 40
0.0010358767500766
100
AcDbArc
 50
77.838992135251
 51
93.54021197182433
  0
ARC
  5
99D
330
1F
100
AcDbEntity
  8
3
100
AcDbCircle
 10
226.6846980971658
 20
125.6375078600558
 30
0.0
 40
0.0014691333957478
100
AcDbArc
 50
88.3905626699174
 51
99.2240445013148
  0
LINE
  5
99E
330
1F
100
AcDbEntity
  8
3
  6
Continuous
100
AcDbLine
 10
226.7247233713056
 20
125.6409864393436
 30
0.0
 11
226.7247233713056
 21
125.6481540390404
 31
0.0
  0
ARC
  5
99F
330
1F
100
AcDbEntity
  8
3
100
AcDbCircle
 10
226.9554209438489
 20
125.6336852302915
 30
0.0
 40
0.0052000890058335
100
AcDbArc
 50
88.32401303607818
 51
93.05000909022593
  0
LINE
  5
9A2
330
1F
100
AcDbEntity
  8
3
100
AcDbLine
 10
225.4848975495268
 20
125.66364147097
 30
0.0
 11
225.4847608682444
 21
125.662842618737
 31
0.0
  0
LINE
  5
9A3
330
1F
100
AcDbEntity
  8
3
100
AcDbLine
 10
227.0973958674317
 20
125.6516540390404
 30
0.0
 11
227.0988890979865
 21
125.6515482334313
 31
0.0
  0
LINE
  5
9A4
330
1F
100
AcDbEntity
  8
3
100
AcDbLine
 10
227.6678228623694
 20
125.6514688936036
 30
0.0
 11
227.6692568120866
 21
125.6513635233958
 31
0.0
  0
LINE
  5
9B9
330
1F
100
AcDbEntity
  8
3
100
AcDbLine
 10
227.6170204519097
 20
125.6057332217273
 30
0.0
 11
227.6128871076977
 21
125.6367332217273
 31
0.0
  0
LINE
  5
9BA
330
1F
100
AcDbEntity
  8
3
100
AcDbLine
 10
227.6070024324306
 20
125.6052045654976
 30
0.0
 11
227.6028690885012
 21
125.6362045654976
 31
0.0
  0
LINE
  5
9BB
330
1F
100
AcDbEntity
  8
3
100
AcDbLine
 10
227.7186855998599
 20
125.4928511364263
 30
0.0
 11
227.6681577358149
 21
125.4928511364263
 31
0.0
  0
LINE
  5
9BC
330
1F
100
AcDbEntity
  8
3
100
AcDbLine
 10
227.7382823476124
 20
125.501469170415
 30
0.0
 11
227.6484326838494
 21
125.501469170415
 31
0.0
  0
ENDSEC
  0
SECTION
  2
OBJECTS
  0
DICTIONARY
  5
C
330
0
100
AcDbDictionary
281
     1
  3
ACAD_COLOR
350
9B4
  3
ACAD_GROUP
350
D
  3
ACAD_LAYOUT
350
1A
  3
ACAD_MATERIAL
350
9B3
  3
ACAD_MLEADERSTYLE
350
A10
  3
ACAD_MLINESTYLE
350
17
  3
ACAD_PLOTSETTINGS
350
19
  3
ACAD_PLOTSTYLENAME
350
E
  3
ACAD_SCALELIST
350
9FE
  3
ACAD_TABLESTYLE
350
9B5
  3
ACAD_VISUALSTYLE
350
9EA
  3
ACDB_RECOMPOSE_DATA
350
A29
  3
AcDbVariableDictionary
350
9AA
  3
ASE_INDEX_DICTIONARY
350
A20
  3
DWGPROPS
350
A2A
  0
DICTIONARY
  5
A14
330
10
100
AcDbDictionary
280
     1
281
     1
  3
ADSK_XREC_LAYER_RECONCILED
360
A15
  0
DICTIONARY
  5
A16
330
115
100
AcDbDictionary
280
     1
281
     1
  3
ADSK_XREC_LAYER_RECONCILED
360
A17
  0
DICTIONARY
  5
A18
330
117
100
AcDbDictionary
280
     1
281
     1
  3
ADSK_XREC_LAYER_RECONCILED
360
A19
  0
DICTIONARY
  5
A1A
330
118
100
AcDbDictionary
280
     1
281
     1
  3
ADSK_XREC_LAYER_RECONCILED
360
A1B
  0
DICTIONARY
  5
A1C
330
119
100
AcDbDictionary
280
     1
281
     1
  3
ADSK_XREC_LAYER_RECONCILED
360
A1D
  0
DICTIONARY
  5
A1E
330
5E8
100
AcDbDictionary
280
     1
281
     1
  3
ADSK_XREC_LAYER_RECONCILED
360
A1F
  0
DICTIONARY
  5
9B4
102
{ACAD_REACTORS
330
C
102
}
330
C
100
AcDbDictionary
281
     1
  0
DICTIONARY
  5
D
102
{ACAD_REACTORS
330
C
102
}
330
C
100
AcDbDictionary
281
     1
  0
DICTIONARY
  5
1A
102
{ACAD_REACTORS
330
C
102
}
330
C
100
AcDbDictionary
281
     1
  3
Layout1
350
1E
  3
Layout2
350
26
  3
Model
350
22
  0
DICTIONARY
  5
9B3
102
{ACAD_REACTORS
330
C
102
}
330
C
100
AcDbDictionary
281
     1
  3
ByBlock
350
9DA
  3
ByLayer
350
9D2
  3
Global
350
9E2
  0
DICTIONARY
  5
A10
102
{ACAD_REACTORS
330
C
102
}
330
C
100
AcDbDictionary
281
     1
  3
Standard
350
A11
  0
DICTIONARY
  5
17
102
{ACAD_REACTORS
330
C
102
}
330
C
100
AcDbDictionary
281
     1
  3
Standard
350
18
  0
DICTIONARY
  5
19
102
{ACAD_REACTORS
330
C
102
}
330
C
100
AcDbDictionary
281
     1
  0
ACDBDICTIONARYWDFLT
  5
E
102
{ACAD_REACTORS
330
C
102
}
330
C
100
AcDbDictionary
281
     1
  3
Normal
350
F
100
AcDbDictionaryWithDefault
340
F
  0
DICTIONARY
  5
9FE
102
{ACAD_REACTORS
330
C
102
}
330
C
100
AcDbDictionary
281
     1
  3
A0
350
9FF
  3
A1
350
A00
  3
A2
350
A01
  3
A3
350
A02
  3
A4
350
A03
  3
A5
350
A04
  3
A6
350
A05
  3
A7
350
A06
  3
A8
350
A07
  3
A9
350
A08
  3
B0
350
A09
  3
B1
350
A0A
  3
B2
350
A0B
  3
B3
350
A0C
  3
B4
350
A0D
  3
B5
350
A0E
  3
B6
350
A0F
  0
DICTIONARY
  5
9B5
102
{ACAD_REACTORS
330
C
102
}
330
C
100
AcDbDictionary
281
     1
  3
Standard
350
9B6
  0
DICTIONARY
  5
9EA
102
{ACAD_REACTORS
330
C
102
}
330
C
100
AcDbDictionary
281
     1
  3
2dWireframe
350
9F0
  3
3D Hidden
350
9F2
  3
3dWireframe
350
9F1
  3
Basic
350
9EF
  3
Brighten
350
9F6
  3
ColorChange
350
9FA
  3
Conceptual
350
9F3
  3
Dim
350
9F5
  3
EdgeColorOff
350
9FD
  3
Facepattern
350
9F9
  3
Flat
350
9EB
  3
FlatWithEdges
350
9EC
  3
Gouraud
350
9ED
  3
GouraudWithEdges
350
9EE
  3
JitterOff
350
9FB
  3
Linepattern
350
9F8
  3
OverhangOff
350
9FC
  3
Realistic
350
9F4
  3
Thicken
350
9F7
  0
XRECORD
  5
A29
102
{ACAD_REACTORS
330
C
102
}
330
C
100
AcDbXrecord
280
     1
 90
        1
330
9B6
  0
DICTIONARY
  5
9AA
102
{ACAD_REACTORS
330
C
102
}
330
C
100
AcDbDictionary
281
     1
  3
CANNOSCALE
350
A23
  3
CMLEADERSTYLE
350
A22
  3
CTABLESTYLE
350
9CF
  3
DIMASSOC
350
9AC
  3
HIDETEXT
350
9AB
  3
INDEXCTL
350
A25
  3
PROJECTNAME
350
9D0
  3
SORTENTS
350
A24
  3
XCLIPFRAME
350
A26
  0
DICTIONARY
  5
A20
102
{ACAD_REACTORS
330
C
102
}
330
C
100
AcDbDictionary
281
     1
  3
ASEBlockHierarchyIndexRecord
350
A21
1001
DCO15
1040
1757667671.078
  0
XRECORD
  5
A2A
102
{ACAD_REACTORS
330
C
102
}
330
C
100
AcDbXrecord
280
     1
  1
DWGPROPS COOKIE
  2

  3

  4

  6

  7

  8
Julio
  9

300
=
301
=
302
=
303
=
304
=
305
=
306
=
307
=
308
=
309
=
 40
0.0101130208333333
 41
2452842.732206111
 42
2456146.587674514
  1

 90
        0
  0
XRECORD
  5
A15
102
{ACAD_REACTORS
330
A14
102
}
330
A14
100
AcDbXrecord
280
     1
290
     1
  0
XRECORD
  5
A17
102
{ACAD_REACTORS
330
A16
102
}
330
A16
100
AcDbXrecord
280
     1
290
     1
  0
XRECORD
  5
A19
102
{ACAD_REACTORS
330
A18
102
}
330
A18
100
AcDbXrecord
280
     1
290
     1
  0
XRECORD
  5
A1B
102
{ACAD_REACTORS
330
A1A
102
}
330
A1A
100
AcDbXrecord
280
     1
290
     1
  0
XRECORD
  5
A1D
102
{ACAD_REACTORS
330
A1C
102
}
330
A1C
100
AcDbXrecord
280
     1
290
     1
  0
XRECORD
  5
A1F
102
{ACAD_REACTORS
330
A1E
102
}
330
A1E
100
AcDbXrecord
280
     1
290
     1
  0
LAYOUT
  5
1E
102
{ACAD_XDICTIONARY
360
A2B
102
}
102
{ACAD_REACTORS
330
1A
102
}
330
1A
100
AcDbPlotSettings
  1

  2
PLOTER 500
  4

  6

 40
0.0
 41
0.0
 42
0.0
 43
0.0
 44
0.0
 45
0.0
 46
0.0
 47
0.0
 48
0.0
 49
0.0
140
0.0
141
0.0
142
1.0
143
1.0
 70
   688
 72
     0
 73
     0
 74
     5
  7

 75
    16
147
1.0
148
0.0
149
0.0
100
AcDbLayout
  1
Layout1
 70
     1
 71
     1
 10
0.0
 20
0.0
 11
420.0
 21
297.0
 12
0.0
 22
0.0
 32
0.0
 14
1.000000000000000E+20
 24
1.000000000000000E+20
 34
1.000000000000000E+20
 15
-1.000000000000000E+20
 25
-1.000000000000000E+20
 35
-1.000000000000000E+20
146
0.0
 13
0.0
 23
0.0
 33
0.0
 16
1.0
 26
0.0
 36
0.0
 17
0.0
 27
1.0
 37
0.0
 76
     0
330
1B
  0
LAYOUT
  5
26
102
{ACAD_XDICTIONARY
360
A2F
102
}
102
{ACAD_REACTORS
330
1A
102
}
330
1A
100
AcDbPlotSettings
  1

  2
PLOTER 500
  4

  6

 40
0.0
 41
0.0
 42
0.0
 43
0.0
 44
0.0
 45
0.0
 46
0.0
 47
0.0
 48
0.0
 49
0.0
140
0.0
141
0.0
142
1.0
143
1.0
 70
   688
 72
     0
 73
     0
 74
     5
  7

 75
    16
147
1.0
148
0.0
149
0.0
100
AcDbLayout
  1
Layout2
 70
     1
 71
     2
 10
0.0
 20
0.0
 11
12.0
 21
9.0
 12
0.0
 22
0.0
 32
0.0
 14
0.0
 24
0.0
 34
0.0
 15
0.0
 25
0.0
 35
0.0
146
0.0
 13
0.0
 23
0.0
 33
0.0
 16
1.0
 26
0.0
 36
0.0
 17
0.0
 27
1.0
 37
0.0
 76
     0
330
23
  0
LAYOUT
  5
22
102
{ACAD_XDICTIONARY
360
A2D
102
}
102
{ACAD_REACTORS
330
1A
102
}
330
1A
100
AcDbPlotSettings
  1

  2
PLOTER 500
  4

  6

 40
0.0
 41
0.0
 42
0.0
 43
0.0
 44
0.0
 45
0.0
 46
0.0
 47
0.0
 48
0.0
 49
0.0
140
0.0
141
0.0
142
1.0
143
1.0
 70
  1712
 72
     0
 73
     0
 74
     0
  7

 75
     0
147
1.0
148
0.0
149
0.0
100
AcDbLayout
  1
Model
 70
     1
 71
     0
 10
0.0
 20
0.0
 11
12.0
 21
9.0
 12
0.0
 22
0.0
 32
0.0
 14
0.0
 24
0.0
 34
0.0
 15
0.0
 25
0.0
 35
0.0
146
0.0
 13
0.0
 23
0.0
 33
0.0
 16
1.0
 26
0.0
 36
0.0
 17
0.0
 27
1.0
 37
0.0
 76
     0
330
1F
331
9C7
  0
MATERIAL
  5
9DA
102
{ACAD_XDICTIONARY
360
9DB
102
}
102
{ACAD_REACTORS
330
9B3
102
}
330
9B3
100
AcDbMaterial
  1
ByBlock
 72
     0
 43
0.820209973753281
 43
0.0
 43
0.0
 43
0.0
 43
0.0
 43
0.820209973753281
 43
0.0
 43
0.0
 43
0.0
 43
0.0
 43
1.0
 43
0.0
 43
0.0
 43
0.0
 43
0.0
 43
1.0
 77
     0
 47
0.820209973753281
 47
0.0
 47
0.0
 47
0.0
 47
0.0
 47
0.820209973753281
 47
0.0
 47
0.0
 47
0.0
 47
0.0
 47
1.0
 47
0.0
 47
0.0
 47
0.0
 47
0.0
 47
1.0
171
     0
 49
0.820209973753281
 49
0.0
 49
0.0
 49
0.0
 49
0.0
 49
0.820209973753281
 49
0.0
 49
0.0
 49
0.0
 49
0.0
 49
1.0
 49
0.0
 49
0.0
 49
0.0
 49
0.0
 49
1.0
175
     0
142
0.820209973753281
142
0.0
142
0.0
142
0.0
142
0.0
142
0.820209973753281
142
0.0
142
0.0
142
0.0
142
0.0
142
1.0
142
0.0
142
0.0
142
0.0
142
0.0
142
1.0
179
     0
144
0.820209973753281
144
0.0
144
0.0
144
0.0
144
0.0
144
0.820209973753281
144
0.0
144
0.0
144
0.0
144
0.0
144
1.0
144
0.0
144
0.0
144
0.0
144
0.0
144
1.0
147
0.820209973753281
147
0.0
147
0.0
147
0.0
147
0.0
147
0.820209973753281
147
0.0
147
0.0
147
0.0
147
0.0
147
1.0
147
0.0
147
0.0
147
0.0
147
0.0
147
1.0
  0
MATERIAL
  5
9D2
102
{ACAD_XDICTIONARY
360
9D3
102
}
102
{ACAD_REACTORS
330
9B3
102
}
330
9B3
100
AcDbMaterial
  1
ByLayer
 72
     0
 43
0.820209973753281
 43
0.0
 43
0.0
 43
0.0
 43
0.0
 43
0.820209973753281
 43
0.0
 43
0.0
 43
0.0
 43
0.0
 43
1.0
 43
0.0
 43
0.0
 43
0.0
 43
0.0
 43
1.0
 77
     0
 47
0.820209973753281
 47
0.0
 47
0.0
 47
0.0
 47
0.0
 47
0.820209973753281
 47
0.0
 47
0.0
 47
0.0
 47
0.0
 47
1.0
 47
0.0
 47
0.0
 47
0.0
 47
0.0
 47
1.0
171
     0
 49
0.820209973753281
 49
0.0
 49
0.0
 49
0.0
 49
0.0
 49
0.820209973753281
 49
0.0
 49
0.0
 49
0.0
 49
0.0
 49
1.0
 49
0.0
 49
0.0
 49
0.0
 49
0.0
 49
1.0
175
     0
142
0.820209973753281
142
0.0
142
0.0
142
0.0
142
0.0
142
0.820209973753281
142
0.0
142
0.0
142
0.0
142
0.0
142
1.0
142
0.0
142
0.0
142
0.0
142
0.0
142
1.0
179
     0
144
0.820209973753281
144
0.0
144
0.0
144
0.0
144
0.0
144
0.820209973753281
144
0.0
144
0.0
144
0.0
144
0.0
144
1.0
144
0.0
144
0.0
144
0.0
144
0.0
144
1.0
147
0.820209973753281
147
0.0
147
0.0
147
0.0
147
0.0
147
0.820209973753281
147
0.0
147
0.0
147
0.0
147
0.0
147
1.0
147
0.0
147
0.0
147
0.0
147
0.0
147
1.0
  0
MATERIAL
  5
9E2
102
{ACAD_XDICTIONARY
360
9E3
102
}
102
{ACAD_REACTORS
330
9B3
102
}
330
9B3
100
AcDbMaterial
  1
Global
 72
     0
 43
0.820209973753281
 43
0.0
 43
0.0
 43
0.0
 43
0.0
 43
0.820209973753281
 43
0.0
 43
0.0
 43
0.0
 43
0.0
 43
1.0
 43
0.0
 43
0.0
 43
0.0
 43
0.0
 43
1.0
 77
     0
 47
0.820209973753281
 47
0.0
 47
0.0
 47
0.0
 47
0.0
 47
0.820209973753281
 47
0.0
 47
0.0
 47
0.0
 47
0.0
 47
1.0
 47
0.0
 47
0.0
 47
0.0
 47
0.0
 47
1.0
171
     0
 49
0.820209973753281
 49
0.0
 49
0.0
 49
0.0
 49
0.0
 49
0.820209973753281
 49
0.0
 49
0.0
 49
0.0
 49
0.0
 49
1.0
 49
0.0
 49
0.0
 49
0.0
 49
0.0
 49
1.0
175
     0
142
0.820209973753281
142
0.0
142
0.0
142
0.0
142
0.0
142
0.820209973753281
142
0.0
142
0.0
142
0.0
142
0.0
142
1.0
142
0.0
142
0.0
142
0.0
142
0.0
142
1.0
179
     0
144
0.820209973753281
144
0.0
144
0.0
144
0.0
144
0.0
144
0.820209973753281
144
0.0
144
0.0
144
0.0
144
0.0
144
1.0
144
0.0
144
0.0
144
0.0
144
0.0
144
1.0
147
0.820209973753281
147
0.0
147
0.0
147
0.0
147
0.0
147
0.820209973753281
147
0.0
147
0.0
147
0.0
147
0.0
147
1.0
147
0.0
147
0.0
147
0.0
147
0.0
147
1.0
  0
MLEADERSTYLE
  5
A11
102
{ACAD_REACTORS
330
A10
102
}
330
A10
100
AcDbMLeaderStyle
170
     2
171
     1
172
     0
 90
        2
 40
0.0
 41
0.0
173
     1
 91
-1056964608
340
14
 92
       -2
290
     1
 42
2.0
291
     1
 43
0.36
  3
Standard
 44
4.0
300

342
11
174
     1
178
     6
175
     1
176
     0
 93
-1056964608
 45
4.0
292
     0
297
     0
 46
4.0
 94
-1056964608
 47
1.0
 49
1.0
140
1.0
293
     1
141
0.0
294
     1
177
     0
142
1.0
295
     0
296
     0
143
0.125
1001
ACAD_MLEADERVER
1070
     2
  0
MLINESTYLE
  5
18
102
{ACAD_REACTORS
330
17
102
}
330
17
100
AcDbMlineStyle
  2
STANDARD
 70
     0
  3

 62
   256
 51
90.0
 52
90.0
 71
     2
 49
0.5
 62
   256
  6
BYLAYER
 49
-0.5
 62
   256
  6
BYLAYER
  0
ACDBPLACEHOLDER
  5
F
102
{ACAD_REACTORS
330
E
102
}
330
E
  0
SCALE
  5
9FF
102
{ACAD_REACTORS
330
9FE
102
}
330
9FE
100
AcDbScale
 70
     0
300
1:1
140
1.0
141
1.0
290
     1
  0
SCALE
  5
A00
102
{ACAD_REACTORS
330
9FE
102
}
330
9FE
100
AcDbScale
 70
     0
300
1:2
140
1.0
141
2.0
290
     0
  0
SCALE
  5
A01
102
{ACAD_REACTORS
330
9FE
102
}
330
9FE
100
AcDbScale
 70
     0
300
1:4
140
1.0
141
4.0
290
     0
  0
SCALE
  5
A02
102
{ACAD_REACTORS
330
9FE
102
}
330
9FE
100
AcDbScale
 70
     0
300
1:5
140
1.0
141
5.0
290
     0
  0
SCALE
  5
A03
102
{ACAD_REACTORS
330
9FE
102
}
330
9FE
100
AcDbScale
 70
     0
300
1:8
140
1.0
141
8.0
290
     0
  0
SCALE
  5
A04
102
{ACAD_REACTORS
330
9FE
102
}
330
9FE
100
AcDbScale
 70
     0
300
1:10
140
1.0
141
10.0
290
     0
  0
SCALE
  5
A05
102
{ACAD_REACTORS
330
9FE
102
}
330
9FE
100
AcDbScale
 70
     0
300
1:16
140
1.0
141
16.0
290
     0
  0
SCALE
  5
A06
102
{ACAD_REACTORS
330
9FE
102
}
330
9FE
100
AcDbScale
 70
     0
300
1:20
140
1.0
141
20.0
290
     0
  0
SCALE
  5
A07
102
{ACAD_REACTORS
330
9FE
102
}
330
9FE
100
AcDbScale
 70
     0
300
1:30
140
1.0
141
30.0
290
     0
  0
SCALE
  5
A08
102
{ACAD_REACTORS
330
9FE
102
}
330
9FE
100
AcDbScale
 70
     0
300
1:40
140
1.0
141
40.0
290
     0
  0
SCALE
  5
A09
102
{ACAD_REACTORS
330
9FE
102
}
330
9FE
100
AcDbScale
 70
     0
300
1:50
140
1.0
141
50.0
290
     0
  0
SCALE
  5
A0A
102
{ACAD_REACTORS
330
9FE
102
}
330
9FE
100
AcDbScale
 70
     0
300
1:100
140
1.0
141
100.0
290
     0
  0
SCALE
  5
A0B
102
{ACAD_REACTORS
330
9FE
102
}
330
9FE
100
AcDbScale
 70
     0
300
2:1
140
2.0
141
1.0
290
     0
  0
SCALE
  5
A0C
102
{ACAD_REACTORS
330
9FE
102
}
330
9FE
100
AcDbScale
 70
     0
300
4:1
140
4.0
141
1.0
290
     0
  0
SCALE
  5
A0D
102
{ACAD_REACTORS
330
9FE
102
}
330
9FE
100
AcDbScale
 70
     0
300
8:1
140
8.0
141
1.0
290
     0
  0
SCALE
  5
A0E
102
{ACAD_REACTORS
330
9FE
102
}
330
9FE
100
AcDbScale
 70
     0
300
10:1
140
10.0
141
1.0
290
     0
  0
SCALE
  5
A0F
102
{ACAD_REACTORS
330
9FE
102
}
330
9FE
100
AcDbScale
 70
     0
300
100:1
140
100.0
141
1.0
290
     0
  0
TABLESTYLE
  5
9B6
102
{ACAD_XDICTIONARY
360
A27
102
}
102
{ACAD_REACTORS
330
9B5
102
}
330
9B5
100
AcDbTableStyle
  3
Standard
 70
     0
 71
     0
 40
1.5
 41
1.5
280
     0
281
     0
  7
Standard
140
4.5
170
     2
 62
     0
 63
     7
283
     0
274
    -2
284
     1
 64
     0
275
    -2
285
     1
 65
     0
276
    -2
286
     1
 66
     0
277
    -2
287
     1
 67
     0
278
    -2
288
     1
 68
     0
279
    -2
289
     1
 69
     0
  7
Standard
140
6.0
170
     5
 62
     0
 63
     7
283
     0
274
    -2
284
     1
 64
     0
275
    -2
285
     1
 65
     0
276
    -2
286
     1
 66
     0
277
    -2
287
     1
 67
     0
278
    -2
288
     1
 68
     0
279
    -2
289
     1
 69
     0
  7
Standard
140
4.5
170
     5
 62
     0
 63
     7
283
     0
274
    -2
284
     1
 64
     0
275
    -2
285
     1
 65
     0
276
    -2
286
     1
 66
     0
277
    -2
287
     1
 67
     0
278
    -2
288
     1
 68
     0
279
    -2
289
     1
 69
     0
  0
VISUALSTYLE
  5
9F0
102
{ACAD_XDICTIONARY
360
A3F
102
}
102
{ACAD_REACTORS
330
9EA
102
}
330
9EA
100
AcDbVisualStyle
  2
2dWireframe
 70
     4
 71
     0
 72
     2
 73
     0
 90
        0
 40
-0.6
 41
-30.0
 62
     5
 63
     7
 74
     1
 91
        4
 64
     7
 65
   257
 75
     1
175
     1
 42
1.0
 92
        0
 66
   257
 43
1.0
 76
     1
 77
     6
 78
     2
 67
     7
 79
     5
170
     0
171
     0
290
     0
174
     0
 93
        1
 44
0.0
173
     0
291
     0
 45
0.0
1001
ACAD
1000
AcDbSavedByObjectVersion
1070
     0
  0
VISUALSTYLE
  5
9F2
102
{ACAD_XDICTIONARY
360
A43
102
}
102
{ACAD_REACTORS
330
9EA
102
}
330
9EA
100
AcDbVisualStyle
  2
3D Hidden
 70
     6
 71
     1
 72
     2
 73
     2
 90
        0
 40
-0.6
 41
-30.0
 62
     5
 63
     7
 74
     2
 91
        2
 64
     7
 65
   257
 75
     2
175
     1
 42
179.0
 92
        0
 66
   257
 43
1.0
 76
     1
 77
     6
 78
     2
 67
     7
 79
     3
170
     0
171
     0
290
     0
174
     0
 93
        1
 44
0.0
173
     0
291
     0
 45
0.0
1001
ACAD
1000
AcDbSavedByObjectVersion
1070
     0
  0
VISUALSTYLE
  5
9F1
102
{ACAD_XDICTIONARY
360
A41
102
}
102
{ACAD_REACTORS
330
9EA
102
}
330
9EA
100
AcDbVisualStyle
  2
3dWireframe
 70
     5
 71
     0
 72
     2
 73
     0
 90
        0
 40
-0.6
 41
-30.0
 62
     5
 63
     7
 74
     1
 91
        4
 64
     7
 65
   257
 75
     1
175
     1
 42
1.0
 92
        0
 66
   257
 43
1.0
 76
     1
 77
     6
 78
     2
 67
     7
 79
     5
170
     0
171
     0
290
     0
174
     0
 93
        1
 44
0.0
173
     0
291
     0
 45
0.0
1001
ACAD
1000
AcDbSavedByObjectVersion
1070
     0
  0
VISUALSTYLE
  5
9EF
102
{ACAD_XDICTIONARY
360
A3D
102
}
102
{ACAD_REACTORS
330
9EA
102
}
330
9EA
100
AcDbVisualStyle
  2
Basic
 70
     7
 71
     1
 72
     0
 73
     1
 90
        0
 40
-0.6
 41
-30.0
 62
     5
 63
     7
 74
     0
 91
        4
 64
     7
 65
   257
 75
     1
175
     1
 42
1.0
 92
        8
 66
     7
 43
1.0
 76
     1
 77
     6
 78
     2
 67
     7
 79
     5
170
     0
171
     0
290
     0
174
     0
 93
        1
 44
0.0
173
     0
291
     1
 45
0.0
1001
ACAD
1000
AcDbSavedByObjectVersion
1070
     0
  0
VISUALSTYLE
  5
9F6
102
{ACAD_XDICTIONARY
360
A4B
102
}
102
{ACAD_REACTORS
330
9EA
102
}
330
9EA
100
AcDbVisualStyle
  2
Brighten
 70
    12
 71
     2
 72
     2
 73
     0
 90
        0
 40
-0.6
 41
-30.0
 62
     5
 63
     7
 74
     1
 91
        4
 64
     7
 65
   257
 75
     1
175
     1
 42
1.0
 92
        8
 66
     7
 43
1.0
 76
     1
 77
     6
 78
     2
 67
     7
 79
     5
170
     0
171
     0
290
     0
174
     0
 93
        1
 44
50.0
173
     0
291
     1
 45
0.0
1001
ACAD
1000
AcDbSavedByObjectVersion
1070
     0
  0
VISUALSTYLE
  5
9FA
102
{ACAD_XDICTIONARY
360
A53
102
}
102
{ACAD_REACTORS
330
9EA
102
}
330
9EA
100
AcDbVisualStyle
  2
ColorChange
 70
    16
 71
     2
 72
     2
 73
     3
 90
        0
 40
-0.6
 41
-30.0
 62
     5
 63
     8
 74
     1
 91
        4
 64
     7
 65
   257
 75
     1
175
     1
 42
1.0
 92
        8
 66
     8
 43
1.0
 76
     1
 77
     6
 78
     2
 67
     7
 79
     5
170
     0
171
     0
290
     0
174
     0
 93
        1
 44
0.0
173
     0
291
     1
 45
0.0
1001
ACAD
1000
AcDbSavedByObjectVersion
1070
     0
  0
VISUALSTYLE
  5
9F3
102
{ACAD_XDICTIONARY
360
A45
102
}
102
{ACAD_REACTORS
330
9EA
102
}
330
9EA
100
AcDbVisualStyle
  2
Conceptual
 70
     9
 71
     3
 72
     2
 73
     0
 90
        0
 40
-0.6
 41
-30.0
 62
     5
 63
     7
 74
     2
 91
        2
 64
     7
 65
   257
 75
     1
175
     1
 42
179.0
 92
        8
 66
     7
 43
1.0
 76
     1
 77
     6
 78
     2
 67
     7
 79
     3
170
     0
171
     0
290
     0
174
     0
 93
        1
 44
0.0
173
     0
291
     0
 45
0.0
1001
ACAD
1000
AcDbSavedByObjectVersion
1070
     0
  0
VISUALSTYLE
  5
9F5
102
{ACAD_XDICTIONARY
360
A49
102
}
102
{ACAD_REACTORS
330
9EA
102
}
330
9EA
100
AcDbVisualStyle
  2
Dim
 70
    11
 71
     2
 72
     2
 73
     0
 90
        0
 40
-0.6
 41
-30.0
 62
     5
 63
     7
 74
     1
 91
        4
 64
     7
 65
   257
 75
     1
175
     1
 42
1.0
 92
        8
 66
     7
 43
1.0
 76
     1
 77
     6
 78
     2
 67
     7
 79
     5
170
     0
171
     0
290
     0
174
     0
 93
        1
 44
-50.0
173
     0
291
     1
 45
0.0
1001
ACAD
1000
AcDbSavedByObjectVersion
1070
     0
  0
VISUALSTYLE
  5
9FD
102
{ACAD_XDICTIONARY
360
A59
102
}
102
{ACAD_REACTORS
330
9EA
102
}
330
9EA
100
AcDbVisualStyle
  2
EdgeColorOff
 70
    22
 71
     2
 72
     2
 73
     0
 90
        0
 40
-0.6
 41
-30.0
 62
     5
 63
     7
 74
     1
 91
        4
 64
     7
 65
   257
 75
     1
175
     1
 42
1.0
 92
        8
 66
     7
 43
1.0
 76
     1
 77
     6
 78
     2
 67
     7
 79
     5
170
     0
171
     0
290
     0
174
     0
 93
        1
 44
0.0
173
     0
291
     1
 45
0.0
1001
ACAD
1000
AcDbSavedByObjectVersion
1070
     0
  0
VISUALSTYLE
  5
9F9
102
{ACAD_XDICTIONARY
360
A51
102
}
102
{ACAD_REACTORS
330
9EA
102
}
330
9EA
100
AcDbVisualStyle
  2
Facepattern
 70
    15
 71
     2
 72
     2
 73
     0
 90
        0
 40
-0.6
 41
-30.0
 62
     5
 63
     7
 74
     1
 91
        4
 64
     7
 65
   257
 75
     1
175
     1
 42
1.0
 92
        8
 66
     7
 43
1.0
 76
     1
 77
     6
 78
     2
 67
     7
 79
     5
170
     0
171
     0
290
     0
174
     0
 93
        1
 44
0.0
173
     0
291
     1
 45
0.0
1001
ACAD
1000
AcDbSavedByObjectVersion
1070
     0
  0
VISUALSTYLE
  5
9EB
102
{ACAD_XDICTIONARY
360
A35
102
}
102
{ACAD_REACTORS
330
9EA
102
}
330
9EA
100
AcDbVisualStyle
  2
Flat
 70
     0
 71
     2
 72
     1
 73
     1
 90
        2
 40
-0.6
 41
30.0
 62
     5
 63
     7
 74
     0
 91
        4
 64
     7
 65
   257
 75
     1
175
     1
 42
1.0
 92
        8
 66
     7
 43
1.0
 76
     1
 77
     6
 78
     2
 67
     7
 79
     5
170
     0
171
     0
290
     0
174
     0
 93
       13
 44
0.0
173
     0
291
     1
 45
0.0
1001
ACAD
1000
AcDbSavedByObjectVersion
1070
     0
  0
VISUALSTYLE
  5
9EC
102
{ACAD_XDICTIONARY
360
A37
102
}
102
{ACAD_REACTORS
330
9EA
102
}
330
9EA
100
AcDbVisualStyle
  2
FlatWithEdges
 70
     1
 71
     2
 72
     1
 73
     1
 90
        2
 40
-0.6
 41
30.0
 62
     5
 63
     7
 74
     1
 91
        4
 64
     7
 65
   257
 75
     1
175
     1
 42
1.0
 92
        0
 66
   257
 43
1.0
 76
     1
 77
     6
 78
     2
 67
     7
 79
     5
170
     0
171
     0
290
     0
174
     0
 93
       13
 44
0.0
173
     0
291
     1
 45
0.0
1001
ACAD
1000
AcDbSavedByObjectVersion
1070
     0
  0
VISUALSTYLE
  5
9ED
102
{ACAD_XDICTIONARY
360
A39
102
}
102
{ACAD_REACTORS
330
9EA
102
}
330
9EA
100
AcDbVisualStyle
  2
Gouraud
 70
     2
 71
     2
 72
     2
 73
     1
 90
        2
 40
-0.6
 41
30.0
 62
     5
 63
     7
 74
     0
 91
        4
 64
     7
 65
   257
 75
     1
175
     1
 42
1.0
 92
        0
 66
     7
 43
1.0
 76
     1
 77
     6
 78
     2
 67
     7
 79
     5
170
     0
171
     0
290
     0
174
     0
 93
       13
 44
0.0
173
     0
291
     1
 45
0.0
1001
ACAD
1000
AcDbSavedByObjectVersion
1070
     0
  0
VISUALSTYLE
  5
9EE
102
{ACAD_XDICTIONARY
360
A3B
102
}
102
{ACAD_REACTORS
330
9EA
102
}
330
9EA
100
AcDbVisualStyle
  2
GouraudWithEdges
 70
     3
 71
     2
 72
     2
 73
     1
 90
        2
 40
-0.6
 41
30.0
 62
     5
 63
     7
 74
     1
 91
        4
 64
     7
 65
   257
 75
     1
175
     1
 42
1.0
 92
        0
 66
   257
 43
1.0
 76
     1
 77
     6
 78
     2
 67
     7
 79
     5
170
     0
171
     0
290
     0
174
     0
 93
       13
 44
0.0
173
     0
291
     1
 45
0.0
1001
ACAD
1000
AcDbSavedByObjectVersion
1070
     0
  0
VISUALSTYLE
  5
9FB
102
{ACAD_XDICTIONARY
360
A55
102
}
102
{ACAD_REACTORS
330
9EA
102
}
330
9EA
100
AcDbVisualStyle
  2
JitterOff
 70
    20
 71
     2
 72
     2
 73
     0
 90
        0
 40
-0.6
 41
-30.0
 62
     5
 63
     7
 74
     1
 91
        4
 64
     7
 65
   257
 75
     1
175
     1
 42
1.0
 92
       10
 66
     7
 43
1.0
 76
     1
 77
     6
 78
     2
 67
     7
 79
     5
170
     0
171
     0
290
     0
174
     0
 93
        1
 44
0.0
173
     0
291
     1
 45
0.0
1001
ACAD
1000
AcDbSavedByObjectVersion
1070
     0
  0
VISUALSTYLE
  5
9F8
102
{ACAD_XDICTIONARY
360
A4F
102
}
102
{ACAD_REACTORS
330
9EA
102
}
330
9EA
100
AcDbVisualStyle
  2
Linepattern
 70
    14
 71
     2
 72
     2
 73
     0
 90
        0
 40
-0.6
 41
-30.0
 62
     5
 63
     7
 74
     1
 91
        4
 64
     7
 65
   257
 75
     7
175
     7
 42
1.0
 92
        8
 66
     7
 43
1.0
 76
     1
 77
     6
 78
     2
 67
     7
 79
     5
170
     0
171
     0
290
     0
174
     0
 93
        1
 44
0.0
173
     0
291
     1
 45
0.0
1001
ACAD
1000
AcDbSavedByObjectVersion
1070
     0
  0
VISUALSTYLE
  5
9FC
102
{ACAD_XDICTIONARY
360
A57
102
}
102
{ACAD_REACTORS
330
9EA
102
}
330
9EA
100
AcDbVisualStyle
  2
OverhangOff
 70
    21
 71
     2
 72
     2
 73
     0
 90
        0
 40
-0.6
 41
-30.0
 62
     5
 63
     7
 74
     1
 91
        4
 64
     7
 65
   257
 75
     1
175
     1
 42
1.0
 92
        9
 66
     7
 43
1.0
 76
     1
 77
     6
 78
     2
 67
     7
 79
     5
170
     0
171
     0
290
     0
174
     0
 93
        1
 44
0.0
173
     0
291
     1
 45
0.0
1001
ACAD
1000
AcDbSavedByObjectVersion
1070
     0
  0
VISUALSTYLE
  5
9F4
102
{ACAD_XDICTIONARY
360
A47
102
}
102
{ACAD_REACTORS
330
9EA
102
}
330
9EA
100
AcDbVisualStyle
  2
Realistic
 70
     8
 71
     2
 72
     2
 73
     0
 90
        0
 40
-0.6
 41
-30.0
 62
     5
 63
     7
 74
     1
 91
        0
 64
     7
 65
   257
 75
     1
175
     1
 42
1.0
 92
        8
 66
     8
 43
1.0
 76
     1
 77
     6
 78
     2
 67
     7
 79
     5
170
     0
171
     0
290
     0
174
     0
 93
       13
 44
0.0
173
     0
291
     0
 45
0.0
1001
ACAD
1000
AcDbSavedByObjectVersion
1070
     0
  0
VISUALSTYLE
  5
9F7
102
{ACAD_XDICTIONARY
360
A4D
102
}
102
{ACAD_REACTORS
330
9EA
102
}
330
9EA
100
AcDbVisualStyle
  2
Thicken
 70
    13
 71
     2
 72
     2
 73
     0
 90
        0
 40
-0.6
 41
-30.0
 62
     5
 63
     7
 74
     1
 91
        4
 64
     7
 65
   257
 75
     1
175
     1
 42
1.0
 92
       12
 66
     7
 43
1.0
 76
     1
 77
     6
 78
     2
 67
     7
 79
     5
170
     0
171
     0
290
     0
174
     0
 93
        1
 44
0.0
173
     0
291
     1
 45
0.0
1001
ACAD
1000
AcDbSavedByObjectVersion
1070
     0
  0
DICTIONARYVAR
  5
A23
102
{ACAD_REACTORS
330
9AA
102
}
330
9AA
100
DictionaryVariables
280
     0
  1
1:1
  0
DICTIONARYVAR
  5
A22
102
{ACAD_REACTORS
330
9AA
102
}
330
9AA
100
DictionaryVariables
280
     0
  1
STANDARD
  0
DICTIONARYVAR
  5
9CF
102
{ACAD_REACTORS
330
9AA
102
}
330
9AA
100
DictionaryVariables
280
     0
  1
STANDARD
  0
DICTIONARYVAR
  5
9AC
102
{ACAD_REACTORS
330
9AA
102
}
330
9AA
100
DictionaryVariables
280
     0
  1
2
  0
DICTIONARYVAR
  5
9AB
102
{ACAD_REACTORS
330
9AA
102
}
330
9AA
100
DictionaryVariables
280
     0
  1
1
  0
DICTIONARYVAR
  5
A25
102
{ACAD_REACTORS
330
9AA
102
}
330
9AA
100
DictionaryVariables
280
     0
  1
0
  0
DICTIONARYVAR
  5
9D0
102
{ACAD_REACTORS
330
9AA
102
}
330
9AA
100
DictionaryVariables
280
     0
  1

  0
DICTIONARYVAR
  5
A24
102
{ACAD_REACTORS
330
9AA
102
}
330
9AA
100
DictionaryVariables
280
     0
  1
127
  0
DICTIONARYVAR
  5
A26
102
{ACAD_REACTORS
330
9AA
102
}
330
9AA
100
DictionaryVariables
280
     0
  1
2
  0
XRECORD
  5
A21
102
{ACAD_REACTORS
330
A20
102
}
330
A20
100
AcDbXrecord
280
     1
330
49
330
4C
  0
DICTIONARY
  5
A2B
330
1E
100
AcDbDictionary
280
     1
281
     1
  3
ACAD_XREC_ROUNDTRIP
360
A2C
  0
DICTIONARY
  5
A2F
330
26
100
AcDbDictionary
280
     1
281
     1
  3
ACAD_XREC_ROUNDTRIP
360
A30
  0
DICTIONARY
  5
A2D
330
22
100
AcDbDictionary
280
     1
281
     1
  3
ACAD_XREC_ROUNDTRIP
360
A2E
  0
DICTIONARY
  5
9DB
330
9DA
100
AcDbDictionary
280
     1
281
     1
  3
ACAD_XREC_ROUNDTRIP
360
A33
  3
BUMPTILE
360
9DD
  3
DIFFUSETILE
360
9DC
  3
OPACITYTILE
360
9E0
  3
REFLECTIONTILE
360
9DF
  3
REFRACTIONTILE
360
9E1
  3
SPECULARTILE
360
9DE
  0
DICTIONARY
  5
9D3
330
9D2
100
AcDbDictionary
280
     1
281
     1
  3
ACAD_XREC_ROUNDTRIP
360
A32
  3
BUMPTILE
360
9D5
  3
DIFFUSETILE
360
9D4
  3
OPACITYTILE
360
9D8
  3
REFLECTIONTILE
360
9D7
  3
REFRACTIONTILE
360
9D9
  3
SPECULARTILE
360
9D6
  0
DICTIONARY
  5
9E3
330
9E2
100
AcDbDictionary
280
     1
281
     1
  3
ACAD_XREC_ROUNDTRIP
360
A34
  3
BUMPTILE
360
9E5
  3
DIFFUSETILE
360
9E4
  3
OPACITYTILE
360
9E8
  3
REFLECTIONTILE
360
9E7
  3
REFRACTIONTILE
360
9E9
  3
SPECULARTILE
360
9E6
  0
DICTIONARY
  5
A27
330
9B6
100
AcDbDictionary
280
     1
281
     1
  3
ACAD_ROUNDTRIP_2008_TABLESTYLE_CELLSTYLEMAP
360
A28
  3
ACAD_XREC_ROUNDTRIP
360
A31
  0
DICTIONARY
  5
A3F
330
9F0
100
AcDbDictionary
280
     1
281
     1
  3
ACAD_XREC_ROUNDTRIP
360
A40
  0
DICTIONARY
  5
A43
330
9F2
100
AcDbDictionary
280
     1
281
     1
  3
ACAD_XREC_ROUNDTRIP
360
A44
  0
DICTIONARY
  5
A41
330
9F1
100
AcDbDictionary
280
     1
281
     1
  3
ACAD_XREC_ROUNDTRIP
360
A42
  0
DICTIONARY
  5
A3D
330
9EF
100
AcDbDictionary
280
     1
281
     1
  3
ACAD_XREC_ROUNDTRIP
360
A3E
  0
DICTIONARY
  5
A4B
330
9F6
100
AcDbDictionary
280
     1
281
     1
  3
ACAD_XREC_ROUNDTRIP
360
A4C
  0
DICTIONARY
  5
A53
330
9FA
100
AcDbDictionary
280
     1
281
     1
  3
ACAD_XREC_ROUNDTRIP
360
A54
  0
DICTIONARY
  5
A45
330
9F3
100
AcDbDictionary
280
     1
281
     1
  3
ACAD_XREC_ROUNDTRIP
360
A46
  0
DICTIONARY
  5
A49
330
9F5
100
AcDbDictionary
280
     1
281
     1
  3
ACAD_XREC_ROUNDTRIP
360
A4A
  0
DICTIONARY
  5
A59
330
9FD
100
AcDbDictionary
280
     1
281
     1
  3
ACAD_XREC_ROUNDTRIP
360
A5A
  0
DICTIONARY
  5
A51
330
9F9
100
AcDbDictionary
280
     1
281
     1
  3
ACAD_XREC_ROUNDTRIP
360
A52
  0
DICTIONARY
  5
A35
330
9EB
100
AcDbDictionary
280
     1
281
     1
  3
ACAD_XREC_ROUNDTRIP
360
A36
  0
DICTIONARY
  5
A37
330
9EC
100
AcDbDictionary
280
     1
281
     1
  3
ACAD_XREC_ROUNDTRIP
360
A38
  0
DICTIONARY
  5
A39
330
9ED
100
AcDbDictionary
280
     1
281
     1
  3
ACAD_XREC_ROUNDTRIP
360
A3A
  0
DICTIONARY
  5
A3B
330
9EE
100
AcDbDictionary
280
     1
281
     1
  3
ACAD_XREC_ROUNDTRIP
360
A3C
  0
DICTIONARY
  5
A55
330
9FB
100
AcDbDictionary
280
     1
281
     1
  3
ACAD_XREC_ROUNDTRIP
360
A56
  0
DICTIONARY
  5
A4F
330
9F8
100
AcDbDictionary
280
     1
281
     1
  3
ACAD_XREC_ROUNDTRIP
360
A50
  0
DICTIONARY
  5
A57
330
9FC
100
AcDbDictionary
280
     1
281
     1
  3
ACAD_XREC_ROUNDTRIP
360
A58
  0
DICTIONARY
  5
A47
330
9F4
100
AcDbDictionary
280
     1
281
     1
  3
ACAD_XREC_ROUNDTRIP
360
A48
  0
DICTIONARY
  5
A4D
330
9F7
100
AcDbDictionary
280
     1
281
     1
  3
ACAD_XREC_ROUNDTRIP
360
A4E
  0
XRECORD
  5
A2C
102
{ACAD_REACTORS
330
A2B
102
}
330
A2B
100
AcDbXrecord
280
     1
102
SHADEPLOT
 70
     0
102
SHADEPLOTRESLEVEL
 70
     2
102
SHADEPLOTCUSTOMDPI
 70
   300
  0
XRECORD
  5
A30
102
{ACAD_REACTORS
330
A2F
102
}
330
A2F
100
AcDbXrecord
280
     1
102
SHADEPLOT
 70
     0
102
SHADEPLOTRESLEVEL
 70
     2
102
SHADEPLOTCUSTOMDPI
 70
   300
  0
XRECORD
  5
A2E
102
{ACAD_REACTORS
330
A2D
102
}
330
A2D
100
AcDbXrecord
280
     1
102
SHADEPLOT
 70
     0
102
SHADEPLOTRESLEVEL
 70
     2
102
SHADEPLOTCUSTOMDPI
 70
   300
  0
XRECORD
  5
A33
102
{ACAD_REACTORS
330
9DB
102
}
330
9DB
100
AcDbXrecord
280
     1
102
MATERIAL
148
0.0
149
0.0
149
0.0
 93
        0
 94
      127
282
     0
 72
     0
 77
     0
171
     0
175
     0
179
     0
273
     0
  0
XRECORD
  5
9DD
102
{ACAD_REACTORS
330
9DB
102
}
330
9DB
100
AcDbXrecord
280
     1
270
     1
271
     1
  0
XRECORD
  5
9DC
102
{ACAD_REACTORS
330
9DB
102
}
330
9DB
100
AcDbXrecord
280
     1
270
     1
271
     1
  0
XRECORD
  5
9E0
102
{ACAD_REACTORS
330
9DB
102
}
330
9DB
100
AcDbXrecord
280
     1
270
     1
271
     1
  0
XRECORD
  5
9DF
102
{ACAD_REACTORS
330
9DB
102
}
330
9DB
100
AcDbXrecord
280
     1
270
     1
271
     1
  0
XRECORD
  5
9E1
102
{ACAD_REACTORS
330
9DB
102
}
330
9DB
100
AcDbXrecord
280
     1
270
     1
271
     1
  0
XRECORD
  5
9DE
102
{ACAD_REACTORS
330
9DB
102
}
330
9DB
100
AcDbXrecord
280
     1
270
     1
271
     1
  0
XRECORD
  5
A32
102
{ACAD_REACTORS
330
9D3
102
}
330
9D3
100
AcDbXrecord
280
     1
102
MATERIAL
148
0.0
149
0.0
149
0.0
 93
        0
 94
      127
282
     0
 72
     0
 77
     0
171
     0
175
     0
179
     0
273
     0
  0
XRECORD
  5
9D5
102
{ACAD_REACTORS
330
9D3
102
}
330
9D3
100
AcDbXrecord
280
     1
270
     1
271
     1
  0
XRECORD
  5
9D4
102
{ACAD_REACTORS
330
9D3
102
}
330
9D3
100
AcDbXrecord
280
     1
270
     1
271
     1
  0
XRECORD
  5
9D8
102
{ACAD_REACTORS
330
9D3
102
}
330
9D3
100
AcDbXrecord
280
     1
270
     1
271
     1
  0
XRECORD
  5
9D7
102
{ACAD_REACTORS
330
9D3
102
}
330
9D3
100
AcDbXrecord
280
     1
270
     1
271
     1
  0
XRECORD
  5
9D9
102
{ACAD_REACTORS
330
9D3
102
}
330
9D3
100
AcDbXrecord
280
     1
270
     1
271
     1
  0
XRECORD
  5
9D6
102
{ACAD_REACTORS
330
9D3
102
}
330
9D3
100
AcDbXrecord
280
     1
270
     1
271
     1
  0
XRECORD
  5
A34
102
{ACAD_REACTORS
330
9E3
102
}
330
9E3
100
AcDbXrecord
280
     1
102
MATERIAL
148
0.0
149
0.0
149
0.0
 93
        0
 94
      127
282
     0
 72
     0
 77
     0
171
     0
175
     0
179
     0
273
     0
  0
XRECORD
  5
9E5
102
{ACAD_REACTORS
330
9E3
102
}
330
9E3
100
AcDbXrecord
280
     1
270
     1
271
     1
  0
XRECORD
  5
9E4
102
{ACAD_REACTORS
330
9E3
102
}
330
9E3
100
AcDbXrecord
280
     1
270
     1
271
     1
  0
XRECORD
  5
9E8
102
{ACAD_REACTORS
330
9E3
102
}
330
9E3
100
AcDbXrecord
280
     1
270
     1
271
     1
  0
XRECORD
  5
9E7
102
{ACAD_REACTORS
330
9E3
102
}
330
9E3
100
AcDbXrecord
280
     1
270
     1
271
     1
  0
XRECORD
  5
9E9
102
{ACAD_REACTORS
330
9E3
102
}
330
9E3
100
AcDbXrecord
280
     1
270
     1
271
     1
  0
XRECORD
  5
9E6
102
{ACAD_REACTORS
330
9E3
102
}
330
9E3
100
AcDbXrecord
280
     1
270
     1
271
     1
  0
CELLSTYLEMAP
  5
A28
102
{ACAD_REACTORS
330
A27
102
}
330
A27
100
AcDbCellStyleMap
 90
        3
300
CELLSTYLE
  1
TABLEFORMAT_BEGIN
 90
        5
170
     1
 91
        0
 92
    32768
 62
   257
 93
        1
300
CONTENTFORMAT
  1
CONTENTFORMAT_BEGIN
 90
        0
 91
        0
 92
        4
 93
        0
300

 40
0.0
140
1.0
 94
        5
 62
     0
340
11
144
6.0
309
CONTENTFORMAT_END
171
     1
301
MARGIN
  1
CELLMARGIN_BEGIN
 40
1.5
 40
1.5
 40
1.5
 40
1.5
 40
0.18
 40
0.18
309
CELLMARGIN_END
 94
        6
 95
        1
302
GRIDFORMAT
  1
GRIDFORMAT_BEGIN
 90
        0
 91
        1
 62
     0
 92
       -2
340
0
 93
        0
 40
0.045
309
GRIDFORMAT_END
 95
        2
302
GRIDFORMAT
  1
GRIDFORMAT_BEGIN
 90
        0
 91
        1
 62
     0
 92
       -2
340
0
 93
        0
 40
0.045
309
GRIDFORMAT_END
 95
        4
302
GRIDFORMAT
  1
GRIDFORMAT_BEGIN
 90
        0
 91
        1
 62
     0
 92
       -2
340
0
 93
        0
 40
0.045
309
GRIDFORMAT_END
 95
        8
302
GRIDFORMAT
  1
GRIDFORMAT_BEGIN
 90
        0
 91
        1
 62
     0
 92
       -2
340
0
 93
        0
 40
0.045
309
GRIDFORMAT_END
 95
       16
302
GRIDFORMAT
  1
GRIDFORMAT_BEGIN
 90
        0
 91
        1
 62
     0
 92
       -2
340
0
 93
        0
 40
0.045
309
GRIDFORMAT_END
 95
       32
302
GRIDFORMAT
  1
GRIDFORMAT_BEGIN
 90
        0
 91
        1
 62
     0
 92
       -2
340
0
 93
        0
 40
0.045
309
GRIDFORMAT_END
309
TABLEFORMAT_END
  1
CELLSTYLE_BEGIN
 90
        1
 91
        1
300
_TITLE
309
CELLSTYLE_END
300
CELLSTYLE
  1
TABLEFORMAT_BEGIN
 90
        5
170
     1
 91
        0
 92
        0
 62
   257
 93
        1
300
CONTENTFORMAT
  1
CONTENTFORMAT_BEGIN
 90
        0
 91
        0
 92
        4
 93
        0
300

 40
0.0
140
1.0
 94
        5
 62
     0
340
11
144
4.5
309
CONTENTFORMAT_END
171
     1
301
MARGIN
  1
CELLMARGIN_BEGIN
 40
1.5
 40
1.5
 40
1.5
 40
1.5
 40
0.18
 40
0.18
309
CELLMARGIN_END
 94
        6
 95
        1
302
GRIDFORMAT
  1
GRIDFORMAT_BEGIN
 90
        0
 91
        1
 62
     0
 92
       -2
340
0
 93
        0
 40
0.045
309
GRIDFORMAT_END
 95
        2
302
GRIDFORMAT
  1
GRIDFORMAT_BEGIN
 90
        0
 91
        1
 62
     0
 92
       -2
340
0
 93
        0
 40
0.045
309
GRIDFORMAT_END
 95
        4
302
GRIDFORMAT
  1
GRIDFORMAT_BEGIN
 90
        0
 91
        1
 62
     0
 92
       -2
340
0
 93
        0
 40
0.045
309
GRIDFORMAT_END
 95
        8
302
GRIDFORMAT
  1
GRIDFORMAT_BEGIN
 90
        0
 91
        1
 62
     0
 92
       -2
340
0
 93
        0
 40
0.045
309
GRIDFORMAT_END
 95
       16
302
GRIDFORMAT
  1
GRIDFORMAT_BEGIN
 90
        0
 91
        1
 62
     0
 92
       -2
340
0
 93
        0
 40
0.045
309
GRIDFORMAT_END
 95
       32
302
GRIDFORMAT
  1
GRIDFORMAT_BEGIN
 90
        0
 91
        1
 62
     0
 92
       -2
340
0
 93
        0
 40
0.045
309
GRIDFORMAT_END
309
TABLEFORMAT_END
  1
CELLSTYLE_BEGIN
 90
        2
 91
        1
300
_HEADER
309
CELLSTYLE_END
300
CELLSTYLE
  1
TABLEFORMAT_BEGIN
 90
        5
170
     1
 91
        0
 92
        0
 62
   257
 93
        1
300
CONTENTFORMAT
  1
CONTENTFORMAT_BEGIN
 90
        0
 91
        0
 92
        4
 93
        0
300

 40
0.0
140
1.0
 94
        2
 62
     0
340
11
144
4.5
309
CONTENTFORMAT_END
171
     1
301
MARGIN
  1
CELLMARGIN_BEGIN
 40
1.5
 40
1.5
 40
1.5
 40
1.5
 40
0.18
 40
0.18
309
CELLMARGIN_END
 94
        6
 95
        1
302
GRIDFORMAT
  1
GRIDFORMAT_BEGIN
 90
        0
 91
        1
 62
     0
 92
       -2
340
0
 93
        0
 40
0.045
309
GRIDFORMAT_END
 95
        2
302
GRIDFORMAT
  1
GRIDFORMAT_BEGIN
 90
        0
 91
        1
 62
     0
 92
       -2
340
0
 93
        0
 40
0.045
309
GRIDFORMAT_END
 95
        4
302
GRIDFORMAT
  1
GRIDFORMAT_BEGIN
 90
        0
 91
        1
 62
     0
 92
       -2
340
0
 93
        0
 40
0.045
309
GRIDFORMAT_END
 95
        8
302
GRIDFORMAT
  1
GRIDFORMAT_BEGIN
 90
        0
 91
        1
 62
     0
 92
       -2
340
0
 93
        0
 40
0.045
309
GRIDFORMAT_END
 95
       16
302
GRIDFORMAT
  1
GRIDFORMAT_BEGIN
 90
        0
 91
        1
 62
     0
 92
       -2
340
0
 93
        0
 40
0.045
309
GRIDFORMAT_END
 95
       32
302
GRIDFORMAT
  1
GRIDFORMAT_BEGIN
 90
        0
 91
        1
 62
     0
 92
       -2
340
0
 93
        0
 40
0.045
309
GRIDFORMAT_END
309
TABLEFORMAT_END
  1
CELLSTYLE_BEGIN
 90
        3
 91
        2
300
_DATA
309
CELLSTYLE_END
  0
XRECORD
  5
A31
102
{ACAD_REACTORS
330
A27
102
}
330
A27
100
AcDbXrecord
280
     1
102
ACAD_ROUNDTRIP_PRE2007_TABLESTYLE
 90
        4
 91
        0
  1

 92
        4
 93
        0
  2

 94
        4
 95
        0
  3

  0
XRECORD
  5
A40
102
{ACAD_REACTORS
330
A3F
102
}
330
A3F
100
AcDbXrecord
280
     1
102
RTVSPropertyOp0
 70
     1
102
RTVSPropertyOp1
 70
     1
102
RTVSPropertyOp2
 70
     1
102
RTVSPropertyOp3
 70
     1
102
RTVSPropertyOp4
 70
     1
102
RTVSPropertyOp5
 70
     1
102
RTVSPropertyOp6
 70
     1
102
RTVSPropertyOp7
 70
     1
102
RTVSPropertyOp8
 70
     1
102
RTVSPropertyOp9
 70
     1
102
RTVSPropertyOp10
 70
     1
102
RTVSPropertyOp11
 70
     1
102
RTVSPropertyOp12
 70
     1
102
RTVSPropertyOp13
 70
     1
102
RTVSPropertyOp14
 70
     1
102
RTVSPropertyOp15
 70
     1
102
RTVSPropertyOp16
 70
     1
102
RTVSPropertyOp17
 70
     1
102
RTVSPropertyOp18
 70
     1
102
RTVSPropertyOp19
 70
     1
102
RTVSPropertyOp20
 70
     1
102
RTVSPropertyOp21
 70
     1
102
RTVSPropertyOp22
 70
     1
102
RTVSPropertyOp23
 70
     1
102
RTVSPropertyOp24
 70
     1
102
RTVSPropertyOp25
 70
     1
102
RTVSPropertyOp26
 70
     1
102
RTVSPropertyOp27
 70
     1
  0
XRECORD
  5
A44
102
{ACAD_REACTORS
330
A43
102
}
330
A43
100
AcDbXrecord
280
     1
102
RTVSPropertyOp0
 70
     1
102
RTVSPropertyOp1
 70
     1
102
RTVSPropertyOp2
 70
     1
102
RTVSPropertyOp3
 70
     1
102
RTVSPropertyOp4
 70
     1
102
RTVSPropertyOp5
 70
     1
102
RTVSPropertyOp6
 70
     1
102
RTVSPropertyOp7
 70
     1
102
RTVSPropertyOp8
 70
     1
102
RTVSPropertyOp9
 70
     1
102
RTVSPropertyOp10
 70
     1
102
RTVSPropertyOp11
 70
     1
102
RTVSPropertyOp12
 70
     1
102
RTVSPropertyOp13
 70
     1
102
RTVSPropertyOp14
 70
     1
102
RTVSPropertyOp15
 70
     1
102
RTVSPropertyOp16
 70
     1
102
RTVSPropertyOp17
 70
     1
102
RTVSPropertyOp18
 70
     1
102
RTVSPropertyOp19
 70
     1
102
RTVSPropertyOp20
 70
     1
102
RTVSPropertyOp21
 70
     1
102
RTVSPropertyOp22
 70
     1
102
RTVSPropertyOp23
 70
     1
102
RTVSPropertyOp24
 70
     1
102
RTVSPropertyOp25
 70
     1
102
RTVSPropertyOp26
 70
     1
102
RTVSPropertyOp27
 70
     1
  0
XRECORD
  5
A42
102
{ACAD_REACTORS
330
A41
102
}
330
A41
100
AcDbXrecord
280
     1
102
RTVSPropertyOp0
 70
     1
102
RTVSPropertyOp1
 70
     1
102
RTVSPropertyOp2
 70
     1
102
RTVSPropertyOp3
 70
     1
102
RTVSPropertyOp4
 70
     1
102
RTVSPropertyOp5
 70
     1
102
RTVSPropertyOp6
 70
     1
102
RTVSPropertyOp7
 70
     1
102
RTVSPropertyOp8
 70
     1
102
RTVSPropertyOp9
 70
     1
102
RTVSPropertyOp10
 70
     1
102
RTVSPropertyOp11
 70
     1
102
RTVSPropertyOp12
 70
     1
102
RTVSPropertyOp13
 70
     1
102
RTVSPropertyOp14
 70
     1
102
RTVSPropertyOp15
 70
     1
102
RTVSPropertyOp16
 70
     1
102
RTVSPropertyOp17
 70
     1
102
RTVSPropertyOp18
 70
     1
102
RTVSPropertyOp19
 70
     1
102
RTVSPropertyOp20
 70
     1
102
RTVSPropertyOp21
 70
     1
102
RTVSPropertyOp22
 70
     1
102
RTVSPropertyOp23
 70
     1
102
RTVSPropertyOp24
 70
     1
102
RTVSPropertyOp25
 70
     1
102
RTVSPropertyOp26
 70
     1
102
RTVSPropertyOp27
 70
     1
  0
XRECORD
  5
A3E
102
{ACAD_REACTORS
330
A3D
102
}
330
A3D
100
AcDbXrecord
280
     1
102
RTVSPropertyOp0
 70
     1
102
RTVSPropertyOp1
 70
     1
102
RTVSPropertyOp2
 70
     1
102
RTVSPropertyOp3
 70
     1
102
RTVSPropertyOp4
 70
     1
102
RTVSPropertyOp5
 70
     1
102
RTVSPropertyOp6
 70
     1
102
RTVSPropertyOp7
 70
     1
102
RTVSPropertyOp8
 70
     1
102
RTVSPropertyOp9
 70
     1
102
RTVSPropertyOp10
 70
     1
102
RTVSPropertyOp11
 70
     1
102
RTVSPropertyOp12
 70
     1
102
RTVSPropertyOp13
 70
     1
102
RTVSPropertyOp14
 70
     1
102
RTVSPropertyOp15
 70
     1
102
RTVSPropertyOp16
 70
     1
102
RTVSPropertyOp17
 70
     1
102
RTVSPropertyOp18
 70
     1
102
RTVSPropertyOp19
 70
     1
102
RTVSPropertyOp20
 70
     1
102
RTVSPropertyOp21
 70
     1
102
RTVSPropertyOp22
 70
     1
102
RTVSPropertyOp23
 70
     1
102
RTVSPropertyOp24
 70
     1
102
RTVSPropertyOp25
 70
     1
102
RTVSPropertyOp26
 70
     1
102
RTVSPropertyOp27
 70
     1
  0
XRECORD
  5
A4C
102
{ACAD_REACTORS
330
A4B
102
}
330
A4B
100
AcDbXrecord
280
     1
102
RTVSPropertyOp0
 70
     1
102
RTVSPropertyOp1
 70
     1
102
RTVSPropertyOp2
 70
     1
102
RTVSPropertyOp3
 70
     1
102
RTVSPropertyOp4
 70
     1
102
RTVSPropertyOp5
 70
     1
102
RTVSPropertyOp6
 70
     1
102
RTVSPropertyOp7
 70
     1
102
RTVSPropertyOp8
 70
     1
102
RTVSPropertyOp9
 70
     1
102
RTVSPropertyOp10
 70
     1
102
RTVSPropertyOp11
 70
     1
102
RTVSPropertyOp12
 70
     1
102
RTVSPropertyOp13
 70
     1
102
RTVSPropertyOp14
 70
     1
102
RTVSPropertyOp15
 70
     1
102
RTVSPropertyOp16
 70
     1
102
RTVSPropertyOp17
 70
     1
102
RTVSPropertyOp18
 70
     1
102
RTVSPropertyOp19
 70
     1
102
RTVSPropertyOp20
 70
     1
102
RTVSPropertyOp21
 70
     1
102
RTVSPropertyOp22
 70
     1
102
RTVSPropertyOp23
 70
     1
102
RTVSPropertyOp24
 70
     1
102
RTVSPropertyOp25
 70
     1
102
RTVSPropertyOp26
 70
     1
102
RTVSPropertyOp27
 70
     1
  0
XRECORD
  5
A54
102
{ACAD_REACTORS
330
A53
102
}
330
A53
100
AcDbXrecord
280
     1
102
RTVSPropertyOp0
 70
     1
102
RTVSPropertyOp1
 70
     1
102
RTVSPropertyOp2
 70
     1
102
RTVSPropertyOp3
 70
     1
102
RTVSPropertyOp4
 70
     1
102
RTVSPropertyOp5
 70
     1
102
RTVSPropertyOp6
 70
     1
102
RTVSPropertyOp7
 70
     1
102
RTVSPropertyOp8
 70
     1
102
RTVSPropertyOp9
 70
     1
102
RTVSPropertyOp10
 70
     1
102
RTVSPropertyOp11
 70
     1
102
RTVSPropertyOp12
 70
     1
102
RTVSPropertyOp13
 70
     1
102
RTVSPropertyOp14
 70
     1
102
RTVSPropertyOp15
 70
     1
102
RTVSPropertyOp16
 70
     1
102
RTVSPropertyOp17
 70
     1
102
RTVSPropertyOp18
 70
     1
102
RTVSPropertyOp19
 70
     1
102
RTVSPropertyOp20
 70
     1
102
RTVSPropertyOp21
 70
     1
102
RTVSPropertyOp22
 70
     1
102
RTVSPropertyOp23
 70
     1
102
RTVSPropertyOp24
 70
     1
102
RTVSPropertyOp25
 70
     1
102
RTVSPropertyOp26
 70
     1
102
RTVSPropertyOp27
 70
     1
  0
XRECORD
  5
A46
102
{ACAD_REACTORS
330
A45
102
}
330
A45
100
AcDbXrecord
280
     1
102
RTVSPropertyOp0
 70
     1
102
RTVSPropertyOp1
 70
     1
102
RTVSPropertyOp2
 70
     1
102
RTVSPropertyOp3
 70
     1
102
RTVSPropertyOp4
 70
     1
102
RTVSPropertyOp5
 70
     1
102
RTVSPropertyOp6
 70
     1
102
RTVSPropertyOp7
 70
     1
102
RTVSPropertyOp8
 70
     1
102
RTVSPropertyOp9
 70
     1
102
RTVSPropertyOp10
 70
     1
102
RTVSPropertyOp11
 70
     1
102
RTVSPropertyOp12
 70
     1
102
RTVSPropertyOp13
 70
     1
102
RTVSPropertyOp14
 70
     1
102
RTVSPropertyOp15
 70
     1
102
RTVSPropertyOp16
 70
     1
102
RTVSPropertyOp17
 70
     1
102
RTVSPropertyOp18
 70
     1
102
RTVSPropertyOp19
 70
     1
102
RTVSPropertyOp20
 70
     1
102
RTVSPropertyOp21
 70
     1
102
RTVSPropertyOp22
 70
     1
102
RTVSPropertyOp23
 70
     1
102
RTVSPropertyOp24
 70
     1
102
RTVSPropertyOp25
 70
     1
102
RTVSPropertyOp26
 70
     1
102
RTVSPropertyOp27
 70
     1
  0
XRECORD
  5
A4A
102
{ACAD_REACTORS
330
A49
102
}
330
A49
100
AcDbXrecord
280
     1
102
RTVSPropertyOp0
 70
     1
102
RTVSPropertyOp1
 70
     1
102
RTVSPropertyOp2
 70
     1
102
RTVSPropertyOp3
 70
     1
102
RTVSPropertyOp4
 70
     1
102
RTVSPropertyOp5
 70
     1
102
RTVSPropertyOp6
 70
     1
102
RTVSPropertyOp7
 70
     1
102
RTVSPropertyOp8
 70
     1
102
RTVSPropertyOp9
 70
     1
102
RTVSPropertyOp10
 70
     1
102
RTVSPropertyOp11
 70
     1
102
RTVSPropertyOp12
 70
     1
102
RTVSPropertyOp13
 70
     1
102
RTVSPropertyOp14
 70
     1
102
RTVSPropertyOp15
 70
     1
102
RTVSPropertyOp16
 70
     1
102
RTVSPropertyOp17
 70
     1
102
RTVSPropertyOp18
 70
     1
102
RTVSPropertyOp19
 70
     1
102
RTVSPropertyOp20
 70
     1
102
RTVSPropertyOp21
 70
     1
102
RTVSPropertyOp22
 70
     1
102
RTVSPropertyOp23
 70
     1
102
RTVSPropertyOp24
 70
     1
102
RTVSPropertyOp25
 70
     1
102
RTVSPropertyOp26
 70
     1
102
RTVSPropertyOp27
 70
     1
  0
XRECORD
  5
A5A
102
{ACAD_REACTORS
330
A59
102
}
330
A59
100
AcDbXrecord
280
     1
102
RTVSPropertyOp0
 70
     0
102
RTVSPropertyOp1
 70
     0
102
RTVSPropertyOp2
 70
     0
102
RTVSPropertyOp3
 70
     0
102
RTVSPropertyOp4
 70
     0
102
RTVSPropertyOp5
 70
     0
102
RTVSPropertyOp6
 70
     0
102
RTVSPropertyOp7
 70
     0
102
RTVSPropertyOp8
 70
     0
102
RTVSPropertyOp9
 70
     0
102
RTVSPropertyOp10
 70
     0
102
RTVSPropertyOp11
 70
     0
102
RTVSPropertyOp12
 70
     0
102
RTVSPropertyOp13
 70
     0
102
RTVSPropertyOp14
 70
     2
102
RTVSPropertyOp15
 70
     0
102
RTVSPropertyOp16
 70
     0
102
RTVSPropertyOp17
 70
     0
102
RTVSPropertyOp18
 70
     0
102
RTVSPropertyOp19
 70
     0
102
RTVSPropertyOp20
 70
     0
102
RTVSPropertyOp21
 70
     0
102
RTVSPropertyOp22
 70
     0
102
RTVSPropertyOp23
 70
     0
102
RTVSPropertyOp24
 70
     0
102
RTVSPropertyOp25
 70
     0
102
RTVSPropertyOp26
 70
     0
102
RTVSPropertyOp27
 70
     0
  0
XRECORD
  5
A52
102
{ACAD_REACTORS
330
A51
102
}
330
A51
100
AcDbXrecord
280
     1
102
RTVSPropertyOp0
 70
     1
102
RTVSPropertyOp1
 70
     1
102
RTVSPropertyOp2
 70
     1
102
RTVSPropertyOp3
 70
     1
102
RTVSPropertyOp4
 70
     1
102
RTVSPropertyOp5
 70
     1
102
RTVSPropertyOp6
 70
     1
102
RTVSPropertyOp7
 70
     1
102
RTVSPropertyOp8
 70
     1
102
RTVSPropertyOp9
 70
     1
102
RTVSPropertyOp10
 70
     1
102
RTVSPropertyOp11
 70
     1
102
RTVSPropertyOp12
 70
     1
102
RTVSPropertyOp13
 70
     1
102
RTVSPropertyOp14
 70
     1
102
RTVSPropertyOp15
 70
     1
102
RTVSPropertyOp16
 70
     1
102
RTVSPropertyOp17
 70
     1
102
RTVSPropertyOp18
 70
     1
102
RTVSPropertyOp19
 70
     1
102
RTVSPropertyOp20
 70
     1
102
RTVSPropertyOp21
 70
     1
102
RTVSPropertyOp22
 70
     1
102
RTVSPropertyOp23
 70
     1
102
RTVSPropertyOp24
 70
     1
102
RTVSPropertyOp25
 70
     1
102
RTVSPropertyOp26
 70
     1
102
RTVSPropertyOp27
 70
     1
  0
XRECORD
  5
A36
102
{ACAD_REACTORS
330
A35
102
}
330
A35
100
AcDbXrecord
280
     1
102
RTVSPropertyOp0
 70
     1
102
RTVSPropertyOp1
 70
     1
102
RTVSPropertyOp2
 70
     1
102
RTVSPropertyOp3
 70
     1
102
RTVSPropertyOp4
 70
     1
102
RTVSPropertyOp5
 70
     1
102
RTVSPropertyOp6
 70
     1
102
RTVSPropertyOp7
 70
     1
102
RTVSPropertyOp8
 70
     1
102
RTVSPropertyOp9
 70
     1
102
RTVSPropertyOp10
 70
     1
102
RTVSPropertyOp11
 70
     1
102
RTVSPropertyOp12
 70
     1
102
RTVSPropertyOp13
 70
     1
102
RTVSPropertyOp14
 70
     1
102
RTVSPropertyOp15
 70
     1
102
RTVSPropertyOp16
 70
     1
102
RTVSPropertyOp17
 70
     1
102
RTVSPropertyOp18
 70
     1
102
RTVSPropertyOp19
 70
     1
102
RTVSPropertyOp20
 70
     1
102
RTVSPropertyOp21
 70
     1
102
RTVSPropertyOp22
 70
     1
102
RTVSPropertyOp23
 70
     1
102
RTVSPropertyOp24
 70
     1
102
RTVSPropertyOp25
 70
     1
102
RTVSPropertyOp26
 70
     1
102
RTVSPropertyOp27
 70
     1
  0
XRECORD
  5
A38
102
{ACAD_REACTORS
330
A37
102
}
330
A37
100
AcDbXrecord
280
     1
102
RTVSPropertyOp0
 70
     1
102
RTVSPropertyOp1
 70
     1
102
RTVSPropertyOp2
 70
     1
102
RTVSPropertyOp3
 70
     1
102
RTVSPropertyOp4
 70
     1
102
RTVSPropertyOp5
 70
     1
102
RTVSPropertyOp6
 70
     1
102
RTVSPropertyOp7
 70
     1
102
RTVSPropertyOp8
 70
     1
102
RTVSPropertyOp9
 70
     1
102
RTVSPropertyOp10
 70
     1
102
RTVSPropertyOp11
 70
     1
102
RTVSPropertyOp12
 70
     1
102
RTVSPropertyOp13
 70
     1
102
RTVSPropertyOp14
 70
     1
102
RTVSPropertyOp15
 70
     1
102
RTVSPropertyOp16
 70
     1
102
RTVSPropertyOp17
 70
     1
102
RTVSPropertyOp18
 70
     1
102
RTVSPropertyOp19
 70
     1
102
RTVSPropertyOp20
 70
     1
102
RTVSPropertyOp21
 70
     1
102
RTVSPropertyOp22
 70
     1
102
RTVSPropertyOp23
 70
     1
102
RTVSPropertyOp24
 70
     1
102
RTVSPropertyOp25
 70
     1
102
RTVSPropertyOp26
 70
     1
102
RTVSPropertyOp27
 70
     1
  0
XRECORD
  5
A3A
102
{ACAD_REACTORS
330
A39
102
}
330
A39
100
AcDbXrecord
280
     1
102
RTVSPropertyOp0
 70
     1
102
RTVSPropertyOp1
 70
     1
102
RTVSPropertyOp2
 70
     1
102
RTVSPropertyOp3
 70
     1
102
RTVSPropertyOp4
 70
     1
102
RTVSPropertyOp5
 70
     1
102
RTVSPropertyOp6
 70
     1
102
RTVSPropertyOp7
 70
     1
102
RTVSPropertyOp8
 70
     1
102
RTVSPropertyOp9
 70
     1
102
RTVSPropertyOp10
 70
     1
102
RTVSPropertyOp11
 70
     1
102
RTVSPropertyOp12
 70
     1
102
RTVSPropertyOp13
 70
     1
102
RTVSPropertyOp14
 70
     1
102
RTVSPropertyOp15
 70
     1
102
RTVSPropertyOp16
 70
     1
102
RTVSPropertyOp17
 70
     1
102
RTVSPropertyOp18
 70
     1
102
RTVSPropertyOp19
 70
     1
102
RTVSPropertyOp20
 70
     1
102
RTVSPropertyOp21
 70
     1
102
RTVSPropertyOp22
 70
     1
102
RTVSPropertyOp23
 70
     1
102
RTVSPropertyOp24
 70
     1
102
RTVSPropertyOp25
 70
     1
102
RTVSPropertyOp26
 70
     1
102
RTVSPropertyOp27
 70
     1
  0
XRECORD
  5
A3C
102
{ACAD_REACTORS
330
A3B
102
}
330
A3B
100
AcDbXrecord
280
     1
102
RTVSPropertyOp0
 70
     1
102
RTVSPropertyOp1
 70
     1
102
RTVSPropertyOp2
 70
     1
102
RTVSPropertyOp3
 70
     1
102
RTVSPropertyOp4
 70
     1
102
RTVSPropertyOp5
 70
     1
102
RTVSPropertyOp6
 70
     1
102
RTVSPropertyOp7
 70
     1
102
RTVSPropertyOp8
 70
     1
102
RTVSPropertyOp9
 70
     1
102
RTVSPropertyOp10
 70
     1
102
RTVSPropertyOp11
 70
     1
102
RTVSPropertyOp12
 70
     1
102
RTVSPropertyOp13
 70
     1
102
RTVSPropertyOp14
 70
     1
102
RTVSPropertyOp15
 70
     1
102
RTVSPropertyOp16
 70
     1
102
RTVSPropertyOp17
 70
     1
102
RTVSPropertyOp18
 70
     1
102
RTVSPropertyOp19
 70
     1
102
RTVSPropertyOp20
 70
     1
102
RTVSPropertyOp21
 70
     1
102
RTVSPropertyOp22
 70
     1
102
RTVSPropertyOp23
 70
     1
102
RTVSPropertyOp24
 70
     1
102
RTVSPropertyOp25
 70
     1
102
RTVSPropertyOp26
 70
     1
102
RTVSPropertyOp27
 70
     1
  0
XRECORD
  5
A56
102
{ACAD_REACTORS
330
A55
102
}
330
A55
100
AcDbXrecord
280
     1
102
RTVSPropertyOp0
 70
     0
102
RTVSPropertyOp1
 70
     0
102
RTVSPropertyOp2
 70
     0
102
RTVSPropertyOp3
 70
     0
102
RTVSPropertyOp4
 70
     0
102
RTVSPropertyOp5
 70
     0
102
RTVSPropertyOp6
 70
     0
102
RTVSPropertyOp7
 70
     0
102
RTVSPropertyOp8
 70
     0
102
RTVSPropertyOp9
 70
     0
102
RTVSPropertyOp10
 70
     0
102
RTVSPropertyOp11
 70
     0
102
RTVSPropertyOp12
 70
     0
102
RTVSPropertyOp13
 70
     0
102
RTVSPropertyOp14
 70
     2
102
RTVSPropertyOp15
 70
     0
102
RTVSPropertyOp16
 70
     0
102
RTVSPropertyOp17
 70
     0
102
RTVSPropertyOp18
 70
     0
102
RTVSPropertyOp19
 70
     0
102
RTVSPropertyOp20
 70
     0
102
RTVSPropertyOp21
 70
     0
102
RTVSPropertyOp22
 70
     0
102
RTVSPropertyOp23
 70
     0
102
RTVSPropertyOp24
 70
     0
102
RTVSPropertyOp25
 70
     0
102
RTVSPropertyOp26
 70
     0
102
RTVSPropertyOp27
 70
     0
  0
XRECORD
  5
A50
102
{ACAD_REACTORS
330
A4F
102
}
330
A4F
100
AcDbXrecord
280
     1
102
RTVSPropertyOp0
 70
     1
102
RTVSPropertyOp1
 70
     1
102
RTVSPropertyOp2
 70
     1
102
RTVSPropertyOp3
 70
     1
102
RTVSPropertyOp4
 70
     1
102
RTVSPropertyOp5
 70
     1
102
RTVSPropertyOp6
 70
     1
102
RTVSPropertyOp7
 70
     1
102
RTVSPropertyOp8
 70
     1
102
RTVSPropertyOp9
 70
     1
102
RTVSPropertyOp10
 70
     1
102
RTVSPropertyOp11
 70
     1
102
RTVSPropertyOp12
 70
     1
102
RTVSPropertyOp13
 70
     1
102
RTVSPropertyOp14
 70
     1
102
RTVSPropertyOp15
 70
     1
102
RTVSPropertyOp16
 70
     1
102
RTVSPropertyOp17
 70
     1
102
RTVSPropertyOp18
 70
     1
102
RTVSPropertyOp19
 70
     1
102
RTVSPropertyOp20
 70
     1
102
RTVSPropertyOp21
 70
     1
102
RTVSPropertyOp22
 70
     1
102
RTVSPropertyOp23
 70
     1
102
RTVSPropertyOp24
 70
     1
102
RTVSPropertyOp25
 70
     1
102
RTVSPropertyOp26
 70
     1
102
RTVSPropertyOp27
 70
     1
  0
XRECORD
  5
A58
102
{ACAD_REACTORS
330
A57
102
}
330
A57
100
AcDbXrecord
280
     1
102
RTVSPropertyOp0
 70
     0
102
RTVSPropertyOp1
 70
     0
102
RTVSPropertyOp2
 70
     0
102
RTVSPropertyOp3
 70
     0
102
RTVSPropertyOp4
 70
     0
102
RTVSPropertyOp5
 70
     0
102
RTVSPropertyOp6
 70
     0
102
RTVSPropertyOp7
 70
     0
102
RTVSPropertyOp8
 70
     0
102
RTVSPropertyOp9
 70
     0
102
RTVSPropertyOp10
 70
     0
102
RTVSPropertyOp11
 70
     0
102
RTVSPropertyOp12
 70
     0
102
RTVSPropertyOp13
 70
     0
102
RTVSPropertyOp14
 70
     2
102
RTVSPropertyOp15
 70
     0
102
RTVSPropertyOp16
 70
     0
102
RTVSPropertyOp17
 70
     0
102
RTVSPropertyOp18
 70
     0
102
RTVSPropertyOp19
 70
     0
102
RTVSPropertyOp20
 70
     0
102
RTVSPropertyOp21
 70
     0
102
RTVSPropertyOp22
 70
     0
102
RTVSPropertyOp23
 70
     0
102
RTVSPropertyOp24
 70
     0
102
RTVSPropertyOp25
 70
     0
102
RTVSPropertyOp26
 70
     0
102
RTVSPropertyOp27
 70
     0
  0
XRECORD
  5
A48
102
{ACAD_REACTORS
330
A47
102
}
330
A47
100
AcDbXrecord
280
     1
102
RTVSPropertyOp0
 70
     1
102
RTVSPropertyOp1
 70
     1
102
RTVSPropertyOp2
 70
     1
102
RTVSPropertyOp3
 70
     1
102
RTVSPropertyOp4
 70
     1
102
RTVSPropertyOp5
 70
     1
102
RTVSPropertyOp6
 70
     1
102
RTVSPropertyOp7
 70
     1
102
RTVSPropertyOp8
 70
     1
102
RTVSPropertyOp9
 70
     1
102
RTVSPropertyOp10
 70
     1
102
RTVSPropertyOp11
 70
     1
102
RTVSPropertyOp12
 70
     1
102
RTVSPropertyOp13
 70
     1
102
RTVSPropertyOp14
 70
     1
102
RTVSPropertyOp15
 70
     1
102
RTVSPropertyOp16
 70
     1
102
RTVSPropertyOp17
 70
     1
102
RTVSPropertyOp18
 70
     1
102
RTVSPropertyOp19
 70
     1
102
RTVSPropertyOp20
 70
     1
102
RTVSPropertyOp21
 70
     1
102
RTVSPropertyOp22
 70
     1
102
RTVSPropertyOp23
 70
     1
102
RTVSPropertyOp24
 70
     1
102
RTVSPropertyOp25
 70
     1
102
RTVSPropertyOp26
 70
     1
102
RTVSPropertyOp27
 70
     1
  0
XRECORD
  5
A4E
102
{ACAD_REACTORS
330
A4D
102
}
330
A4D
100
AcDbXrecord
280
     1
102
RTVSPropertyOp0
 70
     1
102
RTVSPropertyOp1
 70
     1
102
RTVSPropertyOp2
 70
     1
102
RTVSPropertyOp3
 70
     1
102
RTVSPropertyOp4
 70
     1
102
RTVSPropertyOp5
 70
     1
102
RTVSPropertyOp6
 70
     1
102
RTVSPropertyOp7
 70
     1
102
RTVSPropertyOp8
 70
     1
102
RTVSPropertyOp9
 70
     1
102
RTVSPropertyOp10
 70
     1
102
RTVSPropertyOp11
 70
     1
102
RTVSPropertyOp12
 70
     1
102
RTVSPropertyOp13
 70
     1
102
RTVSPropertyOp14
 70
     1
102
RTVSPropertyOp15
 70
     1
102
RTVSPropertyOp16
 70
     1
102
RTVSPropertyOp17
 70
     1
102
RTVSPropertyOp18
 70
     1
102
RTVSPropertyOp19
 70
     1
102
RTVSPropertyOp20
 70
     1
102
RTVSPropertyOp21
 70
     1
102
RTVSPropertyOp22
 70
     1
102
RTVSPropertyOp23
 70
     1
102
RTVSPropertyOp24
 70
     1
102
RTVSPropertyOp25
 70
     1
102
RTVSPropertyOp26
 70
     1
102
RTVSPropertyOp27
 70
     1
  0
ENDSEC
  0
EOF
