  0
SECTION
  2
HEADER
  9
$ACADVER
  1
AC1015
  9
$ACADMAINTVER
 70
    20
  9
$DWGCODEPAGE
  3
ANSI_1252
  9
$INSBASE
 10
0.0
 20
0.0
 30
0.0
  9
$EXTMIN
 10
431.6435164461386
 20
163.0966870358422
 30
0.0
  9
$EXTMAX
 10
435.1984105778893
 20
163.9655356813213
 30
0.0
  9
$LIMMIN
 10
0.0
 20
0.0
  9
$LIMMAX
 10
420.0
 20
297.0
  9
$ORTHOMODE
 70
     1
  9
$REGENMODE
 70
     1
  9
$FILLMODE
 70
     1
  9
$QTEXTMODE
 70
     0
  9
$MIRRTEXT
 70
     1
  9
$LTSCALE
 40
1.0
  9
$ATTMODE
 70
     1
  9
$TEXTSIZE
 40
2.5
  9
$TRACEWID
 40
1.0
  9
$TEXTSTYLE
  7
Standard
  9
$CLAYER
  8
3
  9
$CELTYPE
  6
ByLayer
  9
$CECOLOR
 62
   256
  9
$CELTSCALE
 40
1.0
  9
$DISPSILH
 70
     0
  9
$DIMSCALE
 40
1.0
  9
$DIMASZ
 40
2.5
  9
$DIMEXO
 40
0.625
  9
$DIMDLI
 40
3.75
  9
$DIMRND
 40
0.0
  9
$DIMDLE
 40
0.0
  9
$DIMEXE
 40
1.25
  9
$DIMTP
 40
0.0
  9
$DIMTM
 40
0.0
  9
$DIMTXT
 40
2.5
  9
$DIMCEN
 40
2.5
  9
$DIMTSZ
 40
0.0
  9
$DIMTOL
 70
     0
  9
$DIMLIM
 70
     0
  9
$DIMTIH
 70
     0
  9
$DIMTOH
 70
     0
  9
$DIMSE1
 70
     0
  9
$DIMSE2
 70
     0
  9
$DIMTAD
 70
     1
  9
$DIMZIN
 70
     8
  9
$DIMBLK
  1

  9
$DIMASO
 70
     1
  9
$DIMSHO
 70
     1
  9
$DIMPOST
  1

  9
$DIMAPOST
  1

  9
$DIMALT
 70
     0
  9
$DIMALTD
 70
     3
  9
$DIMALTF
 40
0.03937007874016
  9
$DIMLFAC
 40
1.0
  9
$DIMTOFL
 70
     1
  9
$DIMTVP
 40
0.0
  9
$DIMTIX
 70
     0
  9
$DIMSOXD
 70
     0
  9
$DIMSAH
 70
     0
  9
$DIMBLK1
  1

  9
$DIMBLK2
  1

  9
$DIMSTYLE
  2
ISO-25
  9
$DIMCLRD
 70
     0
  9
$DIMCLRE
 70
     0
  9
$DIMCLRT
 70
     0
  9
$DIMTFAC
 40
1.0
  9
$DIMGAP
 40
0.625
  9
$DIMJUST
 70
     0
  9
$DIMSD1
 70
     0
  9
$DIMSD2
 70
     0
  9
$DIMTOLJ
 70
     0
  9
$DIMTZIN
 70
     8
  9
$DIMALTZ
 70
     0
  9
$DIMALTTZ
 70
     0
  9
$DIMUPT
 70
     0
  9
$DIMDEC
 70
     2
  9
$DIMTDEC
 70
     2
  9
$DIMALTU
 70
     2
  9
$DIMALTTD
 70
     3
  9
$DIMTXSTY
  7
Standard
  9
$DIMAUNIT
 70
     0
  9
$DIMADEC
 70
     0
  9
$DIMALTRND
 40
0.0
  9
$DIMAZIN
 70
     0
  9
$DIMDSEP
 70
    44
  9
$DIMATFIT
 70
     3
  9
$DIMFRAC
 70
     0
  9
$DIMLDRBLK
  1

  9
$DIMLUNIT
 70
     2
  9
$DIMLWD
 70
    -2
  9
$DIMLWE
 70
    -2
  9
$DIMTMOVE
 70
     0
  9
$LUNITS
 70
     2
  9
$LUPREC
 70
     4
  9
$SKETCHINC
 40
1.0
  9
$FILLETRAD
 40
0.0
  9
$AUNITS
 70
     0
  9
$AUPREC
 70
     0
  9
$MENU
  1
.
  9
$ELEVATION
 40
0.0
  9
$PELEVATION
 40
0.0
  9
$THICKNESS
 40
0.0
  9
$LIMCHECK
 70
     0
  9
$CHAMFERA
 40
10.0
  9
$CHAMFERB
 40
10.0
  9
$CHAMFERC
 40
20.0
  9
$CHAMFERD
 40
0.0
  9
$SKPOLY
 70
     0
  9
$TDCREATE
 40
2452843.634037720
  9
$TDUCREATE
 40
2452843.592371053
  9
$TDUPDATE
 40
2456146.585325150
  9
$TDUUPDATE
 40
2456146.543658484
  9
$TDINDWG
 40
0.0837630208
  9
$TDUSRTIMER
 40
0.0837630208
  9
$USRTIMER
 70
     1
  9
$ANGBASE
 50
0.0
  9
$ANGDIR
 70
     0
  9
$PDMODE
 70
     0
  9
$PDSIZE
 40
0.0
  9
$PLINEWID
 40
0.0
  9
$SPLFRAME
 70
     0
  9
$SPLINETYPE
 70
     6
  9
$SPLINESEGS
 70
     8
  9
$HANDSEED
  5
107C
  9
$SURFTAB1
 70
     6
  9
$SURFTAB2
 70
     6
  9
$SURFTYPE
 70
     6
  9
$SURFU
 70
     6
  9
$SURFV
 70
     6
  9
$UCSBASE
  2

  9
$UCSNAME
  2

  9
$UCSORG
 10
0.0
 20
0.0
 30
0.0
  9
$UCSXDIR
 10
1.0
 20
0.0
 30
0.0
  9
$UCSYDIR
 10
0.0
 20
1.0
 30
0.0
  9
$UCSORTHOREF
  2

  9
$UCSORTHOVIEW
 70
     0
  9
$UCSORGTOP
 10
0.0
 20
0.0
 30
0.0
  9
$UCSORGBOTTOM
 10
0.0
 20
0.0
 30
0.0
  9
$UCSORGLEFT
 10
0.0
 20
0.0
 30
0.0
  9
$UCSORGRIGHT
 10
0.0
 20
0.0
 30
0.0
  9
$UCSORGFRONT
 10
0.0
 20
0.0
 30
0.0
  9
$UCSORGBACK
 10
0.0
 20
0.0
 30
0.0
  9
$PUCSBASE
  2

  9
$PUCSNAME
  2

  9
$PUCSORG
 10
0.0
 20
0.0
 30
0.0
  9
$PUCSXDIR
 10
1.0
 20
0.0
 30
0.0
  9
$PUCSYDIR
 10
0.0
 20
1.0
 30
0.0
  9
$PUCSORTHOREF
  2

  9
$PUCSORTHOVIEW
 70
     0
  9
$PUCSORGTOP
 10
0.0
 20
0.0
 30
0.0
  9
$PUCSORGBOTTOM
 10
0.0
 20
0.0
 30
0.0
  9
$PUCSORGLEFT
 10
0.0
 20
0.0
 30
0.0
  9
$PUCSORGRIGHT
 10
0.0
 20
0.0
 30
0.0
  9
$PUCSORGFRONT
 10
0.0
 20
0.0
 30
0.0
  9
$PUCSORGBACK
 10
0.0
 20
0.0
 30
0.0
  9
$USERI1
 70
     0
  9
$USERI2
 70
     0
  9
$USERI3
 70
     0
  9
$USERI4
 70
     0
  9
$USERI5
 70
     0
  9
$USERR1
 40
0.0
  9
$USERR2
 40
0.0
  9
$USERR3
 40
0.0
  9
$USERR4
 40
0.0
  9
$USERR5
 40
0.0
  9
$WORLDVIEW
 70
     1
  9
$SHADEDGE
 70
     3
  9
$SHADEDIF
 70
    70
  9
$TILEMODE
 70
     1
  9
$MAXACTVP
 70
    64
  9
$PINSBASE
 10
0.0
 20
0.0
 30
0.0
  9
$PLIMCHECK
 70
     0
  9
$PEXTMIN
 10
1.000000000000000E+20
 20
1.000000000000000E+20
 30
1.000000000000000E+20
  9
$PEXTMAX
 10
-1.000000000000000E+20
 20
-1.000000000000000E+20
 30
-1.000000000000000E+20
  9
$PLIMMIN
 10
0.0
 20
0.0
  9
$PLIMMAX
 10
420.0
 20
297.0
  9
$UNITMODE
 70
     0
  9
$VISRETAIN
 70
     1
  9
$PLINEGEN
 70
     0
  9
$PSLTSCALE
 70
     1
  9
$TREEDEPTH
 70
  3020
  9
$CMLSTYLE
  2
Standard
  9
$CMLJUST
 70
     0
  9
$CMLSCALE
 40
20.0
  9
$PROXYGRAPHICS
 70
     1
  9
$MEASUREMENT
 70
     1
  9
$CELWEIGHT
370
    -1
  9
$ENDCAPS
280
     0
  9
$JOINSTYLE
280
     0
  9
$LWDISPLAY
290
     0
  9
$INSUNITS
 70
     4
  9
$HYPERLINKBASE
  1

  9
$STYLESHEET
  1

  9
$XEDIT
290
     1
  9
$CEPSNTYPE
380
     0
  9
$PSTYLEMODE
290
     1
  9
$FINGERPRINTGUID
  2
{4C83BF36-8C5F-41C1-A2C5-9DEA2F54E585}
  9
$VERSIONGUID
  2
{0340535D-51A6-4BEE-BB2A-89B0DEAF371E}
  9
$EXTNAMES
290
     1
  9
$PSVPSCALE
 40
0.0
  9
$OLESTARTUP
290
     0
  0
ENDSEC
  0
SECTION
  2
CLASSES
  0
CLASS
  1
ACDBDICTIONARYWDFLT
  2
AcDbDictionaryWithDefault
  3
ObjectDBX Classes
 90
        0
280
     0
281
     0
  0
CLASS
  1
ACDBPLACEHOLDER
  2
AcDbPlaceHolder
  3
ObjectDBX Classes
 90
        0
280
     0
281
     0
  0
CLASS
  1
LAYOUT
  2
AcDbLayout
  3
ObjectDBX Classes
 90
        0
280
     0
281
     0
  0
CLASS
  1
DIMASSOC
  2
AcDbDimAssoc
  3
"AcDbDimAssoc|Product Desc:     AcDim ARX App For Dimension|Company:          Autodesk, Inc.|WEB Address:      www.autodesk.com"
 90
    32768
280
     0
281
     0
  0
CLASS
  1
DICTIONARYVAR
  2
AcDbDictionaryVar
  3
ObjectDBX Classes
 90
        0
280
     0
281
     0
  0
CLASS
  1
MATERIAL
  2
AcDbMaterial
  3
ObjectDBX Classes
 90
     1153
280
     0
281
     0
  0
CLASS
  1
VISUALSTYLE
  2
AcDbVisualStyle
  3
ObjectDBX Classes
 90
     4095
280
     0
281
     0
  0
CLASS
  1
TABLESTYLE
  2
AcDbTableStyle
  3
ObjectDBX Classes
 90
     4095
280
     0
281
     0
  0
CLASS
  1
SCALE
  2
AcDbScale
  3
ObjectDBX Classes
 90
     1153
280
     0
281
     0
  0
CLASS
  1
MLEADERSTYLE
  2
AcDbMLeaderStyle
  3
ACDB_MLEADERSTYLE_CLASS
 90
     4095
280
     0
281
     0
  0
CLASS
  1
CELLSTYLEMAP
  2
AcDbCellStyleMap
  3
ObjectDBX Classes
 90
     1152
280
     0
281
     0
  0
ENDSEC
  0
SECTION
  2
TABLES
  0
TABLE
  2
VPORT
  5
8
330
0
100
AcDbSymbolTable
 70
     1
  0
VPORT
  5
FE9
330
8
100
AcDbSymbolTableRecord
100
AcDbViewportTableRecord
  2
*Active
 70
     0
 10
0.0
 20
0.0
 11
1.0
 21
1.0
 12
433.4574598076927
 22
163.7093747314613
 13
0.0
 23
0.0
 14
10.0
 24
10.0
 15
10.0
 25
10.0
 16
0.0
 26
0.0
 36
1.0
 17
0.0
 27
0.0
 37
0.0
 40
3.160994668134151
 41
1.645464025026068
 42
50.0
 43
0.0
 44
0.0
 50
0.0
 51
0.0
 71
     0
 72
   100
 73
     1
 74
     3
 75
     0
 76
     0
 77
     0
 78
     0
281
     0
 65
     1
110
0.0
120
0.0
130
0.0
111
1.0
121
0.0
131
0.0
112
0.0
122
1.0
132
0.0
 79
     0
146
0.0
  0
ENDTAB
  0
TABLE
  2
LTYPE
  5
5
330
0
100
AcDbSymbolTable
 70
     3
  0
LTYPE
  5
14
330
5
100
AcDbSymbolTableRecord
100
AcDbLinetypeTableRecord
  2
ByBlock
 70
     0
  3

 72
    65
 73
     0
 40
0.0
  0
LTYPE
  5
15
330
5
100
AcDbSymbolTableRecord
100
AcDbLinetypeTableRecord
  2
ByLayer
 70
     0
  3

 72
    65
 73
     0
 40
0.0
  0
LTYPE
  5
16
330
5
100
AcDbSymbolTableRecord
100
AcDbLinetypeTableRecord
  2
Continuous
 70
     0
  3
Solid line
 72
    65
 73
     0
 40
0.0
  0
LTYPE
  5
67
330
5
100
AcDbSymbolTableRecord
100
AcDbLinetypeTableRecord
  2
HIDDEN
 70
     0
  3
Hidden __ __ __ __ __ __ __ __ __ __ __ __ __ _
 72
    65
 73
     2
 40
9.524999999999998
 49
6.349999999999999
 74
     0
 49
-3.174999999999999
 74
     0
  0
LTYPE
  5
68
330
5
100
AcDbSymbolTableRecord
100
AcDbLinetypeTableRecord
  2
CENTER
 70
     0
  3
Center ____ _ ____ _ ____ _ ____ _ ____ _ ____
 72
    65
 73
     4
 40
10.16
 49
6.349999999999999
 74
     0
 49
-1.27
 74
     0
 49
1.27
 74
     0
 49
-1.27
 74
     0
  0
ENDTAB
  0
TABLE
  2
LAYER
  5
2
330
0
100
AcDbSymbolTable
 70
     9
  0
LAYER
  5
10
102
{ACAD_XDICTIONARY
360
1031
102
}
330
2
100
AcDbSymbolTableRecord
100
AcDbLayerTableRecord
  2
0
 70
     0
 62
     7
  6
Continuous
370
    -3
390
F
  0
LAYER
  5
69
102
{ACAD_XDICTIONARY
360
1033
102
}
330
2
100
AcDbSymbolTableRecord
100
AcDbLayerTableRecord
  2
3
 70
     0
 62
     3
  6
Continuous
370
    -3
390
F
  0
LAYER
  5
6A
330
2
100
AcDbSymbolTableRecord
100
AcDbLayerTableRecord
  2
Defpoints
 70
     0
 62
     7
  6
Continuous
290
     0
370
    -3
390
F
  0
LAYER
  5
6B
102
{ACAD_XDICTIONARY
360
1035
102
}
330
2
100
AcDbSymbolTableRecord
100
AcDbLayerTableRecord
  2
9
 70
     0
 62
     9
  6
Continuous
370
    -3
390
F
  0
LAYER
  5
6C
102
{ACAD_XDICTIONARY
360
1037
102
}
330
2
100
AcDbSymbolTableRecord
100
AcDbLayerTableRecord
  2
COTAS
 70
     0
 62
     1
  6
Continuous
370
    -3
390
F
  0
LAYER
  5
6D
102
{ACAD_XDICTIONARY
360
1039
102
}
330
2
100
AcDbSymbolTableRecord
100
AcDbLayerTableRecord
  2
INDUSA HID
 70
     0
 62
     9
  6
HIDDEN
370
    -3
390
F
  0
LAYER
  5
6E
102
{ACAD_XDICTIONARY
360
103B
102
}
330
2
100
AcDbSymbolTableRecord
100
AcDbLayerTableRecord
  2
INDUSA CEN
 70
     0
 62
     9
  6
CENTER
370
    -3
390
F
  0
LAYER
  5
426
102
{ACAD_XDICTIONARY
360
103D
102
}
330
2
100
AcDbSymbolTableRecord
100
AcDbLayerTableRecord
  2
hatch
 70
     0
 62
     9
  6
Continuous
370
    -3
390
F
  0
LAYER
  5
427
102
{ACAD_XDICTIONARY
360
103F
102
}
330
2
100
AcDbSymbolTableRecord
100
AcDbLayerTableRecord
  2
INDUSA
 70
     0
 62
     1
  6
Continuous
370
    -3
390
F
  0
ENDTAB
  0
TABLE
  2
STYLE
  5
3
330
0
100
AcDbSymbolTable
 70
     2
  0
STYLE
  5
11
330
3
100
AcDbSymbolTableRecord
100
AcDbTextStyleTableRecord
  2
Standard
 70
     0
 40
0.0
 41
1.0
 50
0.0
 71
     0
 42
2.5
  3
txt
  4

  0
STYLE
  5
6F
330
3
100
AcDbSymbolTableRecord
100
AcDbTextStyleTableRecord
  2
SANINDUSA
 70
     0
 40
0.0
 41
1.0
 50
0.0
 71
     0
 42
2.5
  3
simplex.shx
  4

  0
ENDTAB
  0
TABLE
  2
VIEW
  5
6
330
0
100
AcDbSymbolTable
 70
     0
  0
ENDTAB
  0
TABLE
  2
UCS
  5
7
330
0
100
AcDbSymbolTable
 70
     0
  0
ENDTAB
  0
TABLE
  2
APPID
  5
9
330
0
100
AcDbSymbolTable
 70
     3
  0
APPID
  5
12
330
9
100
AcDbSymbolTableRecord
100
AcDbRegAppTableRecord
  2
ACAD
 70
     0
  0
APPID
  5
75A
330
9
100
AcDbSymbolTableRecord
100
AcDbRegAppTableRecord
  2
DCO15
 70
     0
  0
APPID
  5
107B
330
9
100
AcDbSymbolTableRecord
100
AcDbRegAppTableRecord
  2
ACAD_MLEADERVER
 70
     0
  0
ENDTAB
  0
TABLE
  2
DIMSTYLE
  5
A
330
0
100
AcDbSymbolTable
 70
     3
100
AcDbDimStyleTable
 71
     1
340
27
  0
DIMSTYLE
105
27
330
A
100
AcDbSymbolTableRecord
100
AcDbDimStyleTableRecord
  2
ISO-25
 70
     0
 41
2.5
 42
0.625
 43
3.75
 44
1.25
 73
     0
 74
     0
 77
     1
 78
     8
140
2.5
141
2.5
143
0.03937007874016
147
0.625
171
     3
172
     1
271
     2
272
     2
274
     3
278
    44
283
     0
284
     8
340
11
  0
DIMSTYLE
105
70
330
A
100
AcDbSymbolTableRecord
100
AcDbDimStyleTableRecord
  2
SANINDUSA
 70
     0
 41
3.0
 42
1.0
 43
1.0
 44
1.0
 73
     0
 74
     0
 77
     1
 78
     8
140
2.0
141
0.0
143
0.03937007874016
147
1.0
171
     3
172
     1
176
     1
177
     1
178
     1
179
     1
271
     1
272
     1
274
     3
278
    44
283
     0
284
     8
340
6F
371
    -1
372
    -1
  0
DIMSTYLE
105
765
330
A
100
AcDbSymbolTableRecord
100
AcDbDimStyleTableRecord
  2
STANDARD
 70
     0
289
     0
340
11
  0
ENDTAB
  0
TABLE
  2
BLOCK_RECORD
  5
1
330
0
100
AcDbSymbolTable
 70
     1
  0
BLOCK_RECORD
  5
1F
330
1
100
AcDbSymbolTableRecord
100
AcDbBlockTableRecord
  2
*Model_Space
340
22
  0
BLOCK_RECORD
  5
1B
330
1
100
AcDbSymbolTableRecord
100
AcDbBlockTableRecord
  2
*Paper_Space
340
1E
  0
BLOCK_RECORD
  5
23
330
1
100
AcDbSymbolTableRecord
100
AcDbBlockTableRecord
  2
*Paper_Space0
340
26
  0
ENDTAB
  0
ENDSEC
  0
SECTION
  2
BLOCKS
  0
BLOCK
  5
20
330
1F
100
AcDbEntity
  8
0
100
AcDbBlockBegin
  2
*Model_Space
 70
     0
 10
0.0
 20
0.0
 30
0.0
  3
*Model_Space
  1

  0
ENDBLK
  5
21
330
1F
100
AcDbEntity
  8
0
100
AcDbBlockEnd
  0
BLOCK
  5
1C
330
1B
100
AcDbEntity
 67
     1
  8
0
100
AcDbBlockBegin
  2
*Paper_Space
 70
     0
 10
0.0
 20
0.0
 30
0.0
  3
*Paper_Space
  1

  0
ENDBLK
  5
1D
330
1B
100
AcDbEntity
 67
     1
  8
0
100
AcDbBlockEnd
  0
BLOCK
  5
24
330
23
100
AcDbEntity
 67
     1
  8
0
100
AcDbBlockBegin
  2
*Paper_Space0
 70
     0
 10
0.0
 20
0.0
 30
0.0
  3
*Paper_Space0
  1

  0
ENDBLK
  5
25
330
23
100
AcDbEntity
 67
     1
  8
0
100
AcDbBlockEnd
  0
ENDSEC
  0
SECTION
  2
ENTITIES
  0
ARC
  5
1E1
330
1F
100
AcDbEntity
  8
3
  6
Continuous
100
AcDbCircle
 10
431.9882362275757
 20
163.1308146656856
 30
0.0
 40
0.5712500000000008
100
AcDbArc
 50
69.74980011148545
 51
110.2501998885145
  0
LWPOLYLINE
  5
1E3
330
1F
100
AcDbEntity
  8
3
  6
Continuous
100
AcDbPolyline
 90
       10
 70
   128
 43
0.0
 10
431.9882362275757
 20
163.8288487417423
 10
431.9616129934138
 20
163.8283904568383
 10
431.9350606395499
 20
163.8270470188315
 10
431.908589687277
 20
163.8248654492549
 10
431.8822060941472
 20
163.8218911627301
 10
431.8559101618227
 20
163.8181683972125
 10
431.8231958956808
 20
163.8125350809133
 10
431.7907395569331
 20
163.8059145438118
 10
431.758516377563
 20
163.7984021120556
 10
431.7264910676863
 20
163.7900902166316
  0
LINE
  5
1E5
330
1F
100
AcDbEntity
  8
3
  6
Continuous
100
AcDbLine
 10
431.9882362275757
 20
163.8520646656856
 30
0.0
 11
431.7244215518797
 21
163.8520646656856
 31
0.0
  0
LWPOLYLINE
  5
1E7
330
1F
100
AcDbEntity
  8
3
  6
Continuous
100
AcDbPolyline
 90
        9
 70
   128
 43
0.0
 10
431.9882362275757
 20
163.3449091618089
 10
431.9480376237893
 20
163.3479285612849
 10
431.9279456170582
 20
163.3496309609351
 10
431.9078753393768
 20
163.3515920280549
 10
431.8778852373753
 20
163.3552472898383
 10
431.8629253296895
 20
163.3575065593181
 10
431.8480190853247
 20
163.3600978218291
 10
431.8182436757807
 20
163.3663315370094
 10
431.7887199800107
 20
163.3739250610026
  0
LWPOLYLINE
  5
1EA
330
1F
100
AcDbEntity
  8
3
  6
Continuous
100
AcDbPolyline
 90
        9
 70
   128
 43
0.0
 10
431.9882362275757
 20
163.294194080877
 10
431.9558486490024
 20
163.2947554499598
 10
431.9235061615836
 20
163.2965542569695
 10
431.8909897167432
 20
163.2996193498881
 10
431.8586155649782
 20
163.3039356039987
 10
431.8260408454769
 20
163.3095731652843
 10
431.7937109304406
 20
163.3164776794499
 10
431.7614560605432
 20
163.3246999338844
 10
431.7294509072649
 20
163.3342153612935
  0
LWPOLYLINE
  5
1ED
330
1F
100
AcDbEntity
  8
3
  6
Continuous
100
AcDbPolyline
 90
        7
 70
   128
 43
0.0
 10
431.7260944744979
 20
163.3374947960536
 10
431.709378680543
 20
163.4198746343384
 10
431.6929978864799
 20
163.5023376875157
 10
431.6803974637866
 20
163.5669655403844
 10
431.6679860412874
 20
163.6316215729743
 10
431.6557387253642
 20
163.6963099588613
 10
431.6436190017952
 20
163.7609941085127
  0
LWPOLYLINE
  5
1EE
330
1F
100
AcDbEntity
  8
3
  6
Continuous
100
AcDbPolyline
 90
        7
 70
   128
 43
0.0
 10
431.7617846834845
 20
163.4313434945713
 10
431.7652259927283
 20
163.4636438871889
 10
431.7668164851744
 20
163.4798137539284
 10
431.7683406919475
 20
163.4959801039269
 10
431.7712483579145
 20
163.5283761560549
 10
431.7766947791364
 20
163.5927521488983
 10
431.7819899849023
 20
163.6571318360688
  0
LWPOLYLINE
  5
1F5
330
1F
100
AcDbEntity
  8
3
  6
Continuous
100
AcDbPolyline
 90
        9
 70
   128
 43
0.0
 10
431.7294509072649
 20
163.3342153612935
 10
431.7288744901095
 20
163.3344478793273
 10
431.7283277819233
 20
163.3347419899352
 10
431.7278192314675
 20
163.335093147968
 10
431.7273566978186
 20
163.3354959266724
 10
431.7269473289151
 20
163.3359441015556
 10
431.7265974510938
 20
163.3364307465779
 10
431.7263124713236
 20
163.3369483411867
 10
431.7260967936473
 20
163.3374888865383
  0
LWPOLYLINE
  5
1FB
330
1F
100
AcDbEntity
  8
3
  6
Continuous
100
AcDbPolyline
 90
        9
 70
   128
 43
0.0
 10
431.7797171113481
 20
163.3776458075894
 10
431.7742466908225
 20
163.3814341554463
 10
431.7693282112538
 20
163.3861787561183
 10
431.7653828590613
 20
163.3915503903024
 10
431.7623496544182
 20
163.3977207234797
 10
431.7605658503656
 20
163.4038568816748
 10
431.7597838942729
 20
163.4103754292919
 10
431.7598262245728
 20
163.414807979964
 10
431.7602831455701
 20
163.4192143259095
  0
LWPOLYLINE
  5
1FE
330
1F
100
AcDbEntity
  8
3
  6
Continuous
100
AcDbPolyline
 90
        5
 70
   128
 43
0.0
 10
431.7887199800107
 20
163.3739250610026
 10
431.7864069069307
 20
163.3746248903196
 10
431.7841334420164
 20
163.3754710463344
 10
431.7818920916405
 20
163.3764787471937
 10
431.7797171113481
 20
163.3776458075894
  0
LWPOLYLINE
  5
205
330
1F
100
AcDbEntity
  8
3
  6
Continuous
100
AcDbPolyline
 90
        5
 70
   128
 43
0.0
 10
431.7602831455701
 20
163.4192143259095
 10
431.7606814853375
 20
163.422241651557
 10
431.761064771844
 20
163.4252722247022
 10
431.7614326644667
 20
163.4283063918194
 10
431.7617846834845
 20
163.4313434945713
  0
LWPOLYLINE
  5
207
330
1F
100
AcDbEntity
  8
3
  6
Continuous
100
AcDbPolyline
 90
        5
 70
   128
 43
0.0
 10
431.717435696254
 20
163.7854993366205
 10
431.7252007821487
 20
163.7874152614675
 10
431.7329815506622
 20
163.7892686685047
 10
431.7628556017957
 20
163.7957704659567
 10
431.7929480950361
 20
163.8013378722207
  0
LWPOLYLINE
  5
208
330
1F
100
AcDbEntity
  8
3
  6
Continuous
100
AcDbPolyline
 90
        8
 70
   128
 43
0.0
 10
431.7768634993747
 20
163.663639402937
 10
431.7587588124783
 20
163.6560983344977
 10
431.7409017775593
 20
163.6479321401547
 10
431.7241879656934
 20
163.6396024775991
 10
431.7077368781733
 20
163.6307228165979
 10
431.691532575931
 20
163.6212800802395
 10
431.675628833973
 20
163.6113010270562
 10
431.6756287836978
 20
163.6113009943504
  0
LWPOLYLINE
  5
20C
330
1F
100
AcDbEntity
  8
3
  6
Continuous
100
AcDbPolyline
 90
        3
 70
   128
 43
0.0
 10
431.648584156091
 20
163.7672764968404
 10
431.6795391117941
 20
163.7770162881615
 10
431.7040710792486
 20
163.7840176499414
  0
LINE
  5
20E
330
1F
100
AcDbEntity
  8
3
  6
Continuous
100
AcDbLine
 10
431.648584156091
 20
163.7672764968404
 30
0.0
 11
431.6468362669191
 21
163.7666958857783
 31
0.0
  0
LWPOLYLINE
  5
20F
330
1F
100
AcDbEntity
  8
3
  6
Continuous
100
AcDbPolyline
 90
        9
 70
   128
 43
0.0
 10
431.6436190017952
 20
163.7609941085127
 10
431.6435164461386
 20
163.7618918098799
 10
431.6435742124661
 20
163.7627914862349
 10
431.6437904107621
 20
163.7636637017002
 10
431.6441579673866
 20
163.7644799188721
 10
431.6446648565131
 20
163.7652134325155
 10
431.6452944935933
 20
163.7658402433139
 10
431.6460262779746
 20
163.7663398430858
 10
431.6468362669191
 20
163.7666958857783
  0
LWPOLYLINE
  5
212
330
1F
100
AcDbEntity
  8
3
  6
Continuous
100
AcDbPolyline
 90
        3
 70
   128
 43
0.0
 10
431.7196197183876
 20
163.8495951150181
 10
431.7175100126017
 20
163.8377587119138
 10
431.7084678027275
 20
163.7870208004158
  0
LWPOLYLINE
  5
213
330
1F
100
AcDbEntity
  8
3
  6
Continuous
100
AcDbPolyline
 90
        4
 70
   128
 43
0.0
 10
431.7264910676863
 20
163.7900902166316
 10
431.7167969230699
 20
163.7873669460596
 10
431.7071513869127
 20
163.7844716523865
 10
431.70424390701
 20
163.7835598605783
  0
LINE
  5
214
330
1F
100
AcDbEntity
  8
3
  6
Continuous
100
AcDbLine
 10
431.7040710792485
 20
163.7840176499414
 30
0.0
 11
431.7040159074219
 21
163.7835891525458
 31
0.0
  0
LWPOLYLINE
  5
215
330
1F
100
AcDbEntity
  8
3
  6
Continuous
100
AcDbPolyline
 90
        9
 70
   128
 43
0.0
 10
431.704015907422
 20
163.7835891525458
 10
431.7040208322062
 20
163.7834965756214
 10
431.7040530650349
 20
163.7834259334302
 10
431.7041212390596
 20
163.7833555813092
 10
431.7042714144315
 20
163.7832758858131
 10
431.7048037304017
 20
163.7831771197154
 10
431.7073058545097
 20
163.7833469294424
 10
431.7123874455552
 20
163.7843029905063
 10
431.717435696254
 20
163.7854993366205
  0
LINE
  5
218
330
1F
100
AcDbEntity
  8
3
  6
Continuous
100
AcDbLine
 10
431.7043112565047
 20
163.7840831091169
 30
0.0
 11
431.7077928579892
 21
163.7850253310566
 31
0.0
  0
LWPOLYLINE
  5
219
330
1F
100
AcDbEntity
  8
3
  6
Continuous
100
AcDbPolyline
 90
        9
 70
   128
 43
0.0
 10
431.7062923191456
 20
163.7846207717501
 10
431.706696590889
 20
163.784761833832
 10
431.707076663254
 20
163.7849590118032
 10
431.7074247939898
 20
163.7852082890567
 10
431.7077338915107
 20
163.7855045876984
 10
431.7079976593564
 20
163.785841871987
 10
431.7082107244529
 20
163.7862132712847
 10
431.7083687465649
 20
163.7866112200142
 10
431.7084685067083
 20
163.7870276117748
  0
LINE
  5
21A
330
1F
100
AcDbEntity
  8
3
100
AcDbLine
 10
431.7040710792485
 20
163.7840176499414
 30
0.0
 11
431.7043112565047
 21
163.7840831091169
 31
0.0
  0
LWPOLYLINE
  5
21C
330
1F
100
AcDbEntity
  8
3
  6
Continuous
100
AcDbPolyline
 90
        9
 70
   128
 43
0.0
 10
431.7196200770839
 20
163.849597307728
 10
431.7197569163471
 20
163.8501005102243
 10
431.7199788267065
 20
163.8505724143619
 10
431.7202791030732
 20
163.8509987614135
 10
431.7206486725051
 20
163.851366669173
 10
431.7210763683493
 20
163.8516650211951
 10
431.7215492676454
 20
163.8518848026827
 10
431.7220530815967
 20
163.852019372871
 10
431.7225724140784
 20
163.8520646656856
  0
LINE
  5
21D
330
1F
100
AcDbEntity
  8
3
  6
Continuous
100
AcDbLine
 10
431.7244215518797
 20
163.8520646656856
 30
0.0
 11
431.7225867750798
 21
163.8520646656856
 31
0.0
  0
LWPOLYLINE
  5
21F
330
1F
100
AcDbEntity
  8
3
  6
Continuous
100
AcDbPolyline
 90
        4
 70
   128
 43
0.0
 10
431.7929480950361
 20
163.8013378722207
 10
431.7890575499273
 20
163.7633237068267
 10
431.7850610994091
 20
163.7242905717925
 10
431.7791330424283
 20
163.666422762658
  0
LWPOLYLINE
  5
222
330
1F
100
AcDbEntity
  8
3
  6
Continuous
100
AcDbPolyline
 90
        6
 70
   128
 43
0.0
 10
431.7819899849023
 20
163.6571318360688
 10
431.7829139335242
 20
163.6602779337571
 10
431.7847511719698
 20
163.6629508581492
 10
431.7864745340638
 20
163.6645339642174
 10
431.7884300522682
 20
163.6658094848792
 10
431.7905149889745
 20
163.666755776542
  0
LWPOLYLINE
  5
226
330
1F
100
AcDbEntity
  8
3
  6
Continuous
100
AcDbPolyline
 90
        5
 70
   128
 43
0.0
 10
431.7791330424283
 20
163.666422762658
 10
431.7788466513304
 20
163.6654286371155
 10
431.7782600384123
 20
163.6645816173213
 10
431.7773607970171
 20
163.6638775564576
 10
431.7768634993747
 20
163.663639402937
  0
LWPOLYLINE
  5
230
330
1F
100
AcDbEntity
  8
3
  6
Continuous
100
AcDbPolyline
 90
        7
 70
   128
 43
0.0
 10
432.2503779806537
 20
163.3374947960536
 10
432.2670937746085
 20
163.4198746343384
 10
432.2834745686716
 20
163.5023376875157
 10
432.2960749913649
 20
163.5669655403844
 10
432.3084864138641
 20
163.6316215729743
 10
432.3207337297873
 20
163.6963099588613
 10
432.3328534533563
 20
163.7609941085127
  0
LWPOLYLINE
  5
232
330
1F
100
AcDbEntity
  8
3
  6
Continuous
100
AcDbPolyline
 90
        7
 70
   128
 43
0.0
 10
432.214687771667
 20
163.4313434945713
 10
432.2112464624233
 20
163.4636438871889
 10
432.2096559699772
 20
163.4798137539284
 10
432.208131763204
 20
163.4959801039269
 10
432.2052240972371
 20
163.5283761560549
 10
432.1997776760152
 20
163.5927521488983
 10
432.1944824702491
 20
163.6571318360688
  0
LWPOLYLINE
  5
23A
330
1F
100
AcDbEntity
  8
3
  6
Continuous
100
AcDbPolyline
 90
        9
 70
   128
 43
0.0
 10
431.9882362275757
 20
163.294194080877
 10
432.0206830615482
 20
163.294757333353
 10
432.0532201885799
 20
163.2965735282126
 10
432.0856634289707
 20
163.2996396870941
 10
432.1182231888396
 20
163.3039919778214
 10
432.1505897291087
 20
163.3096034845847
 10
432.1829631228975
 20
163.316525149958
 10
432.2150412718906
 20
163.3247067995162
 10
432.2470215478866
 20
163.3342153612935
  0
LWPOLYLINE
  5
23D
330
1F
100
AcDbEntity
  8
3
  6
Continuous
100
AcDbPolyline
 90
        9
 70
   128
 43
0.0
 10
431.9882362275757
 20
163.3449091618089
 10
432.0284348313623
 20
163.3479285612849
 10
432.0485268380933
 20
163.3496309609351
 10
432.0685971157748
 20
163.3515920280549
 10
432.0886180169535
 20
163.353923089008
 10
432.1085814158896
 20
163.3567289106715
 10
432.1284533698268
 20
163.3600978218291
 10
432.1582593310989
 20
163.3663387174763
 10
432.1877524751408
 20
163.3739250610026
  0
LWPOLYLINE
  5
242
330
1F
100
AcDbEntity
  8
3
  6
Continuous
100
AcDbPolyline
 90
       15
 70
   128
 43
0.0
 10
432.1967553438035
 20
163.3776458075894
 10
432.1995553883544
 20
163.3794274862662
 10
432.2022102301063
 20
163.3814214943682
 10
432.2046992117022
 20
163.383620865267
 10
432.2071442438977
 20
163.3861787561183
 10
432.2092247752699
 20
163.3887699938352
 10
432.2110895960902
 20
163.3915503903024
 10
432.212683114568
 20
163.3944394971959
 10
432.2141228007334
 20
163.3977207234797
 10
432.2151389691322
 20
163.4007412958619
 10
432.2159066047859
 20
163.4038568816748
 10
432.2164134766001
 20
163.4069794582654
 10
432.2166885608786
 20
163.4103754292919
 10
432.2165412602497
 20
163.4162490843113
 10
432.2161893095814
 20
163.4192143259095
  0
LWPOLYLINE
  5
245
330
1F
100
AcDbEntity
  8
3
  6
Continuous
100
AcDbPolyline
 90
        3
 70
   128
 43
0.0
 10
432.1877524751408
 20
163.3739250610026
 10
432.192339013135
 20
163.3754710463344
 10
432.1967553438035
 20
163.3776458075894
  0
LWPOLYLINE
  5
24C
330
1F
100
AcDbEntity
  8
3
  6
Continuous
100
AcDbPolyline
 90
        5
 70
   128
 43
0.0
 10
432.2161893095814
 20
163.4192143259095
 10
432.215790969814
 20
163.422241651557
 10
432.2154076833075
 20
163.4252722247022
 10
432.2150397906848
 20
163.4283063918194
 10
432.214687771667
 20
163.4313434945713
  0
LWPOLYLINE
  5
24E
330
1F
100
AcDbEntity
  8
3
  6
Continuous
100
AcDbPolyline
 90
        9
 70
   128
 43
0.0
 10
432.2470215478866
 20
163.3342153612935
 10
432.247597965042
 20
163.3344478793273
 10
432.2481446732282
 20
163.3347419899352
 10
432.248653223684
 20
163.335093147968
 10
432.2491157573328
 20
163.3354959266724
 10
432.2495251262364
 20
163.3359441015556
 10
432.2498750040578
 20
163.3364307465779
 10
432.2501599838278
 20
163.3369483411867
 10
432.2503756615042
 20
163.3374888865383
  0
LWPOLYLINE
  5
253
330
1F
100
AcDbEntity
  8
3
  6
Continuous
100
AcDbPolyline
 90
       10
 70
   128
 43
0.0
 10
431.9882362275757
 20
163.8288487417423
 10
432.0148594617378
 20
163.8283904568383
 10
432.0414118156016
 20
163.8270470188315
 10
432.0678827678746
 20
163.8248654492549
 10
432.0942663610043
 20
163.8218911627301
 10
432.1205622933289
 20
163.8181683972125
 10
432.1532765594707
 20
163.8125350809133
 10
432.1857328982183
 20
163.8059145438118
 10
432.2179560775885
 20
163.7984021120556
 10
432.2499813874652
 20
163.7900902166316
  0
LINE
  5
254
330
1F
100
AcDbEntity
  8
3
  6
Continuous
100
AcDbLine
 10
431.9882362275757
 20
163.8520646656856
 30
0.0
 11
432.2520509032718
 21
163.8520646656856
 31
0.0
  0
LWPOLYLINE
  5
256
330
1F
100
AcDbEntity
  8
3
  6
Continuous
100
AcDbPolyline
 90
        4
 70
   128
 43
0.0
 10
432.2590367588976
 20
163.7854993366205
 10
432.2434909044893
 20
163.7892686685047
 10
432.2136168533559
 20
163.7957704659567
 10
432.1835243601154
 20
163.8013378722207
  0
LWPOLYLINE
  5
258
330
1F
100
AcDbEntity
  8
3
  6
Continuous
100
AcDbPolyline
 90
        8
 70
   128
 43
0.0
 10
432.1996089557768
 20
163.663639402937
 10
432.217724143866
 20
163.6560936404242
 10
432.2355706775923
 20
163.6479321401547
 10
432.2522932652421
 20
163.6395978327077
 10
432.2687355769781
 20
163.6307228165979
 10
432.2849484435543
 20
163.6212748036217
 10
432.3008436211786
 20
163.6113010270562
 10
432.3008436714537
 20
163.6113009943504
  0
LWPOLYLINE
  5
261
330
1F
100
AcDbEntity
  8
3
  6
Continuous
100
AcDbPolyline
 90
       11
 70
   128
 43
0.0
 10
431.9882362275757
 20
163.6160646656856
 10
431.984334072551
 20
163.6163933349935
 10
431.9805417462872
 20
163.6173600500011
 10
431.976970507686
 20
163.6189435858253
 10
431.9737123573141
 20
163.6210901645389
 10
431.9708336711356
 20
163.6237755110446
 10
431.9684403008469
 20
163.6269008872231
 10
431.966589954392
 20
163.6304226684568
 10
431.9653545643258
 20
163.6342093424541
 10
431.9647896422124
 20
163.63801438019
 10
431.9648489287888
 20
163.6418634165312
  0
ARC
  5
263
330
1F
100
AcDbEntity
  8
3
  6
Continuous
100
AcDbCircle
 10
431.9882362275757
 20
163.6395646656857
 30
0.0
 40
0.0235000000000001
100
AcDbArc
 50
5.613603222741354
 51
174.3863967772586
  0
LWPOLYLINE
  5
268
330
1F
100
AcDbEntity
  8
3
  6
Continuous
100
AcDbPolyline
 90
       11
 70
   128
 43
0.0
 10
431.9882362275757
 20
163.6160646656856
 10
431.9921383826005
 20
163.6163933349935
 10
431.9959307088643
 20
163.6173600500011
 10
431.9995019474655
 20
163.6189435858253
 10
432.0027600978374
 20
163.6210901645389
 10
432.005638784016
 20
163.6237755110446
 10
432.0080321543046
 20
163.6269008872231
 10
432.0098825007595
 20
163.6304226684568
 10
432.0111178908257
 20
163.6342093424541
 10
432.0116828129391
 20
163.63801438019
 10
432.0116235263627
 20
163.6418634165312
  0
CIRCLE
  5
26A
330
1F
100
AcDbEntity
  8
3
  6
Continuous
100
AcDbCircle
 10
431.9882362275757
 20
163.7745646656856
 30
0.0
 40
0.0174999999999997
  0
LWPOLYLINE
  5
26D
330
1F
100
AcDbEntity
  8
3
  6
Continuous
100
AcDbPolyline
 90
        4
 70
   128
 43
0.0
 10
432.1835243601154
 20
163.8013378722207
 10
432.1874149052241
 20
163.7633237068267
 10
432.1914113557424
 20
163.7242905717925
 10
432.1973394127232
 20
163.666422762658
  0
LWPOLYLINE
  5
275
330
1F
100
AcDbEntity
  8
3
  6
Continuous
100
AcDbPolyline
 90
        6
 70
   128
 43
0.0
 10
432.1944824702491
 20
163.6571318360688
 10
432.1935585216273
 20
163.6602779337571
 10
432.1917212831817
 20
163.6629508581492
 10
432.1899979210877
 20
163.6645339642174
 10
432.1880424028833
 20
163.6658094848792
 10
432.1859574661771
 20
163.666755776542
  0
LWPOLYLINE
  5
279
330
1F
100
AcDbEntity
  8
3
  6
Continuous
100
AcDbPolyline
 90
        5
 70
   128
 43
0.0
 10
432.1973394127232
 20
163.666422762658
 10
432.1976258038211
 20
163.6654286371155
 10
432.1982124167393
 20
163.6645816173213
 10
432.1991116581344
 20
163.6638775564576
 10
432.1996089557768
 20
163.663639402937
  0
LWPOLYLINE
  5
27F
330
1F
100
AcDbEntity
  8
3
  6
Continuous
100
AcDbPolyline
 90
        3
 70
   128
 43
0.0
 10
432.3278882990606
 20
163.7672764968404
 10
432.2969333433574
 20
163.7770162881615
 10
432.2724013759029
 20
163.7840176499414
  0
LWPOLYLINE
  5
281
330
1F
100
AcDbEntity
  8
3
  6
Continuous
100
AcDbPolyline
 90
        3
 70
   128
 43
0.0
 10
432.2680049003067
 20
163.7870208466646
 10
432.2676100777366
 20
163.7892364310095
 10
432.2568525853776
 20
163.849595087175
  0
LWPOLYLINE
  5
282
330
1F
100
AcDbEntity
  8
3
  6
Continuous
100
AcDbPolyline
 90
        3
 70
   128
 43
0.0
 10
432.2499813874652
 20
163.7900902166316
 10
432.2693210682388
 20
163.7844716523865
 10
432.2722285481415
 20
163.7835598605783
  0
LWPOLYLINE
  5
283
330
1F
100
AcDbEntity
  8
3
  6
Continuous
100
AcDbPolyline
 90
        3
 70
   128
 43
0.0
 10
432.2721611986468
 20
163.7840831091169
 10
432.2722832639066
 20
163.7840498482381
 10
432.2724013759029
 20
163.7840176499414
  0
LINE
  5
284
330
1F
100
AcDbEntity
  8
3
  6
Continuous
100
AcDbLine
 10
432.2724013759029
 20
163.7840176499414
 30
0.0
 11
432.2724565477296
 21
163.7835891525458
 31
0.0
  0
LWPOLYLINE
  5
285
330
1F
100
AcDbEntity
  8
3
  6
Continuous
100
AcDbPolyline
 90
        9
 70
   128
 43
0.0
 10
432.2724565477296
 20
163.7835891525458
 10
432.2724516229453
 20
163.7834965756214
 10
432.2724193901166
 20
163.7834259334302
 10
432.272351216092
 20
163.7833555813092
 10
432.2722010407201
 20
163.7832758858131
 10
432.2716687247498
 20
163.7831771197154
 10
432.2691666006419
 20
163.7833469294424
 10
432.2640750240292
 20
163.7842859115213
 10
432.2590367588976
 20
163.7854993366205
  0
LINE
  5
287
330
1F
100
AcDbEntity
  8
3
  6
Continuous
100
AcDbLine
 10
432.2721611986468
 20
163.7840831091169
 30
0.0
 11
432.2686795971623
 21
163.7850253310566
 31
0.0
  0
LWPOLYLINE
  5
289
330
1F
100
AcDbEntity
  8
3
  6
Continuous
100
AcDbPolyline
 90
        9
 70
   128
 43
0.0
 10
432.2680065099228
 20
163.7870123518012
 10
432.2681078237716
 20
163.7865983212785
 10
432.2682667926629
 20
163.7862028283504
 10
432.2684802074427
 20
163.7858338569551
 10
432.2687437598411
 20
163.7854988556317
 10
432.2690521294441
 20
163.7852045871557
 10
432.2693990910996
 20
163.7849569920155
 10
432.2697776405853
 20
163.7847610684908
 10
432.2701801360059
 20
163.7846207717501
  0
LWPOLYLINE
  5
28B
330
1F
100
AcDbEntity
  8
3
  6
Continuous
100
AcDbPolyline
 90
        9
 70
   128
 43
0.0
 10
432.2539000410731
 20
163.8520646656856
 10
432.2544196794717
 20
163.8520193190854
 10
432.2549237714577
 20
163.8518845907566
 10
432.2553968944241
 20
163.8516645563844
 10
432.2558247358457
 20
163.8513658722667
 10
432.2561943530173
 20
163.8509975739488
 10
432.2564945645855
 20
163.8505708028871
 10
432.2567162887981
 20
163.8500984694072
 10
432.2568528182373
 20
163.8495948621511
  0
LINE
  5
28D
330
1F
100
AcDbEntity
  8
3
100
AcDbLine
 10
432.2520509032718
 20
163.8520646656856
 30
0.0
 11
432.2539000410731
 21
163.8520646656856
 31
0.0
  0
LWPOLYLINE
  5
28E
330
1F
100
AcDbEntity
  8
3
  6
Continuous
100
AcDbPolyline
 90
        9
 70
   128
 43
0.0
 10
432.3328534533563
 20
163.7609941085127
 10
432.332956009013
 20
163.7618918098799
 10
432.3328982426854
 20
163.7627914862349
 10
432.3326820443894
 20
163.7636637017002
 10
432.332314487765
 20
163.7644799188721
 10
432.3318075986384
 20
163.7652134325155
 10
432.3311779615583
 20
163.7658402433139
 10
432.3304461771769
 20
163.7663398430858
 10
432.3296361882325
 20
163.7666958857783
  0
LINE
  5
28F
330
1F
100
AcDbEntity
  8
3
  6
Continuous
100
AcDbLine
 10
432.3278882990605
 20
163.7672764968404
 30
0.0
 11
432.3296361882324
 21
163.7666958857783
 31
0.0
  0
LINE
  5
296
330
1F
100
AcDbEntity
  8
3
  6
Continuous
100
AcDbLine
 10
432.770105251107
 20
163.7715356813212
 30
0.0
 11
432.8788083271002
 21
163.7715356813212
 31
0.0
  0
LWPOLYLINE
  5
297
330
1F
100
AcDbEntity
  8
3
  6
Continuous
100
AcDbPolyline
 90
        9
 70
   128
 43
0.0
 10
432.8788083271003
 20
163.9392697902513
 10
432.846420748527
 20
163.9391642887221
 10
432.8140782611082
 20
163.939069840034
 10
432.7815618162676
 20
163.9389865300699
 10
432.7491876645027
 20
163.938915460404
 10
432.7166129450014
 20
163.9388563636091
 10
432.6842830299651
 20
163.938810512493
 10
432.6520281600677
 20
163.9387780483328
 10
432.6200230067894
 20
163.9387595529309
  0
LINE
  5
298
330
1F
100
AcDbEntity
  8
3
  6
Continuous
100
AcDbLine
 10
432.6382287777269
 20
163.9545356813212
 30
0.0
 11
432.8788083271002
 21
163.9545356813212
 31
0.0
  0
LWPOLYLINE
  5
29A
330
1F
100
AcDbEntity
  8
3
  6
Continuous
100
AcDbPolyline
 90
       10
 70
   128
 43
0.0
 10
432.8788083271003
 20
163.9655356813211
 10
432.8521850929383
 20
163.9654249396057
 10
432.8256327390745
 20
163.9650949144821
 10
432.7991617868015
 20
163.9645490175441
 10
432.7727781936717
 20
163.9637913727283
 10
432.7464822613472
 20
163.9628257865745
 10
432.7137679952054
 20
163.961333009257
 10
432.6813116564578
 20
163.9595325089829
 10
432.6490884770875
 20
163.9574283989601
 10
432.6210068756556
 20
163.9553176687271
  0
LWPOLYLINE
  5
29D
330
1F
100
AcDbEntity
  8
3
  6
Continuous
100
AcDbPolyline
 90
       11
 70
   128
 43
0.0
 10
432.6179555822867
 20
163.9328540825198
 10
432.6325502946016
 20
163.9149745161807
 10
432.6471304331188
 20
163.8976573163006
 10
432.6616617532861
 20
163.8809110609881
 10
432.6761159848834
 20
163.8647371244568
 10
432.6904605577973
 20
163.84913911724
 10
432.7046559650991
 20
163.8341276237026
 10
432.7209631206762
 20
163.8173810671845
 10
432.7369566040237
 20
163.8014501776432
 10
432.7526284646076
 20
163.7862930779242
 10
432.7678404616992
 20
163.7719918120455
  0
LWPOLYLINE
  5
29E
330
1F
100
AcDbEntity
  8
3
  6
Continuous
100
AcDbPolyline
 90
        9
 70
   128
 43
0.0
 10
432.7173621546861
 20
163.7733451180675
 10
432.6999281214917
 20
163.7872668575015
 10
432.682730628616
 20
163.8014288109883
 10
432.6657488343443
 20
163.8158434861909
 10
432.6490084123342
 20
163.8304847705695
 10
432.6194665983916
 20
163.8574102898132
 10
432.5906940207522
 20
163.8850393145249
 10
432.5626493740069
 20
163.9133887178856
 10
432.5353893816625
 20
163.942375404342
  0
LINE
  5
2A0
330
1F
100
AcDbEntity
  8
3
  6
Continuous
100
AcDbLine
 10
432.7203860186657
 20
163.7715356813212
 30
0.0
 11
432.7693766840418
 21
163.7715356813212
 31
0.0
  0
LWPOLYLINE
  5
2A1
330
1F
100
AcDbEntity
  8
3
  6
Continuous
100
AcDbPolyline
 90
        6
 70
   128
 43
0.0
 10
432.7185173684795
 20
163.7722452299439
 10
432.7182574219996
 20
163.7725460852531
 10
432.7177890572851
 20
163.7729834366691
 10
432.7175081268126
 20
163.7732234669618
 10
432.7173733606342
 20
163.7733358274846
 10
432.7173621546861
 20
163.7733451180675
  0
LWPOLYLINE
  5
2A3
330
1F
100
AcDbEntity
  8
3
  6
Continuous
100
AcDbPolyline
 90
        9
 70
   128
 43
0.0
 10
432.7203860186657
 20
163.7715356813212
 10
432.7200237092545
 20
163.7715576397993
 10
432.7196667036854
 20
163.7716231937837
 10
432.7193202281577
 20
163.7717313836307
 10
432.7189893547218
 20
163.7718806255506
 10
432.718678927029
 20
163.7720687347932
 10
432.7183934894256
 20
163.7722929576301
 10
432.7181372204288
 20
163.7725500116662
 10
432.7178253147848
 20
163.7729495800008
  0
LINE
  5
2A7
330
1F
100
AcDbEntity
  8
3
  6
Continuous
100
AcDbLine
 10
432.7693766840418
 20
163.7715356813212
 30
0.0
 11
432.770105251107
 21
163.7715356813212
 31
0.0
  0
LWPOLYLINE
  5
2A8
330
1F
100
AcDbEntity
  8
3
  6
Continuous
100
AcDbPolyline
 90
        5
 70
   128
 43
0.0
 10
432.6233907434167
 20
163.9552021318791
 10
432.6270576514292
 20
163.954909730966
 10
432.6307530386315
 20
163.9547016100556
 10
432.6344794491089
 20
163.954577039126
 10
432.638228778016
 20
163.9545356832519
  0
LWPOLYLINE
  5
2AA
330
1F
100
AcDbEntity
  8
3
  6
Continuous
100
AcDbPolyline
 90
        7
 70
   128
 43
0.0
 10
432.6166665740224
 20
163.9378529668982
 10
432.5999507800675
 20
163.9372518890407
 10
432.5835699860045
 20
163.9377197803079
 10
432.5709695633112
 20
163.93887033636
 10
432.558558140812
 20
163.9407454700506
 10
432.5463108248888
 20
163.9433866044958
 10
432.5341911013198
 20
163.9468482653361
  0
LINE
  5
2AB
330
1F
100
AcDbEntity
  8
3
  6
Continuous
100
AcDbLine
 10
432.5662008832224
 20
163.9545356813212
 30
0.0
 11
432.5357453510459
 21
163.9545356813212
 31
0.0
  0
LWPOLYLINE
  5
2AC
330
1F
100
AcDbEntity
  8
3
  6
Continuous
100
AcDbPolyline
 90
        9
 70
   128
 43
0.0
 10
432.5353893816625
 20
163.942375404342
 10
432.5350112128125
 20
163.9428374455387
 10
432.5346913243857
 20
163.9433431284121
 10
432.5344344036685
 20
163.9438850432518
 10
432.5342442152893
 20
163.9444552494452
 10
432.5341235460555
 20
163.9450453918299
 10
432.5340741641188
 20
163.9456468231205
 10
432.5340967930666
 20
163.9462507306171
 10
432.5341911013198
 20
163.9468482653361
  0
LINE
  5
2AD
330
1F
100
AcDbEntity
  8
3
  6
Continuous
100
AcDbLine
 10
432.5341911013198
 20
163.9468482653361
 30
0.0
 11
432.5357453510459
 21
163.9545356813212
 31
0.0
  0
LINE
  5
2AE
330
1F
100
AcDbEntity
  8
3
  6
Continuous
100
AcDbLine
 10
432.5662008832224
 20
163.9545356813212
 30
0.0
 11
432.6160656041263
 21
163.9545356813212
 31
0.0
  0
LINE
  5
2B0
330
1F
100
AcDbEntity
  8
3
  6
Continuous
100
AcDbLine
 10
432.6202271926836
 20
163.9552400660329
 30
0.0
 11
432.6166688931717
 21
163.9378567120258
 31
0.0
  0
LWPOLYLINE
  5
2B4
330
1F
100
AcDbEntity
  8
3
  6
Continuous
100
AcDbPolyline
 90
        9
 70
   128
 43
0.0
 10
432.6200230067894
 20
163.9387595529309
 10
432.6194465896341
 20
163.9387646091536
 10
432.6188998814478
 20
163.9387336891307
 10
432.618391330992
 20
163.9386672706967
 10
432.6179287973432
 20
163.9385663802738
 10
432.6175194284396
 20
163.9384325770104
 10
432.6171695506183
 20
163.9382679286854
 10
432.6168845708482
 20
163.9380749797542
 10
432.6166688931718
 20
163.9378567120258
  0
LWPOLYLINE
  5
2B6
330
1F
100
AcDbEntity
  8
3
  6
Continuous
100
AcDbPolyline
 90
        9
 70
   128
 43
0.0
 10
432.6179555822867
 20
163.9328540825198
 10
432.6175113095713
 20
163.9333593765844
 10
432.6171379494219
 20
163.9339212021288
 10
432.6168423690873
 20
163.9345292254426
 10
432.6166300052043
 20
163.9351722630957
 10
432.616504763802
 20
163.9358384876355
 10
432.6164689484573
 20
163.9365156451311
 10
432.6165232179253
 20
163.9371912805609
 10
432.6166665740224
 20
163.9378529668982
  0
LINE
  5
2B7
330
1F
100
AcDbEntity
  8
3
  6
Continuous
100
AcDbLine
 10
432.6170631672108
 20
163.9550212431595
 30
0.0
 11
432.611108031218
 21
163.9545356813212
 31
0.0
  0
LWPOLYLINE
  5
2B8
330
1F
100
AcDbEntity
  8
3
  6
Continuous
100
AcDbPolyline
 90
        3
 70
   128
 43
0.0
 10
432.6160656041264
 20
163.9545356813212
 10
432.6180948936923
 20
163.9547115531155
 10
432.6202271926836
 20
163.9552400660329
  0
LWPOLYLINE
  5
2B9
330
1F
100
AcDbEntity
  8
3
  6
Continuous
100
AcDbPolyline
 90
        4
 70
   128
 43
0.0
 10
432.6233907434167
 20
163.9552021318791
 10
432.6219825690694
 20
163.9553022858654
 10
432.6209140082356
 20
163.9553191328824
 10
432.6202271926836
 20
163.9552400660329
  0
LINE
  5
2BC
330
1F
100
AcDbEntity
  8
3
  6
Continuous
100
AcDbLine
 10
432.620702668373
 20
163.9552948032395
 30
0.0
 11
432.6170631672108
 21
163.9550212431595
 31
0.0
  0
LWPOLYLINE
  5
2BF
330
1F
100
AcDbEntity
  8
3
  6
Continuous
100
AcDbPolyline
 90
        5
 70
   128
 43
0.0
 10
433.1342259107839
 20
163.9552021318791
 10
433.1305590027713
 20
163.954909730966
 10
433.1268636155691
 20
163.9547016100556
 10
433.1231372050917
 20
163.954577039126
 10
433.1193878761846
 20
163.9545356832519
  0
LWPOLYLINE
  5
2C0
330
1F
100
AcDbEntity
  8
3
  6
Continuous
100
AcDbPolyline
 90
        9
 70
   128
 43
0.0
 10
433.0402544995145
 20
163.7733451180675
 10
433.0576885327088
 20
163.7872668575015
 10
433.0748860255845
 20
163.8014288109883
 10
433.0918678198561
 20
163.8158434861909
 10
433.1086082418663
 20
163.8304847705695
 10
433.138150055809
 20
163.8574102898132
 10
433.1669226334484
 20
163.8850393145249
 10
433.1949672801937
 20
163.9133887178856
 10
433.222227272538
 20
163.942375404342
  0
LWPOLYLINE
  5
2C1
330
1F
100
AcDbEntity
  8
3
  6
Continuous
100
AcDbPolyline
 90
        9
 70
   128
 43
0.0
 10
432.8788083271003
 20
163.9392697902513
 10
432.9112551610728
 20
163.9391640034292
 10
432.9437922881045
 20
163.9390691471711
 10
432.9762355284952
 20
163.9389860975691
 10
433.0087952883642
 20
163.9389147283514
 10
433.0411618286332
 20
163.9388561048582
 10
433.0735352224222
 20
163.9388102716312
 10
433.1056133714151
 20
163.9387780285684
 10
433.1375936474112
 20
163.9387595529309
  0
LWPOLYLINE
  5
2C4
330
1F
100
AcDbEntity
  8
3
  6
Continuous
100
AcDbPolyline
 90
       13
 70
   128
 43
0.0
 10
433.1396610719139
 20
163.9328540825198
 10
433.1287214767861
 20
163.9193997406671
 10
433.1177870988891
 20
163.9062623651903
 10
433.1068557683084
 20
163.8934263993427
 10
433.0959549009144
 20
163.8809110609881
 10
433.0851123145968
 20
163.8687344001636
 10
433.0743277257735
 20
163.8568819198417
 10
433.0636003891989
 20
163.8453398668573
 10
433.0529606891014
 20
163.8341276237026
 10
433.0366611632247
 20
163.817388631059
 10
433.0206600501768
 20
163.8014501776432
 10
433.0049961354782
 20
163.7863006223696
 10
432.9897761925014
 20
163.7719918120455
  0
LWPOLYLINE
  5
2C5
330
1F
100
AcDbEntity
  8
3
  6
Continuous
100
AcDbPolyline
 90
       10
 70
   128
 43
0.0
 10
432.8788083271003
 20
163.9655356813211
 10
432.9054315612624
 20
163.9654249396057
 10
432.9319839151262
 20
163.9650949144821
 10
432.9584548673991
 20
163.9645490175441
 10
432.9848384605289
 20
163.9637913727283
 10
433.0111343928534
 20
163.9628257865745
 10
433.0438486589953
 20
163.961333009257
 10
433.0763049977429
 20
163.9595325089829
 10
433.108528177113
 20
163.9574283989601
 10
433.1365702317424
 20
163.9553206412295
  0
LINE
  5
2C8
330
1F
100
AcDbEntity
  8
3
  6
Continuous
100
AcDbLine
 10
432.9875114030936
 20
163.7715356813212
 30
0.0
 11
432.8788083271002
 21
163.7715356813212
 31
0.0
  0
LINE
  5
2CD
330
1F
100
AcDbEntity
  8
3
  6
Continuous
100
AcDbLine
 10
433.0372306355347
 20
163.7715356813212
 30
0.0
 11
432.9882399701587
 21
163.7715356813212
 31
0.0
  0
LINE
  5
2D1
330
1F
100
AcDbEntity
  8
3
  6
Continuous
100
AcDbLine
 10
432.9882399701587
 20
163.7715356813212
 30
0.0
 11
432.9875114030936
 21
163.7715356813212
 31
0.0
  0
LWPOLYLINE
  5
2D2
330
1F
100
AcDbEntity
  8
3
  6
Continuous
100
AcDbPolyline
 90
        6
 70
   128
 43
0.0
 10
433.0390992857211
 20
163.7722452299439
 10
433.039359232201
 20
163.7725460852531
 10
433.0398275969154
 20
163.7729834366691
 10
433.0401085273879
 20
163.7732234669618
 10
433.0402432935664
 20
163.7733358274846
 10
433.0402544995145
 20
163.7733451180675
  0
LWPOLYLINE
  5
2D4
330
1F
100
AcDbEntity
  8
3
  6
Continuous
100
AcDbPolyline
 90
        9
 70
   128
 43
0.0
 10
433.0372306355348
 20
163.7715356813212
 10
433.0375929449461
 20
163.7715576397993
 10
433.0379499505152
 20
163.7716231937837
 10
433.0382964260429
 20
163.7717313836307
 10
433.0386272994788
 20
163.7718806255506
 10
433.0389377271717
 20
163.7720687347932
 10
433.0392231647749
 20
163.7722929576301
 10
433.0394794337718
 20
163.7725500116662
 10
433.0397913394158
 20
163.7729495800008
  0
LINE
  5
2D5
330
1F
100
AcDbEntity
  8
3
  6
Continuous
100
AcDbLine
 10
433.1193878764737
 20
163.9545356813212
 30
0.0
 11
432.8788083271002
 21
163.9545356813212
 31
0.0
  0
LINE
  5
2D6
330
1F
100
AcDbEntity
  8
3
  6
Continuous
100
AcDbLine
 10
433.1914157709782
 20
163.9545356813212
 30
0.0
 11
433.2218713031546
 21
163.9545356813212
 31
0.0
  0
LWPOLYLINE
  5
2D8
330
1F
100
AcDbEntity
  8
3
  6
Continuous
100
AcDbPolyline
 90
        7
 70
   128
 43
0.0
 10
433.1409500801782
 20
163.9378529668982
 10
433.157665874133
 20
163.9372518890407
 10
433.1740466681962
 20
163.9377197803079
 10
433.1866470908894
 20
163.93887033636
 10
433.1990585133886
 20
163.9407454700506
 10
433.2113058293118
 20
163.9433866044958
 10
433.2234255528808
 20
163.9468482653361
  0
LINE
  5
2D9
330
1F
100
AcDbEntity
  8
3
  6
Continuous
100
AcDbLine
 10
433.1914157709782
 20
163.9545356813212
 30
0.0
 11
433.1415510500741
 21
163.9545356813212
 31
0.0
  0
LINE
  5
2DB
330
1F
100
AcDbEntity
  8
3
  6
Continuous
100
AcDbLine
 10
433.1373894615169
 20
163.9552400660329
 30
0.0
 11
433.1409477610288
 21
163.9378567120258
 31
0.0
  0
LWPOLYLINE
  5
2DF
330
1F
100
AcDbEntity
  8
3
  6
Continuous
100
AcDbPolyline
 90
        9
 70
   128
 43
0.0
 10
433.1375936474112
 20
163.9387595529309
 10
433.1381700645665
 20
163.9387646091536
 10
433.1387167727528
 20
163.9387336891307
 10
433.1392253232086
 20
163.9386672706967
 10
433.1396878568575
 20
163.9385663802738
 10
433.1400972257609
 20
163.9384325770104
 10
433.1404471035822
 20
163.9382679286854
 10
433.1407320833524
 20
163.9380749797542
 10
433.1409477610288
 20
163.9378567120258
  0
LWPOLYLINE
  5
2E1
330
1F
100
AcDbEntity
  8
3
  6
Continuous
100
AcDbPolyline
 90
        9
 70
   128
 43
0.0
 10
433.1396610719139
 20
163.9328540825198
 10
433.1401053446294
 20
163.9333593765844
 10
433.1404787047786
 20
163.9339212021288
 10
433.1407742851133
 20
163.9345292254426
 10
433.1409866489962
 20
163.9351722630957
 10
433.1411118903985
 20
163.9358384876355
 10
433.1411477057433
 20
163.9365156451311
 10
433.1410934362753
 20
163.9371912805609
 10
433.1409500801782
 20
163.9378529668982
  0
LWPOLYLINE
  5
2E4
330
1F
100
AcDbEntity
  8
3
  6
Continuous
100
AcDbPolyline
 90
        5
 70
   128
 43
0.0
 10
433.1415510500741
 20
163.9545356813212
 10
433.1405491809577
 20
163.9545796424058
 10
433.1395217605082
 20
163.9547115531155
 10
433.1384682361436
 20
163.9549316714641
 10
433.1373894615169
 20
163.9552400660329
  0
LWPOLYLINE
  5
2E5
330
1F
100
AcDbEntity
  8
3
  6
Continuous
100
AcDbPolyline
 90
       12
 70
   128
 43
0.0
 10
433.1342259107839
 20
163.9552021318791
 10
433.1347160896923
 20
163.9552438723704
 10
433.1349535521507
 20
163.9552616580065
 10
433.1351799398939
 20
163.9552769844235
 10
433.1356340851312
 20
163.9553022858654
 10
433.1360274536187
 20
163.9553170686211
 10
433.1363800907411
 20
163.9553228071499
 10
433.1367026459649
 20
163.9553191328824
 10
433.1369898780764
 20
163.9553044220837
 10
433.1371119924309
 20
163.9552928341712
 10
433.1372169797708
 20
163.9552787399284
 10
433.1373894615169
 20
163.9552400660329
  0
LWPOLYLINE
  5
2EA
330
1F
100
AcDbEntity
  8
3
  6
Continuous
100
AcDbPolyline
 90
        9
 70
   128
 43
0.0
 10
433.222227272538
 20
163.942375404342
 10
433.222605441388
 20
163.9428374455387
 10
433.2229253298149
 20
163.9433431284121
 10
433.223182250532
 20
163.9438850432518
 10
433.2233724389111
 20
163.9444552494452
 10
433.223493108145
 20
163.9450453918299
 10
433.2235424900818
 20
163.9456468231205
 10
433.223519861134
 20
163.9462507306171
 10
433.2234255528808
 20
163.9468482653361
  0
LINE
  5
2EB
330
1F
100
AcDbEntity
  8
3
  6
Continuous
100
AcDbLine
 10
433.2234255528808
 20
163.9468482653361
 30
0.0
 11
433.2218713031546
 21
163.9545356813212
 31
0.0
  0
LWPOLYLINE
  5
B9E
330
1F
100
AcDbEntity
  8
3
  6
Continuous
100
AcDbPolyline
 90
       11
 70
   128
 43
0.0
 10
433.9824903292017
 20
163.0984746251848
 10
433.9917631276938
 20
163.2020542090325
 10
434.0002832676214
 20
163.3057769603252
 10
434.0046736123788
 20
163.3632388915871
 10
434.0088310564607
 20
163.4207323065071
 10
434.0127552171481
 20
163.4782657370479
 10
434.0164448897326
 20
163.5358252412797
 10
434.0198695079262
 20
163.5928807248734
 10
434.0230633556436
 20
163.6499563246108
 10
434.0260263045774
 20
163.7070603593838
 10
434.0287577883708
 20
163.764179040932
  0
LWPOLYLINE
  5
BA1
330
1F
100
AcDbEntity
  8
3
  6
Continuous
100
AcDbPolyline
 90
       11
 70
   128
 43
0.0
 10
433.8025545370661
 20
163.7665267400656
 10
433.8025482778775
 20
163.6891053578395
 10
433.8025427756955
 20
163.6292777541069
 10
433.8025359970889
 20
163.5626752645788
 10
433.8025281781033
 20
163.4960833281378
 10
433.8025190103473
 20
163.4294932110976
 10
433.8025085856943
 20
163.3629200170214
 10
433.8024967976671
 20
163.2967962565962
 10
433.8024830618643
 20
163.2306944488424
 10
433.8024672014248
 20
163.1646066444043
 10
433.8024491939332
 20
163.098547034849
  0
LINE
  5
BA3
330
1F
100
AcDbEntity
  8
3
  6
Continuous
100
AcDbLine
 10
433.7575234724344
 20
163.7448298085828
 30
0.0
 11
433.7575234724344
 21
163.0986920469896
 31
0.0
  0
LWPOLYLINE
  5
BA4
330
1F
100
AcDbEntity
  8
3
  6
Continuous
100
AcDbPolyline
 90
       14
 70
   128
 43
0.0
 10
433.9939917943621
 20
163.1136302226361
 10
433.9971776909163
 20
163.15038188752
 10
434.0015853409674
 20
163.2032657997401
 10
434.0058242511617
 20
163.2563431333616
 10
434.0099503443175
 20
163.3103137618293
 10
434.0139235901695
 20
163.3646070794677
 10
434.0176777724353
 20
163.4183801505013
 10
434.0212221938091
 20
163.4718735542582
 10
434.0243496897167
 20
163.5215788784331
 10
434.0273388527896
 20
163.571484112045
 10
434.0301500430306
 20
163.6209213766903
 10
434.0327615893328
 20
163.6695602643215
 10
434.0352082737149
 20
163.7179819663058
 10
434.0372532541445
 20
163.76100685263
  0
LWPOLYLINE
  5
BA5
330
1F
100
AcDbEntity
  8
3
  6
Continuous
100
AcDbPolyline
 90
        7
 70
   128
 43
0.0
 10
432.7454323719742
 20
163.1035566109163
 10
432.7383029579165
 20
163.2123732414593
 10
432.7323801055296
 20
163.3212754713397
 10
432.7276445041792
 20
163.429876212343
 10
432.724108259154
 20
163.5385356828424
 10
432.7217543452073
 20
163.646251014419
 10
432.7203860186657
 20
163.7715356813212
  0
LWPOLYLINE
  5
BA6
330
1F
100
AcDbEntity
  8
3
  6
Continuous
100
AcDbPolyline
 90
        7
 70
   128
 43
0.0
 10
433.0121842822261
 20
163.1035566109162
 10
433.0193136962838
 20
163.2123732414593
 10
433.0252365486709
 20
163.3212754713397
 10
433.0299721500212
 20
163.4298762123429
 10
433.0335083950465
 20
163.5385356828424
 10
433.0358623089932
 20
163.6462510144188
 10
433.0372306355347
 20
163.7715356813212
  0
LWPOLYLINE
  5
BA7
330
1F
100
AcDbEntity
  8
3
  6
Continuous
100
AcDbPolyline
 90
       13
 70
   128
 43
0.0
 10
432.7678404616992
 20
163.7715356813211
 10
432.7682273315594
 20
163.7146896198052
 10
432.7688932410705
 20
163.6602940681799
 10
432.7698548308853
 20
163.6059045098149
 10
432.7711118338686
 20
163.5515329115168
 10
432.7727254975309
 20
163.4952258481388
 10
432.7746559024953
 20
163.4389432685537
 10
432.7769032065246
 20
163.3826772140829
 10
432.7794666922303
 20
163.3264408315216
 10
432.782323193143
 20
163.2706597948499
 10
432.7854904995404
 20
163.2149130673047
 10
432.7889688750107
 20
163.1591929373953
 10
432.7927573763672
 20
163.1035119100301
  0
LWPOLYLINE
  5
BA8
330
1F
100
AcDbEntity
  8
3
  6
Continuous
100
AcDbPolyline
 90
       13
 70
   128
 43
0.0
 10
432.9897761925015
 20
163.7715356813212
 10
432.9893893226411
 20
163.7146896198053
 10
432.9887234131302
 20
163.6602940681798
 10
432.9877618233154
 20
163.6059045098149
 10
432.986504820332
 20
163.5515329115169
 10
432.9848911566696
 20
163.4952258481388
 10
432.9829607517052
 20
163.4389432685537
 10
432.9807134476759
 20
163.3826772140829
 10
432.9781499619703
 20
163.3264408315217
 10
432.9752934610576
 20
163.2706597948499
 10
432.9721261546601
 20
163.2149130673047
 10
432.9686477791899
 20
163.1591929373952
 10
432.9648592778332
 20
163.1035119100301
  0
LINE
  5
BAE
330
1F
100
AcDbEntity
  8
3
  6
Continuous
100
AcDbLine
 10
433.8179163306539
 20
163.0966920469896
 30
0.0
 11
433.983478876447
 21
163.0966920469896
 31
0.0
  0
LINE
  5
BB0
330
1F
100
AcDbEntity
  8
3
  6
Continuous
100
AcDbLine
 10
433.7595234724345
 20
163.0966920469896
 30
0.0
 11
433.8170326726661
 21
163.0966920469896
 31
0.0
  0
ARC
  5
BB2
330
1F
100
AcDbEntity
  8
3
  6
Continuous
100
AcDbCircle
 10
433.7595234724345
 20
163.0986920469896
 30
0.0
 40
0.0020000000000009
100
AcDbArc
 50
180.0
 51
269.9999999999968
  0
LWPOLYLINE
  5
BB5
330
1F
100
AcDbEntity
  8
3
  6
Continuous
100
AcDbPolyline
 90
        9
 70
   128
 43
0.0
 10
433.8026968814272
 20
163.0966870358422
 10
433.8026505756068
 20
163.0967221236407
 10
433.8026058945557
 20
163.0968261558828
 10
433.8025644060335
 20
163.096995482306
 10
433.8025275657813
 20
163.0972241616188
 10
433.8024966664424
 20
163.0975041699679
 10
433.8024727922066
 20
163.0978256824763
 10
433.8024567807681
 20
163.0981774179781
 10
433.8024491939332
 20
163.098547034849
  0
LINE
  5
BB6
330
1F
100
AcDbEntity
  8
3
  6
Continuous
100
AcDbLine
 10
433.8170326726661
 20
163.0966920469896
 30
0.0
 11
433.8179163306539
 21
163.0966920469896
 31
0.0
  0
LINE
  5
BBA
330
1F
100
AcDbEntity
  8
3
  6
Continuous
100
AcDbLine
 10
433.9856675694152
 20
163.0966920469896
 30
0.0
 11
433.9906921539931
 21
163.0966920469896
 31
0.0
  0
LWPOLYLINE
  5
BBB
330
1F
100
AcDbEntity
  8
3
  6
Continuous
100
AcDbPolyline
 90
        6
 70
   128
 43
0.0
 10
433.9906921539931
 20
163.0966920469896
 10
433.9913541651776
 20
163.0968047894043
 10
433.9919415396228
 20
163.0971303057963
 10
433.9923880553152
 20
163.0976318966614
 10
433.9926433709972
 20
163.0982530114336
 10
433.9926844247086
 20
163.0985163842061
  0
LINE
  5
BBC
330
1F
100
AcDbEntity
  8
3
  6
Continuous
100
AcDbLine
 10
433.983478876447
 20
163.0966920469896
 30
0.0
 11
433.9856675694152
 21
163.0966920469896
 31
0.0
  0
LWPOLYLINE
  5
BBD
330
1F
100
AcDbEntity
  8
3
  6
Continuous
100
AcDbPolyline
 90
        9
 70
   128
 43
0.0
 10
433.9806840490295
 20
163.0966920469896
 10
433.9808798429378
 20
163.096710238083
 10
433.9812298655291
 20
163.0968100642798
 10
433.9815559193547
 20
163.0969727043269
 10
433.9818470317561
 20
163.0971926849142
 10
433.9820934059556
 20
163.097462603056
 10
433.9822867507456
 20
163.0977733752227
 10
433.9824205595122
 20
163.0981145430283
 10
433.9824903292017
 20
163.0984746251848
  0
LINE
  5
BC1
330
1F
100
AcDbEntity
  8
3
  6
Continuous
100
AcDbLine
 10
432.8022357026301
 20
163.1016959770978
 30
0.0
 11
432.8788083271006
 21
163.1016959770978
 31
0.0
  0
LINE
  5
BC3
330
1F
100
AcDbEntity
  8
3
  6
Continuous
100
AcDbLine
 10
432.7632695857086
 20
163.1016959770978
 30
0.0
 11
432.7997422514267
 21
163.1016959770978
 31
0.0
  0
LWPOLYLINE
  5
BC6
330
1F
100
AcDbEntity
  8
3
  6
Continuous
100
AcDbPolyline
 90
        9
 70
   128
 43
0.0
 10
432.7473980806689
 20
163.1016959770978
 10
432.7470305175114
 20
163.1017310797327
 10
432.7466758567892
 20
163.1018351554424
 10
432.746346548028
 20
163.1020045508953
 10
432.7460541508334
 20
163.1022333198647
 10
432.745808929117
 20
163.1025134319569
 10
432.7456194908075
 20
163.1028350544994
 10
432.7454924856884
 20
163.1031868976937
 10
432.7454323719742
 20
163.1035566109163
  0
LINE
  5
BC8
330
1F
100
AcDbEntity
  8
3
  6
Continuous
100
AcDbLine
 10
432.7997422514267
 20
163.1016959770978
 30
0.0
 11
432.8022357026301
 21
163.1016959770978
 31
0.0
  0
LWPOLYLINE
  5
BC9
330
1F
100
AcDbEntity
  8
3
  6
Continuous
100
AcDbPolyline
 90
        9
 70
   128
 43
0.0
 10
432.79468108441
 20
163.1016959770978
 10
432.794326041407
 20
163.1017300417326
 10
432.7939830928143
 20
163.1018310752378
 10
432.7936639210505
 20
163.101995635944
 10
432.7933793985851
 20
163.1022181181507
 10
432.7931392175719
 20
163.1024909430827
 10
432.7929515596898
 20
163.1028048170584
 10
432.7928228174355
 20
163.1031490480756
 10
432.7927573763672
 20
163.1035119100301
  0
LINE
  5
BCC
330
1F
100
AcDbEntity
  8
3
  6
Continuous
100
AcDbLine
 10
432.9553809515704
 20
163.1016959770978
 30
0.0
 11
432.8788083270999
 21
163.1016959770978
 31
0.0
  0
LINE
  5
BCF
330
1F
100
AcDbEntity
  8
3
  6
Continuous
100
AcDbLine
 10
432.9943470684924
 20
163.1016959770977
 30
0.0
 11
432.957874402774
 21
163.1016959770978
 31
0.0
  0
LINE
  5
BD1
330
1F
100
AcDbEntity
  8
3
  6
Continuous
100
AcDbLine
 10
432.957874402774
 20
163.1016959770978
 30
0.0
 11
432.9553809515704
 21
163.1016959770978
 31
0.0
  0
LWPOLYLINE
  5
BD2
330
1F
100
AcDbEntity
  8
3
  6
Continuous
100
AcDbPolyline
 90
        9
 70
   128
 43
0.0
 10
432.9629355697906
 20
163.1016959770978
 10
432.9632906127935
 20
163.1017300417326
 10
432.9636335613862
 20
163.1018310752379
 10
432.9639527331501
 20
163.101995635944
 10
432.9642372556154
 20
163.1022181181507
 10
432.9644774366285
 20
163.1024909430827
 10
432.9646650945107
 20
163.1028048170585
 10
432.9647938367649
 20
163.1031490480756
 10
432.9648592778332
 20
163.1035119100301
  0
LWPOLYLINE
  5
BD6
330
1F
100
AcDbEntity
  8
3
  6
Continuous
100
AcDbPolyline
 90
        9
 70
   128
 43
0.0
 10
433.0102185735314
 20
163.1016959770978
 10
433.010586136689
 20
163.1017310797327
 10
433.0109407974112
 20
163.1018351554424
 10
433.0112701061723
 20
163.1020045508953
 10
433.0115625033669
 20
163.1022333198646
 10
433.0118077250832
 20
163.1025134319569
 10
433.011997163393
 20
163.1028350544994
 10
433.012124168512
 20
163.1031868976937
 10
433.0121842822261
 20
163.1035566109162
  0
LWPOLYLINE
  5
BD8
330
1F
100
AcDbEntity
  8
3
  6
Continuous
100
AcDbPolyline
 90
       13
 70
   128
 43
0.0
 10
434.028131059492
 20
163.766742981676
 10
434.0571886296628
 20
163.7806923656499
 10
434.0855927175753
 20
163.7954667119753
 10
434.1134588117935
 20
163.8111110290475
 10
434.1406781103752
 20
163.8275522685044
 10
434.1582686532872
 20
163.838820188332
 10
434.1755807888607
 20
163.8504253472801
 10
434.1926396366085
 20
163.8623818891789
 10
434.2094197654334
 20
163.8746714441933
 10
434.2259893930678
 20
163.887345557437
 10
434.2422776841029
 20
163.9003508383213
 10
434.2583056241969
 20
163.9137036892205
 10
434.2740489006484
 20
163.9273855197218
  0
LINE
  5
BDB
330
1F
100
AcDbEntity
  8
3
  6
Continuous
100
AcDbLine
 10
433.9983086657628
 20
163.949503333864
 30
0.0
 11
434.2442214144067
 21
163.9494739285834
 31
0.0
  0
LWPOLYLINE
  5
BDC
330
1F
100
AcDbEntity
  8
3
  6
Continuous
100
AcDbPolyline
 90
        7
 70
   128
 43
0.0
 10
434.2721128672487
 20
163.9327878788908
 10
434.1897329576783
 20
163.9321966516951
 10
434.1072699610391
 20
163.9326744035668
 10
434.0426422462115
 20
163.9338326875555
 10
433.9779864383049
 20
163.935715552547
 10
433.9132983686967
 20
163.9383644221565
 10
433.8486146334396
 20
163.9418338176485
  0
LWPOLYLINE
  5
BDD
330
1F
100
AcDbEntity
  8
3
  6
Continuous
100
AcDbPolyline
 90
       18
 70
   128
 43
0.0
 10
434.0381080534821
 20
163.7667624394812
 10
434.0446140160017
 20
163.769696487355
 10
434.0526302212733
 20
163.7733591602431
 10
434.0615979873982
 20
163.7775198985043
 10
434.0713128481695
 20
163.782106143473
 10
434.0815365321191
 20
163.7870243554475
 10
434.0920335716295
 20
163.7921747280783
 10
434.1026063177475
 20
163.7974676570089
 10
434.1211614033027
 20
163.8070181305963
 10
434.1397289245286
 20
163.8169156834585
 10
434.1582462926007
 20
163.8271336272508
 10
434.1766515806704
 20
163.8376405048516
 10
434.2009115845351
 20
163.8520362058176
 10
434.2247225472357
 20
163.8667854286159
 10
434.2480361152858
 20
163.8818386790896
 10
434.2709214540451
 20
163.8972218258636
 10
434.2934514040276
 20
163.9129709133896
 10
434.3138856870418
 20
163.9278131533377
  0
LINE
  5
BDF
330
1F
100
AcDbEntity
  8
3
  6
Continuous
100
AcDbLine
 10
433.8012885878447
 20
163.7665267400656
 30
0.0
 11
434.024891217642
 21
163.7665000025414
 31
0.0
  0
LINE
  5
BE1
330
1F
100
AcDbEntity
  8
3
  6
Continuous
100
AcDbLine
 10
433.9983086657628
 20
163.949503333864
 30
0.0
 11
433.848114229834
 21
163.9495212935248
 31
0.0
  0
LINE
  5
BE2
330
1F
100
AcDbEntity
  8
3
  6
Continuous
100
AcDbLine
 10
433.7575441980731
 20
163.9428579139638
 30
0.0
 11
433.7575234724559
 21
163.7695321247248
 31
0.0
  0
LWPOLYLINE
  5
BE4
330
1F
100
AcDbEntity
  8
3
  6
Continuous
100
AcDbPolyline
 90
        5
 70
   128
 43
0.0
 10
433.8221652835832
 20
163.9412058883989
 10
433.8153957773015
 20
163.9030150221128
 10
433.8093166573244
 20
163.864652427748
 10
433.80389917673
 20
163.8261392885028
 10
433.7991197525873
 20
163.7875381711992
  0
LWPOLYLINE
  5
BE7
330
1F
100
AcDbEntity
  8
3
  6
Continuous
100
AcDbPolyline
 90
        9
 70
   128
 43
0.0
 10
433.8047772010124
 20
163.7683359110476
 10
433.8074932704443
 20
163.7822573258041
 10
433.810464220268
 20
163.7964189241376
 10
433.8136833039176
 20
163.8108332145179
 10
433.8171359983594
 20
163.8254740861416
 10
433.8239125111818
 20
163.852398795269
 10
433.8313640454893
 20
163.8800269291531
 10
433.8394523172396
 20
163.9083753655527
 10
433.8481132920345
 20
163.9373610165709
  0
LINE
  5
BE9
330
1F
100
AcDbEntity
  8
3
  6
Continuous
100
AcDbLine
 10
433.7605231137063
 20
163.7665317660182
 30
0.0
 11
433.8025545370661
 21
163.7665267400656
 31
0.0
  0
ARC
  5
BEC
330
1F
100
AcDbEntity
  8
3
  6
Continuous
100
AcDbCircle
 10
433.7605234724344
 20
163.7695317659966
 30
0.0
 40
0.0030000000000001
100
AcDbArc
 50
179.9931487957872
 51
269.9931487957513
  0
ARC
  5
BEE
330
1F
100
AcDbEntity
  8
3
  6
Continuous
100
AcDbCircle
 10
433.7595234724345
 20
163.7645368338134
 30
0.0
 40
0.0020000000000002
100
AcDbArc
 50
94.08561677998418
 51
180.0
  0
LWPOLYLINE
  5
BF2
330
1F
100
AcDbEntity
  8
3
  6
Continuous
100
AcDbPolyline
 90
        9
 70
   128
 43
0.0
 10
433.7991197525873
 20
163.7875381711992
 10
433.7987575688503
 20
163.7830897307021
 10
433.79879751078
 20
163.7786264110588
 10
433.7993947564184
 20
163.7742084112704
 10
433.8001277098262
 20
163.7716260979768
 10
433.8007132881537
 20
163.7702884695853
 10
433.8015200412979
 20
163.7690383622482
 10
433.802378622713
 20
163.7681930789472
 10
433.802828279821
 20
163.7679050121903
  0
LWPOLYLINE
  5
BFB
330
1F
100
AcDbEntity
  8
3
  6
Continuous
100
AcDbPolyline
 90
        4
 70
   128
 43
0.0
 10
433.8047772010124
 20
163.7683359110476
 10
433.8047638127773
 20
163.7683285777604
 10
433.8039045098128
 20
163.7680217638051
 10
433.802828279821
 20
163.7679050121903
  0
LWPOLYLINE
  5
C01
330
1F
100
AcDbEntity
  8
3
  6
Continuous
100
AcDbPolyline
 90
        3
 70
   128
 43
0.0
 10
433.8200737217398
 20
163.9488968140838
 10
433.7955785905283
 20
163.9488877162807
 10
433.7604962482243
 20
163.9488748238574
  0
LWPOLYLINE
  5
C02
330
1F
100
AcDbEntity
  8
3
  6
Continuous
100
AcDbPolyline
 90
        4
 70
   128
 43
0.0
 10
433.7979055082658
 20
163.9560988625296
 10
433.8036957151937
 20
163.9545234326139
 10
433.8112078952931
 20
163.9524184242989
 10
433.8195195028214
 20
163.9500102746118
  0
LINE
  5
C03
330
1F
100
AcDbEntity
  8
3
  6
Continuous
100
AcDbLine
 10
433.757544560314
 20
163.9458872911492
 30
0.0
 11
433.7575441980731
 21
163.9428579139638
 31
0.0
  0
LINE
  5
C06
330
1F
100
AcDbEntity
  8
3
  6
Continuous
100
AcDbLine
 10
433.7605463114642
 20
163.9605317646312
 30
0.0
 11
433.780762235263
 21
163.9605293472904
 31
0.0
  0
LINE
  5
C07
330
1F
100
AcDbEntity
  8
3
  6
Continuous
100
AcDbLine
 10
433.7575459527574
 20
163.9575321233808
 30
0.0
 11
433.757544560314
 21
163.9458872911492
 31
0.0
  0
ARC
  5
C08
330
1F
100
AcDbEntity
  8
3
  6
Continuous
100
AcDbCircle
 10
433.760545952736
 20
163.9575317646526
 30
0.0
 40
0.003
100
AcDbArc
 50
89.99314879574804
 51
179.9931487957547
  0
LWPOLYLINE
  5
C09
330
1F
100
AcDbEntity
  8
3
  6
Continuous
100
AcDbPolyline
 90
        9
 70
   128
 43
0.0
 10
433.7604962482243
 20
163.9488748238574
 10
433.7599179299011
 20
163.9488092963456
 10
433.7593631993216
 20
163.9486337646396
 10
433.7588529377627
 20
163.9483548361384
 10
433.7584063525897
 20
163.9479830103232
 10
433.7580402542489
 20
163.9475322835338
 10
433.7577684234858
 20
163.9470196221163
 10
433.757601092607
 20
163.9464643237718
 10
433.7575445603142
 20
163.9458872911494
  0
LWPOLYLINE
  5
C0B
330
1F
100
AcDbEntity
  8
3
  6
Continuous
100
AcDbPolyline
 90
        8
 70
   128
 43
0.0
 10
433.7807622352631
 20
163.9605293472904
 10
433.7812205069244
 20
163.9604185507758
 10
433.7825639054569
 20
163.9600883650116
 10
433.7847454097398
 20
163.9595422072139
 10
433.7877196056465
 20
163.95878420675
 10
433.7914422556778
 20
163.9578181754494
 10
433.7970753934364
 20
163.9563247245329
 10
433.7979055082658
 20
163.9560988625296
  0
LWPOLYLINE
  5
C11
330
1F
100
AcDbEntity
  8
3
  6
Continuous
100
AcDbPolyline
 90
        9
 70
   128
 43
0.0
 10
433.8481132920345
 20
163.937361016571
 10
433.8482124847407
 20
163.9378230459099
 10
433.8483035298668
 20
163.9383287178999
 10
433.8483850933396
 20
163.9388706229905
 10
433.8484559800194
 20
163.9394408207117
 10
433.8485151512125
 20
163.940030956025
 10
433.8485617398901
 20
163.9406323817492
 10
433.8485950633944
 20
163.9412362852654
 10
433.8486146334396
 20
163.9418338176485
  0
LWPOLYLINE
  5
C12
330
1F
100
AcDbEntity
  8
3
  6
Continuous
100
AcDbPolyline
 90
        3
 70
   128
 43
0.0
 10
433.8423331525452
 20
163.9494229458741
 10
433.8325932758975
 20
163.94870995104
 10
433.8255918464906
 20
163.9481448130392
  0
LWPOLYLINE
  5
C13
330
1F
100
AcDbEntity
  8
3
  6
Continuous
100
AcDbPolyline
 90
        8
 70
   128
 43
0.0
 10
433.8200737217398
 20
163.9488968140838
 10
433.8211722630232
 20
163.9482890613743
 10
433.8219321233139
 20
163.9471880991576
 10
433.8223879727518
 20
163.9458986868641
 10
433.8226094966812
 20
163.9443250721418
 10
433.8225600044467
 20
163.9429094301649
 10
433.82231599563
 20
163.9416717318851
 10
433.8221652835832
 20
163.9412058883989
  0
LWPOLYLINE
  5
C14
330
1F
100
AcDbEntity
  8
3
  6
Continuous
100
AcDbPolyline
 90
        5
 70
   128
 43
0.0
 10
433.8245842024266
 20
163.9484547296293
 10
433.823688472402
 20
163.9486150532924
 10
433.822033688078
 20
163.9487668583081
 10
433.8200859777376
 20
163.9488960487524
 10
433.8200737217398
 20
163.9488968140838
  0
LWPOLYLINE
  5
C15
330
1F
100
AcDbEntity
  8
3
  6
Continuous
100
AcDbPolyline
 90
        3
 70
   128
 43
0.0
 10
433.8195195028214
 20
163.9500102746118
 10
433.82513787523
 20
163.9484056338922
 10
433.8260496370822
 20
163.9481550604066
  0
LWPOLYLINE
  5
C16
330
1F
100
AcDbEntity
  8
3
  6
Continuous
100
AcDbPolyline
 90
        3
 70
   128
 43
0.0
 10
433.8255263882347
 20
163.9481525081982
 10
433.8255596482502
 20
163.9481452871263
 10
433.8255918464906
 20
163.9481448130392
  0
LINE
  5
C17
330
1F
100
AcDbEntity
  8
3
  6
Continuous
100
AcDbLine
 10
433.8255263882346
 20
163.9481525081982
 30
0.0
 11
433.8245842024266
 21
163.9484547296292
 31
0.0
  0
LWPOLYLINE
  5
C18
330
1F
100
AcDbEntity
  8
3
  6
Continuous
100
AcDbPolyline
 90
        6
 70
   128
 43
0.0
 10
433.8481142298341
 20
163.9495212935249
 10
433.8464512870163
 20
163.9495152778255
 10
433.8448654234527
 20
163.9494976773881
 10
433.8435165172484
 20
163.9494703163713
 10
433.8425511368738
 20
163.9494357700194
 10
433.8423331525452
 20
163.9494229458741
  0
LINE
  5
C1B
330
1F
100
AcDbEntity
  8
3
  6
Continuous
100
AcDbLine
 10
433.8486146334396
 20
163.9418338176485
 30
0.0
 11
433.848114229834
 21
163.9495212935248
 31
0.0
  0
LWPOLYLINE
  5
C1E
330
1F
100
AcDbEntity
  8
3
  6
Continuous
100
AcDbPolyline
 90
        6
 70
   128
 43
0.0
 10
434.0374196910281
 20
163.7644444541958
 10
434.0373376471162
 20
163.7651109663503
 10
434.0370396088692
 20
163.7657127494163
 10
434.0365591778383
 20
163.766181956919
 10
434.0359505189772
 20
163.7664656892719
 10
434.0356065340832
 20
163.766499546149
  0
LWPOLYLINE
  5
C21
330
1F
100
AcDbEntity
  8
3
  6
Continuous
100
AcDbPolyline
 90
        8
 70
   128
 43
0.0
 10
434.0287577883708
 20
163.764429556897
 10
434.028732630903
 20
163.7648499866884
 10
434.0286201969276
 20
163.765255842893
 10
434.0284254727293
 20
163.7656291263745
 10
434.0281570940446
 20
163.7659532825499
 10
434.0278269630808
 20
163.7662139355606
 10
434.0274497206691
 20
163.7663995258224
 10
434.0270420969657
 20
163.7665018226753
  0
LINE
  5
C24
330
1F
100
AcDbEntity
  8
3
  6
Continuous
100
AcDbLine
 10
434.0269657422677
 20
163.7665005793809
 30
0.0
 11
434.0368792483507
 21
163.7664993939628
 31
0.0
  0
LWPOLYLINE
  5
C25
330
1F
100
AcDbEntity
  8
3
  6
Continuous
100
AcDbPolyline
 90
        3
 70
   128
 43
0.0
 10
434.0368792483507
 20
163.7664993939628
 10
434.0378722855199
 20
163.7666683888731
 10
434.0381080534821
 20
163.7667624394812
  0
LINE
  5
C26
330
1F
100
AcDbEntity
  8
3
  6
Continuous
100
AcDbLine
 10
434.024891217642
 20
163.7665000025414
 30
0.0
 11
434.0257014191865
 21
163.7664999056605
 31
0.0
  0
LWPOLYLINE
  5
C27
330
1F
100
AcDbEntity
  8
3
  6
Continuous
100
AcDbPolyline
 90
        9
 70
   128
 43
0.0
 10
434.026967368408
 20
163.7664999056607
 10
434.0271168255234
 20
163.76650373969
 10
434.027265899764
 20
163.7665152676756
 10
434.027414208317
 20
163.7665344600143
 10
434.0275613703358
 20
163.7665612674214
 10
434.0277070079181
 20
163.7665956210572
 10
434.0278507470761
 20
163.766637432704
 10
434.0279922186973
 20
163.7666865949921
 10
434.028131059492
 20
163.766742981676
  0
LINE
  5
C2B
330
1F
100
AcDbEntity
  8
3
  6
Continuous
100
AcDbLine
 10
434.0372532539963
 20
163.761006849524
 30
0.0
 11
434.0374166470298
 21
163.7644445189397
 31
0.0
  0
LINE
  5
C2C
330
1F
100
AcDbEntity
  8
3
  6
Continuous
100
AcDbLine
 10
434.0372532541445
 20
163.76100685263
 30
0.0
 11
434.0374166470301
 21
163.7644445189397
 31
0.0
  0
LWPOLYLINE
  5
C32
330
1F
100
AcDbEntity
  8
3
  6
Continuous
100
AcDbPolyline
 90
        3
 70
   128
 43
0.0
 10
434.2674136648301
 20
163.9501376059079
 10
434.2699931231432
 20
163.9496367756392
 10
434.2723480232848
 20
163.9494705672447
  0
LINE
  5
C33
330
1F
100
AcDbEntity
  8
3
  6
Continuous
100
AcDbLine
 10
434.2753924103913
 20
163.9336940727751
 30
0.0
 11
434.2674136648301
 21
163.9501376059079
 31
0.0
  0
LWPOLYLINE
  5
C36
330
1F
100
AcDbEntity
  8
3
  6
Continuous
100
AcDbPolyline
 90
        3
 70
   128
 43
0.0
 10
434.2442214144067
 20
163.9494739285834
 10
434.2539672179935
 20
163.9496486350141
 10
434.263692176111
 20
163.950175985063
  0
LWPOLYLINE
  5
C37
330
1F
100
AcDbEntity
  8
3
  6
Continuous
100
AcDbPolyline
 90
        4
 70
   128
 43
0.0
 10
434.2674136648301
 20
163.9501376059079
 10
434.2665999662703
 20
163.9502378571938
 10
434.2653728962249
 20
163.9502548509392
 10
434.263692176111
 20
163.950175985063
  0
LINE
  5
C38
330
1F
100
AcDbEntity
  8
3
  6
Continuous
100
AcDbLine
 10
434.3154137515337
 20
163.9341995245043
 30
0.0
 11
434.3074064832862
 21
163.949466373161
 31
0.0
  0
LWPOLYLINE
  5
C3A
330
1F
100
AcDbEntity
  8
3
  6
Continuous
100
AcDbPolyline
 90
        9
 70
   128
 43
0.0
 10
434.3154137515338
 20
163.9341995245043
 10
434.3148532415582
 20
163.9340941637736
 10
434.3130571192997
 20
163.9339999868713
 10
434.3100052510989
 20
163.9339172629683
 10
434.3057099153933
 20
163.9338468509011
 10
434.3000631727049
 20
163.9337881728537
 10
434.2931418331418
 20
163.9337429708735
 10
434.2849006931093
 20
163.933711416612
 10
434.2753924103913
 20
163.9336940727751
  0
LWPOLYLINE
  5
C3B
330
1F
100
AcDbEntity
  8
3
  6
Continuous
100
AcDbPolyline
 90
        9
 70
   128
 43
0.0
 10
434.2753924103913
 20
163.9336940727751
 10
434.2751598929638
 20
163.9336991568013
 10
434.2748657786606
 20
163.9336682719473
 10
434.2745146126882
 20
163.9336018955039
 10
434.2741118219227
 20
163.9335010532444
 10
434.273663631043
 20
163.9333673035728
 10
434.2731769663362
 20
163.9332027134402
 10
434.2726593486591
 20
163.9330098264023
 10
434.2721187772117
 20
163.9327916233118
  0
LWPOLYLINE
  5
C3C
330
1F
100
AcDbEntity
  8
3
  6
Continuous
100
AcDbPolyline
 90
        9
 70
   128
 43
0.0
 10
434.2753924103913
 20
163.9336940727751
 10
434.2757141005027
 20
163.9328849878712
 10
434.2758962157131
 20
163.9320293787239
 10
434.2759331572612
 20
163.9311535492945
 10
434.2758237894543
 20
163.9302844251758
 10
434.2755714745829
 20
163.929448725819
 10
434.2751839695544
 20
163.9286721430997
 10
434.2746731874213
 20
163.9279785514724
 10
434.2740548311407
 20
163.9273892739995
  0
LINE
  5
C3D
330
1F
100
AcDbEntity
  8
3
  6
Continuous
100
AcDbLine
 10
434.2740489006484
 20
163.9273855197218
 30
0.0
 11
434.2740548311407
 21
163.9273892739995
 31
0.0
  0
LINE
  5
C42
330
1F
100
AcDbEntity
  8
3
  6
Continuous
100
AcDbLine
 10
434.2721187772117
 20
163.9327916233117
 30
0.0
 11
434.2721128672486
 21
163.9327878788908
 31
0.0
  0
LWPOLYLINE
  5
C43
330
1F
100
AcDbEntity
  8
3
  6
Continuous
100
AcDbPolyline
 90
        6
 70
   128
 43
0.0
 10
434.3139527277734
 20
163.9278524766816
 10
434.3151176485303
 20
163.9290614019322
 10
434.3158167408692
 20
163.9305877733095
 10
434.3159711912567
 20
163.9322595119604
 10
434.3155635810078
 20
163.9338881494486
 10
434.3154137515338
 20
163.9341995245043
  0
LINE
  5
C46
330
1F
100
AcDbEntity
  8
3
  6
Continuous
100
AcDbLine
 10
434.2723480242555
 20
163.9494705653138
 30
0.0
 11
434.3074064832862
 21
163.949466373161
 31
0.0
  0
LINE
  5
CC3
330
1F
100
AcDbEntity
  8
3
  6
Continuous
100
AcDbLine
 10
434.6399823213831
 20
163.1136060730067
 30
0.0
 11
434.6399823213831
 21
163.7498337386909
 31
0.0
  0
LWPOLYLINE
  5
CC7
330
1F
100
AcDbEntity
  8
3
  6
Continuous
100
AcDbPolyline
 90
        7
 70
   128
 43
0.0
 10
434.8676558839373
 20
163.1096959770978
 10
434.8766283562766
 20
163.215915666712
 10
434.8848898496662
 20
163.3221930257199
 10
434.8927110410391
 20
163.4323279695072
 10
434.8997527237674
 20
163.5425208935154
 10
434.9060531905047
 20
163.6527743586162
 10
434.9115739744914
 20
163.7630749986926
  0
LWPOLYLINE
  5
CC8
330
1F
100
AcDbEntity
  8
3
  6
Continuous
100
AcDbPolyline
 90
       16
 70
   128
 43
0.0
 10
434.8751432736571
 20
163.1035203143143
 10
434.8792233811236
 20
163.1505456208385
 10
434.8830983222207
 20
163.1967666847682
 10
434.8868202661616
 20
163.242832372112
 10
434.8904460836648
 20
163.2894546814172
 10
434.8939684428676
 20
163.3364837140164
 10
434.8973500238736
 20
163.3833946751114
 10
434.9005507181707
 20
163.4296830934175
 10
434.9035996821787
 20
163.475823885768
 10
434.9062552631512
 20
163.517816380863
 10
434.9088215839826
 20
163.5601025142109
 10
434.9112747652747
 20
163.6022773090793
 10
434.9135918492384
 20
163.6439988572445
 10
434.9157781528144
 20
163.6854024680285
 10
434.9178659338114
 20
163.7270734770614
 10
434.9198785399766
 20
163.769448384304
  0
ARC
  5
CCA
330
1F
100
AcDbEntity
  8
3
  6
Continuous
100
AcDbCircle
 10
434.8878622493334
 20
163.686806262722
 30
0.0
 40
0.0045000000000001
100
AcDbArc
 50
272.6029052277241
 51
354.8826851500229
  0
LINE
  5
CCB
330
1F
100
AcDbEntity
  8
3
  6
Continuous
100
AcDbLine
 10
434.8994942721627
 20
163.676555267158
 30
0.0
 11
434.9072144215563
 21
163.7627636020543
 31
0.0
  0
LINE
  5
CCE
330
1F
100
AcDbEntity
  8
3
  6
Continuous
100
AcDbLine
 10
434.8610991662943
 20
163.3375007452756
 30
0.0
 11
434.8674824445226
 21
163.4087806854913
 31
0.0
  0
LINE
  5
CCF
330
1F
100
AcDbEntity
  8
3
  6
Continuous
100
AcDbLine
 10
434.868232179967
 20
163.3274619043072
 30
0.0
 11
434.8764516066838
 21
163.4192455026441
 31
0.0
  0
LINE
  5
CD4
330
1F
100
AcDbEntity
  8
3
  6
Continuous
100
AcDbLine
 10
434.8390489446593
 20
163.1116959770978
 30
0.0
 11
434.7919823213829
 21
163.1116959770978
 31
0.0
  0
LINE
  5
CD5
330
1F
100
AcDbEntity
  8
3
  6
Continuous
100
AcDbLine
 10
434.7919823213829
 20
163.1016959770978
 30
0.0
 11
434.8731510029415
 21
163.1016959770978
 31
0.0
  0
LWPOLYLINE
  5
CD6
330
1F
100
AcDbEntity
  8
3
  6
Continuous
100
AcDbPolyline
 90
       11
 70
   128
 43
0.0
 10
434.8245669376139
 20
163.1943906205593
 10
434.8281105106551
 20
163.1943000439828
 10
434.8313602406389
 20
163.1942169973219
 10
434.8341519099164
 20
163.1941456708923
 10
434.836606809941
 20
163.1940829599036
 10
434.838762446804
 20
163.1940279021557
 10
434.8405280777264
 20
163.1939828116238
 10
434.8418006648156
 20
163.1939503156652
 10
434.8427212624395
 20
163.1939268096419
 10
434.8432928865333
 20
163.1939122147931
 10
434.8434842564018
 20
163.1939073288542
  0
LWPOLYLINE
  5
CD8
330
1F
100
AcDbEntity
  8
3
  6
Continuous
100
AcDbPolyline
 90
       11
 70
   128
 43
0.0
 10
434.832750075023
 20
163.3041311000847
 10
434.836346288933
 20
163.3040408687227
 10
434.8396684890203
 20
163.3039575307926
 10
434.8426595054593
 20
163.303882515615
 10
434.8453119339692
 20
163.3038160041166
 10
434.8476660625066
 20
163.3037569819784
 10
434.8496273368975
 20
163.303707816083
 10
434.851207471832
 20
163.3036682090745
 10
434.8523531678725
 20
163.3036394940381
 10
434.853069023423
 20
163.3036215532456
 10
434.8533088725383
 20
163.3036155423778
  0
LINE
  5
CDA
330
1F
100
AcDbEntity
  8
3
  6
Continuous
100
AcDbLine
 10
434.7901274175494
 20
163.2219600568967
 30
0.0
 11
434.8452831054573
 21
163.2233700495494
 31
0.0
  0
LINE
  5
CDD
330
1F
100
AcDbEntity
  8
3
  6
Continuous
100
AcDbLine
 10
434.7964269960248
 20
163.3318903263011
 30
0.0
 11
434.8551356122181
 21
163.3333635317489
 31
0.0
  0
LINE
  5
CE6
330
1F
100
AcDbEntity
  8
3
  6
Continuous
100
AcDbLine
 10
434.7279823213828
 20
163.1116959770978
 30
0.0
 11
434.6659130807256
 21
163.1116959770978
 31
0.0
  0
LINE
  5
CE7
330
1F
100
AcDbEntity
  8
3
  6
Continuous
100
AcDbLine
 10
434.6659130807256
 20
163.1016959770978
 30
0.0
 11
434.7279823213828
 21
163.1016959770978
 31
0.0
  0
LINE
  5
CE8
330
1F
100
AcDbEntity
  8
3
  6
Continuous
100
AcDbLine
 10
434.6399823213831
 20
163.1036959770978
 30
0.0
 11
434.6399823213831
 21
163.11080952262
 31
0.0
  0
ARC
  5
CEC
330
1F
100
AcDbEntity
  8
3
  6
Continuous
100
AcDbCircle
 10
434.6659130807256
 20
163.1096959770977
 30
0.0
 40
0.0020000000000004
100
AcDbArc
 50
90.0
 51
180.0
  0
LINE
  5
CEF
330
1F
100
AcDbEntity
  8
3
  6
Continuous
100
AcDbLine
 10
434.6659130807256
 20
163.1016959770978
 30
0.0
 11
434.641982321383
 21
163.1016959770978
 31
0.0
  0
ARC
  5
CF3
330
1F
100
AcDbEntity
  8
3
  6
Continuous
100
AcDbCircle
 10
434.641982321383
 20
163.1036959770978
 30
0.0
 40
0.002
100
AcDbArc
 50
180.0
 51
270.0000000000163
  0
LINE
  5
CF5
330
1F
100
AcDbEntity
  8
3
  6
Continuous
100
AcDbLine
 10
434.6639130807256
 20
163.1096959770977
 30
0.0
 11
434.6639130807256
 21
163.1036959770978
 31
0.0
  0
ARC
  5
CF6
330
1F
100
AcDbEntity
  8
3
  6
Continuous
100
AcDbCircle
 10
434.6659130807256
 20
163.1036959770978
 30
0.0
 40
0.0020000000000002
100
AcDbArc
 50
180.0
 51
270.0000000000098
  0
LINE
  5
CF7
330
1F
100
AcDbEntity
  8
3
  6
Continuous
100
AcDbLine
 10
434.6441385044466
 20
163.1116959770978
 30
0.0
 11
434.6659130807256
 21
163.1116959770978
 31
0.0
  0
LINE
  5
CF8
330
1F
100
AcDbEntity
  8
3
  6
Continuous
100
AcDbLine
 10
434.6399823213831
 20
163.11080952262
 30
0.0
 11
434.6399823213831
 21
163.1136060730067
 31
0.0
  0
LWPOLYLINE
  5
CFA
330
1F
100
AcDbEntity
  8
3
  6
Continuous
100
AcDbPolyline
 90
        9
 70
   128
 43
0.0
 10
434.6399823213831
 20
163.11080952262
 10
434.6400184770991
 20
163.111083010427
 10
434.6401256370112
 20
163.1113466100864
 10
434.6402999266762
 20
163.1115907909639
 10
434.6405350445264
 20
163.1118067245252
 10
434.6408224897075
 20
163.1119866035376
 10
434.6411518694333
 20
163.1121239243466
 10
434.641511274744
 20
163.11221372202
 10
434.6418877110831
 20
163.1122527498589
  0
LWPOLYLINE
  5
CFD
330
1F
100
AcDbEntity
  8
3
  6
Continuous
100
AcDbPolyline
 90
        3
 70
   128
 43
0.0
 10
434.6418877110831
 20
163.1122527498589
 10
434.6432895902919
 20
163.1117682882383
 10
434.6441385044467
 20
163.1116959770978
  0
ARC
  5
CFF
330
1F
100
AcDbEntity
  8
3
  6
Continuous
100
AcDbCircle
 10
434.7279823213828
 20
163.1096959770977
 30
0.0
 40
0.002
100
AcDbArc
 50
0.0
 51
90.00000000000651
  0
ARC
  5
D00
330
1F
100
AcDbEntity
  8
3
  6
Continuous
100
AcDbCircle
 10
434.7919823213829
 20
163.1096959770977
 30
0.0
 40
0.0020000000000001
100
AcDbArc
 50
90.0
 51
180.0
  0
LINE
  5
D04
330
1F
100
AcDbEntity
  8
3
  6
Continuous
100
AcDbLine
 10
434.7919823213829
 20
163.1016959770978
 30
0.0
 11
434.7279823213828
 21
163.1016959770978
 31
0.0
  0
ARC
  5
D07
330
1F
100
AcDbEntity
  8
3
  6
Continuous
100
AcDbCircle
 10
434.7279823213828
 20
163.1036959770978
 30
0.0
 40
0.002
100
AcDbArc
 50
270.0
 51
0.0
  0
LINE
  5
D08
330
1F
100
AcDbEntity
  8
3
  6
Continuous
100
AcDbLine
 10
434.7299823213829
 20
163.1036959770978
 30
0.0
 11
434.7299823213829
 21
163.1096959770977
 31
0.0
  0
LINE
  5
D09
330
1F
100
AcDbEntity
  8
3
  6
Continuous
100
AcDbLine
 10
434.7899823213828
 20
163.1096959770977
 30
0.0
 11
434.7899823213828
 21
163.1036959770978
 31
0.0
  0
ARC
  5
D0A
330
1F
100
AcDbEntity
  8
3
  6
Continuous
100
AcDbCircle
 10
434.7919823213829
 20
163.1036959770978
 30
0.0
 40
0.002
100
AcDbArc
 50
180.0
 51
270.0
  0
LINE
  5
D0B
330
1F
100
AcDbEntity
  8
3
  6
Continuous
100
AcDbLine
 10
434.7279823213828
 20
163.1116959770978
 30
0.0
 11
434.7919823213829
 21
163.1116959770978
 31
0.0
  0
LINE
  5
D13
330
1F
100
AcDbEntity
  8
3
  6
Continuous
100
AcDbLine
 10
434.6697314652167
 20
163.3287110902995
 30
0.0
 11
434.7964269960248
 21
163.3318903263011
 31
0.0
  0
LINE
  5
D15
330
1F
100
AcDbEntity
  8
3
  6
Continuous
100
AcDbLine
 10
434.7954633288028
 20
163.305066755551
 30
0.0
 11
434.6697314652167
 21
163.3082218097563
 31
0.0
  0
LINE
  5
D17
330
1F
100
AcDbEntity
  8
3
  6
Continuous
100
AcDbLine
 10
434.6690421033394
 20
163.2188646480662
 30
0.0
 11
434.7901274175494
 21
163.2219600568967
 31
0.0
  0
LINE
  5
D19
330
1F
100
AcDbEntity
  8
3
  6
Continuous
100
AcDbLine
 10
434.7891722884082
 20
163.195295444653
 30
0.0
 11
434.6690421033394
 21
163.1983664366894
 31
0.0
  0
LWPOLYLINE
  5
D1C
330
1F
100
AcDbEntity
  8
3
  6
Continuous
100
AcDbPolyline
 90
        6
 70
   128
 43
0.0
 10
434.6592976585159
 20
163.2088679140221
 10
434.6598608020197
 20
163.2121763486171
 10
434.6614868426352
 20
163.2151122038356
 10
434.6639922836136
 20
163.217344528744
 10
434.6670955260238
 20
163.2186224315645
 10
434.6690421033395
 20
163.2188646480662
  0
LWPOLYLINE
  5
D20
330
1F
100
AcDbEntity
  8
3
  6
Continuous
100
AcDbPolyline
 90
        6
 70
   128
 43
0.0
 10
434.6690421033395
 20
163.1983664366895
 10
434.6657458851031
 20
163.1990151813444
 10
434.6628505329801
 20
163.2007189198008
 10
434.6606825907048
 20
163.203285710088
 10
434.659487246174
 20
163.2064251795878
 10
434.6592976585159
 20
163.2083631707337
  0
LINE
  5
D23
330
1F
100
AcDbEntity
  8
3
  6
Continuous
100
AcDbLine
 10
434.6592976585158
 20
163.2083631707337
 30
0.0
 11
434.6592976585158
 21
163.2088679140219
 31
0.0
  0
LWPOLYLINE
  5
D31
330
1F
100
AcDbEntity
  8
3
  6
Continuous
100
AcDbPolyline
 90
        6
 70
   128
 43
0.0
 10
434.6697314652167
 20
163.3082218097564
 10
434.6664352954809
 20
163.3088688709912
 10
434.663539402324
 20
163.3105708661444
 10
434.6613702728204
 20
163.3131360828109
 10
434.6601731094248
 20
163.316274605013
 10
434.659982321383
 20
163.3182186628204
  0
LINE
  5
D35
330
1F
100
AcDbEntity
  8
3
  6
Continuous
100
AcDbLine
 10
434.659982321383
 20
163.3182186628204
 30
0.0
 11
434.659982321383
 21
163.3187142372354
 31
0.0
  0
LWPOLYLINE
  5
D37
330
1F
100
AcDbEntity
  8
3
  6
Continuous
100
AcDbPolyline
 90
        6
 70
   128
 43
0.0
 10
434.659982321383
 20
163.3187142372354
 10
434.6605455890812
 20
163.3220230260566
 10
434.6621719971945
 20
163.3249591420442
 10
434.6646779862515
 20
163.3271915026442
 10
434.6677816374842
 20
163.3284690816923
 10
434.6697314652167
 20
163.3287110902995
  0
LINE
  5
D3E
330
1F
100
AcDbEntity
  8
3
  6
Continuous
100
AcDbLine
 10
434.8245669376138
 20
163.1943906205593
 30
0.0
 11
434.7891722884082
 21
163.195295444653
 31
0.0
  0
LINE
  5
D47
330
1F
100
AcDbEntity
  8
3
  6
Continuous
100
AcDbLine
 10
434.8327500750229
 20
163.3041311000846
 30
0.0
 11
434.7954633288028
 21
163.305066755551
 31
0.0
  0
ARC
  5
D50
330
1F
100
AcDbEntity
  8
3
  6
Continuous
100
AcDbCircle
 10
434.8433193319642
 20
163.1894103520997
 30
0.0
 40
0.0044999999999999
100
AcDbArc
 50
354.8826851500164
 51
87.89964645984463
  0
LINE
  5
D51
330
1F
100
AcDbEntity
  8
3
  6
Continuous
100
AcDbLine
 10
434.8487307536498
 20
163.1096959770977
 30
0.0
 11
434.8567677053715
 21
163.1994419379898
 31
0.0
  0
LINE
  5
D53
330
1F
100
AcDbEntity
  8
3
  6
Continuous
100
AcDbLine
 10
434.8487307536498
 20
163.1096959770977
 30
0.0
 11
434.8676558839373
 21
163.1096959770977
 31
0.0
  0
LWPOLYLINE
  5
D55
330
1F
100
AcDbEntity
  8
3
  6
Continuous
100
AcDbPolyline
 90
        6
 70
   128
 43
0.0
 10
434.8731510029415
 20
163.1016959770978
 10
434.873813014126
 20
163.1018087195125
 10
434.8744003885713
 20
163.1021342359044
 10
434.8748469042637
 20
163.1026358267696
 10
434.8751022199457
 20
163.1032569415418
 10
434.8751432736571
 20
163.1035203143143
  0
LINE
  5
D56
330
1F
100
AcDbEntity
  8
3
  6
Continuous
100
AcDbLine
 10
434.8410409729713
 20
163.1135175865026
 30
0.0
 11
434.8478013956661
 21
163.1890089732607
 31
0.0
  0
ARC
  5
D57
330
1F
100
AcDbEntity
  8
3
  6
Continuous
100
AcDbCircle
 10
434.8390489446593
 20
163.1136959770977
 30
0.0
 40
0.0020000000000002
100
AcDbArc
 50
270.0000000000098
 51
354.8826851500689
  0
LINE
  5
D5E
330
1F
100
AcDbEntity
  8
3
  6
Continuous
100
AcDbLine
 10
434.8512490764438
 20
163.2275080752787
 30
0.0
 11
434.8576260118025
 21
163.2987171867844
 31
0.0
  0
LINE
  5
D5F
330
1F
100
AcDbEntity
  8
3
  6
Continuous
100
AcDbLine
 10
434.8583824851566
 20
163.2174736455908
 30
0.0
 11
434.8665927872841
 21
163.3091553526807
 31
0.0
  0
ARC
  5
D61
330
1F
100
AcDbEntity
  8
3
  6
Continuous
100
AcDbCircle
 10
434.8563904568447
 20
163.2176520361858
 30
0.0
 40
0.0019999999999998
100
AcDbArc
 50
271.4643827279701
 51
354.8826851500819
  0
LINE
  5
D62
330
1F
100
AcDbEntity
  8
3
  6
Continuous
100
AcDbLine
 10
434.84994236444
 20
163.2154865446067
 30
0.0
 11
434.8564415678799
 21
163.215652689377
 31
0.0
  0
LINE
  5
D63
330
1F
100
AcDbEntity
  8
3
  6
Continuous
100
AcDbLine
 10
434.8548267880948
 20
163.2016196753937
 30
0.0
 11
434.849071822075
 21
163.2017667945778
 31
0.0
  0
LINE
  5
D64
330
1F
100
AcDbEntity
  8
3
  6
Continuous
100
AcDbLine
 10
434.8452831054573
 20
163.2233700495494
 30
0.0
 11
434.8468820125713
 21
163.2234109237977
 31
0.0
  0
ARC
  5
D65
330
1F
100
AcDbEntity
  8
3
  6
Continuous
100
AcDbCircle
 10
434.8436675057767
 20
163.1989039696925
 30
0.0
 40
0.0050000000000002
100
AcDbArc
 50
174.8826851499902
 51
267.8996464598414
  0
LINE
  5
D66
330
1F
100
AcDbEntity
  8
3
  6
Continuous
100
AcDbLine
 10
434.8386874349969
 20
163.1993499461802
 30
0.0
 11
434.8404308122657
 21
163.218817659015
 31
0.0
  0
ARC
  5
D67
330
1F
100
AcDbEntity
  8
3
  6
Continuous
100
AcDbCircle
 10
434.8454108830455
 20
163.2183716825272
 30
0.0
 40
0.005
100
AcDbArc
 50
91.46438272797011
 51
174.8826851500164
  0
LINE
  5
D68
330
1F
100
AcDbEntity
  8
3
  6
Continuous
100
AcDbLine
 10
434.8471309047983
 20
163.2039445319818
 30
0.0
 11
434.8480014471635
 21
163.213665588393
 31
0.0
  0
ARC
  5
D69
330
1F
100
AcDbEntity
  8
3
  6
Continuous
100
AcDbCircle
 10
434.8491229331101
 20
163.2037661413868
 30
0.0
 40
0.002
100
AcDbArc
 50
174.8826851500361
 51
268.5356172720299
  0
ARC
  5
D6A
330
1F
100
AcDbEntity
  8
3
  6
Continuous
100
AcDbCircle
 10
434.8499934754753
 20
163.2134871977979
 30
0.0
 40
0.0019999999999999
100
AcDbArc
 50
91.46438272797011
 51
174.8826851500686
  0
ARC
  5
D6B
330
1F
100
AcDbEntity
  8
3
  6
Continuous
100
AcDbCircle
 10
434.8467670127419
 20
163.2279094541177
 30
0.0
 40
0.0045
100
AcDbArc
 50
271.4643827279701
 51
354.882685149997
  0
ARC
  5
D6C
330
1F
100
AcDbEntity
  8
3
  6
Continuous
100
AcDbCircle
 10
434.8547756770595
 20
163.1996203285849
 30
0.0
 40
0.002
100
AcDbArc
 50
354.8826851500296
 51
88.5356172720364
  0
LINE
  5
D74
330
1F
100
AcDbEntity
  8
3
  6
Continuous
100
AcDbLine
 10
434.8485120511333
 20
163.3090581597039
 30
0.0
 11
434.8502809695215
 21
163.3288110817047
 31
0.0
  0
LINE
  5
D75
330
1F
100
AcDbEntity
  8
3
  6
Continuous
100
AcDbLine
 10
434.8569557448879
 20
163.3136552463157
 30
0.0
 11
434.8578514163049
 21
163.3236569104729
 31
0.0
  0
LINE
  5
D76
330
1F
100
AcDbEntity
  8
3
  6
Continuous
100
AcDbLine
 10
434.8646509302054
 20
163.3113331138885
 30
0.0
 11
434.8588976019666
 21
163.3114774851078
 31
0.0
  0
ARC
  5
D7A
330
1F
100
AcDbEntity
  8
3
  6
Continuous
100
AcDbCircle
 10
434.8531439481006
 20
163.2991185656234
 30
0.0
 40
0.0045000000000005
100
AcDbArc
 50
354.8826851500099
 51
87.89964645983813
  0
ARC
  5
D7B
330
1F
100
AcDbEntity
  8
3
  6
Continuous
100
AcDbCircle
 10
434.8534921219132
 20
163.3086121832161
 30
0.0
 40
0.0050000000000002
100
AcDbArc
 50
174.8826851500294
 51
267.8996464598446
  0
ARC
  5
D7C
330
1F
100
AcDbEntity
  8
3
  6
Continuous
100
AcDbCircle
 10
434.8589477731998
 20
163.3134768557207
 30
0.0
 40
0.002
100
AcDbArc
 50
174.8826851500426
 51
268.5625492511042
  0
ARC
  5
D7D
330
1F
100
AcDbEntity
  8
3
  6
Continuous
100
AcDbCircle
 10
434.8646007589721
 20
163.3093337432757
 30
0.0
 40
0.0020000000000003
100
AcDbArc
 50
354.8826851500294
 51
88.56254925109771
  0
LINE
  5
D7F
330
1F
100
AcDbEntity
  8
3
  6
Continuous
100
AcDbLine
 10
434.8597932733836
 20
163.3254778904906
 30
0.0
 11
434.8662903228884
 21
163.3256409242895
 31
0.0
  0
LINE
  5
D81
330
1F
100
AcDbEntity
  8
3
  6
Continuous
100
AcDbLine
 10
434.8551356122181
 20
163.3333635317489
 30
0.0
 11
434.8567299878673
 21
163.3334035402357
 31
0.0
  0
ARC
  5
D82
330
1F
100
AcDbEntity
  8
3
  6
Continuous
100
AcDbCircle
 10
434.8552610403014
 20
163.328365105217
 30
0.0
 40
0.0049999999999998
100
AcDbArc
 50
91.43745074890555
 51
174.8826851500361
  0
ARC
  5
D83
330
1F
100
AcDbEntity
  8
3
  6
Continuous
100
AcDbCircle
 10
434.8598434446169
 20
163.3234785198778
 30
0.0
 40
0.0020000000000003
100
AcDbArc
 50
91.43745074891858
 51
174.8826851500361
  0
ARC
  5
D84
330
1F
100
AcDbEntity
  8
3
  6
Continuous
100
AcDbCircle
 10
434.8566171025924
 20
163.3379021241146
 30
0.0
 40
0.0045000000000003
100
AcDbArc
 50
271.4374507489121
 51
354.8826851500361
  0
ARC
  5
D85
330
1F
100
AcDbEntity
  8
3
  6
Continuous
100
AcDbCircle
 10
434.8662401516551
 20
163.3276402949023
 30
0.0
 40
0.0020000000000001
100
AcDbArc
 50
271.4374507489283
 51
354.8826851501081
  0
LINE
  5
D88
330
1F
100
AcDbEntity
  8
3
  6
Continuous
100
AcDbLine
 10
434.8386926381015
 20
163.41423369817
 30
0.0
 11
434.8017739454383
 21
163.4150711733481
 31
0.0
  0
LINE
  5
D8A
330
1F
100
AcDbEntity
  8
3
  6
Continuous
100
AcDbLine
 10
434.8027166628321
 20
163.441537894161
 30
0.0
 11
434.8649613242302
 21
163.4429498715396
 31
0.0
  0
LINE
  5
D8D
330
1F
100
AcDbEntity
  8
3
  6
Continuous
100
AcDbLine
 10
434.8818626967664
 20
163.622731070288
 30
0.0
 11
434.8137237736661
 21
163.6255524282599
 31
0.0
  0
LINE
  5
D8F
330
1F
100
AcDbEntity
  8
3
  6
Continuous
100
AcDbLine
 10
434.8094527595373
 20
163.5601192754507
 30
0.0
 11
434.8755978653712
 21
163.5622793088725
 31
0.0
  0
LINE
  5
D92
330
1F
100
AcDbEntity
  8
3
  6
Continuous
100
AcDbLine
 10
434.8620071890049
 20
163.5136229355848
 30
0.0
 11
434.8074662047527
 21
163.5154040250147
 31
0.0
  0
LINE
  5
D95
330
1F
100
AcDbEntity
  8
3
  6
Continuous
100
AcDbLine
 10
434.8161914394549
 20
163.6790434210751
 30
0.0
 11
434.8862760220471
 21
163.6822295043779
 31
0.0
  0
LINE
  5
D98
330
1F
100
AcDbEntity
  8
3
  6
Continuous
100
AcDbLine
 10
434.8074662047527
 20
163.5154040250147
 30
0.0
 11
434.6693816321376
 21
163.5199133124084
 31
0.0
  0
LINE
  5
D9E
330
1F
100
AcDbEntity
  8
3
  6
Continuous
100
AcDbLine
 10
434.6694812331907
 20
163.4385155399787
 30
0.0
 11
434.8027166628321
 21
163.441537894161
 31
0.0
  0
LINE
  5
DA0
330
1F
100
AcDbEntity
  8
3
  6
Continuous
100
AcDbLine
 10
434.8017739454383
 20
163.4150711733481
 30
0.0
 11
434.6694812331907
 21
163.4180721426339
 31
0.0
  0
LWPOLYLINE
  5
DA2
330
1F
100
AcDbEntity
  8
3
  6
Continuous
100
AcDbPolyline
 90
        6
 70
   128
 43
0.0
 10
434.6597080179785
 20
163.4285181118765
 10
434.6602713888904
 20
163.4318271950503
 10
434.661898097999
 20
163.4347635221844
 10
434.664404542718
 20
163.4369959152571
 10
434.6675085481456
 20
163.4382732301461
 10
434.6694812331907
 20
163.4385155399787
  0
LWPOLYLINE
  5
DA7
330
1F
100
AcDbEntity
  8
3
  6
Continuous
100
AcDbPolyline
 90
        6
 70
   128
 43
0.0
 10
434.6694812331907
 20
163.4180721426339
 10
434.6661838108454
 20
163.4187111539854
 10
434.6632840414581
 20
163.4204058558626
 10
434.6611087612174
 20
163.4229653780324
 10
434.6599037616522
 20
163.4261006731031
 10
434.6597080179785
 20
163.4280695707362
  0
LINE
  5
DAB
330
1F
100
AcDbEntity
  8
3
  6
Continuous
100
AcDbLine
 10
434.6597080179785
 20
163.4280695707361
 30
0.0
 11
434.6597080179785
 21
163.4285181118765
 31
0.0
  0
LINE
  5
DBF
330
1F
100
AcDbEntity
  8
3
  6
Continuous
100
AcDbLine
 10
434.6692538815619
 20
163.6723635596496
 30
0.0
 11
434.8161914394549
 21
163.6790434210751
 31
0.0
  0
LINE
  5
DC1
330
1F
100
AcDbEntity
  8
3
  6
Continuous
100
AcDbLine
 10
434.8137237736661
 20
163.6255524282599
 30
0.0
 11
434.6692943128002
 21
163.6315326696882
 31
0.0
  0
LINE
  5
DC3
330
1F
100
AcDbEntity
  8
3
  6
Continuous
100
AcDbLine
 10
434.6693816321376
 20
163.5555451151588
 30
0.0
 11
434.8094527595373
 21
163.5601192754507
 31
0.0
  0
LWPOLYLINE
  5
DC9
330
1F
100
AcDbEntity
  8
3
  6
Continuous
100
AcDbPolyline
 90
        6
 70
   128
 43
0.0
 10
434.6597080179785
 20
163.5455504429639
 10
434.6602714795661
 20
163.5488597847097
 10
434.6618984493856
 20
163.5517962926573
 10
434.6644052945593
 20
163.5540287166289
 10
434.6675096233283
 20
163.5553058035908
 10
434.6693816321377
 20
163.5555451151588
  0
LWPOLYLINE
  5
DCC
330
1F
100
AcDbEntity
  8
3
  6
Continuous
100
AcDbPolyline
 90
        6
 70
   128
 43
0.0
 10
434.6693816321377
 20
163.5199133124084
 10
434.6660909617106
 20
163.5205850610299
 10
434.6632083702048
 20
163.5223083412683
 10
434.6610587169966
 20
163.5248890611604
 10
434.6598848100223
 20
163.5280359307986
 10
434.6597080179785
 20
163.5299079846033
  0
LINE
  5
DD0
330
1F
100
AcDbEntity
  8
3
  6
Continuous
100
AcDbLine
 10
434.6597080179785
 20
163.5299079846032
 30
0.0
 11
434.6597080179785
 21
163.5455504429638
 31
0.0
  0
LWPOLYLINE
  5
DD8
330
1F
100
AcDbEntity
  8
3
  6
Continuous
100
AcDbPolyline
 90
        6
 70
   128
 43
0.0
 10
434.6597080179786
 20
163.6623738769662
 10
434.6602715536517
 20
163.6656834299585
 10
434.6618987326126
 20
163.6686200807792
 10
434.6644059051203
 20
163.6708525324751
 10
434.6675105107431
 20
163.6721294375319
 10
434.6692538815619
 20
163.6723635596497
  0
LWPOLYLINE
  5
DDB
330
1F
100
AcDbEntity
  8
3
  6
Continuous
100
AcDbPolyline
 90
        6
 70
   128
 43
0.0
 10
434.6692943128002
 20
163.6315326696882
 10
434.6660098393199
 20
163.6322330657163
 10
434.6631425478133
 20
163.6339812574048
 10
434.6610155397446
 20
163.6365803424358
 10
434.6598689845256
 20
163.6397370939561
 10
434.6597080179786
 20
163.6415241084247
  0
LINE
  5
DDE
330
1F
100
AcDbEntity
  8
3
  6
Continuous
100
AcDbLine
 10
434.6597080179785
 20
163.6415241084247
 30
0.0
 11
434.6597080179785
 21
163.6623738769662
 31
0.0
  0
LINE
  5
DF9
330
1F
100
AcDbEntity
  8
3
  6
Continuous
100
AcDbLine
 10
434.8672892122315
 20
163.5187364586323
 30
0.0
 11
434.8707809875117
 21
163.5577279492629
 31
0.0
  0
ARC
  5
DFA
330
1F
100
AcDbEntity
  8
3
  6
Continuous
100
AcDbCircle
 10
434.8833704383273
 20
163.5189284960748
 30
0.0
 40
0.0020000000000003
100
AcDbArc
 50
354.8826851500361
 51
88.1296147029672
  0
LINE
  5
DFC
330
1F
100
AcDbEntity
  8
3
  6
Continuous
100
AcDbLine
 10
434.8583684838534
 20
163.4191216584107
 30
0.0
 11
434.8600946458443
 21
163.4383971339762
 31
0.0
  0
LINE
  5
DFD
330
1F
100
AcDbEntity
  8
3
  6
Continuous
100
AcDbLine
 10
434.8780434878957
 20
163.43702150951
 30
0.0
 11
434.8853624666392
 21
163.5187501054797
 31
0.0
  0
LWPOLYLINE
  5
E05
330
1F
100
AcDbEntity
  8
3
  6
Continuous
100
AcDbPolyline
 90
       10
 70
   128
 43
0.0
 10
434.8386926381015
 20
163.41423369817
 10
434.8424988276702
 20
163.4141473692545
 10
434.8460403045928
 20
163.4140670655823
 10
434.8503565109971
 20
163.4139692224426
 10
434.8541173470855
 20
163.4138839936142
 10
434.8572615718403
 20
163.4138127562606
 10
434.8599114484875
 20
163.4137527311287
 10
434.8617971058839
 20
163.4137100243331
 10
434.8628833341053
 20
163.4136854262407
 10
434.8631653052582
 20
163.4136790410847
  0
ARC
  5
E06
330
1F
100
AcDbEntity
  8
3
  6
Continuous
100
AcDbCircle
 10
434.8633485546332
 20
163.4186756819229
 30
0.0
 40
0.0050000000000007
100
AcDbArc
 50
174.8826851499574
 51
267.8996464598446
  0
ARC
  5
E09
330
1F
100
AcDbEntity
  8
3
  6
Continuous
100
AcDbCircle
 10
434.8760514595837
 20
163.4371999001051
 30
0.0
 40
0.0019999999999998
100
AcDbArc
 50
271.2994925270663
 51
354.8826851500884
  0
ARC
  5
E0A
330
1F
100
AcDbEntity
  8
3
  6
Continuous
100
AcDbCircle
 10
434.8744595783718
 20
163.4194238932392
 30
0.0
 40
0.0020000000000006
100
AcDbArc
 50
354.882685149925
 51
88.70050747292719
  0
LINE
  5
E0B
330
1F
100
AcDbEntity
  8
3
  6
Continuous
100
AcDbLine
 10
434.8696107991343
 20
163.4350532836359
 30
0.0
 11
434.8760968165413
 21
163.4352004144847
 31
0.0
  0
LINE
  5
E0C
330
1F
100
AcDbEntity
  8
3
  6
Continuous
100
AcDbLine
 10
434.8745049353293
 20
163.4214233788596
 30
0.0
 11
434.8687599979185
 21
163.4215536988177
 31
0.0
  0
ARC
  5
E0D
330
1F
100
AcDbEntity
  8
3
  6
Continuous
100
AcDbCircle
 10
434.8630003808207
 20
163.4091820643302
 30
0.0
 40
0.0045000000000001
100
AcDbArc
 50
354.8826851500294
 51
87.89964645984138
  0
LINE
  5
E0E
330
1F
100
AcDbEntity
  8
3
  6
Continuous
100
AcDbLine
 10
434.8668133265641
 20
163.4237315750333
 30
0.0
 11
434.8676641277799
 21
163.4332321886106
 31
0.0
  0
ARC
  5
E0F
330
1F
100
AcDbEntity
  8
3
  6
Continuous
100
AcDbCircle
 10
434.8688053548761
 20
163.4235531844382
 30
0.0
 40
0.002
100
AcDbArc
 50
174.8826851500361
 51
268.700507472937
  0
ARC
  5
E10
330
1F
100
AcDbEntity
  8
3
  6
Continuous
100
AcDbCircle
 10
434.8696561560919
 20
163.4330537980155
 30
0.0
 40
0.0020000000000006
100
AcDbArc
 50
91.29949252706305
 51
174.8826851498333
  0
LINE
  5
E12
330
1F
100
AcDbEntity
  8
3
  6
Continuous
100
AcDbLine
 10
434.8709125004033
 20
163.4470829761595
 30
0.0
 11
434.8764031729007
 21
163.5083954857129
 31
0.0
  0
ARC
  5
E14
330
1F
100
AcDbEntity
  8
3
  6
Continuous
100
AcDbCircle
 10
434.8650747166241
 20
163.4379511574885
 30
0.0
 40
0.0050000000000002
100
AcDbArc
 50
91.29949252706955
 51
174.8826851500294
  0
LINE
  5
E15
330
1F
100
AcDbEntity
  8
3
  6
Continuous
100
AcDbLine
 10
434.8649613242302
 20
163.4429498715396
 30
0.0
 11
434.866532489856
 21
163.4429855123524
 31
0.0
  0
ARC
  5
E16
330
1F
100
AcDbEntity
  8
3
  6
Continuous
100
AcDbCircle
 10
434.8664304367014
 20
163.4474843549984
 30
0.0
 40
0.0045000000000013
100
AcDbArc
 50
271.2994925270663
 51
354.8826851498596
  0
LWPOLYLINE
  5
E19
330
1F
100
AcDbEntity
  8
3
  6
Continuous
100
AcDbPolyline
 90
        8
 70
   128
 43
0.0
 10
434.862007189005
 20
163.5136229355848
 10
434.8644733736848
 20
163.5135424023171
 10
434.8666224346927
 20
163.5134722286607
 10
434.8684233929392
 20
163.5134134244736
 10
434.8698735365545
 20
163.5133660768333
 10
434.8709846501469
 20
163.513329799734
 10
434.8717142484169
 20
163.5133059794026
 10
434.8720860336363
 20
163.5132938413064
  0
ARC
  5
E1B
330
1F
100
AcDbEntity
  8
3
  6
Continuous
100
AcDbCircle
 10
434.8719211091988
 20
163.5087968645519
 30
0.0
 40
0.0044999999999999
100
AcDbArc
 50
354.8826851500164
 51
87.89964645984788
  0
ARC
  5
E1C
330
1F
100
AcDbEntity
  8
3
  6
Continuous
100
AcDbCircle
 10
434.8722692830113
 20
163.5182904821446
 30
0.0
 40
0.0050000000000002
100
AcDbArc
 50
174.8826851500294
 51
267.8996464598446
  0
LINE
  5
E21
330
1F
100
AcDbEntity
  8
3
  6
Continuous
100
AcDbLine
 10
434.881600291591
 20
163.5664299777558
 30
0.0
 11
434.8862034297782
 21
163.6178316875132
 31
0.0
  0
LINE
  5
E22
330
1F
100
AcDbEntity
  8
3
  6
Continuous
100
AcDbLine
 10
434.8887396356113
 20
163.5564618256682
 30
0.0
 11
434.8951540953579
 21
163.6280899595044
 31
0.0
  0
ARC
  5
E25
330
1F
100
AcDbEntity
  8
3
  6
Continuous
100
AcDbCircle
 10
434.8757610582916
 20
163.5572819727751
 30
0.0
 40
0.0049999999999999
100
AcDbArc
 50
91.87038529703931
 51
174.8826851500294
  0
LINE
  5
E27
330
1F
100
AcDbEntity
  8
3
  6
Continuous
100
AcDbLine
 10
434.8802811998902
 20
163.5544279832467
 30
0.0
 11
434.8868128844675
 21
163.5546412818243
 31
0.0
  0
LINE
  5
E28
330
1F
100
AcDbEntity
  8
3
  6
Continuous
100
AcDbLine
 10
434.8834357154954
 20
163.5209274305139
 30
0.0
 11
434.8776560705883
 21
163.521116170497
 31
0.0
  0
LINE
  5
E29
330
1F
100
AcDbEntity
  8
3
  6
Continuous
100
AcDbLine
 10
434.8757293194444
 20
163.523293495531
 30
0.0
 11
434.8783544487464
 21
163.5526074394029
 31
0.0
  0
ARC
  5
E2A
330
1F
100
AcDbEntity
  8
3
  6
Continuous
100
AcDbCircle
 10
434.8777213477564
 20
163.523115104936
 30
0.0
 40
0.0020000000000004
100
AcDbArc
 50
174.8826851500034
 51
268.1296147029574
  0
ARC
  5
E2B
330
1F
100
AcDbEntity
  8
3
  6
Continuous
100
AcDbCircle
 10
434.8803464770583
 20
163.5524290488077
 30
0.0
 40
0.0019999999999997
100
AcDbArc
 50
91.87038529704258
 51
174.8826851500294
  0
ARC
  5
E2C
330
1F
100
AcDbEntity
  8
3
  6
Continuous
100
AcDbCircle
 10
434.8867476072993
 20
163.5566402162633
 30
0.0
 40
0.0019999999999995
100
AcDbArc
 50
271.8703852970263
 51
354.8826851500884
  0
LINE
  5
E2E
330
1F
100
AcDbEntity
  8
3
  6
Continuous
100
AcDbLine
 10
434.8755978653712
 20
163.5622793088725
 30
0.0
 11
434.8772651015176
 21
163.5623337541071
 31
0.0
  0
ARC
  5
E2F
330
1F
100
AcDbEntity
  8
3
  6
Continuous
100
AcDbCircle
 10
434.8771182278891
 20
163.5668313565947
 30
0.0
 40
0.0044999999999998
100
AcDbArc
 50
271.8703852970393
 51
354.8826851500294
  0
LINE
  5
E34
330
1F
100
AcDbEntity
  8
3
  6
Continuous
100
AcDbLine
 10
434.897593071134
 20
163.6747357212165
 30
0.0
 11
434.8910027365517
 21
163.6744361210163
 31
0.0
  0
LINE
  5
E35
330
1F
100
AcDbEntity
  8
3
  6
Continuous
100
AcDbLine
 10
434.8874347611626
 20
163.6305072084553
 30
0.0
 11
434.8932448080815
 21
163.6302666378468
 31
0.0
  0
LINE
  5
E36
330
1F
100
AcDbEntity
  8
3
  6
Continuous
100
AcDbLine
 10
434.8770894785757
 20
163.628172766144
 30
0.0
 11
434.8815230194754
 21
163.677680639524
 31
0.0
  0
LINE
  5
E37
330
1F
100
AcDbEntity
  8
3
  6
Continuous
100
AcDbLine
 10
434.8855254738863
 20
163.6326838867977
 30
0.0
 11
434.889101535523
 21
163.6726165750748
 31
0.0
  0
LINE
  5
E39
330
1F
100
AcDbEntity
  8
3
  6
Continuous
100
AcDbLine
 10
434.8818626967664
 20
163.622731070288
 30
0.0
 11
434.8819075334065
 21
163.6227292137836
 31
0.0
  0
ARC
  5
E3A
330
1F
100
AcDbEntity
  8
3
  6
Continuous
100
AcDbCircle
 10
434.8820695493556
 20
163.6277267896563
 30
0.0
 40
0.0050000000000002
100
AcDbArc
 50
174.8826851500229
 51
267.6289672588964
  0
ARC
  5
E3B
330
1F
100
AcDbEntity
  8
3
  6
Continuous
100
AcDbCircle
 10
434.8875175021982
 20
163.6325054962026
 30
0.0
 40
0.0019999999999994
100
AcDbArc
 50
174.8826851499642
 51
267.6289672589062
  0
ARC
  5
E3C
330
1F
100
AcDbEntity
  8
3
  6
Continuous
100
AcDbCircle
 10
434.8817213660764
 20
163.6182330663522
 30
0.0
 40
0.0045000000000001
100
AcDbArc
 50
354.8826851500294
 51
87.62896725889639
  0
LINE
  5
E3E
330
1F
100
AcDbEntity
  8
3
  6
Continuous
100
AcDbLine
 10
434.8880666107209
 20
163.6823109055144
 30
0.0
 11
434.8862760220471
 21
163.6822295043779
 31
0.0
  0
ARC
  5
E3F
330
1F
100
AcDbEntity
  8
3
  6
Continuous
100
AcDbCircle
 10
434.8910935638349
 20
163.6724381844796
 30
0.0
 40
0.0020000000000007
100
AcDbArc
 50
92.60290522771438
 51
174.8826851497941
  0
ARC
  5
E40
330
1F
100
AcDbEntity
  8
3
  6
Continuous
100
AcDbCircle
 10
434.8865030902553
 20
163.6772346630363
 30
0.0
 40
0.0050000000000014
100
AcDbArc
 50
92.60290522772088
 51
174.8826851498006
  0
ARC
  5
E41
330
1F
100
AcDbEntity
  8
3
  6
Continuous
100
AcDbCircle
 10
434.8931620670459
 20
163.6282683500995
 30
0.0
 40
0.0020000000000002
100
AcDbArc
 50
354.882685149611
 51
87.62896725892243
  0
ARC
  5
E43
330
1F
100
AcDbEntity
  8
3
  6
Continuous
100
AcDbCircle
 10
434.8975022438507
 20
163.6767336577531
 30
0.0
 40
0.0020000000000002
100
AcDbArc
 50
272.6029052277241
 51
354.8826851500686
  0
LWPOLYLINE
  5
E47
330
1F
100
AcDbEntity
  8
3
  6
Continuous
100
AcDbPolyline
 90
        9
 70
   128
 43
0.0
 10
435.0725371206406
 20
163.9441118770374
 10
435.0799465549413
 20
163.9444470542007
 10
435.0873420414761
 20
163.944650062213
 10
435.0921892632927
 20
163.9447334864794
 10
435.09687913596
 20
163.9448006731373
 10
435.1013030166438
 20
163.9448742640157
 10
435.1068539538283
 20
163.9450284662423
 10
435.1116744013061
 20
163.9452804329009
 10
435.1158992584788
 20
163.9456876894153
  0
LINE
  5
E49
330
1F
100
AcDbEntity
  8
3
  6
Continuous
100
AcDbLine
 10
434.8807459927181
 20
163.9545356813211
 30
0.0
 11
435.1266587431201
 21
163.9545356813211
 31
0.0
  0
LWPOLYLINE
  5
E4B
330
1F
100
AcDbEntity
  8
3
  6
Continuous
100
AcDbPolyline
 90
        9
 70
   128
 43
0.0
 10
434.9205688578121
 20
163.7717988737734
 10
434.9610948141384
 20
163.790725224151
 10
435.0010909240386
 20
163.8108788687652
 10
435.0405018119229
 20
163.8322368427849
 10
435.079273477238
 20
163.8547728706304
 10
435.1092543102602
 20
163.8732870952819
 10
435.1387835344753
 20
163.8924948110336
 10
435.1678373113286
 20
163.9123792509206
 10
435.1963926413966
 20
163.9329225677705
  0
ARC
  5
E4C
330
1F
100
AcDbEntity
  8
3
  6
Continuous
100
AcDbCircle
 10
434.8507525674192
 20
164.1543433239997
 30
0.0
 40
0.35980764267856
100
AcDbArc
 50
276.4512304081897
 51
325.460198353067
  0
LINE
  5
E68
330
1F
100
AcDbEntity
  8
3
  6
Continuous
100
AcDbLine
 10
434.8481973298358
 20
163.7035649513593
 30
0.0
 11
434.8215167317469
 21
163.7041204602643
 31
0.0
  0
LWPOLYLINE
  5
E6C
330
1F
100
AcDbEntity
  8
3
  6
Continuous
100
AcDbPolyline
 90
        6
 70
   128
 43
0.0
 10
434.8347791381068
 20
163.947448710733
 10
434.8912014090034
 20
163.945523572707
 10
434.9476340645477
 20
163.9440180388424
 10
435.0040794169461
 20
163.943206000116
 10
435.0323000539797
 20
163.9432089355824
 10
435.0604905265138
 20
163.9436120988034
  0
LWPOLYLINE
  5
E6D
330
1F
100
AcDbEntity
  8
3
  6
Continuous
100
AcDbPolyline
 90
        3
 70
   128
 43
0.0
 10
434.8299777245768
 20
163.9477685843081
 10
434.8401018214055
 20
163.9493576451797
 10
434.8488377627841
 20
163.950586466501
  0
LINE
  5
E6E
330
1F
100
AcDbEntity
  8
3
  6
Continuous
100
AcDbLine
 10
434.8807459927181
 20
163.9545356813211
 30
0.0
 11
434.7305515557157
 21
163.9545356813211
 31
0.0
  0
LINE
  5
E72
330
1F
100
AcDbEntity
  8
3
  6
Continuous
100
AcDbLine
 10
434.8300711469335
 20
163.7533734833774
 30
0.0
 11
434.8301774182976
 21
163.7684972473328
 31
0.0
  0
LWPOLYLINE
  5
E75
330
1F
100
AcDbEntity
  8
3
  6
Continuous
100
AcDbPolyline
 90
        6
 70
   128
 43
0.0
 10
434.8280097715344
 20
163.7504119173659
 10
434.8286268244201
 20
163.75062331552
 10
434.8292747691677
 20
163.7512130675331
 10
434.829762847015
 20
163.7520022225764
 10
434.8300101476157
 20
163.7527764343199
 10
434.8300711469335
 20
163.7533734833774
  0
LINE
  5
E77
330
1F
100
AcDbEntity
  8
3
  6
Continuous
100
AcDbLine
 10
434.8124684431942
 20
163.7945356813212
 30
0.0
 11
434.848568196433
 21
163.7945356813211
 31
0.0
  0
LINE
  5
E7A
330
1F
100
AcDbEntity
  8
3
  6
Continuous
100
AcDbLine
 10
434.8289823213828
 20
163.7345356813211
 30
0.0
 11
434.8149823213829
 21
163.7345356813211
 31
0.0
  0
ARC
  5
E7B
330
1F
100
AcDbEntity
  8
3
  6
Continuous
100
AcDbCircle
 10
434.8269823213828
 20
163.7484119173658
 30
0.0
 40
0.0020000000000001
100
AcDbArc
 50
0.0000000000622967
 51
90.00000000000333
  0
LINE
  5
E85
330
1F
100
AcDbEntity
  8
3
  6
Continuous
100
AcDbLine
 10
434.7779823213829
 20
163.8980356813212
 30
0.0
 11
434.7779823213828
 21
163.8015356813212
 31
0.0
  0
LINE
  5
E86
330
1F
100
AcDbEntity
  8
3
  6
Continuous
100
AcDbLine
 10
434.7649823213829
 20
163.9355356813212
 30
0.0
 11
434.7649823213829
 21
163.7704119173659
 31
0.0
  0
LINE
  5
E87
330
1F
100
AcDbEntity
  8
3
  6
Continuous
100
AcDbLine
 10
434.754982321383
 20
163.9355356813212
 30
0.0
 11
434.7549823213829
 21
163.7704119173658
 31
0.0
  0
LINE
  5
E88
330
1F
100
AcDbEntity
  8
3
  6
Continuous
100
AcDbLine
 10
434.6399823213829
 20
163.8635356813212
 30
0.0
 11
434.6399823213829
 21
163.9625356813212
 31
0.0
  0
LINE
  5
E89
330
1F
100
AcDbEntity
  8
3
  6
Continuous
100
AcDbLine
 10
434.6749823213829
 20
163.8635356813212
 30
0.0
 11
434.6749823213829
 21
163.9305356813212
 31
0.0
  0
LINE
  5
E8A
330
1F
100
AcDbEntity
  8
3
  6
Continuous
100
AcDbLine
 10
434.7899823213829
 20
163.8980356813212
 30
0.0
 11
434.7899823213829
 21
163.8045356813212
 31
0.0
  0
LINE
  5
E92
330
1F
100
AcDbEntity
  8
3
  6
Continuous
100
AcDbLine
 10
434.6694998560267
 20
163.7326933050083
 30
0.0
 11
434.8149823213829
 21
163.7357223527367
 31
0.0
  0
LINE
  5
E93
330
1F
100
AcDbEntity
  8
3
  6
Continuous
100
AcDbLine
 10
434.8215167317469
 20
163.7041204602643
 30
0.0
 11
434.6694998560267
 21
163.7072855590338
 31
0.0
  0
LINE
  5
E97
330
1F
100
AcDbEntity
  8
3
  6
Continuous
100
AcDbLine
 10
434.6399823213828
 20
163.7745356813212
 30
0.0
 11
434.6399823213829
 21
163.8635356813212
 31
0.0
  0
LWPOLYLINE
  5
E9A
330
1F
100
AcDbEntity
  8
3
  6
Continuous
100
AcDbPolyline
 90
        8
 70
   128
 43
0.0
 10
434.6719823213829
 20
163.7726586184218
 10
434.6721914937018
 20
163.7726947374472
 10
434.6724324971035
 20
163.772826475881
 10
434.6727726278029
 20
163.7731806888196
 10
434.6734796647116
 20
163.7746073940383
 10
434.6743645123678
 20
163.7780670177898
 10
434.6747927615303
 20
163.7816071864693
 10
434.6749823213829
 20
163.7859333097495
  0
LWPOLYLINE
  5
E9C
330
1F
100
AcDbEntity
  8
3
  6
Continuous
100
AcDbPolyline
 90
        6
 70
   128
 43
0.0
 10
434.6694998560269
 20
163.7072855590339
 10
434.6662020394853
 20
163.7079181311648
 10
434.663299493897
 20
163.7096067510955
 10
434.6611196097123
 20
163.7121609666853
 10
434.6599081871302
 20
163.7152925845181
 10
434.6597080179786
 20
163.7172833922291
  0
LWPOLYLINE
  5
E9E
330
1F
100
AcDbEntity
  8
3
  6
Continuous
100
AcDbPolyline
 90
        6
 70
   128
 43
0.0
 10
434.6597080179786
 20
163.7226954718129
 10
434.6602716526801
 20
163.7260053071495
 10
434.6618989779297
 20
163.72894198232
 10
434.6644065909008
 20
163.7311745561349
 10
434.6675120007644
 20
163.7324513678966
 10
434.6694998560269
 20
163.7326933050083
  0
LINE
  5
EA3
330
1F
100
AcDbEntity
  8
3
  6
Continuous
100
AcDbLine
 10
434.6597080179785
 20
163.7172833922291
 30
0.0
 11
434.6597080179785
 21
163.7226954718129
 31
0.0
  0
ARC
  5
EA5
330
1F
100
AcDbEntity
  8
3
  6
Continuous
100
AcDbCircle
 10
434.641982321383
 20
163.7695407639215
 30
0.0
 40
0.0019999999999996
100
AcDbArc
 50
94.08561677997441
 51
180.0
  0
LWPOLYLINE
  5
EA8
330
1F
100
AcDbEntity
  8
3
  6
Continuous
100
AcDbPolyline
 90
        7
 70
   128
 43
0.0
 10
434.642982321383
 20
163.7715356813212
 10
434.6420934245717
 20
163.7716703955659
 10
434.6413070921798
 20
163.7720469854544
 10
434.6406558943084
 20
163.7726415490484
 10
434.640176724624
 20
163.7734733128229
 10
434.6399823382135
 20
163.7745256322852
 10
434.639982321383
 20
163.7745356813212
  0
LWPOLYLINE
  5
EB0
330
1F
100
AcDbEntity
  8
3
  6
Continuous
100
AcDbPolyline
 90
        5
 70
   128
 43
0.0
 10
434.6689415822027
 20
163.7715356813212
 10
434.6704799291266
 20
163.7717492804
 10
434.6714211272389
 20
163.7721762507638
 10
434.671973581253
 20
163.7726485972942
 10
434.6719823213829
 20
163.7726586184218
  0
LINE
  5
EB1
330
1F
100
AcDbEntity
  8
3
  6
Continuous
100
AcDbLine
 10
434.6719823213829
 20
163.8605356813212
 30
0.0
 11
434.6429823213829
 21
163.8605356813212
 31
0.0
  0
ARC
  5
EB2
330
1F
100
AcDbEntity
  8
3
  6
Continuous
100
AcDbCircle
 10
434.6429823213829
 20
163.8635356813212
 30
0.0
 40
0.0030000000000003
100
AcDbArc
 50
179.9999999999906
 51
269.9999999999871
  0
LINE
  5
EB3
330
1F
100
AcDbEntity
  8
3
  6
Continuous
100
AcDbLine
 10
434.6749823213829
 20
163.8635356813212
 30
0.0
 11
434.6749823213829
 21
163.7859333097494
 31
0.0
  0
ARC
  5
EB5
330
1F
100
AcDbEntity
  8
3
  6
Continuous
100
AcDbCircle
 10
434.6719823213828
 20
163.8635356813213
 30
0.0
 40
0.003
100
AcDbArc
 50
269.9999999999904
 51
359.9999999999904
  0
ARC
  5
EB8
330
1F
100
AcDbEntity
  8
3
  6
Continuous
100
AcDbCircle
 10
434.8269823213828
 20
163.7735356813212
 30
0.0
 40
0.0020000000000002
100
AcDbArc
 50
269.9999999999936
 51
359.9999999999971
  0
ARC
  5
EB9
330
1F
100
AcDbEntity
  8
3
  6
Continuous
100
AcDbCircle
 10
434.8079823213828
 20
163.8015356813212
 30
0.0
 40
0.03
100
AcDbArc
 50
179.9999999999906
 51
269.9999999999936
  0
ARC
  5
EBD
330
1F
100
AcDbEntity
  8
3
  6
Continuous
100
AcDbCircle
 10
434.7849823213829
 20
163.7704119173659
 30
0.0
 40
0.0300000000000003
100
AcDbArc
 50
179.9999999999906
 51
269.9999999999936
  0
ARC
  5
EBE
330
1F
100
AcDbEntity
  8
3
  6
Continuous
100
AcDbCircle
 10
434.7849823213829
 20
163.7704119173659
 30
0.0
 40
0.02
100
AcDbArc
 50
179.9999999999906
 51
269.9999999999936
  0
LINE
  5
EC5
330
1F
100
AcDbEntity
  8
3
  6
Continuous
100
AcDbLine
 10
434.8149823213828
 20
163.7404119173659
 30
0.0
 11
434.7849823213828
 21
163.7404119173658
 31
0.0
  0
LINE
  5
EC6
330
1F
100
AcDbEntity
  8
3
  6
Continuous
100
AcDbLine
 10
434.8269823213829
 20
163.7504119173658
 30
0.0
 11
434.7849823213829
 21
163.7504119173658
 31
0.0
  0
LWPOLYLINE
  5
ECA
330
1F
100
AcDbEntity
  8
3
  6
Continuous
100
AcDbPolyline
 90
        6
 70
   128
 43
0.0
 10
434.8301774182977
 20
163.7684972473328
 10
434.8300837768095
 20
163.7693134186389
 10
434.829820010624
 20
163.7700344460142
 10
434.829287738561
 20
163.7708226017072
 10
434.8286797043376
 20
163.7713371431209
 10
434.8280673421128
 20
163.7715356813212
  0
LINE
  5
ECC
330
1F
100
AcDbEntity
  8
3
  6
Continuous
100
AcDbLine
 10
434.8280673421128
 20
163.7715356813212
 30
0.0
 11
434.8269823213828
 21
163.7715356813212
 31
0.0
  0
LINE
  5
ECD
330
1F
100
AcDbEntity
  8
3
  6
Continuous
100
AcDbLine
 10
434.8269823213829
 20
163.7504119173658
 30
0.0
 11
434.8280097715342
 21
163.7504119173658
 31
0.0
  0
LINE
  5
ECE
330
1F
100
AcDbEntity
  8
3
  6
Continuous
100
AcDbLine
 10
434.8079823213829
 20
163.7715356813212
 30
0.0
 11
434.8269823213828
 21
163.7715356813212
 31
0.0
  0
LINE
  5
ECF
330
1F
100
AcDbEntity
  8
3
  6
Continuous
100
AcDbLine
 10
434.8149823213829
 20
163.7345356813211
 30
0.0
 11
434.8149823213828
 21
163.7404119173659
 31
0.0
  0
LINE
  5
ED8
330
1F
100
AcDbEntity
  8
3
  6
Continuous
100
AcDbLine
 10
434.799982321383
 20
163.7945356813212
 30
0.0
 11
434.8124684431942
 21
163.7945356813212
 31
0.0
  0
ARC
  5
EDA
330
1F
100
AcDbEntity
  8
3
  6
Continuous
100
AcDbCircle
 10
434.7999823213829
 20
163.8045356813212
 30
0.0
 40
0.01
100
AcDbArc
 50
179.9999999999906
 51
269.9999999999936
  0
ARC
  5
EDE
330
1F
100
AcDbEntity
  8
3
  6
Continuous
100
AcDbCircle
 10
434.8124684431943
 20
163.7895356813212
 30
0.0
 40
0.005
100
AcDbArc
 50
56.30993247401371
 51
89.99999999999035
  0
LINE
  5
EDF
330
1F
100
AcDbEntity
  8
3
  6
Continuous
100
AcDbLine
 10
434.8152419441754
 20
163.7936959327929
 30
0.0
 11
434.8276464219715
 21
163.7854262809287
 31
0.0
  0
ARC
  5
EE0
330
1F
100
AcDbEntity
  8
3
  6
Continuous
100
AcDbCircle
 10
434.8259823213829
 20
163.7829301300457
 30
0.0
 40
0.0030000000000001
100
AcDbArc
 50
0.0000000000165842
 51
56.30993247401089
  0
LINE
  5
EE1
330
1F
100
AcDbEntity
  8
3
  6
Continuous
100
AcDbLine
 10
434.8289823213828
 20
163.7735356813211
 30
0.0
 11
434.8289823213828
 21
163.7829301300457
 31
0.0
  0
LWPOLYLINE
  5
EE7
330
1F
100
AcDbEntity
  8
3
  6
Continuous
100
AcDbPolyline
 90
        6
 70
   128
 43
0.0
 10
434.7305515557158
 20
163.9545356813211
 10
434.7288886136292
 20
163.9545294667737
 10
434.7273027521815
 20
163.954511676705
 10
434.7259538492585
 20
163.9544841543916
 10
434.7249884730218
 20
163.9544494926036
 10
434.7247704902281
 20
163.9544366423925
  0
LINE
  5
EEB
330
1F
100
AcDbEntity
  8
3
  6
Continuous
100
AcDbLine
 10
434.7369823213829
 20
163.9355356813212
 30
0.0
 11
434.6979823213829
 21
163.9355356813212
 31
0.0
  0
LINE
  5
EEC
330
1F
100
AcDbEntity
  8
3
  6
Continuous
100
AcDbLine
 10
434.6979823213829
 20
163.9475356813212
 30
0.0
 11
434.7369823213829
 21
163.9475356813212
 31
0.0
  0
ARC
  5
EF0
330
1F
100
AcDbEntity
  8
3
  6
Continuous
100
AcDbCircle
 10
434.6979823213828
 20
163.9455356813212
 30
0.0
 40
0.0020000000000004
100
AcDbArc
 50
359.9999999999838
 51
89.99999999998385
  0
ARC
  5
EF1
330
1F
100
AcDbEntity
  8
3
  6
Continuous
100
AcDbCircle
 10
434.6795312356096
 20
163.9575356813212
 30
0.0
 40
0.0100000000000001
100
AcDbArc
 50
194.9999999999979
 51
269.9999999999936
  0
LINE
  5
EF2
330
1F
100
AcDbEntity
  8
3
  6
Continuous
100
AcDbLine
 10
434.6519823213829
 20
163.8725356813212
 30
0.0
 11
434.6519823213829
 21
163.9535356676089
 31
0.0
  0
LINE
  5
EF3
330
1F
100
AcDbEntity
  8
3
  6
Continuous
100
AcDbLine
 10
434.6629823213829
 20
163.9342955973123
 30
0.0
 11
434.6578269600846
 21
163.9535356676088
 31
0.0
  0
LINE
  5
EF8
330
1F
100
AcDbEntity
  8
3
  6
Continuous
100
AcDbLine
 10
434.6629823213829
 20
163.9342955973123
 30
0.0
 11
434.6629823213828
 21
163.8725356813212
 31
0.0
  0
LINE
  5
EFA
330
1F
100
AcDbEntity
  8
3
  6
Continuous
100
AcDbLine
 10
434.6519823213829
 20
163.8725356813212
 30
0.0
 11
434.6629823213828
 21
163.8725356813212
 31
0.0
  0
LINE
  5
F01
330
1F
100
AcDbEntity
  8
3
  6
Continuous
100
AcDbLine
 10
434.6799823213829
 20
163.9355356813212
 30
0.0
 11
434.6979823213829
 21
163.9355356813212
 31
0.0
  0
ARC
  5
F09
330
1F
100
AcDbEntity
  8
3
  6
Continuous
100
AcDbCircle
 10
434.6799823213829
 20
163.9305356813212
 30
0.0
 40
0.0050000000000003
100
AcDbArc
 50
89.99999999998712
 51
180.0000000001015
  0
ARC
  5
F0A
330
1F
100
AcDbEntity
  8
3
  6
Continuous
100
AcDbCircle
 10
434.6979823213828
 20
163.9375356813212
 30
0.0
 40
0.0019999999999999
100
AcDbArc
 50
269.9999999999871
 51
359.9999999999971
  0
LINE
  5
F0B
330
1F
100
AcDbEntity
  8
3
  6
Continuous
100
AcDbLine
 10
434.6999823213828
 20
163.9375356813212
 30
0.0
 11
434.6999823213828
 21
163.9455356813212
 31
0.0
  0
LINE
  5
F0D
330
1F
100
AcDbEntity
  8
3
  6
Continuous
100
AcDbLine
 10
434.6698719773468
 20
163.9549474908701
 30
0.0
 11
434.6680278744577
 21
163.9618297765468
 31
0.0
  0
LWPOLYLINE
  5
F0E
330
1F
100
AcDbEntity
  8
3
  6
Continuous
100
AcDbPolyline
 90
       18
 70
   128
 43
0.0
 10
434.6870594662567
 20
163.9592976441028
 10
434.6861619968721
 20
163.959547867989
 10
434.6844887625681
 20
163.9600101994487
 10
434.6830259576849
 20
163.9604103306481
 10
434.6815283187429
 20
163.9608191264103
 10
434.6798137115232
 20
163.9612948582939
 10
434.6779032767897
 20
163.9618283565179
 10
434.6760585616889
 20
163.9623344403368
 10
434.6743730166958
 20
163.9627891965534
 10
434.6716399110111
 20
163.9635166572444
 10
434.6694104014541
 20
163.9641028990105
 10
434.66758442867
 20
163.9645774939411
 10
434.6669917368606
 20
163.9647302724162
 10
434.6664543023317
 20
163.9648681395609
 10
434.6659942625697
 20
163.9649842400769
 10
434.6656495440495
 20
163.9650654563069
 10
434.6654509831195
 20
163.9650969063859
 10
434.6654385247768
 20
163.9650764374466
  0
ARC
  5
F0F
330
1F
100
AcDbEntity
  8
3
  6
Continuous
100
AcDbCircle
 10
434.6429823213829
 20
163.9625356813212
 30
0.0
 40
0.0030000000000003
100
AcDbArc
 50
89.99999999999362
 51
179.9999999999906
  0
LWPOLYLINE
  5
F10
330
1F
100
AcDbEntity
  8
3
  6
Continuous
100
AcDbPolyline
 90
        5
 70
   128
 43
0.0
 10
434.6680278744577
 20
163.9618297765468
 10
434.6673555933878
 20
163.9633135324864
 10
434.6662420524713
 20
163.9645024480227
 10
434.6648054426528
 20
163.9652703319687
 10
434.6631982453263
 20
163.9655356813212
  0
LINE
  5
F11
330
1F
100
AcDbEntity
  8
3
  6
Continuous
100
AcDbLine
 10
434.642982321383
 20
163.9655356813213
 30
0.0
 11
434.6631982453263
 21
163.9655356813212
 31
0.0
  0
LINE
  5
F12
330
1F
100
AcDbEntity
  8
3
  6
Continuous
100
AcDbLine
 10
434.6519823213829
 20
163.9535356676089
 30
0.0
 11
434.6578269600846
 21
163.9535356676088
 31
0.0
  0
LWPOLYLINE
  5
F16
330
1F
100
AcDbEntity
  8
3
  6
Continuous
100
AcDbPolyline
 90
        3
 70
   128
 43
0.0
 10
434.6867262172477
 20
163.9593662025396
 10
434.693644875011
 20
163.95742839896
 10
434.701956770437
 20
163.9550212431594
  0
LINE
  5
F19
330
1F
100
AcDbEntity
  8
3
  6
Continuous
100
AcDbLine
 10
434.6795312356097
 20
163.9475356813211
 30
0.0
 11
434.6979823213829
 21
163.9475356813212
 31
0.0
  0
LWPOLYLINE
  5
F23
330
1F
100
AcDbEntity
  8
3
  6
Continuous
100
AcDbPolyline
 90
        3
 70
   128
 43
0.0
 10
434.7247704902281
 20
163.9544366423925
 10
434.7150306989071
 20
163.9537224829074
 10
434.7083873886463
 20
163.9531854518308
  0
LINE
  5
F27
330
1F
100
AcDbEntity
  8
3
  6
Continuous
100
AcDbLine
 10
434.701956770437
 20
163.9550212431594
 30
0.0
 11
434.7083873886463
 21
163.9531854518308
 31
0.0
  0
LINE
  5
F28
330
1F
100
AcDbEntity
  8
3
  6
Continuous
100
AcDbLine
 10
434.7349823213829
 20
163.9455356813212
 30
0.0
 11
434.7349823213829
 21
163.9375356813212
 31
0.0
  0
LINE
  5
F29
330
1F
100
AcDbEntity
  8
3
  6
Continuous
100
AcDbLine
 10
434.7899823213829
 20
163.9445356813212
 30
0.0
 11
434.7899823213828
 21
163.9270356813212
 31
0.0
  0
LINE
  5
F2C
330
1F
100
AcDbEntity
  8
3
  6
Continuous
100
AcDbLine
 10
434.7799823213829
 20
163.9000356813211
 30
0.0
 11
434.7879823213829
 21
163.9000356813211
 31
0.0
  0
LINE
  5
F2D
330
1F
100
AcDbEntity
  8
3
  6
Continuous
100
AcDbLine
 10
434.7879823213829
 20
163.9250356813211
 30
0.0
 11
434.7799823213829
 21
163.9250356813211
 31
0.0
  0
LWPOLYLINE
  5
F31
330
1F
100
AcDbEntity
  8
3
  6
Continuous
100
AcDbPolyline
 90
        5
 70
   128
 43
0.0
 10
434.7779823213829
 20
163.8980356813212
 10
434.7779873162983
 20
163.8982366132779
 10
434.7780023013007
 20
163.8988571072864
 10
434.7780241591206
 20
163.8998163202704
 10
434.7780519499628
 20
163.9011519582834
  0
ARC
  5
F32
330
1F
100
AcDbEntity
  8
3
  6
Continuous
100
AcDbCircle
 10
434.7799823213829
 20
163.8980356813211
 30
0.0
 40
0.0019999999999999
100
AcDbArc
 50
89.99999999999362
 51
179.9999999999971
  0
LINE
  5
F35
330
1F
100
AcDbEntity
  8
3
  6
Continuous
100
AcDbLine
 10
434.7369823213829
 20
163.9355356813212
 30
0.0
 11
434.754982321383
 21
163.9355356813212
 31
0.0
  0
ARC
  5
F36
330
1F
100
AcDbEntity
  8
3
  6
Continuous
100
AcDbCircle
 10
434.736982321383
 20
163.9375356813213
 30
0.0
 40
0.0019999999999999
100
AcDbArc
 50
179.9999999999971
 51
269.9999999999936
  0
LINE
  5
F3B
330
1F
100
AcDbEntity
  8
3
  6
Continuous
100
AcDbLine
 10
434.7769823213829
 20
163.9060332618105
 30
0.0
 11
434.7769823213829
 21
163.9187365742983
 31
0.0
  0
LWPOLYLINE
  5
F3C
330
1F
100
AcDbEntity
  8
3
  6
Continuous
100
AcDbPolyline
 90
        4
 70
   128
 43
0.0
 10
434.7769823213829
 20
163.9187365742983
 10
434.7775362395956
 20
163.920510329034
 10
434.7779331778985
 20
163.9222760599115
 10
434.7780564597953
 20
163.9236875910812
  0
LWPOLYLINE
  5
F3E
330
1F
100
AcDbEntity
  8
3
  6
Continuous
100
AcDbPolyline
 90
        3
 70
   128
 43
0.0
 10
434.7780519499628
 20
163.9011519582834
 10
434.7777356494161
 20
163.9034934989512
 10
434.7769823213829
 20
163.9060332618106
  0
LWPOLYLINE
  5
F41
330
1F
100
AcDbEntity
  8
3
  6
Continuous
100
AcDbPolyline
 90
        5
 70
   128
 43
0.0
 10
434.7780564597953
 20
163.9236875910812
 10
434.7780281803151
 20
163.9250705880489
 10
434.7780042764147
 20
163.9261303594438
 10
434.7779881643766
 20
163.9268003525615
 10
434.777982321383
 20
163.9270356813212
  0
LINE
  5
F42
330
1F
100
AcDbEntity
  8
3
  6
Continuous
100
AcDbLine
 10
434.7649823213829
 20
163.9355356813212
 30
0.0
 11
434.7729823213829
 21
163.9355356813212
 31
0.0
  0
ARC
  5
F43
330
1F
100
AcDbEntity
  8
3
  6
Continuous
100
AcDbCircle
 10
434.7729823213828
 20
163.9305356813212
 30
0.0
 40
0.0049999999999999
100
AcDbArc
 50
359.9999999999904
 51
89.99999999999035
  0
LINE
  5
F44
330
1F
100
AcDbEntity
  8
3
  6
Continuous
100
AcDbLine
 10
434.7779823213829
 20
163.9305356813211
 30
0.0
 11
434.7779823213829
 21
163.9270356813212
 31
0.0
  0
ARC
  5
F45
330
1F
100
AcDbEntity
  8
3
  6
Continuous
100
AcDbCircle
 10
434.7799823213828
 20
163.9270356813211
 30
0.0
 40
0.0020000000000002
100
AcDbArc
 50
180.000000000108
 51
269.9999999999936
  0
ARC
  5
F4C
330
1F
100
AcDbEntity
  8
3
  6
Continuous
100
AcDbCircle
 10
434.7879823213829
 20
163.8980356813211
 30
0.0
 40
0.0019999999999999
100
AcDbArc
 50
0.0000000000035901
 51
90.00000000000333
  0
LWPOLYLINE
  5
F4D
330
1F
100
AcDbEntity
  8
3
  6
Continuous
100
AcDbPolyline
 90
       20
 70
   128
 43
0.0
 10
434.7899823213829
 20
163.9270356813212
 10
434.7899875121504
 20
163.9268295847129
 10
434.7900022320381
 20
163.9262230080033
 10
434.7900250558706
 20
163.9252280813725
 10
434.7900532398178
 20
163.9238786267999
 10
434.7900837793889
 20
163.9222053979476
 10
434.7901131908282
 20
163.9202622664306
 10
434.7901381852574
 20
163.9180931624413
 10
434.7901560087109
 20
163.91576843181
 10
434.7901644527349
 20
163.9133449451084
 10
434.7901627651571
 20
163.9108987026708
 10
434.7901508412861
 20
163.9084959957019
 10
434.7901302755361
 20
163.906207275615
 10
434.7901032048355
 20
163.9041009732666
 10
434.790072816312
 20
163.9022331300078
 10
434.7900425816657
 20
163.9006645728411
 10
434.7900158115654
 20
163.8994314756746
 10
434.7899957383249
 20
163.8985769502398
 10
434.789984330026
 20
163.8981155900554
 10
434.7899823213829
 20
163.8980356813212
  0
ARC
  5
F4F
330
1F
100
AcDbEntity
  8
3
  6
Continuous
100
AcDbCircle
 10
434.7879823213828
 20
163.9270356813212
 30
0.0
 40
0.0020000000000004
100
AcDbArc
 50
270.0000000000001
 51
359.9999999999838
  0
LINE
  5
F50
330
1F
100
AcDbEntity
  8
3
  6
Continuous
100
AcDbLine
 10
434.7369823213829
 20
163.9475356813212
 30
0.0
 11
434.7869823213829
 21
163.9475356813211
 31
0.0
  0
ARC
  5
F51
330
1F
100
AcDbEntity
  8
3
  6
Continuous
100
AcDbCircle
 10
434.736982321383
 20
163.9455356813212
 30
0.0
 40
0.0020000000000002
100
AcDbArc
 50
89.99999999999362
 51
180.0000000000035
  0
LINE
  5
F52
330
1F
100
AcDbEntity
  8
3
  6
Continuous
100
AcDbLine
 10
434.7869823213829
 20
163.9475356813211
 30
0.0
 11
434.8245227753927
 21
163.9475356813211
 31
0.0
  0
ARC
  5
F54
330
1F
100
AcDbEntity
  8
3
  6
Continuous
100
AcDbCircle
 10
434.7869823213829
 20
163.9445356813212
 30
0.0
 40
0.0030000000000003
100
AcDbArc
 50
359.9999999999971
 51
89.99999999998712
  0
LINE
  5
F58
330
1F
100
AcDbEntity
  8
3
  6
Continuous
100
AcDbLine
 10
434.8245227753927
 20
163.9475356813211
 30
0.0
 11
434.828600879803
 21
163.9475356813212
 31
0.0
  0
LWPOLYLINE
  5
F59
330
1F
100
AcDbEntity
  8
3
  6
Continuous
100
AcDbPolyline
 90
        4
 70
   128
 43
0.0
 10
434.8299777245768
 20
163.947768584308
 10
434.8286118360841
 20
163.947649629698
 10
434.8271267106329
 20
163.9476232062989
 10
434.8253315788501
 20
163.9476610377345
  0
LWPOLYLINE
  5
F5B
330
1F
100
AcDbEntity
  8
3
  6
Continuous
100
AcDbPolyline
 90
        6
 70
   128
 43
0.0
 10
434.8249475925457
 20
163.9474018909667
 10
434.8265874769339
 20
163.9474829746272
 10
434.8285679027192
 20
163.9475300465323
 10
434.8303862098254
 20
163.9475381992174
 10
434.8324030562692
 20
163.9475152255031
 10
434.8347791381068
 20
163.947448710733
  0
LINE
  5
F5E
330
1F
100
AcDbEntity
  8
3
  6
Continuous
100
AcDbLine
 10
434.828600879803
 20
163.9475356813212
 30
0.0
 11
434.8253315788501
 21
163.9476610377344
 31
0.0
  0
LWPOLYLINE
  5
F62
330
1F
100
AcDbEntity
  8
3
  6
Continuous
100
AcDbPolyline
 90
        9
 70
   128
 43
0.0
 10
434.8245227753927
 20
163.9475356813211
 10
434.8246376065027
 20
163.9475343279467
 10
434.8247132529228
 20
163.9475315338127
 10
434.8247750168255
 20
163.9475276023666
 10
434.8248288532182
 20
163.9475223946947
 10
434.8248838975808
 20
163.947514337052
 10
434.8249434350135
 20
163.9474993164734
 10
434.8249905614854
 20
163.9474512410864
 10
434.8249475925457
 20
163.9474018909667
  0
LINE
  5
F66
330
1F
100
AcDbEntity
  8
3
  6
Continuous
100
AcDbLine
 10
434.8923443130352
 20
163.686404883883
 30
0.0
 11
434.8997017515907
 21
163.7685629477517
 31
0.0
  0
LINE
  5
F67
330
1F
100
AcDbEntity
  8
3
  6
Continuous
100
AcDbLine
 10
434.8899823213828
 20
163.7715356813212
 30
0.0
 11
434.8899823213829
 21
163.7345356813211
 31
0.0
  0
LINE
  5
F68
330
1F
100
AcDbEntity
  8
3
  6
Continuous
100
AcDbLine
 10
434.8759823213828
 20
163.7851867574732
 30
0.0
 11
434.8759823213828
 21
163.7345356813212
 31
0.0
  0
LWPOLYLINE
  5
F6C
330
1F
100
AcDbEntity
  8
3
  6
Continuous
100
AcDbPolyline
 90
        3
 70
   128
 43
0.0
 10
434.8856125709303
 20
163.7077022020284
 10
434.8895754575446
 20
163.7201103152635
 10
434.8944467710307
 20
163.737376858729
  0
LINE
  5
F6E
330
1F
100
AcDbEntity
  8
3
  6
Continuous
100
AcDbLine
 10
434.8899823213829
 20
163.7345356813211
 30
0.0
 11
434.8759823213828
 21
163.7345356813212
 31
0.0
  0
LWPOLYLINE
  5
F70
330
1F
100
AcDbEntity
  8
3
  6
Continuous
100
AcDbPolyline
 90
       11
 70
   128
 43
0.0
 10
434.8481973298358
 20
163.7035649513593
 10
434.8570708394691
 20
163.7034505979069
 10
434.8642731226215
 20
163.7035008486352
 10
434.8709117575114
 20
163.7037644173977
 10
434.8768673018471
 20
163.7043385096418
 10
434.8808192618668
 20
163.7050691392994
 10
434.8830748424533
 20
163.705778914043
 10
434.8843466246886
 20
163.7064051379591
 10
434.8850578717286
 20
163.706937257235
 10
434.8854453902432
 20
163.7073872908639
 10
434.8856125709303
 20
163.7077022020284
  0
LINE
  5
F74
330
1F
100
AcDbEntity
  8
3
  6
Continuous
100
AcDbLine
 10
434.8759823213828
 20
163.7345356813212
 30
0.0
 11
434.8289823213828
 21
163.7345356813211
 31
0.0
  0
LINE
  5
F76
330
1F
100
AcDbEntity
  8
3
  6
Continuous
100
AcDbLine
 10
434.8289823213828
 20
163.7345356813211
 30
0.0
 11
434.8289823213828
 21
163.7484119173658
 31
0.0
  0
LINE
  5
F80
330
1F
100
AcDbEntity
  8
3
  6
Continuous
100
AcDbLine
 10
434.9115739744914
 20
163.7630749986926
 30
0.0
 11
434.9072144215563
 21
163.7627636020543
 31
0.0
  0
LWPOLYLINE
  5
F84
330
1F
100
AcDbEntity
  8
3
  6
Continuous
100
AcDbPolyline
 90
        5
 70
   128
 43
0.0
 10
434.8911796382534
 20
163.7968140361454
 10
434.8903651216244
 20
163.7966525440883
 10
434.8895667785797
 20
163.796348015942
 10
434.8891927548117
 20
163.7961473504252
 10
434.8888345747304
 20
163.7959138830064
  0
LWPOLYLINE
  5
F85
330
1F
100
AcDbEntity
  8
3
  6
Continuous
100
AcDbPolyline
 90
       12
 70
   128
 43
0.0
 10
434.8486110804339
 20
163.7945356813212
 10
434.8486111401489
 20
163.7945356813212
 10
434.8550440995536
 20
163.7945939306534
 10
434.8613954600854
 20
163.7947600030069
 10
434.867474008049
 20
163.7950191949546
 10
434.873121936723
 20
163.7953427754163
 10
434.8781973452829
 20
163.7957000994333
 10
434.8825643117284
 20
163.7960542087391
 10
434.8862027908102
 20
163.7963783619106
 10
434.8888928625702
 20
163.7966295629429
 10
434.8905907199184
 20
163.7967822591454
 10
434.8908262911145
 20
163.7967949701538
  0
LINE
  5
F8C
330
1F
100
AcDbEntity
  8
3
  6
Continuous
100
AcDbLine
 10
434.8486110830239
 20
163.7945356813211
 30
0.0
 11
434.8410129434651
 21
163.7945356813212
 31
0.0
  0
LWPOLYLINE
  5
F91
330
1F
100
AcDbEntity
  8
3
  6
Continuous
100
AcDbPolyline
 90
        7
 70
   128
 43
0.0
 10
434.8772382067726
 20
163.7876277455411
 10
434.876858279598
 20
163.7873054177388
 10
434.8765285672173
 20
163.7869128153705
 10
434.8762767491557
 20
163.7864828997726
 10
434.8760955740819
 20
163.7860032943829
 10
434.8760113139926
 20
163.7856028418324
 10
434.8759823213829
 20
163.7851867574732
  0
LINE
  5
F92
330
1F
100
AcDbEntity
  8
3
  6
Continuous
100
AcDbLine
 10
434.8888345747356
 20
163.7959138830102
 30
0.0
 11
434.8772382067723
 21
163.787627745541
 31
0.0
  0
LWPOLYLINE
  5
F94
330
1F
100
AcDbEntity
  8
3
  6
Continuous
100
AcDbPolyline
 90
        5
 70
   128
 43
0.0
 10
434.9376250632424
 20
163.792826250578
 10
434.9258522426413
 20
163.7901986591859
 10
434.9139878526046
 20
163.7879521563658
 10
434.9020186977336
 20
163.786086780571
 10
434.8899823213829
 20
163.7846109182251
  0
LINE
  5
F95
330
1F
100
AcDbEntity
  8
3
  6
Continuous
100
AcDbLine
 10
434.9174093167731
 20
163.7835356813212
 30
0.0
 11
434.9376250632423
 21
163.7928262505779
 31
0.0
  0
LINE
  5
F96
330
1F
100
AcDbEntity
  8
3
  6
Continuous
100
AcDbLine
 10
434.9016548267067
 20
163.7715356813212
 30
0.0
 11
434.9193400841433
 21
163.7715356813211
 31
0.0
  0
LINE
  5
F99
330
1F
100
AcDbEntity
  8
3
  6
Continuous
100
AcDbLine
 10
434.8908262911145
 20
163.7967949701538
 30
0.0
 11
434.8911796382533
 21
163.7968140361453
 31
0.0
  0
LWPOLYLINE
  5
F9B
330
1F
100
AcDbEntity
  8
3
  6
Continuous
100
AcDbPolyline
 90
        6
 70
   128
 43
0.0
 10
434.9198785399766
 20
163.769448384304
 10
434.9197964960647
 20
163.7701148964584
 10
434.9194984578176
 20
163.7707166795245
 10
434.9190180267869
 20
163.7711858870271
 10
434.9184093679256
 20
163.7714696193801
 10
434.9177381805103
 20
163.7715356813212
  0
ARC
  5
F9C
330
1F
100
AcDbEntity
  8
3
  6
Continuous
100
AcDbCircle
 10
434.9017973208069
 20
163.7695407639215
 30
0.0
 40
0.0020000000000002
100
AcDbArc
 50
94.08561677998092
 51
174.8826851500491
  0
LINE
  5
F9D
330
1F
100
AcDbEntity
  8
3
  6
Continuous
100
AcDbLine
 10
434.8899823213829
 20
163.784610918225
 30
0.0
 11
434.8899823213828
 21
163.7835356813212
 31
0.0
  0
LINE
  5
F9E
330
1F
100
AcDbEntity
  8
3
  6
Continuous
100
AcDbLine
 10
434.8899823213828
 20
163.7835356813212
 30
0.0
 11
434.9174093167731
 21
163.7835356813212
 31
0.0
  0
LINE
  5
F9F
330
1F
100
AcDbEntity
  8
3
  6
Continuous
100
AcDbLine
 10
434.9197121029448
 20
163.7660107796321
 30
0.0
 11
434.9198754959783
 21
163.7694484490479
 31
0.0
  0
LWPOLYLINE
  5
FA1
330
1F
100
AcDbEntity
  8
3
  6
Continuous
100
AcDbPolyline
 90
        4
 70
   128
 43
0.0
 10
434.9193400841433
 20
163.7715356813212
 10
434.9198365926206
 20
163.7715770533659
 10
434.9203331010978
 20
163.7717047949737
 10
434.9205688578121
 20
163.7717988737734
  0
LWPOLYLINE
  5
FA3
330
1F
100
AcDbEntity
  8
3
  6
Continuous
100
AcDbPolyline
 90
       11
 70
   128
 43
0.0
 10
434.8807459927183
 20
163.9545356813211
 10
434.8807670840587
 20
163.9545354267669
 10
434.880783009377
 20
163.9545346691172
 10
434.8807944609492
 20
163.9545333057453
 10
434.8808009127725
 20
163.9545301551663
 10
434.8807641924814
 20
163.9545174961376
 10
434.8804562769205
 20
163.9544679197135
 10
434.878913374743
 20
163.9542740033917
 10
434.8722686373223
 20
163.9535008484462
 10
434.8602441744991
 20
163.9520574004565
 10
434.8488377627841
 20
163.950586466501
  0
LINE
  5
FA4
330
1F
100
AcDbEntity
  8
3
  6
Continuous
100
AcDbLine
 10
435.0604905265136
 20
163.9436120988034
 30
0.0
 11
435.0725371206406
 21
163.9441118770374
 31
0.0
  0
LINE
  5
FA9
330
1F
100
AcDbEntity
  8
3
  6
Continuous
100
AcDbLine
 10
435.1898438124514
 20
163.9545356813211
 30
0.0
 11
435.1978529061915
 21
163.9392697902513
 31
0.0
  0
LWPOLYLINE
  5
FAB
330
1F
100
AcDbEntity
  8
3
  6
Continuous
100
AcDbPolyline
 90
        5
 70
   128
 43
0.0
 10
435.1563415925454
 20
163.9425356813211
 10
435.1459378313655
 20
163.9282628638875
 10
435.1348421726267
 20
163.9144696413221
 10
435.1230194896054
 20
163.9011308175077
 10
435.1105417009497
 20
163.8883451749446
  0
LWPOLYLINE
  5
FAC
330
1F
100
AcDbEntity
  8
3
  6
Continuous
100
AcDbPolyline
 90
        3
 70
   128
 43
0.0
 10
435.1105417009497
 20
163.8883451749446
 10
435.1478504349312
 20
163.9131178482406
 10
435.1844295344331
 20
163.939026103292
  0
LWPOLYLINE
  5
FAD
330
1F
100
AcDbEntity
  8
3
  6
Continuous
100
AcDbPolyline
 90
        3
 70
   128
 43
0.0
 10
435.1266587431202
 20
163.954535681321
 10
435.1364045257467
 20
163.9547115531154
 10
435.1461294207361
 20
163.9552400660329
  0
LWPOLYLINE
  5
FAE
330
1F
100
AcDbEntity
  8
3
  6
Continuous
100
AcDbPolyline
 90
        3
 70
   128
 43
0.0
 10
435.1547853426918
 20
163.9545356813211
 10
435.1348115145588
 20
163.9499667827032
 10
435.1158992584788
 20
163.9456876894153
  0
LWPOLYLINE
  5
FAF
330
1F
100
AcDbEntity
  8
3
  6
Continuous
100
AcDbPolyline
 90
        6
 70
   128
 43
0.0
 10
435.1251520988289
 20
163.9465115214318
 10
435.1262922220237
 20
163.9465974508464
 10
435.1317640484211
 20
163.9471038110838
 10
435.1363338059642
 20
163.9476463646816
 10
435.1400098295878
 20
163.9482402164209
 10
435.1424491827089
 20
163.9488058666927
  0
LINE
  5
FB1
330
1F
100
AcDbEntity
  8
3
  6
Continuous
100
AcDbLine
 10
435.1199168225742
 20
163.9461169463313
 30
0.0
 11
435.1251520988289
 21
163.9465115214318
 31
0.0
  0
LWPOLYLINE
  5
FB5
330
1F
100
AcDbEntity
  8
3
  6
Continuous
100
AcDbPolyline
 90
        3
 70
   128
 43
0.0
 10
435.1158992584788
 20
163.9456876894153
 10
435.118197623695
 20
163.945961326396
 10
435.1199168225742
 20
163.9461169463314
  0
LINE
  5
FB6
330
1F
100
AcDbEntity
  8
3
  6
Continuous
100
AcDbLine
 10
435.1898438124514
 20
163.9545356813211
 30
0.0
 11
435.1494090943841
 21
163.9516396680802
 31
0.0
  0
LINE
  5
FB9
330
1F
100
AcDbEntity
  8
3
  6
Continuous
100
AcDbLine
 10
435.1563415925453
 20
163.9425356813211
 30
0.0
 11
435.1825882701861
 21
163.9425356813211
 31
0.0
  0
LWPOLYLINE
  5
FBA
330
1F
100
AcDbEntity
  8
3
  6
Continuous
100
AcDbPolyline
 90
        7
 70
   128
 43
0.0
 10
435.1494090943843
 20
163.9516396680802
 10
435.1489136660888
 20
163.9515624067978
 10
435.1484244485091
 20
163.9513984302556
 10
435.1479825135347
 20
163.9511615611083
 10
435.1475751208903
 20
163.9508449845181
 10
435.1473438108587
 20
163.9506062360498
 10
435.1471378252596
 20
163.9503400920035
  0
LWPOLYLINE
  5
FBB
330
1F
100
AcDbEntity
  8
3
  6
Continuous
100
AcDbPolyline
 90
        5
 70
   128
 43
0.0
 10
435.1482049175786
 20
163.9512872025115
 10
435.1463004668555
 20
163.9502816085164
 10
435.1445595260211
 20
163.9495154933797
 10
435.1430800334727
 20
163.9490034405644
 10
435.1421085081445
 20
163.9487371422987
  0
LINE
  5
FBD
330
1F
100
AcDbEntity
  8
3
  6
Continuous
100
AcDbLine
 10
435.1825882701861
 20
163.9425356813211
 30
0.0
 11
435.184429534433
 21
163.939026103292
 31
0.0
  0
LINE
  5
FBE
330
1F
100
AcDbEntity
  8
3
  6
Continuous
100
AcDbLine
 10
435.1547853531699
 20
163.954535681321
 30
0.0
 11
435.1898438124514
 21
163.9545356813211
 31
0.0
  0
LWPOLYLINE
  5
FBF
330
1F
100
AcDbEntity
  8
3
  6
Continuous
100
AcDbPolyline
 90
        4
 70
   128
 43
0.0
 10
435.1498509140178
 20
163.9552021318791
 10
435.1490372034762
 20
163.9553022858653
 10
435.1478101314074
 20
163.9553191328824
 10
435.1461294207361
 20
163.9552400660329
  0
LWPOLYLINE
  5
FC0
330
1F
100
AcDbEntity
  8
3
  6
Continuous
100
AcDbPolyline
 90
        3
 70
   128
 43
0.0
 10
435.1498509140178
 20
163.9552021318791
 10
435.1524304321999
 20
163.9547016100556
 10
435.1547853521991
 20
163.9545356832518
  0
LWPOLYLINE
  5
FC1
330
1F
100
AcDbEntity
  8
3
  6
Continuous
100
AcDbPolyline
 90
        4
 70
   128
 43
0.0
 10
435.1963087319513
 20
163.9329064185585
 10
435.1963926415282
 20
163.9329225675817
 10
435.1963926413966
 20
163.9329225677705
 10
435.1963926413966
 20
163.9329225677705
  0
LWPOLYLINE
  5
FC2
330
1F
100
AcDbEntity
  8
3
  6
Continuous
100
AcDbPolyline
 90
        6
 70
   128
 43
0.0
 10
435.1963926413966
 20
163.9329225677705
 10
435.1975574175866
 20
163.934131632309
 10
435.1982563274029
 20
163.9356580872702
 10
435.1984105778893
 20
163.9373298443777
 10
435.1980027728975
 20
163.9389584331139
 10
435.1978529061915
 20
163.9392697902513
  0
LINE
  5
FC3
330
1F
100
AcDbEntity
  8
3
  6
Continuous
100
AcDbLine
 10
435.1950729177197
 20
163.9319731302544
 30
0.0
 11
435.1963256053675
 21
163.9328832364104
 31
0.0
  0
LINE
  5
FC8
330
1F
100
AcDbEntity
  8
3
100
AcDbLine
 10
434.3138856870418
 20
163.9278131533377
 30
0.0
 11
434.3139527277734
 21
163.9278524766816
 31
0.0
  0
LINE
  5
FCF
330
1F
100
AcDbEntity
  8
3
100
AcDbLine
 10
433.7575234724344
 20
163.7448298085828
 30
0.0
 11
433.7575234724345
 21
163.7645368338134
 31
0.0
  0
LINE
  5
FD1
330
1F
100
AcDbEntity
  8
3
100
AcDbLine
 10
434.0287577883708
 20
163.764429556897
 30
0.0
 11
434.0287577883708
 21
163.764179040932
 31
0.0
  0
LINE
  5
FD2
330
1F
100
AcDbEntity
  8
3
100
AcDbLine
 10
434.0257014191865
 20
163.7664999056605
 30
0.0
 11
434.026967368408
 21
163.7664999056607
 31
0.0
  0
LINE
  5
FD3
330
1F
100
AcDbEntity
  8
3
100
AcDbLine
 10
434.9177381805103
 20
163.7715356813212
 30
0.0
 11
434.9016548267067
 21
163.7715356813212
 31
0.0
  0
LINE
  5
FD5
330
1F
100
AcDbEntity
  8
3
100
AcDbLine
 10
434.6399823213831
 20
163.7498337386909
 30
0.0
 11
434.639982321383
 21
163.7695407639215
 31
0.0
  0
LINE
  5
FD8
330
1F
100
AcDbEntity
  8
3
100
AcDbLine
 10
434.8998052924949
 20
163.7697191545166
 30
0.0
 11
434.8997017515907
 21
163.7685629477517
 31
0.0
  0
LINE
  5
FDC
330
1F
100
AcDbEntity
  8
3
  6
Continuous
100
AcDbLine
 10
434.8899823213829
 20
163.7372839057326
 30
0.0
 11
434.8944467710307
 21
163.737376858729
 31
0.0
  0
LINE
  5
FDD
330
1F
100
AcDbEntity
  8
3
100
AcDbLine
 10
434.7549823213829
 20
163.7715356813212
 30
0.0
 11
434.641839827283
 21
163.7715356813212
 31
0.0
  0
LINE
  5
FDF
330
1F
100
AcDbEntity
  8
3
100
AcDbLine
 10
434.9016548267069
 20
163.7715356813212
 30
0.0
 11
434.8899823213828
 21
163.7715356813212
 31
0.0
  0
LINE
  5
FE3
330
1F
100
AcDbEntity
  8
3
100
AcDbLine
 10
432.9943470684924
 20
163.1016959770977
 30
0.0
 11
433.010586136689
 21
163.1017310797327
 31
0.0
  0
LINE
  5
FE4
330
1F
100
AcDbEntity
  8
3
100
AcDbLine
 10
432.7632695857086
 20
163.1016959770978
 30
0.0
 11
432.7473980806689
 21
163.1016959770978
 31
0.0
  0
LINE
  5
FE5
330
1F
100
AcDbEntity
  8
3
100
AcDbLine
 10
433.9939917943621
 20
163.1136302226361
 30
0.0
 11
433.9926844247086
 21
163.0985163842061
 31
0.0
  0
ENDSEC
  0
SECTION
  2
OBJECTS
  0
DICTIONARY
  5
C
330
0
100
AcDbDictionary
281
     1
  3
ACAD_COLOR
350
1018
  3
ACAD_GROUP
350
D
  3
ACAD_LAYOUT
350
1A
  3
ACAD_MATERIAL
350
FEB
  3
ACAD_MLEADERSTYLE
350
102D
  3
ACAD_MLINESTYLE
350
17
  3
ACAD_PLOTSETTINGS
350
19
  3
ACAD_PLOTSTYLENAME
350
E
  3
ACAD_SCALELIST
350
101B
  3
ACAD_TABLESTYLE
350
1019
  3
ACAD_VISUALSTYLE
350
1004
  3
ACDB_RECOMPOSE_DATA
350
1049
  3
AcDbVariableDictionary
350
75D
  3
ASE_INDEX_DICTIONARY
350
759
  3
DWGPROPS
350
104A
  0
DICTIONARY
  5
1031
330
10
100
AcDbDictionary
280
     1
281
     1
  3
ADSK_XREC_LAYER_RECONCILED
360
1032
  0
DICTIONARY
  5
1033
330
69
100
AcDbDictionary
280
     1
281
     1
  3
ADSK_XREC_LAYER_RECONCILED
360
1034
  0
DICTIONARY
  5
1035
330
6B
100
AcDbDictionary
280
     1
281
     1
  3
ADSK_XREC_LAYER_RECONCILED
360
1036
  0
DICTIONARY
  5
1037
330
6C
100
AcDbDictionary
280
     1
281
     1
  3
ADSK_XREC_LAYER_RECONCILED
360
1038
  0
DICTIONARY
  5
1039
330
6D
100
AcDbDictionary
280
     1
281
     1
  3
ADSK_XREC_LAYER_RECONCILED
360
103A
  0
DICTIONARY
  5
103B
330
6E
100
AcDbDictionary
280
     1
281
     1
  3
ADSK_XREC_LAYER_RECONCILED
360
103C
  0
DICTIONARY
  5
103D
330
426
100
AcDbDictionary
280
     1
281
     1
  3
ADSK_XREC_LAYER_RECONCILED
360
103E
  0
DICTIONARY
  5
103F
330
427
100
AcDbDictionary
280
     1
281
     1
  3
ADSK_XREC_LAYER_RECONCILED
360
1040
  0
DICTIONARY
  5
1018
102
{ACAD_REACTORS
330
C
102
}
330
C
100
AcDbDictionary
281
     1
  0
DICTIONARY
  5
D
102
{ACAD_REACTORS
330
C
102
}
330
C
100
AcDbDictionary
281
     1
  0
DICTIONARY
  5
1A
102
{ACAD_REACTORS
330
C
102
}
330
C
100
AcDbDictionary
281
     1
  3
Layout1
350
1E
  3
Layout2
350
26
  3
Model
350
22
  0
DICTIONARY
  5
FEB
102
{ACAD_REACTORS
330
C
102
}
330
C
100
AcDbDictionary
281
     1
  3
ByBlock
350
FF4
  3
ByLayer
350
FEC
  3
Global
350
FFC
  0
DICTIONARY
  5
102D
102
{ACAD_REACTORS
330
C
102
}
330
C
100
AcDbDictionary
281
     1
  3
Standard
350
102E
  0
DICTIONARY
  5
17
102
{ACAD_REACTORS
330
C
102
}
330
C
100
AcDbDictionary
281
     1
  3
Standard
350
18
  0
DICTIONARY
  5
19
102
{ACAD_REACTORS
330
C
102
}
330
C
100
AcDbDictionary
281
     1
  0
ACDBDICTIONARYWDFLT
  5
E
102
{ACAD_REACTORS
330
C
102
}
330
C
100
AcDbDictionary
281
     1
  3
Normal
350
F
100
AcDbDictionaryWithDefault
340
F
  0
DICTIONARY
  5
101B
102
{ACAD_REACTORS
330
C
102
}
330
C
100
AcDbDictionary
281
     1
  3
A0
350
101C
  3
A1
350
101D
  3
A2
350
101E
  3
A3
350
101F
  3
A4
350
1020
  3
A5
350
1021
  3
A6
350
1022
  3
A7
350
1023
  3
A8
350
1024
  3
A9
350
1025
  3
B0
350
1026
  3
B1
350
1027
  3
B2
350
1028
  3
B3
350
1029
  3
B4
350
102A
  3
B5
350
102B
  3
B6
350
102C
  0
DICTIONARY
  5
1019
102
{ACAD_REACTORS
330
C
102
}
330
C
100
AcDbDictionary
281
     1
  3
Standard
350
101A
  0
DICTIONARY
  5
1004
102
{ACAD_REACTORS
330
C
102
}
330
C
100
AcDbDictionary
281
     1
  3
2dWireframe
350
100A
  3
3D Hidden
350
100C
  3
3dWireframe
350
100B
  3
Basic
350
1009
  3
Brighten
350
1010
  3
ColorChange
350
1014
  3
Conceptual
350
100D
  3
Dim
350
100F
  3
EdgeColorOff
350
1017
  3
Facepattern
350
1013
  3
Flat
350
1005
  3
FlatWithEdges
350
1006
  3
Gouraud
350
1007
  3
GouraudWithEdges
350
1008
  3
JitterOff
350
1015
  3
Linepattern
350
1012
  3
OverhangOff
350
1016
  3
Realistic
350
100E
  3
Thicken
350
1011
  0
XRECORD
  5
1049
102
{ACAD_REACTORS
330
C
102
}
330
C
100
AcDbXrecord
280
     1
 90
        1
330
101A
  0
DICTIONARY
  5
75D
102
{ACAD_REACTORS
330
C
102
}
330
C
100
AcDbDictionary
281
     1
  3
CANNOSCALE
350
1043
  3
CMLEADERSTYLE
350
1042
  3
CTABLESTYLE
350
1041
  3
DIMASSOC
350
75F
  3
HIDETEXT
350
75E
  3
INDEXCTL
350
1045
  3
SORTENTS
350
1044
  3
XCLIPFRAME
350
1046
  0
DICTIONARY
  5
759
102
{ACAD_REACTORS
330
C
102
}
330
C
100
AcDbDictionary
281
     1
  3
ASEBlockHierarchyIndexRecord
350
75B
1001
DCO15
1040
1757667468.093
  0
XRECORD
  5
104A
102
{ACAD_REACTORS
330
C
102
}
330
C
100
AcDbXrecord
280
     1
  1
DWGPROPS COOKIE
  2

  3

  4

  6

  7

  8
Julio
  9

300
=
301
=
302
=
303
=
304
=
305
=
306
=
307
=
308
=
309
=
 40
0.0837628356481482
 41
2452843.63403772
 42
2456146.58532515
  1

 90
        0
  0
XRECORD
  5
1032
102
{ACAD_REACTORS
330
1031
102
}
330
1031
100
AcDbXrecord
280
     1
290
     1
  0
XRECORD
  5
1034
102
{ACAD_REACTORS
330
1033
102
}
330
1033
100
AcDbXrecord
280
     1
290
     1
  0
XRECORD
  5
1036
102
{ACAD_REACTORS
330
1035
102
}
330
1035
100
AcDbXrecord
280
     1
290
     1
  0
XRECORD
  5
1038
102
{ACAD_REACTORS
330
1037
102
}
330
1037
100
AcDbXrecord
280
     1
290
     1
  0
XRECORD
  5
103A
102
{ACAD_REACTORS
330
1039
102
}
330
1039
100
AcDbXrecord
280
     1
290
     1
  0
XRECORD
  5
103C
102
{ACAD_REACTORS
330
103B
102
}
330
103B
100
AcDbXrecord
280
     1
290
     1
  0
XRECORD
  5
103E
102
{ACAD_REACTORS
330
103D
102
}
330
103D
100
AcDbXrecord
280
     1
290
     1
  0
XRECORD
  5
1040
102
{ACAD_REACTORS
330
103F
102
}
330
103F
100
AcDbXrecord
280
     1
290
     1
  0
LAYOUT
  5
1E
102
{ACAD_XDICTIONARY
360
104B
102
}
102
{ACAD_REACTORS
330
1A
102
}
330
1A
100
AcDbPlotSettings
  1

  2
PLOTER 500
  4

  6

 40
0.0
 41
0.0
 42
0.0
 43
0.0
 44
0.0
 45
0.0
 46
0.0
 47
0.0
 48
0.0
 49
0.0
140
0.0
141
0.0
142
1.0
143
1.0
 70
   688
 72
     0
 73
     0
 74
     5
  7

 75
    16
147
1.0
148
0.0
149
0.0
100
AcDbLayout
  1
Layout1
 70
     1
 71
     1
 10
0.0
 20
0.0
 11
420.0
 21
297.0
 12
0.0
 22
0.0
 32
0.0
 14
1.000000000000000E+20
 24
1.000000000000000E+20
 34
1.000000000000000E+20
 15
-1.000000000000000E+20
 25
-1.000000000000000E+20
 35
-1.000000000000000E+20
146
0.0
 13
0.0
 23
0.0
 33
0.0
 16
1.0
 26
0.0
 36
0.0
 17
0.0
 27
1.0
 37
0.0
 76
     0
330
1B
  0
LAYOUT
  5
26
102
{ACAD_XDICTIONARY
360
104F
102
}
102
{ACAD_REACTORS
330
1A
102
}
330
1A
100
AcDbPlotSettings
  1

  2
PLOTER 500
  4

  6

 40
0.0
 41
0.0
 42
0.0
 43
0.0
 44
0.0
 45
0.0
 46
0.0
 47
0.0
 48
0.0
 49
0.0
140
0.0
141
0.0
142
1.0
143
1.0
 70
   688
 72
     0
 73
     0
 74
     5
  7

 75
    16
147
1.0
148
0.0
149
0.0
100
AcDbLayout
  1
Layout2
 70
     1
 71
     2
 10
0.0
 20
0.0
 11
12.0
 21
9.0
 12
0.0
 22
0.0
 32
0.0
 14
0.0
 24
0.0
 34
0.0
 15
0.0
 25
0.0
 35
0.0
146
0.0
 13
0.0
 23
0.0
 33
0.0
 16
1.0
 26
0.0
 36
0.0
 17
0.0
 27
1.0
 37
0.0
 76
     0
330
23
  0
LAYOUT
  5
22
102
{ACAD_XDICTIONARY
360
104D
102
}
102
{ACAD_REACTORS
330
1A
102
}
330
1A
100
AcDbPlotSettings
  1

  2
PLOTER 500
  4

  6

 40
0.0
 41
0.0
 42
0.0
 43
0.0
 44
0.0
 45
0.0
 46
0.0
 47
0.0
 48
0.0
 49
0.0
140
0.0
141
0.0
142
1.0
143
1.0
 70
  1712
 72
     0
 73
     0
 74
     0
  7

 75
     0
147
1.0
148
0.0
149
0.0
100
AcDbLayout
  1
Model
 70
     1
 71
     0
 10
0.0
 20
0.0
 11
12.0
 21
9.0
 12
0.0
 22
0.0
 32
0.0
 14
0.0
 24
0.0
 34
0.0
 15
0.0
 25
0.0
 35
0.0
146
0.0
 13
0.0
 23
0.0
 33
0.0
 16
1.0
 26
0.0
 36
0.0
 17
0.0
 27
1.0
 37
0.0
 76
     0
330
1F
331
FE9
  0
MATERIAL
  5
FF4
102
{ACAD_XDICTIONARY
360
FF5
102
}
102
{ACAD_REACTORS
330
FEB
102
}
330
FEB
100
AcDbMaterial
  1
ByBlock
 72
     0
 43
0.0008202099737533
 43
0.0
 43
0.0
 43
0.0
 43
0.0
 43
0.0008202099737533
 43
0.0
 43
0.0
 43
0.0
 43
0.0
 43
1.0
 43
0.0
 43
0.0
 43
0.0
 43
0.0
 43
1.0
 77
     0
 47
0.0008202099737533
 47
0.0
 47
0.0
 47
0.0
 47
0.0
 47
0.0008202099737533
 47
0.0
 47
0.0
 47
0.0
 47
0.0
 47
1.0
 47
0.0
 47
0.0
 47
0.0
 47
0.0
 47
1.0
171
     0
 49
0.0008202099737533
 49
0.0
 49
0.0
 49
0.0
 49
0.0
 49
0.0008202099737533
 49
0.0
 49
0.0
 49
0.0
 49
0.0
 49
1.0
 49
0.0
 49
0.0
 49
0.0
 49
0.0
 49
1.0
175
     0
142
0.0008202099737533
142
0.0
142
0.0
142
0.0
142
0.0
142
0.0008202099737533
142
0.0
142
0.0
142
0.0
142
0.0
142
1.0
142
0.0
142
0.0
142
0.0
142
0.0
142
1.0
179
     0
144
0.0008202099737533
144
0.0
144
0.0
144
0.0
144
0.0
144
0.0008202099737533
144
0.0
144
0.0
144
0.0
144
0.0
144
1.0
144
0.0
144
0.0
144
0.0
144
0.0
144
1.0
147
0.0008202099737533
147
0.0
147
0.0
147
0.0
147
0.0
147
0.0008202099737533
147
0.0
147
0.0
147
0.0
147
0.0
147
1.0
147
0.0
147
0.0
147
0.0
147
0.0
147
1.0
  0
MATERIAL
  5
FEC
102
{ACAD_XDICTIONARY
360
FED
102
}
102
{ACAD_REACTORS
330
FEB
102
}
330
FEB
100
AcDbMaterial
  1
ByLayer
 72
     0
 43
0.0008202099737533
 43
0.0
 43
0.0
 43
0.0
 43
0.0
 43
0.0008202099737533
 43
0.0
 43
0.0
 43
0.0
 43
0.0
 43
1.0
 43
0.0
 43
0.0
 43
0.0
 43
0.0
 43
1.0
 77
     0
 47
0.0008202099737533
 47
0.0
 47
0.0
 47
0.0
 47
0.0
 47
0.0008202099737533
 47
0.0
 47
0.0
 47
0.0
 47
0.0
 47
1.0
 47
0.0
 47
0.0
 47
0.0
 47
0.0
 47
1.0
171
     0
 49
0.0008202099737533
 49
0.0
 49
0.0
 49
0.0
 49
0.0
 49
0.0008202099737533
 49
0.0
 49
0.0
 49
0.0
 49
0.0
 49
1.0
 49
0.0
 49
0.0
 49
0.0
 49
0.0
 49
1.0
175
     0
142
0.0008202099737533
142
0.0
142
0.0
142
0.0
142
0.0
142
0.0008202099737533
142
0.0
142
0.0
142
0.0
142
0.0
142
1.0
142
0.0
142
0.0
142
0.0
142
0.0
142
1.0
179
     0
144
0.0008202099737533
144
0.0
144
0.0
144
0.0
144
0.0
144
0.0008202099737533
144
0.0
144
0.0
144
0.0
144
0.0
144
1.0
144
0.0
144
0.0
144
0.0
144
0.0
144
1.0
147
0.0008202099737533
147
0.0
147
0.0
147
0.0
147
0.0
147
0.0008202099737533
147
0.0
147
0.0
147
0.0
147
0.0
147
1.0
147
0.0
147
0.0
147
0.0
147
0.0
147
1.0
  0
MATERIAL
  5
FFC
102
{ACAD_XDICTIONARY
360
FFD
102
}
102
{ACAD_REACTORS
330
FEB
102
}
330
FEB
100
AcDbMaterial
  1
Global
 72
     0
 43
0.0008202099737533
 43
0.0
 43
0.0
 43
0.0
 43
0.0
 43
0.0008202099737533
 43
0.0
 43
0.0
 43
0.0
 43
0.0
 43
1.0
 43
0.0
 43
0.0
 43
0.0
 43
0.0
 43
1.0
 77
     0
 47
0.0008202099737533
 47
0.0
 47
0.0
 47
0.0
 47
0.0
 47
0.0008202099737533
 47
0.0
 47
0.0
 47
0.0
 47
0.0
 47
1.0
 47
0.0
 47
0.0
 47
0.0
 47
0.0
 47
1.0
171
     0
 49
0.0008202099737533
 49
0.0
 49
0.0
 49
0.0
 49
0.0
 49
0.0008202099737533
 49
0.0
 49
0.0
 49
0.0
 49
0.0
 49
1.0
 49
0.0
 49
0.0
 49
0.0
 49
0.0
 49
1.0
175
     0
142
0.0008202099737533
142
0.0
142
0.0
142
0.0
142
0.0
142
0.0008202099737533
142
0.0
142
0.0
142
0.0
142
0.0
142
1.0
142
0.0
142
0.0
142
0.0
142
0.0
142
1.0
179
     0
144
0.0008202099737533
144
0.0
144
0.0
144
0.0
144
0.0
144
0.0008202099737533
144
0.0
144
0.0
144
0.0
144
0.0
144
1.0
144
0.0
144
0.0
144
0.0
144
0.0
144
1.0
147
0.0008202099737533
147
0.0
147
0.0
147
0.0
147
0.0
147
0.0008202099737533
147
0.0
147
0.0
147
0.0
147
0.0
147
1.0
147
0.0
147
0.0
147
0.0
147
0.0
147
1.0
  0
MLEADERSTYLE
  5
102E
102
{ACAD_REACTORS
330
102D
102
}
330
102D
100
AcDbMLeaderStyle
170
     2
171
     1
172
     0
 90
        2
 40
0.0
 41
0.0
173
     1
 91
-1056964608
340
14
 92
       -2
290
     1
 42
2.0
291
     1
 43
0.36
  3
Standard
 44
4.0
300

342
11
174
     1
178
     6
175
     1
176
     0
 93
-1056964608
 45
4.0
292
     0
297
     0
 46
4.0
 94
-1056964608
 47
1.0
 49
1.0
140
1.0
293
     1
141
0.0
294
     1
177
     0
142
1.0
295
     0
296
     0
143
0.125
1001
ACAD_MLEADERVER
1070
     2
  0
MLINESTYLE
  5
18
102
{ACAD_REACTORS
330
17
102
}
330
17
100
AcDbMlineStyle
  2
STANDARD
 70
     0
  3

 62
   256
 51
90.0
 52
90.0
 71
     2
 49
0.5
 62
   256
  6
BYLAYER
 49
-0.5
 62
   256
  6
BYLAYER
  0
ACDBPLACEHOLDER
  5
F
102
{ACAD_REACTORS
330
E
102
}
330
E
  0
SCALE
  5
101C
102
{ACAD_REACTORS
330
101B
102
}
330
101B
100
AcDbScale
 70
     0
300
1:1
140
1.0
141
1.0
290
     1
  0
SCALE
  5
101D
102
{ACAD_REACTORS
330
101B
102
}
330
101B
100
AcDbScale
 70
     0
300
1:2
140
1.0
141
2.0
290
     0
  0
SCALE
  5
101E
102
{ACAD_REACTORS
330
101B
102
}
330
101B
100
AcDbScale
 70
     0
300
1:4
140
1.0
141
4.0
290
     0
  0
SCALE
  5
101F
102
{ACAD_REACTORS
330
101B
102
}
330
101B
100
AcDbScale
 70
     0
300
1:5
140
1.0
141
5.0
290
     0
  0
SCALE
  5
1020
102
{ACAD_REACTORS
330
101B
102
}
330
101B
100
AcDbScale
 70
     0
300
1:8
140
1.0
141
8.0
290
     0
  0
SCALE
  5
1021
102
{ACAD_REACTORS
330
101B
102
}
330
101B
100
AcDbScale
 70
     0
300
1:10
140
1.0
141
10.0
290
     0
  0
SCALE
  5
1022
102
{ACAD_REACTORS
330
101B
102
}
330
101B
100
AcDbScale
 70
     0
300
1:16
140
1.0
141
16.0
290
     0
  0
SCALE
  5
1023
102
{ACAD_REACTORS
330
101B
102
}
330
101B
100
AcDbScale
 70
     0
300
1:20
140
1.0
141
20.0
290
     0
  0
SCALE
  5
1024
102
{ACAD_REACTORS
330
101B
102
}
330
101B
100
AcDbScale
 70
     0
300
1:30
140
1.0
141
30.0
290
     0
  0
SCALE
  5
1025
102
{ACAD_REACTORS
330
101B
102
}
330
101B
100
AcDbScale
 70
     0
300
1:40
140
1.0
141
40.0
290
     0
  0
SCALE
  5
1026
102
{ACAD_REACTORS
330
101B
102
}
330
101B
100
AcDbScale
 70
     0
300
1:50
140
1.0
141
50.0
290
     0
  0
SCALE
  5
1027
102
{ACAD_REACTORS
330
101B
102
}
330
101B
100
AcDbScale
 70
     0
300
1:100
140
1.0
141
100.0
290
     0
  0
SCALE
  5
1028
102
{ACAD_REACTORS
330
101B
102
}
330
101B
100
AcDbScale
 70
     0
300
2:1
140
2.0
141
1.0
290
     0
  0
SCALE
  5
1029
102
{ACAD_REACTORS
330
101B
102
}
330
101B
100
AcDbScale
 70
     0
300
4:1
140
4.0
141
1.0
290
     0
  0
SCALE
  5
102A
102
{ACAD_REACTORS
330
101B
102
}
330
101B
100
AcDbScale
 70
     0
300
8:1
140
8.0
141
1.0
290
     0
  0
SCALE
  5
102B
102
{ACAD_REACTORS
330
101B
102
}
330
101B
100
AcDbScale
 70
     0
300
10:1
140
10.0
141
1.0
290
     0
  0
SCALE
  5
102C
102
{ACAD_REACTORS
330
101B
102
}
330
101B
100
AcDbScale
 70
     0
300
100:1
140
100.0
141
1.0
290
     0
  0
TABLESTYLE
  5
101A
102
{ACAD_XDICTIONARY
360
1047
102
}
102
{ACAD_REACTORS
330
1019
102
}
330
1019
100
AcDbTableStyle
  3
Standard
 70
     0
 71
     0
 40
1.5
 41
1.5
280
     0
281
     0
  7
Standard
140
4.5
170
     2
 62
     0
 63
     7
283
     0
274
    -2
284
     1
 64
     0
275
    -2
285
     1
 65
     0
276
    -2
286
     1
 66
     0
277
    -2
287
     1
 67
     0
278
    -2
288
     1
 68
     0
279
    -2
289
     1
 69
     0
  7
Standard
140
6.0
170
     5
 62
     0
 63
     7
283
     0
274
    -2
284
     1
 64
     0
275
    -2
285
     1
 65
     0
276
    -2
286
     1
 66
     0
277
    -2
287
     1
 67
     0
278
    -2
288
     1
 68
     0
279
    -2
289
     1
 69
     0
  7
Standard
140
4.5
170
     5
 62
     0
 63
     7
283
     0
274
    -2
284
     1
 64
     0
275
    -2
285
     1
 65
     0
276
    -2
286
     1
 66
     0
277
    -2
287
     1
 67
     0
278
    -2
288
     1
 68
     0
279
    -2
289
     1
 69
     0
  0
VISUALSTYLE
  5
100A
102
{ACAD_XDICTIONARY
360
105E
102
}
102
{ACAD_REACTORS
330
1004
102
}
330
1004
100
AcDbVisualStyle
  2
2dWireframe
 70
     4
 71
     0
 72
     2
 73
     0
 90
        0
 40
-0.6
 41
-30.0
 62
     5
 63
     7
 74
     1
 91
        4
 64
     7
 65
   257
 75
     1
175
     1
 42
1.0
 92
        0
 66
   257
 43
1.0
 76
     1
 77
     6
 78
     2
 67
     7
 79
     5
170
     0
171
     0
290
     0
174
     0
 93
        1
 44
0.0
173
     0
291
     0
 45
0.0
1001
ACAD
1000
AcDbSavedByObjectVersion
1070
     0
  0
VISUALSTYLE
  5
100C
102
{ACAD_XDICTIONARY
360
1062
102
}
102
{ACAD_REACTORS
330
1004
102
}
330
1004
100
AcDbVisualStyle
  2
3D Hidden
 70
     6
 71
     1
 72
     2
 73
     2
 90
        0
 40
-0.6
 41
-30.0
 62
     5
 63
     7
 74
     2
 91
        2
 64
     7
 65
   257
 75
     2
175
     1
 42
179.0
 92
        0
 66
   257
 43
1.0
 76
     1
 77
     6
 78
     2
 67
     7
 79
     3
170
     0
171
     0
290
     0
174
     0
 93
        1
 44
0.0
173
     0
291
     0
 45
0.0
1001
ACAD
1000
AcDbSavedByObjectVersion
1070
     0
  0
VISUALSTYLE
  5
100B
102
{ACAD_XDICTIONARY
360
1060
102
}
102
{ACAD_REACTORS
330
1004
102
}
330
1004
100
AcDbVisualStyle
  2
3dWireframe
 70
     5
 71
     0
 72
     2
 73
     0
 90
        0
 40
-0.6
 41
-30.0
 62
     5
 63
     7
 74
     1
 91
        4
 64
     7
 65
   257
 75
     1
175
     1
 42
1.0
 92
        0
 66
   257
 43
1.0
 76
     1
 77
     6
 78
     2
 67
     7
 79
     5
170
     0
171
     0
290
     0
174
     0
 93
        1
 44
0.0
173
     0
291
     0
 45
0.0
1001
ACAD
1000
AcDbSavedByObjectVersion
1070
     0
  0
VISUALSTYLE
  5
1009
102
{ACAD_XDICTIONARY
360
105C
102
}
102
{ACAD_REACTORS
330
1004
102
}
330
1004
100
AcDbVisualStyle
  2
Basic
 70
     7
 71
     1
 72
     0
 73
     1
 90
        0
 40
-0.6
 41
-30.0
 62
     5
 63
     7
 74
     0
 91
        4
 64
     7
 65
   257
 75
     1
175
     1
 42
1.0
 92
        8
 66
     7
 43
1.0
 76
     1
 77
     6
 78
     2
 67
     7
 79
     5
170
     0
171
     0
290
     0
174
     0
 93
        1
 44
0.0
173
     0
291
     1
 45
0.0
1001
ACAD
1000
AcDbSavedByObjectVersion
1070
     0
  0
VISUALSTYLE
  5
1010
102
{ACAD_XDICTIONARY
360
106A
102
}
102
{ACAD_REACTORS
330
1004
102
}
330
1004
100
AcDbVisualStyle
  2
Brighten
 70
    12
 71
     2
 72
     2
 73
     0
 90
        0
 40
-0.6
 41
-30.0
 62
     5
 63
     7
 74
     1
 91
        4
 64
     7
 65
   257
 75
     1
175
     1
 42
1.0
 92
        8
 66
     7
 43
1.0
 76
     1
 77
     6
 78
     2
 67
     7
 79
     5
170
     0
171
     0
290
     0
174
     0
 93
        1
 44
50.0
173
     0
291
     1
 45
0.0
1001
ACAD
1000
AcDbSavedByObjectVersion
1070
     0
  0
VISUALSTYLE
  5
1014
102
{ACAD_XDICTIONARY
360
1072
102
}
102
{ACAD_REACTORS
330
1004
102
}
330
1004
100
AcDbVisualStyle
  2
ColorChange
 70
    16
 71
     2
 72
     2
 73
     3
 90
        0
 40
-0.6
 41
-30.0
 62
     5
 63
     8
 74
     1
 91
        4
 64
     7
 65
   257
 75
     1
175
     1
 42
1.0
 92
        8
 66
     8
 43
1.0
 76
     1
 77
     6
 78
     2
 67
     7
 79
     5
170
     0
171
     0
290
     0
174
     0
 93
        1
 44
0.0
173
     0
291
     1
 45
0.0
1001
ACAD
1000
AcDbSavedByObjectVersion
1070
     0
  0
VISUALSTYLE
  5
100D
102
{ACAD_XDICTIONARY
360
1064
102
}
102
{ACAD_REACTORS
330
1004
102
}
330
1004
100
AcDbVisualStyle
  2
Conceptual
 70
     9
 71
     3
 72
     2
 73
     0
 90
        0
 40
-0.6
 41
-30.0
 62
     5
 63
     7
 74
     2
 91
        2
 64
     7
 65
   257
 75
     1
175
     1
 42
179.0
 92
        8
 66
     7
 43
1.0
 76
     1
 77
     6
 78
     2
 67
     7
 79
     3
170
     0
171
     0
290
     0
174
     0
 93
        1
 44
0.0
173
     0
291
     0
 45
0.0
1001
ACAD
1000
AcDbSavedByObjectVersion
1070
     0
  0
VISUALSTYLE
  5
100F
102
{ACAD_XDICTIONARY
360
1068
102
}
102
{ACAD_REACTORS
330
1004
102
}
330
1004
100
AcDbVisualStyle
  2
Dim
 70
    11
 71
     2
 72
     2
 73
     0
 90
        0
 40
-0.6
 41
-30.0
 62
     5
 63
     7
 74
     1
 91
        4
 64
     7
 65
   257
 75
     1
175
     1
 42
1.0
 92
        8
 66
     7
 43
1.0
 76
     1
 77
     6
 78
     2
 67
     7
 79
     5
170
     0
171
     0
290
     0
174
     0
 93
        1
 44
-50.0
173
     0
291
     1
 45
0.0
1001
ACAD
1000
AcDbSavedByObjectVersion
1070
     0
  0
VISUALSTYLE
  5
1017
102
{ACAD_XDICTIONARY
360
1078
102
}
102
{ACAD_REACTORS
330
1004
102
}
330
1004
100
AcDbVisualStyle
  2
EdgeColorOff
 70
    22
 71
     2
 72
     2
 73
     0
 90
        0
 40
-0.6
 41
-30.0
 62
     5
 63
     7
 74
     1
 91
        4
 64
     7
 65
   257
 75
     1
175
     1
 42
1.0
 92
        8
 66
     7
 43
1.0
 76
     1
 77
     6
 78
     2
 67
     7
 79
     5
170
     0
171
     0
290
     0
174
     0
 93
        1
 44
0.0
173
     0
291
     1
 45
0.0
1001
ACAD
1000
AcDbSavedByObjectVersion
1070
     0
  0
VISUALSTYLE
  5
1013
102
{ACAD_XDICTIONARY
360
1070
102
}
102
{ACAD_REACTORS
330
1004
102
}
330
1004
100
AcDbVisualStyle
  2
Facepattern
 70
    15
 71
     2
 72
     2
 73
     0
 90
        0
 40
-0.6
 41
-30.0
 62
     5
 63
     7
 74
     1
 91
        4
 64
     7
 65
   257
 75
     1
175
     1
 42
1.0
 92
        8
 66
     7
 43
1.0
 76
     1
 77
     6
 78
     2
 67
     7
 79
     5
170
     0
171
     0
290
     0
174
     0
 93
        1
 44
0.0
173
     0
291
     1
 45
0.0
1001
ACAD
1000
AcDbSavedByObjectVersion
1070
     0
  0
VISUALSTYLE
  5
1005
102
{ACAD_XDICTIONARY
360
1054
102
}
102
{ACAD_REACTORS
330
1004
102
}
330
1004
100
AcDbVisualStyle
  2
Flat
 70
     0
 71
     2
 72
     1
 73
     1
 90
        2
 40
-0.6
 41
30.0
 62
     5
 63
     7
 74
     0
 91
        4
 64
     7
 65
   257
 75
     1
175
     1
 42
1.0
 92
        8
 66
     7
 43
1.0
 76
     1
 77
     6
 78
     2
 67
     7
 79
     5
170
     0
171
     0
290
     0
174
     0
 93
       13
 44
0.0
173
     0
291
     1
 45
0.0
1001
ACAD
1000
AcDbSavedByObjectVersion
1070
     0
  0
VISUALSTYLE
  5
1006
102
{ACAD_XDICTIONARY
360
1056
102
}
102
{ACAD_REACTORS
330
1004
102
}
330
1004
100
AcDbVisualStyle
  2
FlatWithEdges
 70
     1
 71
     2
 72
     1
 73
     1
 90
        2
 40
-0.6
 41
30.0
 62
     5
 63
     7
 74
     1
 91
        4
 64
     7
 65
   257
 75
     1
175
     1
 42
1.0
 92
        0
 66
   257
 43
1.0
 76
     1
 77
     6
 78
     2
 67
     7
 79
     5
170
     0
171
     0
290
     0
174
     0
 93
       13
 44
0.0
173
     0
291
     1
 45
0.0
1001
ACAD
1000
AcDbSavedByObjectVersion
1070
     0
  0
VISUALSTYLE
  5
1007
102
{ACAD_XDICTIONARY
360
1058
102
}
102
{ACAD_REACTORS
330
1004
102
}
330
1004
100
AcDbVisualStyle
  2
Gouraud
 70
     2
 71
     2
 72
     2
 73
     1
 90
        2
 40
-0.6
 41
30.0
 62
     5
 63
     7
 74
     0
 91
        4
 64
     7
 65
   257
 75
     1
175
     1
 42
1.0
 92
        0
 66
     7
 43
1.0
 76
     1
 77
     6
 78
     2
 67
     7
 79
     5
170
     0
171
     0
290
     0
174
     0
 93
       13
 44
0.0
173
     0
291
     1
 45
0.0
1001
ACAD
1000
AcDbSavedByObjectVersion
1070
     0
  0
VISUALSTYLE
  5
1008
102
{ACAD_XDICTIONARY
360
105A
102
}
102
{ACAD_REACTORS
330
1004
102
}
330
1004
100
AcDbVisualStyle
  2
GouraudWithEdges
 70
     3
 71
     2
 72
     2
 73
     1
 90
        2
 40
-0.6
 41
30.0
 62
     5
 63
     7
 74
     1
 91
        4
 64
     7
 65
   257
 75
     1
175
     1
 42
1.0
 92
        0
 66
   257
 43
1.0
 76
     1
 77
     6
 78
     2
 67
     7
 79
     5
170
     0
171
     0
290
     0
174
     0
 93
       13
 44
0.0
173
     0
291
     1
 45
0.0
1001
ACAD
1000
AcDbSavedByObjectVersion
1070
     0
  0
VISUALSTYLE
  5
1015
102
{ACAD_XDICTIONARY
360
1074
102
}
102
{ACAD_REACTORS
330
1004
102
}
330
1004
100
AcDbVisualStyle
  2
JitterOff
 70
    20
 71
     2
 72
     2
 73
     0
 90
        0
 40
-0.6
 41
-30.0
 62
     5
 63
     7
 74
     1
 91
        4
 64
     7
 65
   257
 75
     1
175
     1
 42
1.0
 92
       10
 66
     7
 43
1.0
 76
     1
 77
     6
 78
     2
 67
     7
 79
     5
170
     0
171
     0
290
     0
174
     0
 93
        1
 44
0.0
173
     0
291
     1
 45
0.0
1001
ACAD
1000
AcDbSavedByObjectVersion
1070
     0
  0
VISUALSTYLE
  5
1012
102
{ACAD_XDICTIONARY
360
106E
102
}
102
{ACAD_REACTORS
330
1004
102
}
330
1004
100
AcDbVisualStyle
  2
Linepattern
 70
    14
 71
     2
 72
     2
 73
     0
 90
        0
 40
-0.6
 41
-30.0
 62
     5
 63
     7
 74
     1
 91
        4
 64
     7
 65
   257
 75
     7
175
     7
 42
1.0
 92
        8
 66
     7
 43
1.0
 76
     1
 77
     6
 78
     2
 67
     7
 79
     5
170
     0
171
     0
290
     0
174
     0
 93
        1
 44
0.0
173
     0
291
     1
 45
0.0
1001
ACAD
1000
AcDbSavedByObjectVersion
1070
     0
  0
VISUALSTYLE
  5
1016
102
{ACAD_XDICTIONARY
360
1076
102
}
102
{ACAD_REACTORS
330
1004
102
}
330
1004
100
AcDbVisualStyle
  2
OverhangOff
 70
    21
 71
     2
 72
     2
 73
     0
 90
        0
 40
-0.6
 41
-30.0
 62
     5
 63
     7
 74
     1
 91
        4
 64
     7
 65
   257
 75
     1
175
     1
 42
1.0
 92
        9
 66
     7
 43
1.0
 76
     1
 77
     6
 78
     2
 67
     7
 79
     5
170
     0
171
     0
290
     0
174
     0
 93
        1
 44
0.0
173
     0
291
     1
 45
0.0
1001
ACAD
1000
AcDbSavedByObjectVersion
1070
     0
  0
VISUALSTYLE
  5
100E
102
{ACAD_XDICTIONARY
360
1066
102
}
102
{ACAD_REACTORS
330
1004
102
}
330
1004
100
AcDbVisualStyle
  2
Realistic
 70
     8
 71
     2
 72
     2
 73
     0
 90
        0
 40
-0.6
 41
-30.0
 62
     5
 63
     7
 74
     1
 91
        0
 64
     7
 65
   257
 75
     1
175
     1
 42
1.0
 92
        8
 66
     8
 43
1.0
 76
     1
 77
     6
 78
     2
 67
     7
 79
     5
170
     0
171
     0
290
     0
174
     0
 93
       13
 44
0.0
173
     0
291
     0
 45
0.0
1001
ACAD
1000
AcDbSavedByObjectVersion
1070
     0
  0
VISUALSTYLE
  5
1011
102
{ACAD_XDICTIONARY
360
106C
102
}
102
{ACAD_REACTORS
330
1004
102
}
330
1004
100
AcDbVisualStyle
  2
Thicken
 70
    13
 71
     2
 72
     2
 73
     0
 90
        0
 40
-0.6
 41
-30.0
 62
     5
 63
     7
 74
     1
 91
        4
 64
     7
 65
   257
 75
     1
175
     1
 42
1.0
 92
       12
 66
     7
 43
1.0
 76
     1
 77
     6
 78
     2
 67
     7
 79
     5
170
     0
171
     0
290
     0
174
     0
 93
        1
 44
0.0
173
     0
291
     1
 45
0.0
1001
ACAD
1000
AcDbSavedByObjectVersion
1070
     0
  0
DICTIONARYVAR
  5
1043
102
{ACAD_REACTORS
330
75D
102
}
330
75D
100
DictionaryVariables
280
     0
  1
1:1
  0
DICTIONARYVAR
  5
1042
102
{ACAD_REACTORS
330
75D
102
}
330
75D
100
DictionaryVariables
280
     0
  1
STANDARD
  0
DICTIONARYVAR
  5
1041
102
{ACAD_REACTORS
330
75D
102
}
330
75D
100
DictionaryVariables
280
     0
  1
STANDARD
  0
DICTIONARYVAR
  5
75F
102
{ACAD_REACTORS
330
75D
102
}
330
75D
100
DictionaryVariables
280
     0
  1
2
  0
DICTIONARYVAR
  5
75E
102
{ACAD_REACTORS
330
75D
102
}
330
75D
100
DictionaryVariables
280
     0
  1
1
  0
DICTIONARYVAR
  5
1045
102
{ACAD_REACTORS
330
75D
102
}
330
75D
100
DictionaryVariables
280
     0
  1
0
  0
DICTIONARYVAR
  5
1044
102
{ACAD_REACTORS
330
75D
102
}
330
75D
100
DictionaryVariables
280
     0
  1
127
  0
DICTIONARYVAR
  5
1046
102
{ACAD_REACTORS
330
75D
102
}
330
75D
100
DictionaryVariables
280
     0
  1
2
  0
XRECORD
  5
75B
102
{ACAD_REACTORS
330
759
102
}
330
759
100
AcDbXrecord
280
     1
  0
DICTIONARY
  5
104B
330
1E
100
AcDbDictionary
280
     1
281
     1
  3
ACAD_XREC_ROUNDTRIP
360
104C
  0
DICTIONARY
  5
104F
330
26
100
AcDbDictionary
280
     1
281
     1
  3
ACAD_XREC_ROUNDTRIP
360
1050
  0
DICTIONARY
  5
104D
330
22
100
AcDbDictionary
280
     1
281
     1
  3
ACAD_XREC_ROUNDTRIP
360
104E
  0
DICTIONARY
  5
FF5
330
FF4
100
AcDbDictionary
280
     1
281
     1
  3
ACAD_XREC_ROUNDTRIP
360
1052
  3
BUMPTILE
360
FF7
  3
DIFFUSETILE
360
FF6
  3
OPACITYTILE
360
FFA
  3
REFLECTIONTILE
360
FF9
  3
REFRACTIONTILE
360
FFB
  3
SPECULARTILE
360
FF8
  0
DICTIONARY
  5
FED
330
FEC
100
AcDbDictionary
280
     1
281
     1
  3
ACAD_XREC_ROUNDTRIP
360
1051
  3
BUMPTILE
360
FEF
  3
DIFFUSETILE
360
FEE
  3
OPACITYTILE
360
FF2
  3
REFLECTIONTILE
360
FF1
  3
REFRACTIONTILE
360
FF3
  3
SPECULARTILE
360
FF0
  0
DICTIONARY
  5
FFD
330
FFC
100
AcDbDictionary
280
     1
281
     1
  3
ACAD_XREC_ROUNDTRIP
360
1053
  3
BUMPTILE
360
FFF
  3
DIFFUSETILE
360
FFE
  3
OPACITYTILE
360
1002
  3
REFLECTIONTILE
360
1001
  3
REFRACTIONTILE
360
1003
  3
SPECULARTILE
360
1000
  0
DICTIONARY
  5
1047
330
101A
100
AcDbDictionary
280
     1
281
     1
  3
ACAD_ROUNDTRIP_2008_TABLESTYLE_CELLSTYLEMAP
360
1048
  3
ACAD_XREC_ROUNDTRIP
360
107A
  0
DICTIONARY
  5
105E
330
100A
100
AcDbDictionary
280
     1
281
     1
  3
ACAD_XREC_ROUNDTRIP
360
105F
  0
DICTIONARY
  5
1062
330
100C
100
AcDbDictionary
280
     1
281
     1
  3
ACAD_XREC_ROUNDTRIP
360
1063
  0
DICTIONARY
  5
1060
330
100B
100
AcDbDictionary
280
     1
281
     1
  3
ACAD_XREC_ROUNDTRIP
360
1061
  0
DICTIONARY
  5
105C
330
1009
100
AcDbDictionary
280
     1
281
     1
  3
ACAD_XREC_ROUNDTRIP
360
105D
  0
DICTIONARY
  5
106A
330
1010
100
AcDbDictionary
280
     1
281
     1
  3
ACAD_XREC_ROUNDTRIP
360
106B
  0
DICTIONARY
  5
1072
330
1014
100
AcDbDictionary
280
     1
281
     1
  3
ACAD_XREC_ROUNDTRIP
360
1073
  0
DICTIONARY
  5
1064
330
100D
100
AcDbDictionary
280
     1
281
     1
  3
ACAD_XREC_ROUNDTRIP
360
1065
  0
DICTIONARY
  5
1068
330
100F
100
AcDbDictionary
280
     1
281
     1
  3
ACAD_XREC_ROUNDTRIP
360
1069
  0
DICTIONARY
  5
1078
330
1017
100
AcDbDictionary
280
     1
281
     1
  3
ACAD_XREC_ROUNDTRIP
360
1079
  0
DICTIONARY
  5
1070
330
1013
100
AcDbDictionary
280
     1
281
     1
  3
ACAD_XREC_ROUNDTRIP
360
1071
  0
DICTIONARY
  5
1054
330
1005
100
AcDbDictionary
280
     1
281
     1
  3
ACAD_XREC_ROUNDTRIP
360
1055
  0
DICTIONARY
  5
1056
330
1006
100
AcDbDictionary
280
     1
281
     1
  3
ACAD_XREC_ROUNDTRIP
360
1057
  0
DICTIONARY
  5
1058
330
1007
100
AcDbDictionary
280
     1
281
     1
  3
ACAD_XREC_ROUNDTRIP
360
1059
  0
DICTIONARY
  5
105A
330
1008
100
AcDbDictionary
280
     1
281
     1
  3
ACAD_XREC_ROUNDTRIP
360
105B
  0
DICTIONARY
  5
1074
330
1015
100
AcDbDictionary
280
     1
281
     1
  3
ACAD_XREC_ROUNDTRIP
360
1075
  0
DICTIONARY
  5
106E
330
1012
100
AcDbDictionary
280
     1
281
     1
  3
ACAD_XREC_ROUNDTRIP
360
106F
  0
DICTIONARY
  5
1076
330
1016
100
AcDbDictionary
280
     1
281
     1
  3
ACAD_XREC_ROUNDTRIP
360
1077
  0
DICTIONARY
  5
1066
330
100E
100
AcDbDictionary
280
     1
281
     1
  3
ACAD_XREC_ROUNDTRIP
360
1067
  0
DICTIONARY
  5
106C
330
1011
100
AcDbDictionary
280
     1
281
     1
  3
ACAD_XREC_ROUNDTRIP
360
106D
  0
XRECORD
  5
104C
102
{ACAD_REACTORS
330
104B
102
}
330
104B
100
AcDbXrecord
280
     1
102
SHADEPLOT
 70
     0
102
SHADEPLOTRESLEVEL
 70
     2
102
SHADEPLOTCUSTOMDPI
 70
   300
  0
XRECORD
  5
1050
102
{ACAD_REACTORS
330
104F
102
}
330
104F
100
AcDbXrecord
280
     1
102
SHADEPLOT
 70
     0
102
SHADEPLOTRESLEVEL
 70
     2
102
SHADEPLOTCUSTOMDPI
 70
   300
  0
XRECORD
  5
104E
102
{ACAD_REACTORS
330
104D
102
}
330
104D
100
AcDbXrecord
280
     1
102
SHADEPLOT
 70
     0
102
SHADEPLOTRESLEVEL
 70
     2
102
SHADEPLOTCUSTOMDPI
 70
   300
  0
XRECORD
  5
1052
102
{ACAD_REACTORS
330
FF5
102
}
330
FF5
100
AcDbXrecord
280
     1
102
MATERIAL
148
0.0
149
0.0
149
0.0
 93
        0
 94
      127
282
     0
 72
     0
 77
     0
171
     0
175
     0
179
     0
273
     0
  0
XRECORD
  5
FF7
102
{ACAD_REACTORS
330
FF5
102
}
330
FF5
100
AcDbXrecord
280
     1
270
     1
271
     1
  0
XRECORD
  5
FF6
102
{ACAD_REACTORS
330
FF5
102
}
330
FF5
100
AcDbXrecord
280
     1
270
     1
271
     1
  0
XRECORD
  5
FFA
102
{ACAD_REACTORS
330
FF5
102
}
330
FF5
100
AcDbXrecord
280
     1
270
     1
271
     1
  0
XRECORD
  5
FF9
102
{ACAD_REACTORS
330
FF5
102
}
330
FF5
100
AcDbXrecord
280
     1
270
     1
271
     1
  0
XRECORD
  5
FFB
102
{ACAD_REACTORS
330
FF5
102
}
330
FF5
100
AcDbXrecord
280
     1
270
     1
271
     1
  0
XRECORD
  5
FF8
102
{ACAD_REACTORS
330
FF5
102
}
330
FF5
100
AcDbXrecord
280
     1
270
     1
271
     1
  0
XRECORD
  5
1051
102
{ACAD_REACTORS
330
FED
102
}
330
FED
100
AcDbXrecord
280
     1
102
MATERIAL
148
0.0
149
0.0
149
0.0
 93
        0
 94
      127
282
     0
 72
     0
 77
     0
171
     0
175
     0
179
     0
273
     0
  0
XRECORD
  5
FEF
102
{ACAD_REACTORS
330
FED
102
}
330
FED
100
AcDbXrecord
280
     1
270
     1
271
     1
  0
XRECORD
  5
FEE
102
{ACAD_REACTORS
330
FED
102
}
330
FED
100
AcDbXrecord
280
     1
270
     1
271
     1
  0
XRECORD
  5
FF2
102
{ACAD_REACTORS
330
FED
102
}
330
FED
100
AcDbXrecord
280
     1
270
     1
271
     1
  0
XRECORD
  5
FF1
102
{ACAD_REACTORS
330
FED
102
}
330
FED
100
AcDbXrecord
280
     1
270
     1
271
     1
  0
XRECORD
  5
FF3
102
{ACAD_REACTORS
330
FED
102
}
330
FED
100
AcDbXrecord
280
     1
270
     1
271
     1
  0
XRECORD
  5
FF0
102
{ACAD_REACTORS
330
FED
102
}
330
FED
100
AcDbXrecord
280
     1
270
     1
271
     1
  0
XRECORD
  5
1053
102
{ACAD_REACTORS
330
FFD
102
}
330
FFD
100
AcDbXrecord
280
     1
102
MATERIAL
148
0.0
149
0.0
149
0.0
 93
        0
 94
      127
282
     0
 72
     0
 77
     0
171
     0
175
     0
179
     0
273
     0
  0
XRECORD
  5
FFF
102
{ACAD_REACTORS
330
FFD
102
}
330
FFD
100
AcDbXrecord
280
     1
270
     1
271
     1
  0
XRECORD
  5
FFE
102
{ACAD_REACTORS
330
FFD
102
}
330
FFD
100
AcDbXrecord
280
     1
270
     1
271
     1
  0
XRECORD
  5
1002
102
{ACAD_REACTORS
330
FFD
102
}
330
FFD
100
AcDbXrecord
280
     1
270
     1
271
     1
  0
XRECORD
  5
1001
102
{ACAD_REACTORS
330
FFD
102
}
330
FFD
100
AcDbXrecord
280
     1
270
     1
271
     1
  0
XRECORD
  5
1003
102
{ACAD_REACTORS
330
FFD
102
}
330
FFD
100
AcDbXrecord
280
     1
270
     1
271
     1
  0
XRECORD
  5
1000
102
{ACAD_REACTORS
330
FFD
102
}
330
FFD
100
AcDbXrecord
280
     1
270
     1
271
     1
  0
CELLSTYLEMAP
  5
1048
102
{ACAD_REACTORS
330
1047
102
}
330
1047
100
AcDbCellStyleMap
 90
        3
300
CELLSTYLE
  1
TABLEFORMAT_BEGIN
 90
        5
170
     1
 91
        0
 92
    32768
 62
   257
 93
        1
300
CONTENTFORMAT
  1
CONTENTFORMAT_BEGIN
 90
        0
 91
        0
 92
      512
 93
        0
300

 40
0.0
140
1.0
 94
        5
 62
     0
340
11
144
6.0
309
CONTENTFORMAT_END
171
     1
301
MARGIN
  1
CELLMARGIN_BEGIN
 40
1.5
 40
1.5
 40
1.5
 40
1.5
 40
4.5
 40
4.5
309
CELLMARGIN_END
 94
        6
 95
        1
302
GRIDFORMAT
  1
GRIDFORMAT_BEGIN
 90
        0
 91
        1
 62
     0
 92
       -2
340
0
 93
        0
 40
1.125
309
GRIDFORMAT_END
 95
        2
302
GRIDFORMAT
  1
GRIDFORMAT_BEGIN
 90
        0
 91
        1
 62
     0
 92
       -2
340
0
 93
        0
 40
1.125
309
GRIDFORMAT_END
 95
        4
302
GRIDFORMAT
  1
GRIDFORMAT_BEGIN
 90
        0
 91
        1
 62
     0
 92
       -2
340
0
 93
        0
 40
1.125
309
GRIDFORMAT_END
 95
        8
302
GRIDFORMAT
  1
GRIDFORMAT_BEGIN
 90
        0
 91
        1
 62
     0
 92
       -2
340
0
 93
        0
 40
1.125
309
GRIDFORMAT_END
 95
       16
302
GRIDFORMAT
  1
GRIDFORMAT_BEGIN
 90
        0
 91
        1
 62
     0
 92
       -2
340
0
 93
        0
 40
1.125
309
GRIDFORMAT_END
 95
       32
302
GRIDFORMAT
  1
GRIDFORMAT_BEGIN
 90
        0
 91
        1
 62
     0
 92
       -2
340
0
 93
        0
 40
1.125
309
GRIDFORMAT_END
309
TABLEFORMAT_END
  1
CELLSTYLE_BEGIN
 90
        1
 91
        1
300
_TITLE
309
CELLSTYLE_END
300
CELLSTYLE
  1
TABLEFORMAT_BEGIN
 90
        5
170
     1
 91
        0
 92
        0
 62
   257
 93
        1
300
CONTENTFORMAT
  1
CONTENTFORMAT_BEGIN
 90
        0
 91
        0
 92
      512
 93
        0
300

 40
0.0
140
1.0
 94
        5
 62
     0
340
11
144
4.5
309
CONTENTFORMAT_END
171
     1
301
MARGIN
  1
CELLMARGIN_BEGIN
 40
1.5
 40
1.5
 40
1.5
 40
1.5
 40
4.5
 40
4.5
309
CELLMARGIN_END
 94
        6
 95
        1
302
GRIDFORMAT
  1
GRIDFORMAT_BEGIN
 90
        0
 91
        1
 62
     0
 92
       -2
340
0
 93
        0
 40
1.125
309
GRIDFORMAT_END
 95
        2
302
GRIDFORMAT
  1
GRIDFORMAT_BEGIN
 90
        0
 91
        1
 62
     0
 92
       -2
340
0
 93
        0
 40
1.125
309
GRIDFORMAT_END
 95
        4
302
GRIDFORMAT
  1
GRIDFORMAT_BEGIN
 90
        0
 91
        1
 62
     0
 92
       -2
340
0
 93
        0
 40
1.125
309
GRIDFORMAT_END
 95
        8
302
GRIDFORMAT
  1
GRIDFORMAT_BEGIN
 90
        0
 91
        1
 62
     0
 92
       -2
340
0
 93
        0
 40
1.125
309
GRIDFORMAT_END
 95
       16
302
GRIDFORMAT
  1
GRIDFORMAT_BEGIN
 90
        0
 91
        1
 62
     0
 92
       -2
340
0
 93
        0
 40
1.125
309
GRIDFORMAT_END
 95
       32
302
GRIDFORMAT
  1
GRIDFORMAT_BEGIN
 90
        0
 91
        1
 62
     0
 92
       -2
340
0
 93
        0
 40
1.125
309
GRIDFORMAT_END
309
TABLEFORMAT_END
  1
CELLSTYLE_BEGIN
 90
        2
 91
        1
300
_HEADER
309
CELLSTYLE_END
300
CELLSTYLE
  1
TABLEFORMAT_BEGIN
 90
        5
170
     1
 91
        0
 92
        0
 62
   257
 93
        1
300
CONTENTFORMAT
  1
CONTENTFORMAT_BEGIN
 90
        0
 91
        0
 92
      512
 93
        0
300

 40
0.0
140
1.0
 94
        2
 62
     0
340
11
144
4.5
309
CONTENTFORMAT_END
171
     1
301
MARGIN
  1
CELLMARGIN_BEGIN
 40
1.5
 40
1.5
 40
1.5
 40
1.5
 40
4.5
 40
4.5
309
CELLMARGIN_END
 94
        6
 95
        1
302
GRIDFORMAT
  1
GRIDFORMAT_BEGIN
 90
        0
 91
        1
 62
     0
 92
       -2
340
0
 93
        0
 40
1.125
309
GRIDFORMAT_END
 95
        2
302
GRIDFORMAT
  1
GRIDFORMAT_BEGIN
 90
        0
 91
        1
 62
     0
 92
       -2
340
0
 93
        0
 40
1.125
309
GRIDFORMAT_END
 95
        4
302
GRIDFORMAT
  1
GRIDFORMAT_BEGIN
 90
        0
 91
        1
 62
     0
 92
       -2
340
0
 93
        0
 40
1.125
309
GRIDFORMAT_END
 95
        8
302
GRIDFORMAT
  1
GRIDFORMAT_BEGIN
 90
        0
 91
        1
 62
     0
 92
       -2
340
0
 93
        0
 40
1.125
309
GRIDFORMAT_END
 95
       16
302
GRIDFORMAT
  1
GRIDFORMAT_BEGIN
 90
        0
 91
        1
 62
     0
 92
       -2
340
0
 93
        0
 40
1.125
309
GRIDFORMAT_END
 95
       32
302
GRIDFORMAT
  1
GRIDFORMAT_BEGIN
 90
        0
 91
        1
 62
     0
 92
       -2
340
0
 93
        0
 40
1.125
309
GRIDFORMAT_END
309
TABLEFORMAT_END
  1
CELLSTYLE_BEGIN
 90
        3
 91
        2
300
_DATA
309
CELLSTYLE_END
  0
XRECORD
  5
107A
102
{ACAD_REACTORS
330
1047
102
}
330
1047
100
AcDbXrecord
280
     1
102
ACAD_ROUNDTRIP_PRE2007_TABLESTYLE
 90
      512
 91
        0
  1

 92
      512
 93
        0
  2

 94
      512
 95
        0
  3

  0
XRECORD
  5
105F
102
{ACAD_REACTORS
330
105E
102
}
330
105E
100
AcDbXrecord
280
     1
102
RTVSPropertyOp0
 70
     1
102
RTVSPropertyOp1
 70
     1
102
RTVSPropertyOp2
 70
     1
102
RTVSPropertyOp3
 70
     1
102
RTVSPropertyOp4
 70
     1
102
RTVSPropertyOp5
 70
     1
102
RTVSPropertyOp6
 70
     1
102
RTVSPropertyOp7
 70
     1
102
RTVSPropertyOp8
 70
     1
102
RTVSPropertyOp9
 70
     1
102
RTVSPropertyOp10
 70
     1
102
RTVSPropertyOp11
 70
     1
102
RTVSPropertyOp12
 70
     1
102
RTVSPropertyOp13
 70
     1
102
RTVSPropertyOp14
 70
     1
102
RTVSPropertyOp15
 70
     1
102
RTVSPropertyOp16
 70
     1
102
RTVSPropertyOp17
 70
     1
102
RTVSPropertyOp18
 70
     1
102
RTVSPropertyOp19
 70
     1
102
RTVSPropertyOp20
 70
     1
102
RTVSPropertyOp21
 70
     1
102
RTVSPropertyOp22
 70
     1
102
RTVSPropertyOp23
 70
     1
102
RTVSPropertyOp24
 70
     1
102
RTVSPropertyOp25
 70
     1
102
RTVSPropertyOp26
 70
     1
102
RTVSPropertyOp27
 70
     1
  0
XRECORD
  5
1063
102
{ACAD_REACTORS
330
1062
102
}
330
1062
100
AcDbXrecord
280
     1
102
RTVSPropertyOp0
 70
     1
102
RTVSPropertyOp1
 70
     1
102
RTVSPropertyOp2
 70
     1
102
RTVSPropertyOp3
 70
     1
102
RTVSPropertyOp4
 70
     1
102
RTVSPropertyOp5
 70
     1
102
RTVSPropertyOp6
 70
     1
102
RTVSPropertyOp7
 70
     1
102
RTVSPropertyOp8
 70
     1
102
RTVSPropertyOp9
 70
     1
102
RTVSPropertyOp10
 70
     1
102
RTVSPropertyOp11
 70
     1
102
RTVSPropertyOp12
 70
     1
102
RTVSPropertyOp13
 70
     1
102
RTVSPropertyOp14
 70
     1
102
RTVSPropertyOp15
 70
     1
102
RTVSPropertyOp16
 70
     1
102
RTVSPropertyOp17
 70
     1
102
RTVSPropertyOp18
 70
     1
102
RTVSPropertyOp19
 70
     1
102
RTVSPropertyOp20
 70
     1
102
RTVSPropertyOp21
 70
     1
102
RTVSPropertyOp22
 70
     1
102
RTVSPropertyOp23
 70
     1
102
RTVSPropertyOp24
 70
     1
102
RTVSPropertyOp25
 70
     1
102
RTVSPropertyOp26
 70
     1
102
RTVSPropertyOp27
 70
     1
  0
XRECORD
  5
1061
102
{ACAD_REACTORS
330
1060
102
}
330
1060
100
AcDbXrecord
280
     1
102
RTVSPropertyOp0
 70
     1
102
RTVSPropertyOp1
 70
     1
102
RTVSPropertyOp2
 70
     1
102
RTVSPropertyOp3
 70
     1
102
RTVSPropertyOp4
 70
     1
102
RTVSPropertyOp5
 70
     1
102
RTVSPropertyOp6
 70
     1
102
RTVSPropertyOp7
 70
     1
102
RTVSPropertyOp8
 70
     1
102
RTVSPropertyOp9
 70
     1
102
RTVSPropertyOp10
 70
     1
102
RTVSPropertyOp11
 70
     1
102
RTVSPropertyOp12
 70
     1
102
RTVSPropertyOp13
 70
     1
102
RTVSPropertyOp14
 70
     1
102
RTVSPropertyOp15
 70
     1
102
RTVSPropertyOp16
 70
     1
102
RTVSPropertyOp17
 70
     1
102
RTVSPropertyOp18
 70
     1
102
RTVSPropertyOp19
 70
     1
102
RTVSPropertyOp20
 70
     1
102
RTVSPropertyOp21
 70
     1
102
RTVSPropertyOp22
 70
     1
102
RTVSPropertyOp23
 70
     1
102
RTVSPropertyOp24
 70
     1
102
RTVSPropertyOp25
 70
     1
102
RTVSPropertyOp26
 70
     1
102
RTVSPropertyOp27
 70
     1
  0
XRECORD
  5
105D
102
{ACAD_REACTORS
330
105C
102
}
330
105C
100
AcDbXrecord
280
     1
102
RTVSPropertyOp0
 70
     1
102
RTVSPropertyOp1
 70
     1
102
RTVSPropertyOp2
 70
     1
102
RTVSPropertyOp3
 70
     1
102
RTVSPropertyOp4
 70
     1
102
RTVSPropertyOp5
 70
     1
102
RTVSPropertyOp6
 70
     1
102
RTVSPropertyOp7
 70
     1
102
RTVSPropertyOp8
 70
     1
102
RTVSPropertyOp9
 70
     1
102
RTVSPropertyOp10
 70
     1
102
RTVSPropertyOp11
 70
     1
102
RTVSPropertyOp12
 70
     1
102
RTVSPropertyOp13
 70
     1
102
RTVSPropertyOp14
 70
     1
102
RTVSPropertyOp15
 70
     1
102
RTVSPropertyOp16
 70
     1
102
RTVSPropertyOp17
 70
     1
102
RTVSPropertyOp18
 70
     1
102
RTVSPropertyOp19
 70
     1
102
RTVSPropertyOp20
 70
     1
102
RTVSPropertyOp21
 70
     1
102
RTVSPropertyOp22
 70
     1
102
RTVSPropertyOp23
 70
     1
102
RTVSPropertyOp24
 70
     1
102
RTVSPropertyOp25
 70
     1
102
RTVSPropertyOp26
 70
     1
102
RTVSPropertyOp27
 70
     1
  0
XRECORD
  5
106B
102
{ACAD_REACTORS
330
106A
102
}
330
106A
100
AcDbXrecord
280
     1
102
RTVSPropertyOp0
 70
     1
102
RTVSPropertyOp1
 70
     1
102
RTVSPropertyOp2
 70
     1
102
RTVSPropertyOp3
 70
     1
102
RTVSPropertyOp4
 70
     1
102
RTVSPropertyOp5
 70
     1
102
RTVSPropertyOp6
 70
     1
102
RTVSPropertyOp7
 70
     1
102
RTVSPropertyOp8
 70
     1
102
RTVSPropertyOp9
 70
     1
102
RTVSPropertyOp10
 70
     1
102
RTVSPropertyOp11
 70
     1
102
RTVSPropertyOp12
 70
     1
102
RTVSPropertyOp13
 70
     1
102
RTVSPropertyOp14
 70
     1
102
RTVSPropertyOp15
 70
     1
102
RTVSPropertyOp16
 70
     1
102
RTVSPropertyOp17
 70
     1
102
RTVSPropertyOp18
 70
     1
102
RTVSPropertyOp19
 70
     1
102
RTVSPropertyOp20
 70
     1
102
RTVSPropertyOp21
 70
     1
102
RTVSPropertyOp22
 70
     1
102
RTVSPropertyOp23
 70
     1
102
RTVSPropertyOp24
 70
     1
102
RTVSPropertyOp25
 70
     1
102
RTVSPropertyOp26
 70
     1
102
RTVSPropertyOp27
 70
     1
  0
XRECORD
  5
1073
102
{ACAD_REACTORS
330
1072
102
}
330
1072
100
AcDbXrecord
280
     1
102
RTVSPropertyOp0
 70
     1
102
RTVSPropertyOp1
 70
     1
102
RTVSPropertyOp2
 70
     1
102
RTVSPropertyOp3
 70
     1
102
RTVSPropertyOp4
 70
     1
102
RTVSPropertyOp5
 70
     1
102
RTVSPropertyOp6
 70
     1
102
RTVSPropertyOp7
 70
     1
102
RTVSPropertyOp8
 70
     1
102
RTVSPropertyOp9
 70
     1
102
RTVSPropertyOp10
 70
     1
102
RTVSPropertyOp11
 70
     1
102
RTVSPropertyOp12
 70
     1
102
RTVSPropertyOp13
 70
     1
102
RTVSPropertyOp14
 70
     1
102
RTVSPropertyOp15
 70
     1
102
RTVSPropertyOp16
 70
     1
102
RTVSPropertyOp17
 70
     1
102
RTVSPropertyOp18
 70
     1
102
RTVSPropertyOp19
 70
     1
102
RTVSPropertyOp20
 70
     1
102
RTVSPropertyOp21
 70
     1
102
RTVSPropertyOp22
 70
     1
102
RTVSPropertyOp23
 70
     1
102
RTVSPropertyOp24
 70
     1
102
RTVSPropertyOp25
 70
     1
102
RTVSPropertyOp26
 70
     1
102
RTVSPropertyOp27
 70
     1
  0
XRECORD
  5
1065
102
{ACAD_REACTORS
330
1064
102
}
330
1064
100
AcDbXrecord
280
     1
102
RTVSPropertyOp0
 70
     1
102
RTVSPropertyOp1
 70
     1
102
RTVSPropertyOp2
 70
     1
102
RTVSPropertyOp3
 70
     1
102
RTVSPropertyOp4
 70
     1
102
RTVSPropertyOp5
 70
     1
102
RTVSPropertyOp6
 70
     1
102
RTVSPropertyOp7
 70
     1
102
RTVSPropertyOp8
 70
     1
102
RTVSPropertyOp9
 70
     1
102
RTVSPropertyOp10
 70
     1
102
RTVSPropertyOp11
 70
     1
102
RTVSPropertyOp12
 70
     1
102
RTVSPropertyOp13
 70
     1
102
RTVSPropertyOp14
 70
     1
102
RTVSPropertyOp15
 70
     1
102
RTVSPropertyOp16
 70
     1
102
RTVSPropertyOp17
 70
     1
102
RTVSPropertyOp18
 70
     1
102
RTVSPropertyOp19
 70
     1
102
RTVSPropertyOp20
 70
     1
102
RTVSPropertyOp21
 70
     1
102
RTVSPropertyOp22
 70
     1
102
RTVSPropertyOp23
 70
     1
102
RTVSPropertyOp24
 70
     1
102
RTVSPropertyOp25
 70
     1
102
RTVSPropertyOp26
 70
     1
102
RTVSPropertyOp27
 70
     1
  0
XRECORD
  5
1069
102
{ACAD_REACTORS
330
1068
102
}
330
1068
100
AcDbXrecord
280
     1
102
RTVSPropertyOp0
 70
     1
102
RTVSPropertyOp1
 70
     1
102
RTVSPropertyOp2
 70
     1
102
RTVSPropertyOp3
 70
     1
102
RTVSPropertyOp4
 70
     1
102
RTVSPropertyOp5
 70
     1
102
RTVSPropertyOp6
 70
     1
102
RTVSPropertyOp7
 70
     1
102
RTVSPropertyOp8
 70
     1
102
RTVSPropertyOp9
 70
     1
102
RTVSPropertyOp10
 70
     1
102
RTVSPropertyOp11
 70
     1
102
RTVSPropertyOp12
 70
     1
102
RTVSPropertyOp13
 70
     1
102
RTVSPropertyOp14
 70
     1
102
RTVSPropertyOp15
 70
     1
102
RTVSPropertyOp16
 70
     1
102
RTVSPropertyOp17
 70
     1
102
RTVSPropertyOp18
 70
     1
102
RTVSPropertyOp19
 70
     1
102
RTVSPropertyOp20
 70
     1
102
RTVSPropertyOp21
 70
     1
102
RTVSPropertyOp22
 70
     1
102
RTVSPropertyOp23
 70
     1
102
RTVSPropertyOp24
 70
     1
102
RTVSPropertyOp25
 70
     1
102
RTVSPropertyOp26
 70
     1
102
RTVSPropertyOp27
 70
     1
  0
XRECORD
  5
1079
102
{ACAD_REACTORS
330
1078
102
}
330
1078
100
AcDbXrecord
280
     1
102
RTVSPropertyOp0
 70
     0
102
RTVSPropertyOp1
 70
     0
102
RTVSPropertyOp2
 70
     0
102
RTVSPropertyOp3
 70
     0
102
RTVSPropertyOp4
 70
     0
102
RTVSPropertyOp5
 70
     0
102
RTVSPropertyOp6
 70
     0
102
RTVSPropertyOp7
 70
     0
102
RTVSPropertyOp8
 70
     0
102
RTVSPropertyOp9
 70
     0
102
RTVSPropertyOp10
 70
     0
102
RTVSPropertyOp11
 70
     0
102
RTVSPropertyOp12
 70
     0
102
RTVSPropertyOp13
 70
     0
102
RTVSPropertyOp14
 70
     2
102
RTVSPropertyOp15
 70
     0
102
RTVSPropertyOp16
 70
     0
102
RTVSPropertyOp17
 70
     0
102
RTVSPropertyOp18
 70
     0
102
RTVSPropertyOp19
 70
     0
102
RTVSPropertyOp20
 70
     0
102
RTVSPropertyOp21
 70
     0
102
RTVSPropertyOp22
 70
     0
102
RTVSPropertyOp23
 70
     0
102
RTVSPropertyOp24
 70
     0
102
RTVSPropertyOp25
 70
     0
102
RTVSPropertyOp26
 70
     0
102
RTVSPropertyOp27
 70
     0
  0
XRECORD
  5
1071
102
{ACAD_REACTORS
330
1070
102
}
330
1070
100
AcDbXrecord
280
     1
102
RTVSPropertyOp0
 70
     1
102
RTVSPropertyOp1
 70
     1
102
RTVSPropertyOp2
 70
     1
102
RTVSPropertyOp3
 70
     1
102
RTVSPropertyOp4
 70
     1
102
RTVSPropertyOp5
 70
     1
102
RTVSPropertyOp6
 70
     1
102
RTVSPropertyOp7
 70
     1
102
RTVSPropertyOp8
 70
     1
102
RTVSPropertyOp9
 70
     1
102
RTVSPropertyOp10
 70
     1
102
RTVSPropertyOp11
 70
     1
102
RTVSPropertyOp12
 70
     1
102
RTVSPropertyOp13
 70
     1
102
RTVSPropertyOp14
 70
     1
102
RTVSPropertyOp15
 70
     1
102
RTVSPropertyOp16
 70
     1
102
RTVSPropertyOp17
 70
     1
102
RTVSPropertyOp18
 70
     1
102
RTVSPropertyOp19
 70
     1
102
RTVSPropertyOp20
 70
     1
102
RTVSPropertyOp21
 70
     1
102
RTVSPropertyOp22
 70
     1
102
RTVSPropertyOp23
 70
     1
102
RTVSPropertyOp24
 70
     1
102
RTVSPropertyOp25
 70
     1
102
RTVSPropertyOp26
 70
     1
102
RTVSPropertyOp27
 70
     1
  0
XRECORD
  5
1055
102
{ACAD_REACTORS
330
1054
102
}
330
1054
100
AcDbXrecord
280
     1
102
RTVSPropertyOp0
 70
     1
102
RTVSPropertyOp1
 70
     1
102
RTVSPropertyOp2
 70
     1
102
RTVSPropertyOp3
 70
     1
102
RTVSPropertyOp4
 70
     1
102
RTVSPropertyOp5
 70
     1
102
RTVSPropertyOp6
 70
     1
102
RTVSPropertyOp7
 70
     1
102
RTVSPropertyOp8
 70
     1
102
RTVSPropertyOp9
 70
     1
102
RTVSPropertyOp10
 70
     1
102
RTVSPropertyOp11
 70
     1
102
RTVSPropertyOp12
 70
     1
102
RTVSPropertyOp13
 70
     1
102
RTVSPropertyOp14
 70
     1
102
RTVSPropertyOp15
 70
     1
102
RTVSPropertyOp16
 70
     1
102
RTVSPropertyOp17
 70
     1
102
RTVSPropertyOp18
 70
     1
102
RTVSPropertyOp19
 70
     1
102
RTVSPropertyOp20
 70
     1
102
RTVSPropertyOp21
 70
     1
102
RTVSPropertyOp22
 70
     1
102
RTVSPropertyOp23
 70
     1
102
RTVSPropertyOp24
 70
     1
102
RTVSPropertyOp25
 70
     1
102
RTVSPropertyOp26
 70
     1
102
RTVSPropertyOp27
 70
     1
  0
XRECORD
  5
1057
102
{ACAD_REACTORS
330
1056
102
}
330
1056
100
AcDbXrecord
280
     1
102
RTVSPropertyOp0
 70
     1
102
RTVSPropertyOp1
 70
     1
102
RTVSPropertyOp2
 70
     1
102
RTVSPropertyOp3
 70
     1
102
RTVSPropertyOp4
 70
     1
102
RTVSPropertyOp5
 70
     1
102
RTVSPropertyOp6
 70
     1
102
RTVSPropertyOp7
 70
     1
102
RTVSPropertyOp8
 70
     1
102
RTVSPropertyOp9
 70
     1
102
RTVSPropertyOp10
 70
     1
102
RTVSPropertyOp11
 70
     1
102
RTVSPropertyOp12
 70
     1
102
RTVSPropertyOp13
 70
     1
102
RTVSPropertyOp14
 70
     1
102
RTVSPropertyOp15
 70
     1
102
RTVSPropertyOp16
 70
     1
102
RTVSPropertyOp17
 70
     1
102
RTVSPropertyOp18
 70
     1
102
RTVSPropertyOp19
 70
     1
102
RTVSPropertyOp20
 70
     1
102
RTVSPropertyOp21
 70
     1
102
RTVSPropertyOp22
 70
     1
102
RTVSPropertyOp23
 70
     1
102
RTVSPropertyOp24
 70
     1
102
RTVSPropertyOp25
 70
     1
102
RTVSPropertyOp26
 70
     1
102
RTVSPropertyOp27
 70
     1
  0
XRECORD
  5
1059
102
{ACAD_REACTORS
330
1058
102
}
330
1058
100
AcDbXrecord
280
     1
102
RTVSPropertyOp0
 70
     1
102
RTVSPropertyOp1
 70
     1
102
RTVSPropertyOp2
 70
     1
102
RTVSPropertyOp3
 70
     1
102
RTVSPropertyOp4
 70
     1
102
RTVSPropertyOp5
 70
     1
102
RTVSPropertyOp6
 70
     1
102
RTVSPropertyOp7
 70
     1
102
RTVSPropertyOp8
 70
     1
102
RTVSPropertyOp9
 70
     1
102
RTVSPropertyOp10
 70
     1
102
RTVSPropertyOp11
 70
     1
102
RTVSPropertyOp12
 70
     1
102
RTVSPropertyOp13
 70
     1
102
RTVSPropertyOp14
 70
     1
102
RTVSPropertyOp15
 70
     1
102
RTVSPropertyOp16
 70
     1
102
RTVSPropertyOp17
 70
     1
102
RTVSPropertyOp18
 70
     1
102
RTVSPropertyOp19
 70
     1
102
RTVSPropertyOp20
 70
     1
102
RTVSPropertyOp21
 70
     1
102
RTVSPropertyOp22
 70
     1
102
RTVSPropertyOp23
 70
     1
102
RTVSPropertyOp24
 70
     1
102
RTVSPropertyOp25
 70
     1
102
RTVSPropertyOp26
 70
     1
102
RTVSPropertyOp27
 70
     1
  0
XRECORD
  5
105B
102
{ACAD_REACTORS
330
105A
102
}
330
105A
100
AcDbXrecord
280
     1
102
RTVSPropertyOp0
 70
     1
102
RTVSPropertyOp1
 70
     1
102
RTVSPropertyOp2
 70
     1
102
RTVSPropertyOp3
 70
     1
102
RTVSPropertyOp4
 70
     1
102
RTVSPropertyOp5
 70
     1
102
RTVSPropertyOp6
 70
     1
102
RTVSPropertyOp7
 70
     1
102
RTVSPropertyOp8
 70
     1
102
RTVSPropertyOp9
 70
     1
102
RTVSPropertyOp10
 70
     1
102
RTVSPropertyOp11
 70
     1
102
RTVSPropertyOp12
 70
     1
102
RTVSPropertyOp13
 70
     1
102
RTVSPropertyOp14
 70
     1
102
RTVSPropertyOp15
 70
     1
102
RTVSPropertyOp16
 70
     1
102
RTVSPropertyOp17
 70
     1
102
RTVSPropertyOp18
 70
     1
102
RTVSPropertyOp19
 70
     1
102
RTVSPropertyOp20
 70
     1
102
RTVSPropertyOp21
 70
     1
102
RTVSPropertyOp22
 70
     1
102
RTVSPropertyOp23
 70
     1
102
RTVSPropertyOp24
 70
     1
102
RTVSPropertyOp25
 70
     1
102
RTVSPropertyOp26
 70
     1
102
RTVSPropertyOp27
 70
     1
  0
XRECORD
  5
1075
102
{ACAD_REACTORS
330
1074
102
}
330
1074
100
AcDbXrecord
280
     1
102
RTVSPropertyOp0
 70
     0
102
RTVSPropertyOp1
 70
     0
102
RTVSPropertyOp2
 70
     0
102
RTVSPropertyOp3
 70
     0
102
RTVSPropertyOp4
 70
     0
102
RTVSPropertyOp5
 70
     0
102
RTVSPropertyOp6
 70
     0
102
RTVSPropertyOp7
 70
     0
102
RTVSPropertyOp8
 70
     0
102
RTVSPropertyOp9
 70
     0
102
RTVSPropertyOp10
 70
     0
102
RTVSPropertyOp11
 70
     0
102
RTVSPropertyOp12
 70
     0
102
RTVSPropertyOp13
 70
     0
102
RTVSPropertyOp14
 70
     2
102
RTVSPropertyOp15
 70
     0
102
RTVSPropertyOp16
 70
     0
102
RTVSPropertyOp17
 70
     0
102
RTVSPropertyOp18
 70
     0
102
RTVSPropertyOp19
 70
     0
102
RTVSPropertyOp20
 70
     0
102
RTVSPropertyOp21
 70
     0
102
RTVSPropertyOp22
 70
     0
102
RTVSPropertyOp23
 70
     0
102
RTVSPropertyOp24
 70
     0
102
RTVSPropertyOp25
 70
     0
102
RTVSPropertyOp26
 70
     0
102
RTVSPropertyOp27
 70
     0
  0
XRECORD
  5
106F
102
{ACAD_REACTORS
330
106E
102
}
330
106E
100
AcDbXrecord
280
     1
102
RTVSPropertyOp0
 70
     1
102
RTVSPropertyOp1
 70
     1
102
RTVSPropertyOp2
 70
     1
102
RTVSPropertyOp3
 70
     1
102
RTVSPropertyOp4
 70
     1
102
RTVSPropertyOp5
 70
     1
102
RTVSPropertyOp6
 70
     1
102
RTVSPropertyOp7
 70
     1
102
RTVSPropertyOp8
 70
     1
102
RTVSPropertyOp9
 70
     1
102
RTVSPropertyOp10
 70
     1
102
RTVSPropertyOp11
 70
     1
102
RTVSPropertyOp12
 70
     1
102
RTVSPropertyOp13
 70
     1
102
RTVSPropertyOp14
 70
     1
102
RTVSPropertyOp15
 70
     1
102
RTVSPropertyOp16
 70
     1
102
RTVSPropertyOp17
 70
     1
102
RTVSPropertyOp18
 70
     1
102
RTVSPropertyOp19
 70
     1
102
RTVSPropertyOp20
 70
     1
102
RTVSPropertyOp21
 70
     1
102
RTVSPropertyOp22
 70
     1
102
RTVSPropertyOp23
 70
     1
102
RTVSPropertyOp24
 70
     1
102
RTVSPropertyOp25
 70
     1
102
RTVSPropertyOp26
 70
     1
102
RTVSPropertyOp27
 70
     1
  0
XRECORD
  5
1077
102
{ACAD_REACTORS
330
1076
102
}
330
1076
100
AcDbXrecord
280
     1
102
RTVSPropertyOp0
 70
     0
102
RTVSPropertyOp1
 70
     0
102
RTVSPropertyOp2
 70
     0
102
RTVSPropertyOp3
 70
     0
102
RTVSPropertyOp4
 70
     0
102
RTVSPropertyOp5
 70
     0
102
RTVSPropertyOp6
 70
     0
102
RTVSPropertyOp7
 70
     0
102
RTVSPropertyOp8
 70
     0
102
RTVSPropertyOp9
 70
     0
102
RTVSPropertyOp10
 70
     0
102
RTVSPropertyOp11
 70
     0
102
RTVSPropertyOp12
 70
     0
102
RTVSPropertyOp13
 70
     0
102
RTVSPropertyOp14
 70
     2
102
RTVSPropertyOp15
 70
     0
102
RTVSPropertyOp16
 70
     0
102
RTVSPropertyOp17
 70
     0
102
RTVSPropertyOp18
 70
     0
102
RTVSPropertyOp19
 70
     0
102
RTVSPropertyOp20
 70
     0
102
RTVSPropertyOp21
 70
     0
102
RTVSPropertyOp22
 70
     0
102
RTVSPropertyOp23
 70
     0
102
RTVSPropertyOp24
 70
     0
102
RTVSPropertyOp25
 70
     0
102
RTVSPropertyOp26
 70
     0
102
RTVSPropertyOp27
 70
     0
  0
XRECORD
  5
1067
102
{ACAD_REACTORS
330
1066
102
}
330
1066
100
AcDbXrecord
280
     1
102
RTVSPropertyOp0
 70
     1
102
RTVSPropertyOp1
 70
     1
102
RTVSPropertyOp2
 70
     1
102
RTVSPropertyOp3
 70
     1
102
RTVSPropertyOp4
 70
     1
102
RTVSPropertyOp5
 70
     1
102
RTVSPropertyOp6
 70
     1
102
RTVSPropertyOp7
 70
     1
102
RTVSPropertyOp8
 70
     1
102
RTVSPropertyOp9
 70
     1
102
RTVSPropertyOp10
 70
     1
102
RTVSPropertyOp11
 70
     1
102
RTVSPropertyOp12
 70
     1
102
RTVSPropertyOp13
 70
     1
102
RTVSPropertyOp14
 70
     1
102
RTVSPropertyOp15
 70
     1
102
RTVSPropertyOp16
 70
     1
102
RTVSPropertyOp17
 70
     1
102
RTVSPropertyOp18
 70
     1
102
RTVSPropertyOp19
 70
     1
102
RTVSPropertyOp20
 70
     1
102
RTVSPropertyOp21
 70
     1
102
RTVSPropertyOp22
 70
     1
102
RTVSPropertyOp23
 70
     1
102
RTVSPropertyOp24
 70
     1
102
RTVSPropertyOp25
 70
     1
102
RTVSPropertyOp26
 70
     1
102
RTVSPropertyOp27
 70
     1
  0
XRECORD
  5
106D
102
{ACAD_REACTORS
330
106C
102
}
330
106C
100
AcDbXrecord
280
     1
102
RTVSPropertyOp0
 70
     1
102
RTVSPropertyOp1
 70
     1
102
RTVSPropertyOp2
 70
     1
102
RTVSPropertyOp3
 70
     1
102
RTVSPropertyOp4
 70
     1
102
RTVSPropertyOp5
 70
     1
102
RTVSPropertyOp6
 70
     1
102
RTVSPropertyOp7
 70
     1
102
RTVSPropertyOp8
 70
     1
102
RTVSPropertyOp9
 70
     1
102
RTVSPropertyOp10
 70
     1
102
RTVSPropertyOp11
 70
     1
102
RTVSPropertyOp12
 70
     1
102
RTVSPropertyOp13
 70
     1
102
RTVSPropertyOp14
 70
     1
102
RTVSPropertyOp15
 70
     1
102
RTVSPropertyOp16
 70
     1
102
RTVSPropertyOp17
 70
     1
102
RTVSPropertyOp18
 70
     1
102
RTVSPropertyOp19
 70
     1
102
RTVSPropertyOp20
 70
     1
102
RTVSPropertyOp21
 70
     1
102
RTVSPropertyOp22
 70
     1
102
RTVSPropertyOp23
 70
     1
102
RTVSPropertyOp24
 70
     1
102
RTVSPropertyOp25
 70
     1
102
RTVSPropertyOp26
 70
     1
102
RTVSPropertyOp27
 70
     1
  0
ENDSEC
  0
EOF
