  0
SECTION
  2
HEADER
  9
$ACADVER
  1
AC1015
  9
$ACADMAINTVER
 70
    20
  9
$DWGCODEPAGE
  3
ANSI_1252
  9
$INSBASE
 10
0.0
 20
0.0
 30
0.0
  9
$EXTMIN
 10
98.54182843711772
 20
151.5506063794491
 30
0.0
  9
$EXTMAX
 10
101.8867621062958
 20
152.108476964258
 30
0.0
  9
$LIMMIN
 10
0.0
 20
0.0
  9
$LIMMAX
 10
420.0
 20
297.0
  9
$ORTHOMODE
 70
     0
  9
$REGENMODE
 70
     1
  9
$FILLMODE
 70
     1
  9
$QTEXTMODE
 70
     0
  9
$MIRRTEXT
 70
     1
  9
$LTSCALE
 40
1.0
  9
$ATTMODE
 70
     1
  9
$TEXTSIZE
 40
2.5
  9
$TRACEWID
 40
1.0
  9
$TEXTSTYLE
  7
SANINDUSA
  9
$CLAYER
  8
cotas
  9
$CELTYPE
  6
ByLayer
  9
$CECOLOR
 62
   256
  9
$CELTSCALE
 40
1.0
  9
$DISPSILH
 70
     0
  9
$DIMSCALE
 40
1.0
  9
$DIMASZ
 40
2.0
  9
$DIMEXO
 40
1.0
  9
$DIMDLI
 40
1.0
  9
$DIMRND
 40
0.0
  9
$DIMDLE
 40
0.0
  9
$DIMEXE
 40
1.0
  9
$DIMTP
 40
0.0
  9
$DIMTM
 40
0.0
  9
$DIMTXT
 40
2.0
  9
$DIMCEN
 40
0.0
  9
$DIMTSZ
 40
0.0
  9
$DIMTOL
 70
     0
  9
$DIMLIM
 70
     0
  9
$DIMTIH
 70
     0
  9
$DIMTOH
 70
     0
  9
$DIMSE1
 70
     0
  9
$DIMSE2
 70
     0
  9
$DIMTAD
 70
     1
  9
$DIMZIN
 70
     8
  9
$DIMBLK
  1

  9
$DIMASO
 70
     1
  9
$DIMSHO
 70
     1
  9
$DIMPOST
  1

  9
$DIMAPOST
  1

  9
$DIMALT
 70
     0
  9
$DIMALTD
 70
     3
  9
$DIMALTF
 40
0.03937007874016
  9
$DIMLFAC
 40
1.0
  9
$DIMTOFL
 70
     1
  9
$DIMTVP
 40
0.0
  9
$DIMTIX
 70
     0
  9
$DIMSOXD
 70
     0
  9
$DIMSAH
 70
     0
  9
$DIMBLK1
  1

  9
$DIMBLK2
  1

  9
$DIMSTYLE
  2
SANINDUSA
  9
$DIMCLRD
 70
   256
  9
$DIMCLRE
 70
   256
  9
$DIMCLRT
 70
   256
  9
$DIMTFAC
 40
1.0
  9
$DIMGAP
 40
1.0
  9
$DIMJUST
 70
     0
  9
$DIMSD1
 70
     0
  9
$DIMSD2
 70
     0
  9
$DIMTOLJ
 70
     0
  9
$DIMTZIN
 70
     8
  9
$DIMALTZ
 70
     0
  9
$DIMALTTZ
 70
     0
  9
$DIMUPT
 70
     0
  9
$DIMDEC
 70
     1
  9
$DIMTDEC
 70
     1
  9
$DIMALTU
 70
     2
  9
$DIMALTTD
 70
     3
  9
$DIMTXSTY
  7
SANINDUSA
  9
$DIMAUNIT
 70
     0
  9
$DIMADEC
 70
     1
  9
$DIMALTRND
 40
0.0
  9
$DIMAZIN
 70
     0
  9
$DIMDSEP
 70
    44
  9
$DIMATFIT
 70
     3
  9
$DIMFRAC
 70
     0
  9
$DIMLDRBLK
  1

  9
$DIMLUNIT
 70
     2
  9
$DIMLWD
 70
    -1
  9
$DIMLWE
 70
    -1
  9
$DIMTMOVE
 70
     0
  9
$LUNITS
 70
     2
  9
$LUPREC
 70
     4
  9
$SKETCHINC
 40
1.0
  9
$FILLETRAD
 40
0.0
  9
$AUNITS
 70
     0
  9
$AUPREC
 70
     0
  9
$MENU
  1
.
  9
$ELEVATION
 40
0.0
  9
$PELEVATION
 40
0.0
  9
$THICKNESS
 40
0.0
  9
$LIMCHECK
 70
     0
  9
$CHAMFERA
 40
10.0
  9
$CHAMFERB
 40
10.0
  9
$CHAMFERC
 40
20.0
  9
$CHAMFERD
 40
0.0
  9
$SKPOLY
 70
     0
  9
$TDCREATE
 40
2453480.698496991
  9
$TDUCREATE
 40
2453480.656830324
  9
$TDUPDATE
 40
2456146.603222650
  9
$TDUUPDATE
 40
2456146.561555984
  9
$TDINDWG
 40
0.0004539236
  9
$TDUSRTIMER
 40
0.0004539236
  9
$USRTIMER
 70
     1
  9
$ANGBASE
 50
0.0
  9
$ANGDIR
 70
     0
  9
$PDMODE
 70
     0
  9
$PDSIZE
 40
0.0
  9
$PLINEWID
 40
0.0
  9
$SPLFRAME
 70
     0
  9
$SPLINETYPE
 70
     6
  9
$SPLINESEGS
 70
     8
  9
$HANDSEED
  5
F54
  9
$SURFTAB1
 70
     6
  9
$SURFTAB2
 70
     6
  9
$SURFTYPE
 70
     6
  9
$SURFU
 70
     6
  9
$SURFV
 70
     6
  9
$UCSBASE
  2

  9
$UCSNAME
  2

  9
$UCSORG
 10
0.0
 20
0.0
 30
0.0
  9
$UCSXDIR
 10
1.0
 20
0.0
 30
0.0
  9
$UCSYDIR
 10
0.0
 20
1.0
 30
0.0
  9
$UCSORTHOREF
  2

  9
$UCSORTHOVIEW
 70
     0
  9
$UCSORGTOP
 10
0.0
 20
0.0
 30
0.0
  9
$UCSORGBOTTOM
 10
0.0
 20
0.0
 30
0.0
  9
$UCSORGLEFT
 10
0.0
 20
0.0
 30
0.0
  9
$UCSORGRIGHT
 10
0.0
 20
0.0
 30
0.0
  9
$UCSORGFRONT
 10
0.0
 20
0.0
 30
0.0
  9
$UCSORGBACK
 10
0.0
 20
0.0
 30
0.0
  9
$PUCSBASE
  2

  9
$PUCSNAME
  2

  9
$PUCSORG
 10
0.0
 20
0.0
 30
0.0
  9
$PUCSXDIR
 10
1.0
 20
0.0
 30
0.0
  9
$PUCSYDIR
 10
0.0
 20
1.0
 30
0.0
  9
$PUCSORTHOREF
  2

  9
$PUCSORTHOVIEW
 70
     0
  9
$PUCSORGTOP
 10
0.0
 20
0.0
 30
0.0
  9
$PUCSORGBOTTOM
 10
0.0
 20
0.0
 30
0.0
  9
$PUCSORGLEFT
 10
0.0
 20
0.0
 30
0.0
  9
$PUCSORGRIGHT
 10
0.0
 20
0.0
 30
0.0
  9
$PUCSORGFRONT
 10
0.0
 20
0.0
 30
0.0
  9
$PUCSORGBACK
 10
0.0
 20
0.0
 30
0.0
  9
$USERI1
 70
     0
  9
$USERI2
 70
     0
  9
$USERI3
 70
     0
  9
$USERI4
 70
     0
  9
$USERI5
 70
     0
  9
$USERR1
 40
0.0
  9
$USERR2
 40
0.0
  9
$USERR3
 40
0.0
  9
$USERR4
 40
0.0
  9
$USERR5
 40
0.0
  9
$WORLDVIEW
 70
     1
  9
$SHADEDGE
 70
     3
  9
$SHADEDIF
 70
    70
  9
$TILEMODE
 70
     1
  9
$MAXACTVP
 70
    64
  9
$PINSBASE
 10
0.0
 20
0.0
 30
0.0
  9
$PLIMCHECK
 70
     0
  9
$PEXTMIN
 10
1.000000000000000E+20
 20
1.000000000000000E+20
 30
1.000000000000000E+20
  9
$PEXTMAX
 10
-1.000000000000000E+20
 20
-1.000000000000000E+20
 30
-1.000000000000000E+20
  9
$PLIMMIN
 10
0.0
 20
0.0
  9
$PLIMMAX
 10
420.0
 20
297.0
  9
$UNITMODE
 70
     0
  9
$VISRETAIN
 70
     1
  9
$PLINEGEN
 70
     0
  9
$PSLTSCALE
 70
     1
  9
$TREEDEPTH
 70
  3020
  9
$CMLSTYLE
  2
Standard
  9
$CMLJUST
 70
     0
  9
$CMLSCALE
 40
20.0
  9
$PROXYGRAPHICS
 70
     1
  9
$MEASUREMENT
 70
     1
  9
$CELWEIGHT
370
    -1
  9
$ENDCAPS
280
     0
  9
$JOINSTYLE
280
     0
  9
$LWDISPLAY
290
     0
  9
$INSUNITS
 70
     4
  9
$HYPERLINKBASE
  1

  9
$STYLESHEET
  1
monochrome.ctb
  9
$XEDIT
290
     1
  9
$CEPSNTYPE
380
     0
  9
$PSTYLEMODE
290
     1
  9
$FINGERPRINTGUID
  2
{B98A73AA-52AA-4C10-B469-C0E7150AC31F}
  9
$VERSIONGUID
  2
{E11F5D0E-A035-4B77-A3E7-4B9A652EDEF7}
  9
$EXTNAMES
290
     1
  9
$PSVPSCALE
 40
0.0
  9
$OLESTARTUP
290
     0
  0
ENDSEC
  0
SECTION
  2
CLASSES
  0
CLASS
  1
ACDBDICTIONARYWDFLT
  2
AcDbDictionaryWithDefault
  3
ObjectDBX Classes
 90
        0
280
     0
281
     0
  0
CLASS
  1
ACDBPLACEHOLDER
  2
AcDbPlaceHolder
  3
ObjectDBX Classes
 90
        0
280
     0
281
     0
  0
CLASS
  1
LAYOUT
  2
AcDbLayout
  3
ObjectDBX Classes
 90
        0
280
     0
281
     0
  0
CLASS
  1
DICTIONARYVAR
  2
AcDbDictionaryVar
  3
ObjectDBX Classes
 90
        0
280
     0
281
     0
  0
CLASS
  1
DIMASSOC
  2
AcDbDimAssoc
  3
"AcDbDimAssoc|Product Desc:     AcDim ARX App For Dimension|Company:          Autodesk, Inc.|WEB Address:      www.autodesk.com"
 90
    32768
280
     0
281
     0
  0
CLASS
  1
MATERIAL
  2
AcDbMaterial
  3
ObjectDBX Classes
 90
     1153
280
     0
281
     0
  0
CLASS
  1
VISUALSTYLE
  2
AcDbVisualStyle
  3
ObjectDBX Classes
 90
     4095
280
     0
281
     0
  0
CLASS
  1
TABLESTYLE
  2
AcDbTableStyle
  3
ObjectDBX Classes
 90
     4095
280
     0
281
     0
  0
CLASS
  1
SCALE
  2
AcDbScale
  3
ObjectDBX Classes
 90
     1153
280
     0
281
     0
  0
CLASS
  1
MLEADERSTYLE
  2
AcDbMLeaderStyle
  3
ACDB_MLEADERSTYLE_CLASS
 90
     4095
280
     0
281
     0
  0
CLASS
  1
CELLSTYLEMAP
  2
AcDbCellStyleMap
  3
ObjectDBX Classes
 90
     1152
280
     0
281
     0
  0
ENDSEC
  0
SECTION
  2
TABLES
  0
TABLE
  2
VPORT
  5
8
330
0
100
AcDbSymbolTable
 70
     1
  0
VPORT
  5
EB1
330
8
100
AcDbSymbolTableRecord
100
AcDbViewportTableRecord
  2
*Active
 70
     0
 10
0.0
 20
0.0
 11
1.0
 21
1.0
 12
100.3351863298187
 22
151.8309180537831
 13
0.0
 23
0.0
 14
10.0
 24
10.0
 15
10.0
 25
10.0
 16
0.0
 26
0.0
 36
1.0
 17
0.0
 27
0.0
 37
0.0
 40
2.693788505126903
 41
1.645464025026068
 42
50.0
 43
0.0
 44
0.0
 50
0.0
 51
0.0
 71
     0
 72
   100
 73
     1
 74
     2
 75
     0
 76
     0
 77
     0
 78
     0
281
     0
 65
     1
110
0.0
120
0.0
130
0.0
111
1.0
121
0.0
131
0.0
112
0.0
122
1.0
132
0.0
 79
     0
146
0.0
  0
ENDTAB
  0
TABLE
  2
LTYPE
  5
5
330
0
100
AcDbSymbolTable
 70
     3
  0
LTYPE
  5
14
330
5
100
AcDbSymbolTableRecord
100
AcDbLinetypeTableRecord
  2
ByBlock
 70
     0
  3

 72
    65
 73
     0
 40
0.0
  0
LTYPE
  5
15
330
5
100
AcDbSymbolTableRecord
100
AcDbLinetypeTableRecord
  2
ByLayer
 70
     0
  3

 72
    65
 73
     0
 40
0.0
  0
LTYPE
  5
16
330
5
100
AcDbSymbolTableRecord
100
AcDbLinetypeTableRecord
  2
Continuous
 70
     0
  3
Solid line
 72
    65
 73
     0
 40
0.0
  0
LTYPE
  5
2D
330
5
100
AcDbSymbolTableRecord
100
AcDbLinetypeTableRecord
  2
DASHDOT
 70
     0
  3
Dash dot __ . __ . __ . __ . __ . __ . __ . __
 72
    65
 73
     4
 40
25.4
 49
12.7
 74
     0
 49
-6.349999999999999
 74
     0
 49
0.0
 74
     0
 49
-6.349999999999999
 74
     0
  0
LTYPE
  5
2E
330
5
100
AcDbSymbolTableRecord
100
AcDbLinetypeTableRecord
  2
HIDDEN
 70
     0
  3
Hidden __ __ __ __ __ __ __ __ __ __ __ __ __ _
 72
    65
 73
     2
 40
9.524999999999998
 49
6.349999999999999
 74
     0
 49
-3.174999999999999
 74
     0
  0
ENDTAB
  0
TABLE
  2
LAYER
  5
2
330
0
100
AcDbSymbolTable
 70
    16
  0
LAYER
  5
10
102
{ACAD_XDICTIONARY
360
EFB
102
}
330
2
100
AcDbSymbolTableRecord
100
AcDbLayerTableRecord
  2
0
 70
     0
 62
     7
  6
Continuous
370
    -3
390
F
  0
LAYER
  5
2F
102
{ACAD_XDICTIONARY
360
EFD
102
}
330
2
100
AcDbSymbolTableRecord
100
AcDbLayerTableRecord
  2
1
 70
     0
 62
     1
  6
Continuous
370
    -3
390
F
  0
LAYER
  5
30
102
{ACAD_XDICTIONARY
360
EFF
102
}
330
2
100
AcDbSymbolTableRecord
100
AcDbLayerTableRecord
  2
2
 70
     0
 62
     2
  6
Continuous
370
    -3
390
F
  0
LAYER
  5
31
102
{ACAD_XDICTIONARY
360
F01
102
}
330
2
100
AcDbSymbolTableRecord
100
AcDbLayerTableRecord
  2
3
 70
     0
 62
     3
  6
Continuous
370
    -3
390
F
  0
LAYER
  5
32
102
{ACAD_XDICTIONARY
360
F03
102
}
330
2
100
AcDbSymbolTableRecord
100
AcDbLayerTableRecord
  2
4
 70
     0
 62
     4
  6
Continuous
370
    -3
390
F
  0
LAYER
  5
33
102
{ACAD_XDICTIONARY
360
F05
102
}
330
2
100
AcDbSymbolTableRecord
100
AcDbLayerTableRecord
  2
5
 70
     0
 62
     5
  6
Continuous
370
    -3
390
F
  0
LAYER
  5
34
102
{ACAD_XDICTIONARY
360
F07
102
}
330
2
100
AcDbSymbolTableRecord
100
AcDbLayerTableRecord
  2
6
 70
     0
 62
     6
  6
Continuous
370
    -3
390
F
  0
LAYER
  5
35
102
{ACAD_XDICTIONARY
360
F09
102
}
330
2
100
AcDbSymbolTableRecord
100
AcDbLayerTableRecord
  2
7
 70
     0
 62
     7
  6
Continuous
370
    -3
390
F
  0
LAYER
  5
36
102
{ACAD_XDICTIONARY
360
F0B
102
}
330
2
100
AcDbSymbolTableRecord
100
AcDbLayerTableRecord
  2
cen
 70
     0
 62
     7
  6
DASHDOT
370
    -3
390
F
  0
LAYER
  5
37
102
{ACAD_XDICTIONARY
360
F0D
102
}
330
2
100
AcDbSymbolTableRecord
100
AcDbLayerTableRecord
  2
hid
 70
     0
 62
     7
  6
HIDDEN
370
    -3
390
F
  0
LAYER
  5
5D6
102
{ACAD_XDICTIONARY
360
F0F
102
}
330
2
100
AcDbSymbolTableRecord
100
AcDbLayerTableRecord
  2
hatch
 70
     0
 62
     9
  6
Continuous
370
    -3
390
F
  0
LAYER
  5
8AF
102
{ACAD_XDICTIONARY
360
F11
102
}
330
2
100
AcDbSymbolTableRecord
100
AcDbLayerTableRecord
  2
9
 70
     0
 62
     9
  6
Continuous
370
    -3
390
F
  0
LAYER
  5
8F8
102
{ACAD_XDICTIONARY
360
F13
102
}
330
2
100
AcDbSymbolTableRecord
100
AcDbLayerTableRecord
  2
leg fin
 70
     0
 62
     9
  6
Continuous
370
    -3
390
F
  0
LAYER
  5
91D
102
{ACAD_XDICTIONARY
360
F15
102
}
330
2
100
AcDbSymbolTableRecord
100
AcDbLayerTableRecord
  2
cotas
 70
     0
 62
     1
  6
Continuous
370
    -3
390
F
  0
LAYER
  5
92F
330
2
100
AcDbSymbolTableRecord
100
AcDbLayerTableRecord
  2
Defpoints
 70
     0
 62
     7
  6
Continuous
290
     0
370
    -3
390
F
  0
LAYER
  5
BA5
102
{ACAD_XDICTIONARY
360
F17
102
}
330
2
100
AcDbSymbolTableRecord
100
AcDbLayerTableRecord
  2
INDUSA
 70
     0
 62
     3
  6
Continuous
370
    -3
390
F
  0
ENDTAB
  0
TABLE
  2
STYLE
  5
3
330
0
100
AcDbSymbolTable
 70
     3
  0
STYLE
  5
11
330
3
100
AcDbSymbolTableRecord
100
AcDbTextStyleTableRecord
  2
Standard
 70
     0
 40
0.0
 41
1.0
 50
0.0
 71
     0
 42
2.5
  3
Avgardn.ttf
  4

1001
ACAD
1000
AvantGarde Bk BT
1071
       34
  0
STYLE
  5
2C
330
3
100
AcDbSymbolTableRecord
100
AcDbTextStyleTableRecord
  2

 70
     1
 40
0.0
 41
1.0
 50
0.0
 71
     0
 42
2.5
  3
ltypeshp.shx
  4

  0
STYLE
  5
91F
330
3
100
AcDbSymbolTableRecord
100
AcDbTextStyleTableRecord
  2
SANINDUSA
 70
     0
 40
0.0
 41
1.0
 50
0.0
 71
     0
 42
2.5
  3
verdana.TTF
  4

1001
ACAD
1000
Verdana
1071
       34
  0
ENDTAB
  0
TABLE
  2
VIEW
  5
6
330
0
100
AcDbSymbolTable
 70
     0
  0
ENDTAB
  0
TABLE
  2
UCS
  5
7
330
0
100
AcDbSymbolTable
 70
     0
  0
ENDTAB
  0
TABLE
  2
APPID
  5
9
330
0
100
AcDbSymbolTable
 70
     3
  0
APPID
  5
12
330
9
100
AcDbSymbolTableRecord
100
AcDbRegAppTableRecord
  2
ACAD
 70
     0
  0
APPID
  5
3A
330
9
100
AcDbSymbolTableRecord
100
AcDbRegAppTableRecord
  2
DCO15
 70
     0
  0
APPID
  5
F53
330
9
100
AcDbSymbolTableRecord
100
AcDbRegAppTableRecord
  2
ACAD_MLEADERVER
 70
     0
  0
ENDTAB
  0
TABLE
  2
DIMSTYLE
  5
A
330
0
100
AcDbSymbolTable
 70
     3
100
AcDbDimStyleTable
 71
     1
340
921
  0
DIMSTYLE
105
45
330
A
100
AcDbSymbolTableRecord
100
AcDbDimStyleTableRecord
  2
STANDARD
 70
     0
289
     0
340
11
  0
DIMSTYLE
105
921
330
A
100
AcDbSymbolTableRecord
100
AcDbDimStyleTableRecord
  2
SANINDUSA
 70
     0
 41
2.0
 42
1.0
 43
1.0
 44
1.0
 73
     0
 74
     0
 77
     1
 78
     8
140
2.0
141
0.0
143
0.03937007874016
147
1.0
171
     3
172
     1
176
   256
177
   256
178
   256
179
     1
271
     1
272
     1
274
     3
278
    44
283
     0
284
     8
340
91F
371
    -1
372
    -1
  0
DIMSTYLE
105
BA6
330
A
100
AcDbSymbolTableRecord
100
AcDbDimStyleTableRecord
  2
ISO-25
 70
     0
 41
2.5
 42
0.625
 43
3.75
 44
1.25
 73
     0
 74
     0
 77
     1
 78
     8
140
2.5
141
2.5
143
0.03937007874016
147
0.625
171
     3
172
     1
271
     2
272
     2
274
     3
278
    44
283
     0
284
     8
340
11
  0
ENDTAB
  0
TABLE
  2
BLOCK_RECORD
  5
1
330
0
100
AcDbSymbolTable
 70
     4
  0
BLOCK_RECORD
  5
1F
330
1
100
AcDbSymbolTableRecord
100
AcDbBlockTableRecord
  2
*Model_Space
340
22
  0
BLOCK_RECORD
  5
1B
330
1
100
AcDbSymbolTableRecord
100
AcDbBlockTableRecord
  2
*Paper_Space
340
1E
  0
BLOCK_RECORD
  5
23
330
1
100
AcDbSymbolTableRecord
100
AcDbBlockTableRecord
  2
*Paper_Space0
340
26
  0
BLOCK_RECORD
  5
919
330
1
100
AcDbSymbolTableRecord
100
AcDbBlockTableRecord
  2
_DotSmall
340
0
  0
BLOCK_RECORD
  5
922
330
1
100
AcDbSymbolTableRecord
100
AcDbBlockTableRecord
  2
base para cotas
340
0
310
2800000020000000200000000100080000000000000400000000000000000000000000000000000000000000000080000080000000808000800000008000800080800000C0C0C000C0DCC000F0CAA6000020400000206000002080000020A0000020C0000020E00000400000004020000040400000406000004080000040A0
310
000040C0000040E00000600000006020000060400000606000006080000060A0000060C0000060E00000800000008020000080400000806000008080000080A0000080C0000080E00000A0000000A0200000A0400000A0600000A0800000A0A00000A0C00000A0E00000C0000000C0200000C0400000C0600000C0800000C0
310
A00000C0C00000C0E00000E0000000E0200000E0400000E0600000E0800000E0A00000E0C00000E0E00040000000400020004000400040006000400080004000A0004000C0004000E00040200000402020004020400040206000402080004020A0004020C0004020E000404000004040200040404000404060004040800040
310
40A0004040C0004040E00040600000406020004060400040606000406080004060A0004060C0004060E00040800000408020004080400040806000408080004080A0004080C0004080E00040A0000040A0200040A0400040A0600040A0800040A0A00040A0C00040A0E00040C0000040C0200040C0400040C0600040C08000
310
40C0A00040C0C00040C0E00040E0000040E0200040E0400040E0600040E0800040E0A00040E0C00040E0E00080000000800020008000400080006000800080008000A0008000C0008000E00080200000802020008020400080206000802080008020A0008020C0008020E00080400000804020008040400080406000804080
310
008040A0008040C0008040E00080600000806020008060400080606000806080008060A0008060C0008060E00080800000808020008080400080806000808080008080A0008080C0008080E00080A0000080A0200080A0400080A0600080A0800080A0A00080A0C00080A0E00080C0000080C0200080C0400080C0600080C0
310
800080C0A00080C0C00080C0E00080E0000080E0200080E0400080E0600080E0800080E0A00080E0C00080E0E000C0000000C0002000C0004000C0006000C0008000C000A000C000C000C000E000C0200000C0202000C0204000C0206000C0208000C020A000C020C000C020E000C0400000C0402000C0404000C0406000C0
310
408000C040A000C040C000C040E000C0600000C0602000C0604000C0606000C0608000C060A000C060C000C060E000C0800000C0802000C0804000C0806000C0808000C080A000C080C000C080E000C0A00000C0A02000C0A04000C0A06000C0A08000C0A0A000C0A0C000C0A0E000C0C00000C0C02000C0C04000C0C06000
310
C0C08000C0C0A000F0FBFF00A4A0A000808080000000FF0000FF000000FFFF00FF000000FF00FF00FFFF0000FFFFFF00A4A4A4A4A4A4A4A4A4A4A4A4A4A4A4A4A4A4A4A4A4A4A4A4A4A4A4A4A4A4A4A4A4A4A4A4A4A4A4A4A4A4A4A4A4A4A4A4A4A4A4A4A4A4A4A4A4A4A4A4A4A4A4A4A4A4A4A4A4A4A4A4A4A4A4A4A4A4A4
310
A4A4A4A4A4A4A4A4A4A4A4A4A4A4A4A4A4A4A4A4A4A4A4A4A4A4A4A4A4A4A4A4A4A4A4A4A4A4A4A4A4A4A4A4A4A4A4A4A4A4A4A4A4A4A4A4A4A4A4A4A4A4A4A4A4A4A4A4A4A4A4A4A4A4A4A4A4A4A4A4A4A4A4A4A4A4A4A4A4A4A4A4A4A4A4A4A4A4A4A4A4A4A4A4A4A4A4A4A4A4A4A4A4A4A4A4A4A4A4A4A4A4A4A4A4A4A4
310
A4A4A4A4A4A4A4A4A4A4A4A4A4A4A4A4A4A4A4A4A4A4A4A4A4A4A4A4A4A4A4A4A4A4A4A4A4A4A4A4A4A4A4A4A4A4A4A4A4A4A4A4A4A4A4A4A4A4A4A4A4A4A4A4A4A4A4A4A4A4A4A4A4A4A4A4A4A4A4A4A4A4A4A4A4A4A4A4A4A4A4A4A4A4A4A4A4A4A4A4A4A4A4A4A4A4A4A4A4A4A4A4A4A4A4A4A4A4A4A4A4A4A4A4A4A4A4
310
A4A4A4A4A4A4A4A4A4A4A4A4A4A4A4A4A4A4A4A4A4A4A4A4A4A4A4A4A4A4A4A4A4A4A4A4A4A4A4A4A4A4A4A4A4A4A4A4A4A4A4A4A4A4A4A4A4A4A4A4A4A4A4A4A4A4A4A4A4A4A4A4A4A4A4A4A4A4A4A4A4A4A4A4A4A4A4A4A4A4A4A4A4A4A4A4A4A4A4A4A4A4A4A4A4A4A4A4A4A4A4A4A4A4A4A4F9F9F9F9F9F9F9F9F9F9F9
310
F9F9F9F9F9F9F9F9F9F9F9F9F9F9F9F9F9F9F9A4A4F9F9F9F9F9F9F9F9F9F9F9F9F9F9F9F9F9F9F9F9F9F9F9F9F9F9F9F9F9F9A4A4F9F9F9F9F9F9F9F9F9F9F9F9F9F9F9F9F9F9F9F9F9F9F9F9F9F9F9F9F9F9A4A4F9A4A4A4A4A4A4A4A4A4A4A4A4A4A4A4A4A4A4A4A4A4A4A4A4A4A4A4A4F9A4A4A4A4A4A4A4A4A4A4A4A4
310
A4A4A4A4A4A4A4A4A4A4A4A4A4A4A4A4A4A4A4A4A4A4A4A4A4A4A4A4A4A4A4A4A4A4A4A4A4A4A4A4A4A4A4A4A4A4A4A4A4A4A4A4A4A4A4A4A4A4A4A4A4A4A4A4A4A4A4A4A4A4A4A4A4A4A4A4A4A4A4A4A4A4A4A4A4A4A4A4A4A4A4A4A4A4A4A4A4A4A4A4A4A4A4A4A4A4A4A4A4A4A4A4A4A4A4A4A4A4A4A4A4A4A4A4A4A4A4
310
A4A4A4A4A4A4A4A4A4A4A4A4A4A4A4A4A4A4A4A4A4A4A4A4A4A4A4A4A4A4A4A4A4A4A4A4A4A4A4A4A4A4A4A4A4A4A4A4A4A4A4A4A4A4A4A4A4A4A4A4A4A4A4A4A4A4A4A4A4A4A4A4A4A4A4A4A4A4A4A4A4A4A4A4A4A4A4A4A4A4A4A4A4A4A4A4A4A4A4A4A4A4A4A4A4A4A4A4A4A4A4A4A4A4A4A4A4A4A4A4A4A4A4A4A4A4A4
310
A4A4A4A4A4A4A4A4A4A4A4A4A4A4A4A4A4A4A4A4A4A4A4A4A4A4A4A4A4A4A4A4A4A4A4A4A4A4A4A4A4A4A4A4A4A4A4A4A4A4A4A4A4A4A4A4A4A4A4A4A4A4A4A4A4A4A4A4A4A4A4A4A4A4A4A4A4A4A4A4A4A4A4A4A4A4A4A4A4A4A4A4A4A4A4A4A4A4A4A4A4A4A4A4A4A4A4A4A4A4A4A4A4A4A4A4A4A4A4A4A4A4A4A4A4A4A4
310
A4A4A4A4A4A4A4A4A4A4A4A4A4A4A4A4A4A4A4A4A4A4A4A4A4A4A4A4A4A4A4A4A4A4A4A4A4A4A4A4A4A4A4A4A4A4A4A4A4A4A4A4A4A4A4A4
1001
ACAD
1000
DesignCenter Data
1002
{
1070
     1
1070
     4
1002
}
  0
BLOCK_RECORD
  5
AA8
330
1
100
AcDbSymbolTableRecord
100
AcDbBlockTableRecord
  2
_CLOSED
340
0
  0
ENDTAB
  0
ENDSEC
  0
SECTION
  2
BLOCKS
  0
BLOCK
  5
20
330
1F
100
AcDbEntity
  8
0
100
AcDbBlockBegin
  2
*Model_Space
 70
     0
 10
0.0
 20
0.0
 30
0.0
  3
*Model_Space
  1

  0
ENDBLK
  5
21
330
1F
100
AcDbEntity
  8
0
100
AcDbBlockEnd
  0
BLOCK
  5
1C
330
1B
100
AcDbEntity
 67
     1
  8
0
100
AcDbBlockBegin
  2
*Paper_Space
 70
     0
 10
0.0
 20
0.0
 30
0.0
  3
*Paper_Space
  1

  0
ENDBLK
  5
1D
330
1B
100
AcDbEntity
 67
     1
  8
0
100
AcDbBlockEnd
  0
BLOCK
  5
24
330
23
100
AcDbEntity
 67
     1
  8
0
100
AcDbBlockBegin
  2
*Paper_Space0
 70
     0
 10
0.0
 20
0.0
 30
0.0
  3
*Paper_Space0
  1

  0
ENDBLK
  5
25
330
23
100
AcDbEntity
 67
     1
  8
0
100
AcDbBlockEnd
  0
BLOCK
  5
91B
330
919
100
AcDbEntity
  8
0
100
AcDbBlockBegin
  2
_DotSmall
 70
     0
 10
0.0
 20
0.0
 30
0.0
  3
_DotSmall
  1

  0
LWPOLYLINE
  5
91A
330
919
100
AcDbEntity
  8
0
  6
ByBlock
 62
     0
100
AcDbPolyline
 90
        2
 70
     1
 43
0.5
 10
-0.0625
 20
0.0
 42
1.0
 10
0.0625
 20
0.0
 42
1.0
  0
ENDBLK
  5
91C
330
919
100
AcDbEntity
  8
0
100
AcDbBlockEnd
  0
BLOCK
  5
92A
330
922
100
AcDbEntity
  8
0
100
AcDbBlockBegin
  2
base para cotas
 70
     0
 10
0.0
 20
0.0
 30
0.0
  3
base para cotas
  1

  0
LINE
  5
B36
330
922
100
AcDbEntity
  8
cotas
100
AcDbLine
 10
0.0
 20
-30.0
 30
0.0
 11
327.1260136525398
 21
-30.0
 31
0.0
  0
LINE
  5
B37
330
922
100
AcDbEntity
  8
cotas
100
AcDbLine
 10
0.0
 20
-25.0
 30
0.0
 11
327.1260136525398
 21
-25.0
 31
0.0
  0
LINE
  5
B38
330
922
100
AcDbEntity
  8
cotas
100
AcDbLine
 10
0.0
 20
-20.0
 30
0.0
 11
327.1260136525398
 21
-20.0
 31
0.0
  0
LINE
  5
B39
330
922
100
AcDbEntity
  8
cotas
100
AcDbLine
 10
0.0
 20
-15.0
 30
0.0
 11
327.1260136525398
 21
-15.0
 31
0.0
  0
LINE
  5
B3A
330
922
100
AcDbEntity
  8
cotas
100
AcDbLine
 10
0.0
 20
-10.0
 30
0.0
 11
327.1260136525398
 21
-10.0
 31
0.0
  0
LINE
  5
B3B
330
922
100
AcDbEntity
  8
cotas
100
AcDbLine
 10
0.0
 20
0.0
 30
0.0
 11
0.0
 21
-30.0
 31
0.0
  0
LINE
  5
B3C
330
922
100
AcDbEntity
  8
cotas
100
AcDbLine
 10
327.1260136525398
 20
-30.0
 30
0.0
 11
327.1260136525398
 21
0.0
 31
0.0
  0
ENDBLK
  5
92B
330
922
100
AcDbEntity
  8
0
100
AcDbBlockEnd
  0
BLOCK
  5
AAD
330
AA8
100
AcDbEntity
  8
0
100
AcDbBlockBegin
  2
_CLOSED
 70
     0
 10
0.0
 20
0.0
 30
0.0
  3
_CLOSED
  1

  0
LINE
  5
AA9
330
AA8
100
AcDbEntity
  8
0
100
AcDbLine
 10
-1.0
 20
0.166667
 30
0.0
 11
0.0
 21
0.0
 31
0.0
  0
LINE
  5
AAA
330
AA8
100
AcDbEntity
  8
0
100
AcDbLine
 10
0.0
 20
0.0
 30
0.0
 11
-1.0
 21
-0.166667
 31
0.0
  0
LINE
  5
AAB
330
AA8
100
AcDbEntity
  8
0
100
AcDbLine
 10
-1.0
 20
0.166667
 30
0.0
 11
-1.0
 21
-0.166667
 31
0.0
  0
LINE
  5
AAC
330
AA8
100
AcDbEntity
  8
0
100
AcDbLine
 10
0.0
 20
0.0
 30
0.0
 11
-1.0
 21
0.0
 31
0.0
  0
ENDBLK
  5
AAE
330
AA8
100
AcDbEntity
  8
0
100
AcDbBlockEnd
  0
ENDSEC
  0
SECTION
  2
ENTITIES
  0
LINE
  5
D2D
330
1F
100
AcDbEntity
  8
INDUSA
100
AcDbLine
 10
100.100634683623
 20
152.0052292112468
 30
0.0
 11
100.1027700134756
 21
152.0048259679979
 31
0.0
  0
ARC
  5
D2E
330
1F
100
AcDbEntity
  8
3
  6
Continuous
100
AcDbCircle
 10
98.88654821855482
 20
151.3872269642579
 30
0.0
 40
0.5712500000000008
100
AcDbArc
 50
69.74980011148621
 51
110.2501998885138
  0
LWPOLYLINE
  5
D2F
330
1F
100
AcDbEntity
  8
3
  6
Continuous
100
AcDbPolyline
 90
       10
 70
   128
 43
0.0
 10
98.88654821855482
 20
152.0852610403144
 10
98.85992498439271
 20
152.0848027554107
 10
98.83337263052897
 20
152.0834593174036
 10
98.80690167825594
 20
152.0812777478272
 10
98.78051808512612
 20
152.0783034613023
 10
98.75422215280162
 20
152.0745806957848
 10
98.72150788665988
 20
152.0689473794855
 10
98.6890515479123
 20
152.0623268423842
 10
98.65682836854205
 20
152.0548144106278
 10
98.6248030586654
 20
152.0465025152039
  0
LINE
  5
D30
330
1F
100
AcDbEntity
  8
3
  6
Continuous
100
AcDbLine
 10
98.88654821855482
 20
152.108476964258
 30
0.0
 11
98.62273354285878
 21
152.108476964258
 31
0.0
  0
LWPOLYLINE
  5
D31
330
1F
100
AcDbEntity
  8
3
  6
Continuous
100
AcDbPolyline
 90
        9
 70
   128
 43
0.0
 10
98.88654821855482
 20
151.6013214603813
 10
98.84634961476843
 20
151.604340859857
 10
98.82625760803728
 20
151.6060432595072
 10
98.80618733035579
 20
151.608004326627
 10
98.77619722835436
 20
151.6116595884104
 10
98.76123732066856
 20
151.6139188578904
 10
98.74633107630382
 20
151.6165101204014
 10
98.71655566675975
 20
151.6227438355818
 10
98.68703197098978
 20
151.6303373595747
  0
LWPOLYLINE
  5
D32
330
1F
100
AcDbEntity
  8
3
  6
Continuous
100
AcDbPolyline
 90
        9
 70
   128
 43
0.0
 10
98.88654821855482
 20
151.5506063794491
 10
98.85416063998139
 20
151.5511677485319
 10
98.82181815256274
 20
151.5529665555418
 10
98.7893017077223
 20
151.5560316484602
 10
98.7569275559573
 20
151.5603479025708
 10
98.72435283645575
 20
151.5659854638566
 10
98.69202292141961
 20
151.572889978022
 10
98.65976805152207
 20
151.5811122324567
 10
98.62776289824399
 20
151.5906276598657
  0
LWPOLYLINE
  5
D33
330
1F
100
AcDbEntity
  8
3
  6
Continuous
100
AcDbPolyline
 90
        7
 70
   128
 43
0.0
 10
98.62440646547691
 20
151.5939070946256
 10
98.60769067152194
 20
151.6762869329104
 10
98.59130987745892
 20
151.7587499860878
 10
98.57870945476555
 20
151.8233778389567
 10
98.56629803226645
 20
151.8880338715467
 10
98.55405071634335
 20
151.9527222574334
 10
98.54193099277438
 20
152.0174064070847
  0
LWPOLYLINE
  5
D34
330
1F
100
AcDbEntity
  8
3
  6
Continuous
100
AcDbPolyline
 90
        7
 70
   128
 43
0.0
 10
98.66009667446348
 20
151.6877557931434
 10
98.66353798370722
 20
151.7200561857612
 10
98.66512847615343
 20
151.7362260525005
 10
98.66665268292662
 20
151.752392402499
 10
98.66956034889348
 20
151.7847884546272
 10
98.67500677011538
 20
151.8491644474707
 10
98.68030197588144
 20
151.9135441346411
  0
LWPOLYLINE
  5
D35
330
1F
100
AcDbEntity
  8
3
  6
Continuous
100
AcDbPolyline
 90
        9
 70
   128
 43
0.0
 10
98.62776289824399
 20
151.5906276598657
 10
98.62718648108842
 20
151.5908601778997
 10
98.62663977290219
 20
151.5911542885073
 10
98.6261312224466
 20
151.5915054465404
 10
98.62566868879765
 20
151.5919082252444
 10
98.62525931989409
 20
151.5923564001277
 10
98.62490944207287
 20
151.5928430451499
 10
98.62462446230267
 20
151.5933606397589
 10
98.62440878462633
 20
151.5939011851105
  0
LWPOLYLINE
  5
D36
330
1F
100
AcDbEntity
  8
3
  6
Continuous
100
AcDbPolyline
 90
        9
 70
   128
 43
0.0
 10
98.67802910232706
 20
151.6340581061617
 10
98.67255868180166
 20
151.6378464540184
 10
98.66764020223275
 20
151.6425910546904
 10
98.66369485004032
 20
151.6479626888745
 10
98.66066164539724
 20
151.654133022052
 10
98.65887784134464
 20
151.6602691802468
 10
98.65809588525202
 20
151.6667877278641
 10
98.65813821555196
 20
151.6712202785361
 10
98.65859513654925
 20
151.6756266244815
  0
LWPOLYLINE
  5
D37
330
1F
100
AcDbEntity
  8
3
  6
Continuous
100
AcDbPolyline
 90
        5
 70
   128
 43
0.0
 10
98.68703197098978
 20
151.6303373595747
 10
98.68471889790965
 20
151.6310371888917
 10
98.68244543299546
 20
151.6318833449068
 10
98.68020408261953
 20
151.632891045766
 10
98.67802910232706
 20
151.6340581061617
  0
LWPOLYLINE
  5
D38
330
1F
100
AcDbEntity
  8
3
  6
Continuous
100
AcDbPolyline
 90
        5
 70
   128
 43
0.0
 10
98.65859513654925
 20
151.6756266244815
 10
98.6589934763166
 20
151.678653950129
 10
98.65937676282294
 20
151.6816845232743
 10
98.65974465544571
 20
151.6847186903915
 10
98.66009667446348
 20
151.6877557931434
  0
LWPOLYLINE
  5
D39
330
1F
100
AcDbEntity
  8
3
  6
Continuous
100
AcDbPolyline
 90
        5
 70
   128
 43
0.0
 10
98.61574768723301
 20
152.0419116351927
 10
98.62351277312757
 20
152.0438275600395
 10
98.63129354164119
 20
152.0456809670768
 10
98.66116759277463
 20
152.0521827645288
 10
98.69126008601519
 20
152.057750170793
  0
LWPOLYLINE
  5
D3A
330
1F
100
AcDbEntity
  8
3
  6
Continuous
100
AcDbPolyline
 90
        8
 70
   128
 43
0.0
 10
98.67517549035381
 20
151.9200517015092
 10
98.65707080345726
 20
151.9125106330698
 10
98.63921376853831
 20
151.9043444387271
 10
98.62249995667241
 20
151.8960147761713
 10
98.60604886915247
 20
151.8871351151702
 10
98.58984456691008
 20
151.8776923788118
 10
98.57394082495204
 20
151.8677133256283
 10
98.573940774677
 20
151.8677132929224
  0
LWPOLYLINE
  5
D3B
330
1F
100
AcDbEntity
  8
3
  6
Continuous
100
AcDbPolyline
 90
        3
 70
   128
 43
0.0
 10
98.54689614707002
 20
152.0236887954124
 10
98.57785110277303
 20
152.0334285867338
 10
98.60238307022758
 20
152.0404299485135
  0
LINE
  5
D3C
330
1F
100
AcDbEntity
  8
3
  6
Continuous
100
AcDbLine
 10
98.54689614707002
 20
152.0236887954124
 30
0.0
 11
98.54514825789795
 21
152.0231081843503
 31
0.0
  0
LWPOLYLINE
  5
D3D
330
1F
100
AcDbEntity
  8
3
  6
Continuous
100
AcDbPolyline
 90
        9
 70
   128
 43
0.0
 10
98.54193099277438
 20
152.0174064070847
 10
98.54182843711772
 20
152.0183041084519
 10
98.54188620344519
 20
152.0192037848069
 10
98.5421024017411
 20
152.0200760002722
 10
98.54246995836559
 20
152.0208922174442
 10
98.54297684749202
 20
152.0216257310876
 10
98.54360648457225
 20
152.0222525418862
 10
98.54433826895377
 20
152.0227521416582
 10
98.54514825789818
 20
152.0231081843503
  0
LWPOLYLINE
  5
D3E
330
1F
100
AcDbEntity
  8
3
  6
Continuous
100
AcDbPolyline
 90
        3
 70
   128
 43
0.0
 10
98.61793170936664
 20
152.1060074135903
 10
98.61582200358078
 20
152.0941710104862
 10
98.60677979370656
 20
152.0434330989878
  0
LWPOLYLINE
  5
D3F
330
1F
100
AcDbEntity
  8
3
  6
Continuous
100
AcDbPolyline
 90
        4
 70
   128
 43
0.0
 10
98.6248030586654
 20
152.0465025152039
 10
98.61510891404908
 20
152.0437792446319
 10
98.60546337789163
 20
152.0408839509587
 10
98.60255589798919
 20
152.0399721591507
  0
LINE
  5
D40
330
1F
100
AcDbEntity
  8
3
  6
Continuous
100
AcDbLine
 10
98.60238307022758
 20
152.0404299485135
 30
0.0
 11
98.60232789840086
 21
152.0400014511178
 31
0.0
  0
LWPOLYLINE
  5
D41
330
1F
100
AcDbEntity
  8
3
  6
Continuous
100
AcDbPolyline
 90
        9
 70
   128
 43
0.0
 10
98.60232789840086
 20
152.0400014511178
 10
98.6023328231853
 20
152.0399088741937
 10
98.60236505601404
 20
152.0398382320022
 10
98.60243323003864
 20
152.0397678798813
 10
98.60258340541044
 20
152.0396881843853
 10
98.60311572138073
 20
152.0395894182875
 10
98.60561784548862
 20
152.0397592280146
 10
98.61069943653422
 20
152.0407152890784
 10
98.61574768723301
 20
152.0419116351927
  0
LINE
  5
D42
330
1F
100
AcDbEntity
  8
3
  6
Continuous
100
AcDbLine
 10
98.60262324748385
 20
152.0404954076889
 30
0.0
 11
98.60610484896813
 21
152.0414376296289
 31
0.0
  0
LWPOLYLINE
  5
D43
330
1F
100
AcDbEntity
  8
3
  6
Continuous
100
AcDbPolyline
 90
        9
 70
   128
 43
0.0
 10
98.60460431012473
 20
152.0410330703221
 10
98.60500858186799
 20
152.0411741324042
 10
98.60538865423302
 20
152.0413713103753
 10
98.60573678496884
 20
152.041620587629
 10
98.60604588248964
 20
152.0419168862704
 10
98.60630965033545
 20
152.0422541705593
 10
98.60652271543187
 20
152.0426255698566
 10
98.6066807375438
 20
152.0430235185863
 10
98.60678049768729
 20
152.0434399103469
  0
LINE
  5
D44
330
1F
100
AcDbEntity
  8
3
100
AcDbLine
 10
98.60238307022758
 20
152.0404299485135
 30
0.0
 11
98.60262324748385
 21
152.0404954076889
 31
0.0
  0
LWPOLYLINE
  5
D45
330
1F
100
AcDbEntity
  8
3
  6
Continuous
100
AcDbPolyline
 90
        9
 70
   128
 43
0.0
 10
98.61793206806295
 20
152.1060096063002
 10
98.61806890732612
 20
152.1065128087966
 10
98.61829081768554
 20
152.1069847129342
 10
98.61859109405225
 20
152.1074110599857
 10
98.61896066348425
 20
152.1077789677451
 10
98.61938835932836
 20
152.1080773197673
 10
98.61986125862438
 20
152.1082971012547
 10
98.62036507257574
 20
152.1084316714432
 10
98.62088440505738
 20
152.108476964258
  0
LINE
  5
D46
330
1F
100
AcDbEntity
  8
3
  6
Continuous
100
AcDbLine
 10
98.62273354285878
 20
152.108476964258
 30
0.0
 11
98.62089876605899
 21
152.108476964258
 31
0.0
  0
LWPOLYLINE
  5
D47
330
1F
100
AcDbEntity
  8
3
  6
Continuous
100
AcDbPolyline
 90
        4
 70
   128
 43
0.0
 10
98.69126008601519
 20
152.057750170793
 10
98.68736954090639
 20
152.0197360053989
 10
98.68337309038828
 20
151.9807028703649
 10
98.67744503340725
 20
151.9228350612302
  0
LWPOLYLINE
  5
D48
330
1F
100
AcDbEntity
  8
3
  6
Continuous
100
AcDbPolyline
 90
        6
 70
   128
 43
0.0
 10
98.68030197588144
 20
151.9135441346411
 10
98.68122592450312
 20
151.916690232329
 10
98.68306316294876
 20
151.9193631567214
 10
98.68478652504279
 20
151.9209462627896
 10
98.68674204324737
 20
151.9222217834512
 10
98.68882697995344
 20
151.923168075114
  0
LWPOLYLINE
  5
D49
330
1F
100
AcDbEntity
  8
3
  6
Continuous
100
AcDbPolyline
 90
        5
 70
   128
 43
0.0
 10
98.67744503340725
 20
151.9228350612302
 10
98.67715864230934
 20
151.9218409356876
 10
98.6765720293912
 20
151.9209939158936
 10
98.67567278799619
 20
151.9202898550297
 10
98.67517549035381
 20
151.9200517015092
  0
LWPOLYLINE
  5
D4A
330
1F
100
AcDbEntity
  8
3
  6
Continuous
100
AcDbPolyline
 90
        7
 70
   128
 43
0.0
 10
99.14868997163274
 20
151.5939070946256
 10
99.16540576558748
 20
151.6762869329104
 10
99.1817865596505
 20
151.7587499860878
 10
99.19438698234387
 20
151.8233778389567
 10
99.2067984048432
 20
151.8880338715467
 10
99.21904572076631
 20
151.9527222574334
 10
99.23116544433526
 20
152.0174064070847
  0
LWPOLYLINE
  5
D4B
330
1F
100
AcDbEntity
  8
3
  6
Continuous
100
AcDbPolyline
 90
        7
 70
   128
 43
0.0
 10
99.11299976264615
 20
151.6877557931434
 10
99.1095584534022
 20
151.7200561857612
 10
99.10796796095622
 20
151.7362260525005
 10
99.10644375418304
 20
151.752392402499
 10
99.10353608821617
 20
151.7847884546272
 10
99.09808966699428
 20
151.8491644474707
 10
99.09279446122821
 20
151.9135441346411
  0
LWPOLYLINE
  5
D4C
330
1F
100
AcDbEntity
  8
3
  6
Continuous
100
AcDbPolyline
 90
        9
 70
   128
 43
0.0
 10
98.88654821855482
 20
151.5506063794491
 10
98.9189950525273
 20
151.5511696319254
 10
98.95153217955897
 20
151.5529858267846
 10
98.98397541994985
 20
151.5560519856663
 10
99.01653517981879
 20
151.5604042763934
 10
99.04890172008766
 20
151.5660157831566
 10
99.08127511387659
 20
151.5729374485304
 10
99.11335326286973
 20
151.5811190980885
 10
99.14533353886566
 20
151.5906276598657
  0
LWPOLYLINE
  5
D4D
330
1F
100
AcDbEntity
  8
3
  6
Continuous
100
AcDbPolyline
 90
        9
 70
   128
 43
0.0
 10
98.88654821855482
 20
151.6013214603813
 10
98.92674682234122
 20
151.604340859857
 10
98.94683882907237
 20
151.6060432595072
 10
98.96690910675387
 20
151.608004326627
 10
98.98693000793253
 20
151.6103353875801
 10
99.0068934068687
 20
151.6131412092436
 10
99.02676536080583
 20
151.6165101204014
 10
99.05657132207796
 20
151.6227510160483
 10
99.08606446611987
 20
151.6303373595747
  0
LWPOLYLINE
  5
D4E
330
1F
100
AcDbEntity
  8
3
  6
Continuous
100
AcDbPolyline
 90
       15
 70
   128
 43
0.0
 10
99.09506733478259
 20
151.6340581061617
 10
99.09786737933348
 20
151.6358397848384
 10
99.10052222108527
 20
151.6378337929404
 10
99.10301120268115
 20
151.6400331638392
 10
99.10545623487667
 20
151.6425910546904
 10
99.10753676624892
 20
151.6451822924073
 10
99.1094015870691
 20
151.6479626888745
 10
99.11099510554699
 20
151.6508517957682
 10
99.11243479171242
 20
151.654133022052
 10
99.11345096011121
 20
151.657153594434
 10
99.11421859576501
 20
151.6602691802468
 10
99.1147254675792
 20
151.6633917568374
 10
99.11500055185763
 20
151.6667877278641
 10
99.11485325122875
 20
151.6726613828837
 10
99.11450130056039
 20
151.6756266244815
  0
LWPOLYLINE
  5
D4F
330
1F
100
AcDbEntity
  8
3
  6
Continuous
100
AcDbPolyline
 90
        3
 70
   128
 43
0.0
 10
99.08606446611987
 20
151.6303373595747
 10
99.09065100411396
 20
151.6318833449068
 10
99.09506733478259
 20
151.6340581061617
  0
LWPOLYLINE
  5
D50
330
1F
100
AcDbEntity
  8
3
  6
Continuous
100
AcDbPolyline
 90
        5
 70
   128
 43
0.0
 10
99.11450130056039
 20
151.6756266244815
 10
99.11410296079305
 20
151.678653950129
 10
99.11371967428648
 20
151.6816845232743
 10
99.11335178166394
 20
151.6847186903915
 10
99.11299976264615
 20
151.6877557931434
  0
LWPOLYLINE
  5
D51
330
1F
100
AcDbEntity
  8
3
  6
Continuous
100
AcDbPolyline
 90
        9
 70
   128
 43
0.0
 10
99.14533353886566
 20
151.5906276598657
 10
99.145909956021
 20
151.5908601778997
 10
99.14645666420723
 20
151.5911542885073
 10
99.14696521466305
 20
151.5915054465404
 10
99.14742774831177
 20
151.5919082252444
 10
99.14783711721533
 20
151.5923564001277
 10
99.14818699503678
 20
151.5928430451499
 10
99.14847197480696
 20
151.5933606397589
 10
99.14868765248332
 20
151.5939011851105
  0
LWPOLYLINE
  5
D52
330
1F
100
AcDbEntity
  8
3
  6
Continuous
100
AcDbPolyline
 90
       10
 70
   128
 43
0.0
 10
98.88654821855482
 20
152.0852610403144
 10
98.91317145271671
 20
152.0848027554107
 10
98.93972380658068
 20
152.0834593174036
 10
98.96619475885371
 20
152.0812777478272
 10
98.9925783519833
 20
152.0783034613023
 10
99.01887428430804
 20
152.0745806957848
 10
99.05158855044977
 20
152.0689473794855
 10
99.08404488919735
 20
152.0623268423842
 10
99.11626806856759
 20
152.0548144106278
 10
99.14829337844423
 20
152.0465025152039
  0
LINE
  5
D53
330
1F
100
AcDbEntity
  8
3
  6
Continuous
100
AcDbLine
 10
98.88654821855482
 20
152.108476964258
 30
0.0
 11
99.15036289425064
 21
152.108476964258
 31
0.0
  0
LWPOLYLINE
  5
D54
330
1F
100
AcDbEntity
  8
3
  6
Continuous
100
AcDbPolyline
 90
        4
 70
   128
 43
0.0
 10
99.15734874987663
 20
152.0419116351927
 10
99.14180289546823
 20
152.0456809670768
 10
99.11192884433479
 20
152.0521827645288
 10
99.08183635109446
 20
152.057750170793
  0
LWPOLYLINE
  5
D55
330
1F
100
AcDbEntity
  8
3
  6
Continuous
100
AcDbPolyline
 90
        8
 70
   128
 43
0.0
 10
99.09792094675584
 20
151.9200517015092
 10
99.11603613484487
 20
151.9125059389962
 10
99.13388266857134
 20
151.9043444387271
 10
99.15060525622118
 20
151.89601013128
 10
99.16704756795718
 20
151.8871351151702
 10
99.18326043453328
 20
151.8776871021937
 10
99.19915561215759
 20
151.8677133256283
 10
99.19915566243265
 20
151.8677132929224
  0
LWPOLYLINE
  5
D56
330
1F
100
AcDbEntity
  8
3
  6
Continuous
100
AcDbPolyline
 90
       11
 70
   128
 43
0.0
 10
98.88654821855482
 20
151.8724769642576
 10
98.88264606353017
 20
151.8728056335658
 10
98.87885373726625
 20
151.8737723485733
 10
98.87528249866512
 20
151.8753558843973
 10
98.87202434829317
 20
151.8775024631109
 10
98.86914566211466
 20
151.8801878096169
 10
98.86675229182595
 20
151.8833131857955
 10
98.86490194537111
 20
151.8868349670288
 10
98.8636665553048
 20
151.8906216410264
 10
98.86310163319137
 20
151.8944266787621
 10
98.86316091976789
 20
151.8982757151034
  0
ARC
  5
D57
330
1F
100
AcDbEntity
  8
3
  6
Continuous
100
AcDbCircle
 10
98.88654821855482
 20
151.8959769642579
 30
0.0
 40
0.0235000000000001
100
AcDbArc
 50
5.613603222739733
 51
174.3863967772602
  0
LWPOLYLINE
  5
D58
330
1F
100
AcDbEntity
  8
3
  6
Continuous
100
AcDbPolyline
 90
       11
 70
   128
 43
0.0
 10
98.88654821855482
 20
151.8724769642576
 10
98.89045037357949
 20
151.8728056335658
 10
98.8942426998434
 20
151.8737723485733
 10
98.89781393844453
 20
151.8753558843973
 10
98.90107208881648
 20
151.8775024631109
 10
98.90395077499499
 20
151.8801878096169
 10
98.90634414528371
 20
151.8833131857955
 10
98.90819449173854
 20
151.8868349670288
 10
98.90942988180484
 20
151.8906216410264
 10
98.90999480391805
 20
151.8944266787621
 10
98.90993551734176
 20
151.8982757151034
  0
CIRCLE
  5
D59
330
1F
100
AcDbEntity
  8
3
  6
Continuous
100
AcDbCircle
 10
98.88654821855482
 20
152.0309769642576
 30
0.0
 40
0.0174999999999997
  0
LWPOLYLINE
  5
D5A
330
1F
100
AcDbEntity
  8
3
  6
Continuous
100
AcDbPolyline
 90
        4
 70
   128
 43
0.0
 10
99.08183635109446
 20
152.057750170793
 10
99.08572689620326
 20
152.0197360053989
 10
99.08972334672137
 20
151.9807028703649
 10
99.09565140370217
 20
151.9228350612302
  0
LWPOLYLINE
  5
D5B
330
1F
100
AcDbEntity
  8
3
  6
Continuous
100
AcDbPolyline
 90
        6
 70
   128
 43
0.0
 10
99.09279446122821
 20
151.9135441346411
 10
99.0918705126063
 20
151.916690232329
 10
99.09003327416087
 20
151.9193631567214
 10
99.08830991206663
 20
151.9209462627896
 10
99.08635439386229
 20
151.9222217834512
 10
99.08426945715621
 20
151.923168075114
  0
LWPOLYLINE
  5
D5C
330
1F
100
AcDbEntity
  8
3
  6
Continuous
100
AcDbPolyline
 90
        5
 70
   128
 43
0.0
 10
99.09565140370217
 20
151.9228350612302
 10
99.09593779480008
 20
151.9218409356876
 10
99.09652440771822
 20
151.9209939158936
 10
99.09742364911346
 20
151.9202898550297
 10
99.09792094675584
 20
151.9200517015092
  0
LWPOLYLINE
  5
D5D
330
1F
100
AcDbEntity
  8
3
  6
Continuous
100
AcDbPolyline
 90
        3
 70
   128
 43
0.0
 10
99.22620029003963
 20
152.0236887954124
 10
99.19524533433639
 20
152.0334285867338
 10
99.17071336688207
 20
152.0404299485135
  0
LWPOLYLINE
  5
D5E
330
1F
100
AcDbEntity
  8
3
  6
Continuous
100
AcDbPolyline
 90
        3
 70
   128
 43
0.0
 10
99.16631689128564
 20
152.0434331452366
 10
99.16592206871554
 20
152.0456487295819
 10
99.1551645763567
 20
152.106007385747
  0
LWPOLYLINE
  5
D5F
330
1F
100
AcDbEntity
  8
3
  6
Continuous
100
AcDbPolyline
 90
        3
 70
   128
 43
0.0
 10
99.14829337844423
 20
152.0465025152039
 10
99.16763305921779
 20
152.0408839509587
 10
99.17054053912046
 20
152.0399721591507
  0
LWPOLYLINE
  5
D60
330
1F
100
AcDbEntity
  8
3
  6
Continuous
100
AcDbPolyline
 90
        3
 70
   128
 43
0.0
 10
99.1704731896258
 20
152.0404954076889
 10
99.17059525488561
 20
152.0404621468101
 10
99.17071336688207
 20
152.0404299485135
  0
LINE
  5
D61
330
1F
100
AcDbEntity
  8
3
  6
Continuous
100
AcDbLine
 10
99.17071336688207
 20
152.0404299485135
 30
0.0
 11
99.17076853870856
 21
152.0400014511178
 31
0.0
  0
LWPOLYLINE
  5
D62
330
1F
100
AcDbEntity
  8
3
  6
Continuous
100
AcDbPolyline
 90
        9
 70
   128
 43
0.0
 10
99.17076853870856
 20
152.0400014511178
 10
99.17076361392435
 20
152.0399088741937
 10
99.17073138109561
 20
152.0398382320022
 10
99.17066320707101
 20
152.0397678798813
 10
99.17051303169898
 20
152.0396881843853
 10
99.16998071572891
 20
152.0395894182875
 10
99.16747859162081
 20
152.0397592280146
 10
99.16238701500823
 20
152.0406982100935
 10
99.15734874987663
 20
152.0419116351927
  0
LINE
  5
D63
330
1F
100
AcDbEntity
  8
3
  6
Continuous
100
AcDbLine
 10
99.1704731896258
 20
152.0404954076889
 30
0.0
 11
99.16699158814129
 21
152.0414376296289
 31
0.0
  0
LWPOLYLINE
  5
D64
330
1F
100
AcDbEntity
  8
3
  6
Continuous
100
AcDbPolyline
 90
        9
 70
   128
 43
0.0
 10
99.16631850090187
 20
152.0434246503732
 10
99.16641981475061
 20
152.0430106198505
 10
99.16657878364198
 20
152.0426151269225
 10
99.16679219842183
 20
152.0422461555272
 10
99.16705575082017
 20
152.0419111542037
 10
99.16736412042304
 20
152.0416168857277
 10
99.16771108207843
 20
152.0413692905877
 10
99.16808963156439
 20
152.041173367063
 10
99.16849212698492
 20
152.0410330703221
  0
LWPOLYLINE
  5
D65
330
1F
100
AcDbEntity
  8
3
  6
Continuous
100
AcDbPolyline
 90
        9
 70
   128
 43
0.0
 10
99.15221203205204
 20
152.108476964258
 10
99.15273167045064
 20
152.1084316176575
 10
99.15323576243679
 20
152.1082968893288
 10
99.15370888540303
 20
152.1080768549563
 10
99.15413672682474
 20
152.1077781708391
 10
99.15450634399633
 20
152.1074098725212
 10
99.1548065555645
 20
152.1069831014592
 10
99.15502827977718
 20
152.1065107679792
 10
99.15516480921645
 20
152.1060071607235
  0
LINE
  5
D66
330
1F
100
AcDbEntity
  8
3
100
AcDbLine
 10
99.15036289425064
 20
152.108476964258
 30
0.0
 11
99.15221203205204
 21
152.108476964258
 31
0.0
  0
LWPOLYLINE
  5
D67
330
1F
100
AcDbEntity
  8
3
  6
Continuous
100
AcDbPolyline
 90
        9
 70
   128
 43
0.0
 10
99.23116544433526
 20
152.0174064070847
 10
99.23126799999193
 20
152.0183041084519
 10
99.23121023366446
 20
152.0192037848069
 10
99.23099403536856
 20
152.0200760002722
 10
99.23062647874406
 20
152.0208922174442
 10
99.2301195896174
 20
152.0216257310876
 10
99.2294899525374
 20
152.0222525418862
 10
99.22875816815588
 20
152.0227521416582
 10
99.22794817921147
 20
152.0231081843503
  0
LINE
  5
D68
330
1F
100
AcDbEntity
  8
3
  6
Continuous
100
AcDbLine
 10
99.2262002900394
 20
152.0236887954124
 30
0.0
 11
99.22794817921147
 21
152.0231081843503
 31
0.0
  0
LINE
  5
D69
330
1F
100
AcDbEntity
  8
3
100
AcDbLine
 10
99.85492455790961
 20
151.8439144662352
 30
0.0
 11
99.8560062505884
 21
151.8439262077599
 31
0.0
  0
LINE
  5
D6A
330
1F
100
AcDbEntity
  8
3
100
AcDbLine
 10
99.85492455790961
 20
151.8439144662352
 30
0.0
 11
99.58926258939426
 21
151.8439349758355
 31
0.0
  0
ARC
  5
D6B
330
1F
100
AcDbEntity
  8
3
100
AcDbCircle
 10
99.85591255612769
 20
151.8981645743129
 30
0.0
 40
0.0542384474790368
100
AcDbArc
 50
270.0989759124524
 51
286.2870082762647
  0
LINE
  5
D6C
330
1F
100
AcDbEntity
  8
INDUSA
100
AcDbLine
 10
100.4683213298666
 20
152.0052292112468
 30
0.0
 11
100.4708150182874
 21
152.0048259679979
 31
0.0
  0
LINE
  5
D6D
330
1F
100
AcDbEntity
  8
INDUSA
100
AcDbLine
 10
100.9900268194939
 20
152.0052292112468
 30
0.0
 11
100.9875331310733
 21
152.0048259679979
 31
0.0
  0
ARC
  5
D6E
330
1F
100
AcDbEntity
  8
INDUSA
100
AcDbCircle
 10
100.8661540079457
 20
151.594269077314
 30
0.0
 40
0.0026392118405453
100
AcDbArc
 50
302.9199426274129
 51
351.4178533561451
  0
ARC
  5
D6F
330
1F
100
AcDbEntity
  8
INDUSA
100
AcDbCircle
 10
100.5922438471738
 20
151.5942647715937
 30
0.0
 40
0.0026628695700229
100
AcDbArc
 50
188.3651607115094
 51
237.4675555853424
  0
ARC
  5
D70
330
1F
100
AcDbEntity
  8
INDUSA
100
AcDbCircle
 10
100.6467145528055
 20
151.6396650193428
 30
0.0
 40
0.0700427100724638
100
AcDbArc
 50
257.6523025731826
 51
270.5687878867923
  0
ARC
  5
D71
330
1F
100
AcDbEntity
  8
INDUSA
100
AcDbCircle
 10
100.8123672994064
 20
151.6325210541167
 30
0.0
 40
0.0629115255637365
100
AcDbArc
 50
268.6984275635616
 51
283.0841333625922
  0
LINE
  5
D72
330
1F
100
AcDbEntity
  8
INDUSA
100
AcDbLine
 10
100.5677279022662
 20
151.8457202467943
 30
0.0
 11
100.5682796191364
 21
151.8452112626182
 31
0.0
  0
LINE
  5
D73
330
1F
100
AcDbEntity
  8
INDUSA
100
AcDbLine
 10
100.8906202470945
 20
151.8457202467943
 30
0.0
 11
100.8900685302241
 21
151.8452112626182
 31
0.0
  0
LINE
  5
D74
330
1F
100
AcDbEntity
  8
INDUSA
100
AcDbLine
 10
100.620470998687
 20
151.8439108100478
 30
0.0
 11
100.8874315134525
 21
151.8439108100478
 31
0.0
  0
LINE
  5
D75
330
1F
100
AcDbEntity
  8
INDUSA
100
AcDbLine
 10
100.5708888922621
 20
151.8439108100478
 30
0.0
 11
100.620470998687
 21
151.8439108100478
 31
0.0
  0
LINE
  5
D76
330
1F
100
AcDbEntity
  8
INDUSA
100
AcDbLine
 10
101.5861083973312
 20
151.6005258322466
 30
0.0
 11
101.5976921805262
 21
151.8439108100478
 31
0.0
  0
LINE
  5
D77
330
1F
100
AcDbEntity
  8
INDUSA
100
AcDbLine
 10
101.5946768951804
 20
151.5708199108444
 30
0.0
 11
101.6076745164695
 21
151.8439108100478
 31
0.0
  0
LINE
  5
D78
330
1F
100
AcDbEntity
  8
INDUSA
100
AcDbLine
 10
101.5783448733201
 20
151.8439108100478
 30
0.0
 11
101.6076745164695
 21
151.8439108100478
 31
0.0
  0
LINE
  5
D79
330
1F
100
AcDbEntity
  8
INDUSA
100
AcDbLine
 10
101.375012873874
 20
152.0317625883094
 30
0.0
 11
101.3530456342615
 21
152.0376866039091
 31
0.0
  0
LINE
  5
D7A
330
1F
100
AcDbEntity
  8
INDUSA
100
AcDbLine
 10
101.3957284625295
 20
152.025852188688
 30
0.0
 11
101.3963918890643
 21
152.0255316364341
 31
0.0
  0
LINE
  5
D7B
330
1F
100
AcDbEntity
  8
INDUSA
100
AcDbLine
 10
101.3968203864598
 20
152.0255337795538
 30
0.0
 11
101.3963918890643
 21
152.0255316364341
 31
0.0
  0
LINE
  5
D7C
330
1F
100
AcDbEntity
  8
INDUSA
100
AcDbLine
 10
101.5128853273298
 20
152.0199108100482
 30
0.0
 11
101.5169304546565
 21
152.0199051752593
 31
0.0
  0
LINE
  5
D7D
330
1F
100
AcDbEntity
  8
INDUSA
  6
Continuous
100
AcDbLine
 10
101.3295196408154
 20
151.616639263168
 30
0.0
 11
101.3295196408329
 21
151.6281648983645
 31
0.0
  0
LINE
  5
D7E
330
1F
100
AcDbEntity
  8
INDUSA
  6
Continuous
100
AcDbLine
 10
101.5620453765515
 20
151.5724270337377
 30
0.0
 11
101.389060990038
 21
151.5920101718338
 31
0.0
  0
LINE
  5
D7F
330
1F
100
AcDbEntity
  8
INDUSA
  6
Continuous
100
AcDbLine
 10
101.4963540643342
 20
151.589927661802
 30
0.0
 11
101.4333730332317
 21
151.5970575898514
 31
0.0
  0
LINE
  5
D80
330
1F
100
AcDbEntity
  8
INDUSA
  6
Continuous
100
AcDbLine
 10
101.4344979233846
 20
151.6069941195346
 30
0.0
 11
101.497478954487
 21
151.5998641914853
 31
0.0
  0
LINE
  5
D81
330
1F
100
AcDbEntity
  8
INDUSA
  6
Continuous
100
AcDbLine
 10
101.5845514115154
 20
151.5698791807226
 30
0.0
 11
101.5620453765515
 21
151.5724270337377
 31
0.0
  0
LINE
  5
D82
330
1F
100
AcDbEntity
  8
INDUSA
  6
Continuous
100
AcDbLine
 10
101.5749959837895
 20
151.5910886787337
 30
0.0
 11
101.5487940315209
 21
151.5940549374809
 31
0.0
  0
LINE
  5
D83
330
1F
100
AcDbEntity
  8
INDUSA
  6
Continuous
100
AcDbLine
 10
101.5658021026698
 20
151.5820656197261
 30
0.0
 11
101.5476691413681
 21
151.5841184077981
 31
0.0
  0
LWPOLYLINE
  5
D84
330
1F
100
AcDbEntity
  8
INDUSA
  6
Continuous
100
AcDbPolyline
 90
        6
 70
   128
 43
0.0
 10
101.5808015561218
 20
151.5723164678011
 10
101.5788879696164
 20
151.5750315627397
 10
101.5764777836929
 20
151.5774551574213
 10
101.5737733571255
 20
151.5793837896185
 10
101.570696837375
 20
151.5808730005678
 10
101.5658021026698
 20
151.5820656197261
  0
LWPOLYLINE
  5
D85
330
1F
100
AcDbEntity
  8
INDUSA
  6
Continuous
100
AcDbPolyline
 90
        6
 70
   128
 43
0.0
 10
101.5924267411036
 20
151.5689876339765
 10
101.5930972946327
 20
151.5690251940682
 10
101.5937176155829
 20
151.569282595442
 10
101.5942177491584
 20
151.5697308121757
 10
101.5945413009086
 20
151.5703192854521
 10
101.5946460504896
 20
151.570823070755
  0
LWPOLYLINE
  5
D86
330
1F
100
AcDbEntity
  8
INDUSA
  6
Continuous
100
AcDbPolyline
 90
        6
 70
   128
 43
0.0
 10
101.5924576656076
 20
151.5689841330891
 10
101.5931281572672
 20
151.5690216909379
 10
101.5937484206448
 20
151.5692790680932
 10
101.5942485257493
 20
151.5697272472334
 10
101.5945720895241
 20
151.57031569956
 10
101.5946768951804
 20
151.5708199108444
  0
LWPOLYLINE
  5
D87
330
1F
100
AcDbEntity
  8
INDUSA
  6
Continuous
100
AcDbPolyline
 90
        3
 70
   128
 43
0.0
 10
101.5946731965849
 20
151.570820267972
 10
101.594669918236
 20
151.5708205845217
 10
101.5946460504896
 20
151.570823070755
  0
LINE
  5
D88
330
1F
100
AcDbEntity
  8
INDUSA
  6
Continuous
100
AcDbLine
 10
101.5845514115188
 20
151.5698791807217
 30
0.0
 11
101.5924267411036
 21
151.5689876339765
 31
0.0
  0
LWPOLYLINE
  5
D89
330
1F
100
AcDbEntity
  8
INDUSA
  6
Continuous
100
AcDbPolyline
 90
        5
 70
   128
 43
0.0
 10
101.5808015561218
 20
151.5723164678011
 10
101.580882622915
 20
151.5721831706396
 10
101.5820030337694
 20
151.5709329133087
 10
101.5834741916438
 20
151.570123926479
 10
101.5845514115191
 20
151.5698791807217
  0
ARC
  5
D8A
330
1F
100
AcDbEntity
  8
INDUSA
  6
Continuous
100
AcDbCircle
 10
101.5761208739424
 20
151.601025208417
 30
0.0
 40
0.0100000000000001
100
AcDbArc
 50
263.5411836212803
 51
357.137594772283
  0
LINE
  5
D8B
330
1F
100
AcDbEntity
  8
INDUSA
  6
Continuous
100
AcDbLine
 10
101.5271725819453
 20
151.5864387730157
 30
0.0
 11
101.4963540643342
 21
151.589927661802
 31
0.0
  0
LINE
  5
D8C
330
1F
100
AcDbEntity
  8
INDUSA
  6
Continuous
100
AcDbLine
 10
101.497478954487
 20
151.5998641914853
 30
0.0
 11
101.5282974720982
 21
151.596375302699
 31
0.0
  0
LINE
  5
D8D
330
1F
100
AcDbEntity
  8
INDUSA
  6
Continuous
100
AcDbLine
 10
101.5271725819453
 20
151.5864387730157
 30
0.0
 11
101.5479491884892
 21
151.5840867043503
 31
0.0
  0
LINE
  5
D8E
330
1F
100
AcDbEntity
  8
INDUSA
  6
Continuous
100
AcDbLine
 10
101.5490740786421
 20
151.5940232340335
 30
0.0
 11
101.5282974720982
 21
151.596375302699
 31
0.0
  0
LWPOLYLINE
  5
D8F
330
1F
100
AcDbEntity
  8
INDUSA
  6
Continuous
100
AcDbPolyline
 90
        7
 70
   128
 43
0.0
 10
101.5458979367694
 20
151.5863316966738
 10
101.5458880426387
 20
151.5862121973264
 10
101.5459655399023
 20
151.5855480432528
 10
101.5462582829074
 20
151.5849465264891
 10
101.5467345196526
 20
151.5844736840595
 10
101.5471011807959
 20
151.5842688193634
 10
101.5476691413681
 20
151.5841184077981
  0
LINE
  5
D90
330
1F
100
AcDbEntity
  8
INDUSA
  6
Continuous
100
AcDbLine
 10
101.5458979367694
 20
151.5863316966738
 30
0.0
 11
101.546572870861
 21
151.5922936144834
 31
0.0
  0
LWPOLYLINE
  5
D91
330
1F
100
AcDbEntity
  8
INDUSA
  6
Continuous
100
AcDbPolyline
 90
        7
 70
   128
 43
0.0
 10
101.5487940315209
 20
151.5940549374809
 10
101.54877415466
 20
151.5940570879902
 10
101.5483481979191
 20
151.5940558275365
 10
101.5476984322246
 20
151.5938709595871
 10
101.5471465445074
 20
151.5934812303635
 10
101.5467565832062
 20
151.5929318476069
 10
101.546572870861
 20
151.5922936144834
  0
LINE
  5
D92
330
1F
100
AcDbEntity
  8
INDUSA
  6
Continuous
100
AcDbLine
 10
101.389060990038
 20
151.5920101718338
 30
0.0
 11
101.3312946628051
 21
151.5985497560486
 31
0.0
  0
LINE
  5
D93
330
1F
100
AcDbEntity
  8
INDUSA
  6
Continuous
100
AcDbLine
 10
101.3647797323593
 20
151.6148867449333
 30
0.0
 11
101.331744618846
 21
151.6186265691049
 31
0.0
  0
LINE
  5
D94
330
1F
100
AcDbEntity
  8
INDUSA
  6
Continuous
100
AcDbLine
 10
101.3636548422065
 20
151.60495021525
 30
0.0
 11
101.3312946627849
 21
151.6086136317885
 31
0.0
  0
LINE
  5
D95
330
1F
100
AcDbEntity
  8
INDUSA
  6
Continuous
100
AcDbLine
 10
101.4333730332317
 20
151.5970575898514
 30
0.0
 11
101.3891595710525
 21
151.6020628874566
 31
0.0
  0
LINE
  5
D96
330
1F
100
AcDbEntity
  8
INDUSA
  6
Continuous
100
AcDbLine
 10
101.3902844612051
 20
151.6119994171399
 30
0.0
 11
101.3646822912589
 21
151.6148977760012
 31
0.0
  0
LINE
  5
D97
330
1F
100
AcDbEntity
  8
INDUSA
  6
Continuous
100
AcDbLine
 10
101.3902844612051
 20
151.6119994171399
 30
0.0
 11
101.4344979233846
 21
151.6069941195346
 31
0.0
  0
LINE
  5
D98
330
1F
100
AcDbEntity
  8
INDUSA
  6
Continuous
100
AcDbLine
 10
101.3634350789226
 20
151.6049750941124
 30
0.0
 11
101.3891595710525
 21
151.6020628874566
 31
0.0
  0
LWPOLYLINE
  5
D99
330
1F
100
AcDbEntity
  8
INDUSA
  6
Continuous
100
AcDbPolyline
 90
        7
 70
   128
 43
0.0
 10
101.3636548422065
 20
151.60495021525
 10
101.3637517961186
 20
151.6049416103355
 10
101.3644230900501
 20
151.6050119246952
 10
101.3650331332814
 20
151.6053006311308
 10
101.3653529303907
 20
151.6055795498155
 10
101.3657197360718
 20
151.6061408493551
 10
101.3658725506794
 20
151.606711929061
  0
LWPOLYLINE
  5
D9A
330
1F
100
AcDbEntity
  8
INDUSA
  6
Continuous
100
AcDbPolyline
 90
        7
 70
   128
 43
0.0
 10
101.3665474847711
 20
151.612673846871
 10
101.3665520931675
 20
151.6127191822479
 10
101.3664993611445
 20
151.6133869201217
 10
101.3662287324797
 20
151.6139997167024
 10
101.3657700815562
 20
151.6144896167884
 10
101.3651738209856
 20
151.6148014417913
 10
101.3647797323593
 20
151.6148867449333
  0
LINE
  5
D9B
330
1F
100
AcDbEntity
  8
INDUSA
  6
Continuous
100
AcDbLine
 10
101.3665474847711
 20
151.612673846871
 30
0.0
 11
101.3658725506794
 21
151.6067119290615
 31
0.0
  0
LINE
  5
D9C
330
1F
100
AcDbEntity
  8
INDUSA
  6
Continuous
100
AcDbLine
 10
101.3295196408358
 20
151.6005370619855
 30
0.0
 11
101.3295196408354
 21
151.6017447270742
 31
0.0
  0
ARC
  5
D9D
330
1F
100
AcDbEntity
  8
INDUSA
  6
Continuous
100
AcDbCircle
 10
101.3315196408358
 20
151.6005370619855
 30
0.0
 40
0.0020000000000001
100
AcDbArc
 50
180.0
 51
263.5411836214098
  0
LINE
  5
D9E
330
1F
100
AcDbEntity
  8
INDUSA
  6
Continuous
100
AcDbLine
 10
101.3295196408354
 20
151.6017447270742
 30
0.0
 11
101.3295196408154
 21
151.6106009377249
 31
0.0
  0
ARC
  5
D9F
330
1F
100
AcDbEntity
  8
INDUSA
  6
Continuous
100
AcDbCircle
 10
101.3315196408156
 20
151.6106009377249
 30
0.0
 40
0.002
100
AcDbArc
 50
180.0
 51
263.5411836212803
  0
LINE
  5
DA0
330
1F
100
AcDbEntity
  8
INDUSA
  6
Continuous
100
AcDbLine
 10
101.3295196408154
 20
151.616639263168
 30
0.0
 11
101.3295196408154
 21
151.6106009377249
 31
0.0
  0
ARC
  5
DA1
330
1F
100
AcDbEntity
  8
INDUSA
  6
Continuous
100
AcDbCircle
 10
101.3315196408156
 20
151.616639263168
 30
0.0
 40
0.002
100
AcDbArc
 50
83.54118362128032
 51
180.0
  0
LWPOLYLINE
  5
DA2
330
1F
100
AcDbEntity
  8
INDUSA
  6
Continuous
100
AcDbPolyline
 90
        7
 70
   128
 43
0.0
 10
101.3312820574721
 20
151.7334628823473
 10
101.3394486430114
 20
151.7334688626561
 10
101.3791646265312
 20
151.7334979622937
 10
101.4398367244424
 20
151.7335424624789
 10
101.4826011667675
 20
151.7335738567617
 10
101.5005087279725
 20
151.7335870090519
 10
101.5005087467947
 20
151.733587009066
  0
LWPOLYLINE
  5
DA3
330
1F
100
AcDbEntity
  8
INDUSA
  6
Continuous
100
AcDbPolyline
 90
        4
 70
   128
 43
0.0
 10
101.3313714556683
 20
151.7298383357047
 10
101.3394492743899
 20
151.7298420444654
 10
101.379167789075
 20
151.7298603674685
 10
101.4995864014532
 20
151.7299167891979
  0
LWPOLYLINE
  5
DA4
330
1F
100
AcDbEntity
  8
INDUSA
  6
Continuous
100
AcDbPolyline
 90
        4
 70
   128
 43
0.0
 10
101.4991771581059
 20
151.7225753137727
 10
101.4693798137124
 20
151.7225772333899
 10
101.4097851000448
 20
151.7225817183484
 10
101.331285304942
 20
151.7225889354945
  0
LINE
  5
DA5
330
1F
100
AcDbEntity
  8
INDUSA
  6
Continuous
100
AcDbLine
 10
101.5691085446552
 20
152.0269108100478
 30
0.0
 11
101.4189141076528
 21
152.0269108100478
 31
0.0
  0
LWPOLYLINE
  5
DA6
330
1F
100
AcDbEntity
  8
INDUSA
  6
Continuous
100
AcDbPolyline
 90
        7
 70
   128
 43
0.0
 10
101.3790716667851
 20
152.0234746746037
 10
101.3980787689128
 20
152.023478396668
 10
101.4170858321789
 20
152.0234824581089
 10
101.4366024208928
 20
152.0234870302024
 10
101.4561189672132
 20
152.0234920686657
 10
101.4850529223519
 20
152.02350055435
 10
101.5139867763479
 20
152.0235105287511
  0
LINE
  5
DA7
330
1F
100
AcDbEntity
  8
INDUSA
  6
Continuous
100
AcDbLine
 10
101.4753768945846
 20
152.0199108100482
 30
0.0
 11
101.4243779411462
 21
152.0199108100482
 31
0.0
  0
ARC
  5
DA8
330
1F
100
AcDbEntity
  8
INDUSA
  6
Continuous
100
AcDbCircle
 10
101.4733448733201
 20
151.8427870460928
 30
0.0
 40
0.0300000000000001
100
AcDbArc
 50
180.0
 51
270.0
  0
LINE
  5
DA9
330
1F
100
AcDbEntity
  8
INDUSA
  6
Continuous
100
AcDbLine
 10
101.4663764004448
 20
151.8739108100481
 30
0.0
 11
101.4663764004448
 21
151.9717302796794
 31
0.0
  0
LINE
  5
DAA
330
1F
100
AcDbEntity
  8
INDUSA
  6
Continuous
100
AcDbLine
 10
101.4533448733201
 20
151.8427870460928
 30
0.0
 11
101.4533448733201
 21
152.0079108100481
 31
0.0
  0
LWPOLYLINE
  5
DAB
330
1F
100
AcDbEntity
  8
INDUSA
  6
Continuous
100
AcDbPolyline
 90
       17
 70
   128
 43
0.0
 10
101.5790771038308
 20
151.8691678641662
 10
101.5990147055873
 20
151.8719789732408
 10
101.618764014872
 20
151.8759000802192
 10
101.6385107626087
 20
151.8809920359249
 10
101.6579375987065
 20
151.8871936564901
 10
101.6765571521206
 20
151.8943119694863
 10
101.6947684389716
 20
151.9024556160716
 10
101.7124877269572
 20
151.911587153791
 10
101.7301630996168
 20
151.921996682443
 10
101.7472312243732
 20
151.9334046785802
 10
101.7636090061674
 20
151.9457556035613
 10
101.7768847575197
 20
151.9569125693269
 10
101.7896154200469
 20
151.9687025577182
 10
101.8017566808308
 20
151.9810845303132
 10
101.8135290948222
 20
151.9943258146927
 10
101.8246427638283
 20
152.0081384642953
 10
101.8350573073743
 20
152.0224722923162
  0
LINE
  5
DAC
330
1F
100
AcDbEntity
  8
INDUSA
  6
Continuous
100
AcDbLine
 10
101.4783770627583
 20
151.8769108100482
 30
0.0
 11
101.4783770627583
 21
151.9717496306171
 31
0.0
  0
LWPOLYLINE
  5
DAD
330
1F
100
AcDbEntity
  8
INDUSA
  6
Continuous
100
AcDbPolyline
 90
        9
 70
   128
 43
0.0
 10
101.8847467331132
 20
152.0052787958539
 10
101.8562907608706
 20
151.9847813813294
 10
101.8273618317038
 20
151.9649570724973
 10
101.7979099645901
 20
151.9457757741738
 10
101.768014657821
 20
151.9272932192648
 10
101.7291501374012
 20
151.9046860513476
 10
101.6895832563194
 20
151.8832454585967
 10
101.6495579027452
 20
151.8631022740255
 10
101.6088989041503
 20
151.844172011813
  0
LWPOLYLINE
  5
DAE
330
1F
100
AcDbEntity
  8
INDUSA
  6
Continuous
100
AcDbPolyline
 90
       13
 70
   128
 43
0.0
 10
101.5002977200805
 20
151.729917123891
 10
101.5101978596184
 20
151.7300465820517
 10
101.5180378238034
 20
151.7303815815912
 10
101.5232758719424
 20
151.7307954207376
 10
101.5267691015959
 20
151.7312225404412
 10
101.5290964960189
 20
151.7316282845982
 10
101.5306448909137
 20
151.7319969708396
 10
101.5316720773309
 20
151.7323243447495
 10
101.5323496565339
 20
151.7326125845761
 10
101.5329823104813
 20
151.7330127274417
 10
101.5331865856659
 20
151.7332278605627
 10
101.5332951811941
 20
151.7334268310305
 10
101.5333217403318
 20
151.7335303512395
  0
LWPOLYLINE
  5
DAF
330
1F
100
AcDbEntity
  8
INDUSA
  6
Continuous
100
AcDbPolyline
 90
        9
 70
   128
 43
0.0
 10
101.5343447865322
 20
151.730043665148
 10
101.5327336510214
 20
151.7286714865645
 10
101.5306662985728
 20
151.7274342147334
 10
101.528464269901
 20
151.7264506565998
 10
101.524868402428
 20
151.725256144397
 10
101.5211805414841
 20
151.7243792154454
 10
101.5170362094442
 20
151.7236669851258
 10
101.5084798914075
 20
151.7228119598571
 10
101.4998825567387
 20
151.7225752709414
  0
LWPOLYLINE
  5
DB0
330
1F
100
AcDbEntity
  8
INDUSA
  6
Continuous
100
AcDbPolyline
 90
        6
 70
   128
 43
0.0
 10
101.5005087679347
 20
151.7335876084871
 10
101.5005088275214
 20
151.7335876083771
 10
101.5090865526841
 20
151.7335720177543
 10
101.5175918143967
 20
151.7335569797624
 10
101.526168951265
 20
151.7335422608944
 10
101.5333217403318
 20
151.7335303512395
  0
LWPOLYLINE
  5
DB1
330
1F
100
AcDbEntity
  8
INDUSA
  6
Continuous
100
AcDbPolyline
 90
        5
 70
   128
 43
0.0
 10
101.5333217403318
 20
151.7335303512395
 10
101.5333351695141
 20
151.7335180510549
 10
101.5339164207372
 20
151.7327082190077
 10
101.5342222697892
 20
151.7318194178333
 10
101.5343447865322
 20
151.730043665148
  0
LINE
  5
DB2
330
1F
100
AcDbEntity
  8
INDUSA
  6
Continuous
100
AcDbLine
 10
101.4995864014532
 20
151.7299167891979
 30
0.0
 11
101.5002977204211
 21
151.7299171263075
 31
0.0
  0
LINE
  5
DB3
330
1F
100
AcDbEntity
  8
INDUSA
  6
Continuous
100
AcDbLine
 10
101.5005087467945
 20
151.733587009066
 30
0.0
 11
101.5005087679347
 21
151.7335876084871
 31
0.0
  0
LINE
  5
DB4
330
1F
100
AcDbEntity
  8
INDUSA
  6
Continuous
100
AcDbLine
 10
101.4998825567387
 20
151.7225752709414
 30
0.0
 11
101.4991771581059
 21
151.7225753137727
 31
0.0
  0
LWPOLYLINE
  5
DB5
330
1F
100
AcDbEntity
  8
INDUSA
  6
Continuous
100
AcDbPolyline
 90
       11
 70
   128
 43
0.0
 10
101.5384154458824
 20
151.8578014096601
 10
101.5384155055941
 20
151.8578014096706
 10
101.5430320368249
 20
151.8578729239507
 10
101.5475689418096
 20
151.8580724670542
 10
101.5514130687951
 20
151.8583422255042
 10
101.5549638267135
 20
151.8586691722498
 10
101.5581620901667
 20
151.8590254589994
 10
101.5608759601051
 20
151.8593693675498
 10
101.5630394995452
 20
151.859666854526
 10
101.5645729669144
 20
151.8598845627048
 10
101.5648474408812
 20
151.8599209021472
  0
LWPOLYLINE
  5
DB6
330
1F
100
AcDbEntity
  8
INDUSA
  6
Continuous
100
AcDbPolyline
 90
       12
 70
   128
 43
0.0
 10
101.5369736323711
 20
151.866910810048
 10
101.536973692086
 20
151.866910810048
 10
101.5433116114115
 20
151.866966593579
 10
101.5497580120226
 20
151.8671351317339
 10
101.5557544196882
 20
151.8673896944556
 10
101.5614844886603
 20
151.8677179041433
 10
101.5664981919937
 20
151.8680703774716
 10
101.5709268636655
 20
151.8684293374658
 10
101.5745253591109
 20
151.868750001016
 10
101.5772554145072
 20
151.8690046916699
 10
101.578940689208
 20
151.8691568766521
 10
101.5791777035841
 20
151.8691695994448
  0
LINE
  5
DB7
330
1F
100
AcDbEntity
  8
INDUSA
  6
Continuous
100
AcDbLine
 10
101.5635489391023
 20
151.806910810048
 30
0.0
 11
101.577851286319
 21
151.806910810048
 31
0.0
  0
LWPOLYLINE
  5
DB8
330
1F
100
AcDbEntity
  8
INDUSA
  6
Continuous
100
AcDbPolyline
 90
        4
 70
   128
 43
0.0
 10
101.5648494273549
 20
151.8599228559219
 10
101.564114692792
 20
151.8592002157106
 10
101.5636627283069
 20
151.8582729781574
 10
101.5635489391023
 20
151.857466563591
  0
LINE
  5
DB9
330
1F
100
AcDbEntity
  8
INDUSA
  6
Continuous
100
AcDbLine
 10
101.5635489391023
 20
151.8078151315249
 30
0.0
 11
101.5644532605791
 21
151.806910810048
 31
0.0
  0
LWPOLYLINE
  5
DBA
330
1F
100
AcDbEntity
  8
INDUSA
  6
Continuous
100
AcDbPolyline
 90
        3
 70
   128
 43
0.0
 10
101.5790771038308
 20
151.8691678641662
 10
101.5774282074197
 20
151.8686928205447
 10
101.5766985089532
 20
151.868263184157
  0
LINE
  5
DBB
330
1F
100
AcDbEntity
  8
INDUSA
  6
Continuous
100
AcDbLine
 10
101.6263905005852
 20
151.8653651933236
 30
0.0
 11
101.6057512699636
 21
151.855910810048
 31
0.0
  0
LWPOLYLINE
  5
DBC
330
1F
100
AcDbEntity
  8
INDUSA
  6
Continuous
100
AcDbPolyline
 90
        5
 70
   128
 43
0.0
 10
101.577851286319
 20
151.8569630520051
 10
101.5900570253874
 20
151.8584552821421
 10
101.6022067656953
 20
151.8603501771927
 10
101.6143402721974
 20
151.8626568907279
 10
101.6263905005852
 20
151.8653651933236
  0
LINE
  5
DBD
330
1F
100
AcDbEntity
  8
INDUSA
  6
Continuous
100
AcDbLine
 10
101.5783448733201
 20
151.8439108100478
 30
0.0
 11
101.5783448733201
 21
151.806910810048
 31
0.0
  0
LINE
  5
DBE
330
1F
100
AcDbEntity
  8
INDUSA
  6
Continuous
100
AcDbLine
 10
101.5783448733201
 20
151.806910810048
 30
0.0
 11
101.577851286319
 21
151.806910810048
 31
0.0
  0
LINE
  5
DBF
330
1F
100
AcDbEntity
  8
INDUSA
  6
Continuous
100
AcDbLine
 10
101.6057512699636
 20
151.855910810048
 30
0.0
 11
101.577851286319
 21
151.855910810048
 31
0.0
  0
LWPOLYLINE
  5
DC0
330
1F
100
AcDbEntity
  8
INDUSA
  6
Continuous
100
AcDbPolyline
 90
        3
 70
   128
 43
0.0
 10
101.6076745164695
 20
151.8439108100478
 10
101.6086676187693
 20
151.8440799372856
 10
101.6088989041503
 20
151.844172011813
  0
LWPOLYLINE
  5
DC1
330
1F
100
AcDbEntity
  8
INDUSA
  6
Continuous
100
AcDbPolyline
 90
        4
 70
   128
 43
0.0
 10
101.5766985089532
 20
151.868263184157
 10
101.5730839540916
 20
151.8657107355711
 10
101.5693930025612
 20
151.8631108723411
 10
101.5648494273549
 20
151.8599228559219
  0
LINE
  5
DC2
330
1F
100
AcDbEntity
  8
INDUSA
  6
Continuous
100
AcDbLine
 10
101.577851286319
 20
151.855910810048
 30
0.0
 11
101.577851286319
 21
151.8569630520051
 31
0.0
  0
LWPOLYLINE
  5
DC3
330
1F
100
AcDbEntity
  8
INDUSA
  6
Continuous
100
AcDbPolyline
 90
       11
 70
   128
 43
0.0
 10
101.4663764004448
 20
151.8739108100481
 10
101.4666402616414
 20
151.8699494752609
 10
101.46742268032
 20
151.8660572242402
 10
101.4691548528282
 20
151.861309308279
 10
101.4716542959089
 20
151.8569165959634
 10
101.4748604480579
 20
151.8530095540905
 10
101.4786730524823
 20
151.849691655866
 10
101.4829918870199
 20
151.8470659075697
 10
101.487688007811
 20
151.8451968577756
 10
101.493881200659
 20
151.8440148874342
 10
101.4963781101043
 20
151.8439108100478
  0
LWPOLYLINE
  5
DC4
330
1F
100
AcDbEntity
  8
INDUSA
  6
Continuous
100
AcDbPolyline
 90
        7
 70
   128
 43
0.0
 10
101.4783770627583
 20
151.8769108100482
 10
101.4783871089397
 20
151.8764626902089
 10
101.4790985554363
 20
151.873181393676
 10
101.4808560120517
 20
151.8703205379811
 10
101.4834614205273
 20
151.8682025599696
 10
101.4866211736852
 20
151.8670662583536
 10
101.4883776363227
 20
151.866910810048
  0
LINE
  5
DC5
330
1F
100
AcDbEntity
  8
INDUSA
  6
Continuous
100
AcDbLine
 10
101.5160764538501
 20
151.8439108100478
 30
0.0
 11
101.4963781101043
 21
151.8439108100478
 31
0.0
  0
LINE
  5
DC6
330
1F
100
AcDbEntity
  8
INDUSA
  6
Continuous
100
AcDbLine
 10
101.5038384603211
 20
151.806910810048
 30
0.0
 11
101.5181408075378
 21
151.806910810048
 31
0.0
  0
LINE
  5
DC7
330
1F
100
AcDbEntity
  8
INDUSA
  6
Continuous
100
AcDbLine
 10
101.4733448733201
 20
151.8227870460928
 30
0.0
 11
101.5160764538501
 21
151.8227870460928
 31
0.0
  0
LWPOLYLINE
  5
DC8
330
1F
100
AcDbEntity
  8
INDUSA
  6
Continuous
100
AcDbPolyline
 90
        3
 70
   128
 43
0.0
 10
101.5167607187239
 20
151.8578014096556
 10
101.5148570420332
 20
151.8590348122456
 10
101.5041015705616
 20
151.8660710615195
  0
LINE
  5
DC9
330
1F
100
AcDbEntity
  8
INDUSA
  6
Continuous
100
AcDbLine
 10
101.5369307483703
 20
151.866910810048
 30
0.0
 11
101.5012137268589
 21
151.866910810048
 31
0.0
  0
LINE
  5
DCA
330
1F
100
AcDbEntity
  8
INDUSA
  6
Continuous
100
AcDbLine
 10
101.5184336988706
 20
151.8257486121042
 30
0.0
 11
101.5185399702349
 21
151.8408723760594
 31
0.0
  0
LINE
  5
DCB
330
1F
100
AcDbEntity
  8
INDUSA
  6
Continuous
100
AcDbLine
 10
101.5635489391023
 20
151.806910810048
 30
0.0
 11
101.5635489391023
 21
151.857466563591
 31
0.0
  0
LINE
  5
DCC
330
1F
100
AcDbEntity
  8
INDUSA
  6
Continuous
100
AcDbLine
 10
101.5181408075378
 20
151.806910810048
 30
0.0
 11
101.5635489391023
 21
151.806910810048
 31
0.0
  0
LWPOLYLINE
  5
DCD
330
1F
100
AcDbEntity
  8
INDUSA
  6
Continuous
100
AcDbPolyline
 90
        6
 70
   128
 43
0.0
 10
101.5162838119225
 20
151.8227567226336
 10
101.5169893763574
 20
151.8229984442468
 10
101.5176373211049
 20
151.82358819626
 10
101.518125398952
 20
151.8243773513031
 10
101.5183726995529
 20
151.8251515630468
 10
101.5184336988706
 20
151.8257486121042
  0
LWPOLYLINE
  5
DCE
330
1F
100
AcDbEntity
  8
INDUSA
  6
Continuous
100
AcDbPolyline
 90
        7
 70
   128
 43
0.0
 10
101.5181408075378
 20
151.8207870460928
 10
101.518133663095
 20
151.8209530656704
 10
101.5180637700729
 20
151.8213276066199
 10
101.5177709326454
 20
151.8219282383052
 10
101.5172973642285
 20
151.8223988121299
 10
101.5166835675628
 20
151.8226982634969
 10
101.5160764538501
 20
151.8227870460928
  0
LINE
  5
DCF
330
1F
100
AcDbEntity
  8
INDUSA
  6
Continuous
100
AcDbLine
 10
101.5181408075378
 20
151.8207870460928
 30
0.0
 11
101.5181408075378
 21
151.806910810048
 31
0.0
  0
LINE
  5
DD0
330
1F
100
AcDbEntity
  8
INDUSA
  6
Continuous
100
AcDbLine
 10
101.538415445883
 20
151.8578014096556
 30
0.0
 11
101.5166294189906
 21
151.8578014096556
 31
0.0
  0
LINE
  5
DD1
330
1F
100
AcDbEntity
  8
INDUSA
  6
Continuous
100
AcDbLine
 10
101.5369736349611
 20
151.866910810048
 30
0.0
 11
101.5293754954024
 21
151.866910810048
 31
0.0
  0
LWPOLYLINE
  5
DD2
330
1F
100
AcDbEntity
  8
INDUSA
  6
Continuous
100
AcDbPolyline
 90
        6
 70
   128
 43
0.0
 10
101.5185399702349
 20
151.8408723760594
 10
101.5184463287465
 20
151.8416885473657
 10
101.5181825625612
 20
151.8424095747409
 10
101.5176502904981
 20
151.843197730434
 10
101.5170422562747
 20
151.8437122718478
 10
101.5163173225802
 20
151.8439473076241
  0
LWPOLYLINE
  5
DD3
330
1F
100
AcDbEntity
  8
INDUSA
  6
Continuous
100
AcDbPolyline
 90
        7
 70
   128
 43
0.0
 10
101.5160764538501
 20
151.8439108100478
 10
101.5167045238319
 20
151.8440059782006
 10
101.5173385655529
 20
151.8443291307721
 10
101.5176816180916
 20
151.8446543680329
 10
101.5180156947834
 20
151.8452259939622
 10
101.5181405069137
 20
151.8458767265506
 10
101.5181408075378
 20
151.8459108100478
  0
LWPOLYLINE
  5
DD4
330
1F
100
AcDbEntity
  8
INDUSA
  6
Continuous
100
AcDbPolyline
 90
        5
 70
   128
 43
0.0
 10
101.5181408075378
 20
151.8553052587726
 10
101.5179909146157
 20
151.856226185298
 10
101.5177633939575
 20
151.8567390915295
 10
101.5171169823831
 20
151.8575328598062
 10
101.5167607187239
 20
151.8578014096556
  0
LINE
  5
DD5
330
1F
100
AcDbEntity
  8
INDUSA
  6
Continuous
100
AcDbLine
 10
101.5181408075378
 20
151.8553052587726
 30
0.0
 11
101.5181408075378
 21
151.8459108100483
 31
0.0
  0
ARC
  5
DD6
330
1F
100
AcDbEntity
  8
INDUSA
  6
Continuous
100
AcDbCircle
 10
101.4733448733201
 20
151.8427870460928
 30
0.0
 40
0.0200000000000001
100
AcDbArc
 50
180.0
 51
270.0
  0
LINE
  5
DD7
330
1F
100
AcDbEntity
  8
INDUSA
  6
Continuous
100
AcDbLine
 10
101.4733448733201
 20
151.8127870460926
 30
0.0
 11
101.5038384603211
 21
151.8127870460926
 31
0.0
  0
LINE
  5
DD8
330
1F
100
AcDbEntity
  8
INDUSA
  6
Continuous
100
AcDbLine
 10
101.5038384603211
 20
151.8127870460926
 30
0.0
 11
101.5038384603211
 21
151.806910810048
 31
0.0
  0
LINE
  5
DD9
330
1F
100
AcDbEntity
  8
INDUSA
  6
Continuous
100
AcDbLine
 10
101.5012931976192
 20
151.866910810048
 30
0.0
 11
101.4883776363225
 21
151.866910810048
 31
0.0
  0
LWPOLYLINE
  5
DDA
330
1F
100
AcDbEntity
  8
INDUSA
  6
Continuous
100
AcDbPolyline
 90
        5
 70
   128
 43
0.0
 10
101.5041015705616
 20
151.8660710615195
 10
101.5040760744326
 20
151.8660877227967
 10
101.5031441878101
 20
151.8665644429684
 10
101.5014609285857
 20
151.8669080608129
 10
101.5012931976192
 20
151.866910810048
  0
LINE
  5
DDB
330
1F
100
AcDbEntity
  8
INDUSA
  6
Continuous
100
AcDbLine
 10
101.4663764004448
 20
151.8739108100481
 30
0.0
 11
101.46634487332
 21
151.8739108100481
 31
0.0
  0
LINE
  5
DDC
330
1F
100
AcDbEntity
  8
INDUSA
  6
Continuous
100
AcDbLine
 10
101.5691085446552
 20
152.0269108100478
 30
0.0
 11
101.8150212950573
 21
152.0269108100478
 31
0.0
  0
LWPOLYLINE
  5
DDD
330
1F
100
AcDbEntity
  8
INDUSA
  6
Continuous
100
AcDbPolyline
 90
        7
 70
   128
 43
0.0
 10
101.5231416900441
 20
152.01982383946
 10
101.5795639609406
 20
152.0178987014337
 10
101.6359966164847
 20
152.0163931675693
 10
101.6736290204125
 20
152.0157492211588
 10
101.6924419688834
 20
152.0155811288427
 10
101.711246174192
 20
152.0155449978092
 10
101.7488530784509
 20
152.0159872275303
  0
LWPOLYLINE
  5
DDE
330
1F
100
AcDbEntity
  8
INDUSA
  6
Continuous
100
AcDbPolyline
 90
       15
 70
   128
 43
0.0
 10
101.7608996725777
 20
152.0164870057642
 10
101.7645382919248
 20
152.0166718345986
 10
101.7681974252206
 20
152.0168198764463
 10
101.7718568029582
 20
152.0169344832316
 10
101.7757045934132
 20
152.0170251909398
 10
101.7792835052681
 20
152.0170892443739
 10
101.7828057949665
 20
152.0171412641102
 10
101.7861592933276
 20
152.0171893665592
 10
101.789665568581
 20
152.0172493927425
 10
101.7924790560104
 20
152.0173144785822
 10
101.79514736358
 20
152.0173997002825
 10
101.7976015488756
 20
152.01750792353
 10
101.8000369532432
 20
152.0176555616276
 10
101.8022661616895
 20
152.0178402222736
 10
101.804261810416
 20
152.0180628181424
  0
LWPOLYLINE
  5
DDF
330
1F
100
AcDbEntity
  8
INDUSA
  6
Continuous
100
AcDbPolyline
 90
        4
 70
   128
 43
0.0
 10
101.8373091915445
 20
152.0237684282269
 10
101.8572643897524
 20
152.025309495385
 10
101.8677243434425
 20
152.0261117997952
 10
101.8781845503589
 20
152.0269108100478
  0
LWPOLYLINE
  5
DE0
330
1F
100
AcDbEntity
  8
INDUSA
  6
Continuous
100
AcDbPolyline
 90
        3
 70
   128
 43
0.0
 10
101.8727827707311
 20
152.011377143328
 10
101.8357448410294
 20
151.985124654911
 10
101.7978844665984
 20
151.9599956430034
  0
LINE
  5
DE1
330
1F
100
AcDbEntity
  8
INDUSA
  6
Continuous
100
AcDbLine
 10
101.870928819898
 20
152.0149108100481
 30
0.0
 11
101.8444285255738
 21
152.0149108100481
 31
0.0
  0
LINE
  5
DE2
330
1F
100
AcDbEntity
  8
INDUSA
  6
Continuous
100
AcDbLine
 10
101.8431479051072
 20
152.0269108100478
 30
0.0
 11
101.8778345515403
 21
152.0269108100478
 31
0.0
  0
LINE
  5
DE3
330
1F
100
AcDbEntity
  8
INDUSA
  6
Continuous
100
AcDbLine
 10
101.8862046610862
 20
152.0116243139155
 30
0.0
 11
101.8781845515403
 21
152.0269108100478
 31
0.0
  0
LWPOLYLINE
  5
DE4
330
1F
100
AcDbEntity
  8
INDUSA
  6
Continuous
100
AcDbPolyline
 90
        6
 70
   128
 43
0.0
 10
101.8847467331132
 20
152.0052787958539
 10
101.8859108333184
 20
152.0064885954639
 10
101.8866088600092
 20
152.0080155222167
 10
101.8867621062958
 20
152.0096874079654
 10
101.8863533078571
 20
152.0113157384489
 10
101.8862046610862
 20
152.011624313915
  0
LINE
  5
DE5
330
1F
100
AcDbEntity
  8
INDUSA
  6
Continuous
100
AcDbLine
 10
101.8727827707311
 20
152.0113771433284
 30
0.0
 11
101.870928819898
 21
152.0149108100481
 31
0.0
  0
LINE
  5
DE6
330
1F
100
AcDbEntity
  8
INDUSA
  6
Continuous
100
AcDbLine
 10
101.8781845515403
 20
152.0269108100478
 30
0.0
 11
101.8782063643886
 21
152.0269108100478
 31
0.0
  0
LWPOLYLINE
  5
DE7
330
1F
100
AcDbEntity
  8
INDUSA
  6
Continuous
100
AcDbPolyline
 90
        5
 70
   128
 43
0.0
 10
101.7978844665984
 20
151.9599956430034
 10
101.8104475332703
 20
151.9727997805125
 10
101.8223787976163
 20
151.9861946119858
 10
101.8337531937899
 20
152.0002843228217
 10
101.8444285255738
 20
152.0149108100481
  0
LINE
  5
DE8
330
1F
100
AcDbEntity
  8
INDUSA
  6
Continuous
100
AcDbLine
 10
101.7989042528869
 20
151.9607203036717
 30
0.0
 11
101.7978844665984
 21
151.9599956430034
 31
0.0
  0
LWPOLYLINE
  5
DE9
330
1F
100
AcDbEntity
  8
INDUSA
  6
Continuous
100
AcDbPolyline
 90
        5
 70
   128
 43
0.0
 10
101.8150212950573
 20
152.0269108100478
 10
101.8198967769441
 20
152.0269547711327
 10
101.8247670776837
 20
152.0270866818423
 10
101.8296338184715
 20
152.0273068001911
 10
101.8344919726731
 20
152.0276151947596
  0
LWPOLYLINE
  5
DEA
330
1F
100
AcDbEntity
  8
INDUSA
  6
Continuous
100
AcDbPolyline
 90
        6
 70
   128
 43
0.0
 10
101.8082793745114
 20
152.0184920750585
 10
101.8146547739608
 20
152.0189725795731
 10
101.8201266003583
 20
152.0194789398106
 10
101.8246963579014
 20
152.0200214934084
 10
101.8283723815249
 20
152.0206153451477
 10
101.8309660649232
 20
152.021216782351
  0
LWPOLYLINE
  5
DEB
330
1F
100
AcDbEntity
  8
INDUSA
  6
Continuous
100
AcDbPolyline
 90
        7
 70
   128
 43
0.0
 10
101.8382134659549
 20
152.027577260606
 10
101.8378728720619
 20
152.0276367867332
 10
101.8373997554132
 20
152.0276774145923
 10
101.836837490811
 20
152.0276962187604
 10
101.8361726833447
 20
152.0276942616092
 10
101.8353732266329
 20
152.0276679628982
 10
101.8344919726731
 20
152.0276151947596
  0
LWPOLYLINE
  5
DEC
330
1F
100
AcDbEntity
  8
INDUSA
  6
Continuous
100
AcDbPolyline
 90
        4
 70
   128
 43
0.0
 10
101.8373091915445
 20
152.0237684282269
 10
101.8363259270446
 20
152.0235213093028
 10
101.8354798660408
 20
152.0229627409408
 10
101.8350573073743
 20
152.0224722923162
  0
LWPOLYLINE
  5
DED
330
1F
100
AcDbEntity
  8
INDUSA
  6
Continuous
100
AcDbPolyline
 90
        5
 70
   128
 43
0.0
 10
101.8382134659549
 20
152.027577260606
 10
101.839531381608
 20
152.0272848596928
 10
101.840792984137
 20
152.0270767387824
 10
101.8419992990724
 20
152.0269521678528
 10
101.8431479041363
 20
152.0269108119787
  0
LWPOLYLINE
  5
DEE
330
1F
100
AcDbEntity
  8
INDUSA
  6
Continuous
100
AcDbPolyline
 90
        5
 70
   128
 43
0.0
 10
101.830626400737
 20
152.0211432337678
 10
101.8320742605864
 20
152.0215828119408
 10
101.8335045899783
 20
152.0221265187901
 10
101.8350894795295
 20
152.022871207464
 10
101.8363259270446
 20
152.0235316577204
  0
LWPOLYLINE
  5
DEF
330
1F
100
AcDbEntity
  8
INDUSA
  6
Continuous
100
AcDbPolyline
 90
        3
 70
   128
 43
0.0
 10
101.804261810416
 20
152.0180628181424
 10
101.8065601756321
 20
152.018336455123
 10
101.8082793745114
 20
152.0184920750585
  0
LWPOLYLINE
  5
DF0
330
1F
100
AcDbEntity
  8
INDUSA
  6
Continuous
100
AcDbPolyline
 90
        5
 70
   128
 43
0.0
 10
101.7488530784509
 20
152.0159872275303
 10
101.7518684167468
 20
152.0160777770129
 10
101.7548812510252
 20
152.0161917930277
 10
101.7578918940445
 20
152.016328473122
 10
101.7608996725777
 20
152.0164870057642
  0
LWPOLYLINE
  5
DF1
330
1F
100
AcDbEntity
  8
INDUSA
  6
Continuous
100
AcDbPolyline
 90
       11
 70
   128
 43
0.0
 10
101.5691085446555
 20
152.0269108100478
 10
101.5691296359958
 20
152.0269105554939
 10
101.569145561314
 20
152.0269097978439
 10
101.5691570128864
 20
152.0269084344722
 10
101.5691634647097
 20
152.026905283893
 10
101.5691267444184
 20
152.0268926248645
 10
101.5688188288576
 20
152.0268430484407
 10
101.56727592668
 20
152.0266491321185
 10
101.5606311892594
 20
152.0258759771732
 10
101.5485972159509
 20
152.0244333357545
 10
101.5372003147212
 20
152.022961595228
  0
LWPOLYLINE
  5
DF2
330
1F
100
AcDbEntity
  8
INDUSA
  6
Continuous
100
AcDbPolyline
 90
        8
 70
   128
 43
0.0
 10
101.5167701360689
 20
152.0235792751664
 10
101.5243112045081
 20
152.0241747357349
 10
101.532477398851
 20
152.0247621823614
 10
101.5408070614068
 20
152.0253121518299
 10
101.5496867224077
 20
152.0258536112092
 10
101.5591294587663
 20
152.0263870870863
 10
101.5691085119496
 20
152.0269108083921
 10
101.5691085446555
 20
152.0269108100478
  0
LINE
  5
DF3
330
1F
100
AcDbEntity
  8
INDUSA
  6
Continuous
100
AcDbLine
 10
101.5128853273298
 20
152.0199108100482
 30
0.0
 11
101.47534487332
 21
152.0199108100482
 31
0.0
  0
LWPOLYLINE
  5
DF4
330
1F
100
AcDbEntity
  8
INDUSA
  6
Continuous
100
AcDbPolyline
 90
        5
 70
   128
 43
0.0
 10
101.5168692088094
 20
152.0199052605735
 10
101.5232641327155
 20
152.0209418446416
 10
101.5284643733426
 20
152.0217327739065
 10
101.5327482795625
 20
152.0223496729886
 10
101.5372003147212
 20
152.022961595228
  0
LWPOLYLINE
  5
DF5
330
1F
100
AcDbEntity
  8
INDUSA
  6
Continuous
100
AcDbPolyline
 90
        9
 70
   128
 43
0.0
 10
101.5167701360689
 20
152.0235792751664
 10
101.5171292477181
 20
152.0235357221299
 10
101.5174746063604
 20
152.0234184748055
 10
101.5177931954748
 20
152.0232319522288
 10
101.51807300748
 20
152.0229831844112
 10
101.5183034962989
 20
152.0226815473784
 10
101.5184759748391
 20
152.0223384097899
 10
101.5185839424072
 20
152.0219667044548
 10
101.5186233297203
 20
152.0215804408981
  0
LINE
  5
DF6
330
1F
100
AcDbEntity
  8
INDUSA
  6
Continuous
100
AcDbLine
 10
101.5186233297201
 20
152.0215804408981
 30
0.0
 11
101.5183402765138
 21
152.0201437130349
 31
0.0
  0
LWPOLYLINE
  5
DF7
330
1F
100
AcDbEntity
  8
INDUSA
  6
Continuous
100
AcDbPolyline
 90
        5
 70
   128
 43
0.0
 10
101.5169304546565
 20
152.0199051752593
 10
101.5187487617626
 20
152.0199133279443
 10
101.5207656082065
 20
152.01989035423
 10
101.5219364205764
 20
152.0198628303756
 10
101.5231416900441
 20
152.01982383946
  0
LWPOLYLINE
  5
DF8
330
1F
100
AcDbEntity
  8
INDUSA
  6
Continuous
100
AcDbPolyline
 90
        5
 70
   128
 43
0.0
 10
101.5139867763479
 20
152.0235105287511
 10
101.5149809018902
 20
152.0235171753929
 10
101.5158279216845
 20
152.0235345354813
 10
101.5165319825481
 20
152.0235630423044
 10
101.5167701360689
 20
152.0235792751664
  0
LWPOLYLINE
  5
DF9
330
1F
100
AcDbEntity
  8
INDUSA
  6
Continuous
100
AcDbPolyline
 90
       15
 70
   128
 43
0.0
 10
101.4783769758661
 20
151.9717501437367
 10
101.4783997488431
 20
151.9727815901788
 10
101.478429552152
 20
151.9742893181128
 10
101.4784600865465
 20
151.976095542801
 10
101.4784879137513
 20
151.978154790771
 10
101.47850998409
 20
151.9804035714551
 10
101.4785236352562
 20
151.9827816993634
 10
101.4785275641228
 20
151.9852194895416
 10
101.4785210653441
 20
151.9876477313546
 10
101.4785051347056
 20
151.989999316268
 10
101.478481347303
 20
151.9922047308287
 10
101.4784525363444
 20
151.9942056395525
 10
101.478421874057
 20
151.9959404916562
 10
101.4783927968309
 20
151.9973653530901
 10
101.4783767569703
 20
151.9980699519883
  0
LWPOLYLINE
  5
DFA
330
1F
100
AcDbEntity
  8
INDUSA
  6
Continuous
100
AcDbPolyline
 90
        6
 70
   128
 43
0.0
 10
101.4783770627583
 20
151.9717496306171
 10
101.4782411930383
 20
151.972551973879
 10
101.4778431024582
 20
151.9732628060333
 10
101.4772440684615
 20
151.9737601106772
 10
101.4765879965149
 20
151.9739689011203
 10
101.4763880367194
 20
151.973980366185
  0
LWPOLYLINE
  5
DFB
330
1F
100
AcDbEntity
  8
INDUSA
  6
Continuous
100
AcDbPolyline
 90
        6
 70
   128
 43
0.0
 10
101.4683874425985
 20
151.973980366185
 10
101.4677814284222
 20
151.9738732078544
 10
101.4672451208338
 20
151.9735742212265
 10
101.466800323495
 20
151.9731000833935
 10
101.4664836909804
 20
151.9724450460835
 10
101.4663764004448
 20
151.9717302796794
  0
LINE
  5
DFC
330
1F
100
AcDbEntity
  8
INDUSA
  6
Continuous
100
AcDbLine
 10
101.4763880367194
 20
151.973980366185
 30
0.0
 11
101.4683874425985
 21
151.973980366185
 31
0.0
  0
LWPOLYLINE
  5
DFD
330
1F
100
AcDbEntity
  8
INDUSA
  6
Continuous
100
AcDbPolyline
 90
        7
 70
   128
 43
0.0
 10
101.4783770627583
 20
152.0169108100481
 10
101.4783405315269
 20
152.0173775440808
 10
101.4780189828333
 20
152.0183321304794
 10
101.4773995903418
 20
152.0191264724208
 10
101.4765521620098
 20
152.0196710456962
 10
101.4755721977514
 20
152.0199044467877
 10
101.4753768945846
 20
152.0199108100478
  0
LWPOLYLINE
  5
DFE
330
1F
100
AcDbEntity
  8
INDUSA
  6
Continuous
100
AcDbPolyline
 90
        6
 70
   128
 43
0.0
 10
101.4763880367194
 20
151.9958412539113
 10
101.476988934546
 20
151.9959470210228
 10
101.47752078231
 20
151.9962435494308
 10
101.4779584541655
 20
151.996711390937
 10
101.4782696712524
 20
151.9973564309694
 10
101.4783770627583
 20
151.9980719894788
  0
LINE
  5
DFF
330
1F
100
AcDbEntity
  8
INDUSA
  6
Continuous
100
AcDbLine
 10
101.4783770627583
 20
151.9980719894788
 30
0.0
 11
101.4783770627583
 21
152.0169108100481
 31
0.0
  0
LWPOLYLINE
  5
E00
330
1F
100
AcDbEntity
  8
INDUSA
  6
Continuous
100
AcDbPolyline
 90
        7
 70
   128
 43
0.0
 10
101.4663764004448
 20
152.0029108100479
 10
101.4663565723054
 20
152.0033556443582
 10
101.4659285933461
 20
152.0049789782178
 10
101.464987412581
 20
152.006369140628
 10
101.4636391105401
 20
152.0073694507086
 10
101.4620356299064
 20
152.007867130194
 10
101.4613761324566
 20
152.0079108100481
  0
LINE
  5
E01
330
1F
100
AcDbEntity
  8
INDUSA
  6
Continuous
100
AcDbLine
 10
101.4613761324566
 20
152.0079108100481
 30
0.0
 11
101.4533448733201
 21
152.0079108100481
 31
0.0
  0
LWPOLYLINE
  5
E02
330
1F
100
AcDbEntity
  8
INDUSA
  6
Continuous
100
AcDbPolyline
 90
        6
 70
   128
 43
0.0
 10
101.4663764004448
 20
151.9980913404169
 10
101.4665130253137
 20
151.9972871940685
 10
101.4669112577165
 20
151.9965745758159
 10
101.4675151251266
 20
151.9960689560657
 10
101.4681821747973
 20
151.995853320504
 10
101.4683874425985
 20
151.9958412539113
  0
LINE
  5
E03
330
1F
100
AcDbEntity
  8
INDUSA
  6
Continuous
100
AcDbLine
 10
101.4663764004448
 20
151.9980913404169
 30
0.0
 11
101.4663764004448
 21
152.0029108100479
 31
0.0
  0
LINE
  5
E04
330
1F
100
AcDbEntity
  8
INDUSA
  6
Continuous
100
AcDbLine
 10
101.4683874425985
 20
151.9958412539113
 30
0.0
 11
101.4763880367194
 21
151.9958412539113
 31
0.0
  0
LINE
  5
E05
330
1F
100
AcDbEntity
  8
INDUSA
  6
Continuous
100
AcDbLine
 10
101.4433448733201
 20
151.8427870460928
 30
0.0
 11
101.4433448733201
 21
152.0079108100481
 31
0.0
  0
LINE
  5
E06
330
1F
100
AcDbEntity
  8
INDUSA
  6
Continuous
100
AcDbLine
 10
101.36334487332
 20
152.0029108100479
 30
0.0
 11
101.36334487332
 21
151.9358029657373
 31
0.0
  0
LINE
  5
E07
330
1F
100
AcDbEntity
  8
INDUSA
  6
Continuous
100
AcDbLine
 10
101.3283448733201
 20
152.0349047006893
 30
0.0
 11
101.3283448733201
 21
151.9358029657373
 31
0.0
  0
LINE
  5
E08
330
1F
100
AcDbEntity
  8
INDUSA
  6
Continuous
100
AcDbLine
 10
101.3403448733201
 20
152.0259046216997
 30
0.0
 11
101.3403448733201
 21
151.9448083744482
 31
0.0
  0
LINE
  5
E09
330
1F
100
AcDbEntity
  8
INDUSA
  6
Continuous
100
AcDbLine
 10
101.35134487332
 20
151.9448083744482
 30
0.0
 11
101.35134487332
 21
152.0066707260393
 31
0.0
  0
LINE
  5
E0A
330
1F
100
AcDbEntity
  8
INDUSA
  6
Continuous
100
AcDbLine
 10
101.3295196408347
 20
151.7333477545134
 30
0.0
 11
101.3295196408356
 21
151.8340951389828
 31
0.0
  0
LWPOLYLINE
  5
E0B
330
1F
100
AcDbEntity
  8
INDUSA
  6
Continuous
100
AcDbPolyline
 90
       20
 70
   128
 43
0.0
 10
101.3655193975065
 20
151.7788640155913
 10
101.3653034116167
 20
151.7775326563096
 10
101.3646097480867
 20
151.7761976698393
 10
101.363505972003
 20
151.7751600558254
 10
101.3621117247615
 20
151.774545337259
 10
101.3605889318527
 20
151.7744314697165
 10
101.3591191137496
 20
151.7748318399713
 10
101.3578736400328
 20
151.7756932521097
 10
101.35698753236
 20
151.7769127856713
 10
101.3565532872199
 20
151.7783615509452
 10
101.3565345090179
 20
151.7792763134771
 10
101.3569030140103
 20
151.7807283313655
 10
101.3577340646224
 20
151.7819857066424
 10
101.3589435712587
 20
151.7829032948857
 10
101.3603971373578
 20
151.7833675453362
 10
101.3619231690896
 20
151.7833191699064
 10
101.3633398395367
 20
151.7827665431664
 10
101.3644849569035
 20
151.7817816260294
 10
101.3652362230835
 20
151.7804825714711
 10
101.3655193975065
 20
151.7788640155913
  0
LINE
  5
E0C
330
1F
100
AcDbEntity
  8
INDUSA
  6
Continuous
100
AcDbLine
 10
101.3295196408329
 20
151.6281648983645
 30
0.0
 11
101.3295196408338
 21
151.7224739638896
 31
0.0
  0
LINE
  5
E0D
330
1F
100
AcDbEntity
  8
INDUSA
  6
Continuous
100
AcDbLine
 10
101.3295196408343
 20
151.7282733892139
 30
0.0
 11
101.3295196408347
 21
151.7333477545134
 31
0.0
  0
LWPOLYLINE
  5
E0E
330
1F
100
AcDbEntity
  8
INDUSA
  6
Continuous
100
AcDbPolyline
 90
        9
 70
   128
 43
0.0
 10
101.3295196408347
 20
151.733347754513
 10
101.3295524802737
 20
151.7333686799334
 10
101.3296499201618
 20
151.7333889181741
 10
101.3298087606278
 20
151.7334078046233
 10
101.3300237854397
 20
151.7334247190611
 10
101.3302879333038
 20
151.7334391060258
 10
101.3305925297519
 20
151.7334504930581
 10
101.3309275720081
 20
151.7334585062144
 10
101.3312820574721
 20
151.7334628823473
  0
LINE
  5
E0F
330
1F
100
AcDbEntity
  8
INDUSA
  6
Continuous
100
AcDbLine
 10
101.3295196408338
 20
151.7224739638896
 30
0.0
 11
101.3295196408343
 21
151.7282733892139
 31
0.0
  0
LWPOLYLINE
  5
E10
330
1F
100
AcDbEntity
  8
INDUSA
  6
Continuous
100
AcDbPolyline
 90
        9
 70
   128
 43
0.0
 10
101.3295196408345
 20
151.7282733892139
 10
101.3295545376067
 20
151.7285652560404
 10
101.329658010139
 20
151.7288469376562
 10
101.3298264475737
 20
151.7291086042833
 10
101.3300539719883
 20
151.7293411245996
 10
101.3303326435149
 20
151.7295363843977
 10
101.3306527374169
 20
151.7296875697402
 10
101.3310030834499
 20
151.7297894047469
 10
101.3313714556683
 20
151.7298383357047
  0
LWPOLYLINE
  5
E11
330
1F
100
AcDbEntity
  8
INDUSA
  6
Continuous
100
AcDbPolyline
 90
        9
 70
   128
 43
0.0
 10
101.3295196408338
 20
151.7224739638891
 10
101.3295525540885
 20
151.7224948801277
 10
101.3296502105701
 20
151.7225151079446
 10
101.3298093960858
 20
151.7225339815768
 10
101.3300248713225
 20
151.7225508798315
 10
101.3302895442888
 20
151.7225652465322
 10
101.3305947037357
 20
151.722576608824
 10
101.330930305873
 20
151.7225845927373
 10
101.331285304942
 20
151.7225889354945
  0
LWPOLYLINE
  5
E12
330
1F
100
AcDbEntity
  8
INDUSA
  6
Continuous
100
AcDbPolyline
 90
        4
 70
   128
 43
0.0
 10
101.4433448733201
 20
151.8439678594291
 10
101.4203355728624
 20
151.8419647488586
 10
101.3749730212174
 20
151.8380158162536
 10
101.3312540471698
 20
151.8342101066955
  0
LINE
  5
E13
330
1F
100
AcDbEntity
  8
INDUSA
  6
Continuous
100
AcDbLine
 10
101.3313448733434
 20
151.8439108100465
 30
0.0
 11
101.4433448733201
 21
151.8537353714473
 31
0.0
  0
LINE
  5
E14
330
1F
100
AcDbEntity
  8
INDUSA
  6
Continuous
100
AcDbLine
 10
101.3313448733407
 20
151.8388916102217
 30
0.0
 11
101.4433448733201
 21
151.8487161716239
 31
0.0
  0
LINE
  5
E15
330
1F
100
AcDbEntity
  8
INDUSA
  6
Continuous
100
AcDbLine
 10
101.33134487332
 20
151.9328010335903
 30
0.0
 11
101.36034487332
 21
151.9328010335903
 31
0.0
  0
LINE
  5
E16
330
1F
100
AcDbEntity
  8
INDUSA
  6
Continuous
100
AcDbLine
 10
101.36334487332
 20
151.8583084384763
 30
0.0
 11
101.36334487332
 21
151.935910810048
 31
0.0
  0
LINE
  5
E17
330
1F
100
AcDbEntity
  8
INDUSA
  6
Continuous
100
AcDbLine
 10
101.3984799625624
 20
151.8447806531353
 30
0.0
 11
101.3897169314069
 21
151.8440119661918
 31
0.0
  0
LINE
  5
E18
330
1F
100
AcDbEntity
  8
INDUSA
  6
Continuous
100
AcDbLine
 10
101.4433448733201
 20
151.8487161716234
 30
0.0
 11
101.3984799625624
 21
151.8447806531353
 31
0.0
  0
LWPOLYLINE
  5
E19
330
1F
100
AcDbEntity
  8
INDUSA
  6
Continuous
100
AcDbPolyline
 90
        5
 70
   128
 43
0.0
 10
101.3616348591248
 20
151.8464588918905
 10
101.3618422166488
 20
151.8469825227648
 10
101.362727064305
 20
151.8504421465168
 10
101.3631553134674
 20
151.8539823151959
 10
101.3633448733202
 20
151.8583084384763
  0
LWPOLYLINE
  5
E1A
330
1F
100
AcDbEntity
  8
INDUSA
  6
Continuous
100
AcDbPolyline
 90
        7
 70
   128
 43
0.0
 10
101.36034487332
 20
151.9328010335903
 10
101.3604633087917
 20
151.9328033738616
 10
101.3614484254009
 20
151.9330115167145
 10
101.3623091198566
 20
151.9335339721578
 10
101.3629486992121
 20
151.9343120177977
 10
101.3632951034498
 20
151.9352584308471
 10
101.3633448733202
 20
151.9358029657369
  0
LINE
  5
E1B
330
1F
100
AcDbEntity
  8
INDUSA
  6
Continuous
100
AcDbLine
 10
101.35134487332
 20
151.9448083744482
 30
0.0
 11
101.3403448733201
 21
151.9448083744482
 31
0.0
  0
LINE
  5
E1C
330
1F
100
AcDbEntity
  8
INDUSA
  6
Continuous
100
AcDbLine
 10
101.3283448733201
 20
151.935910810048
 30
0.0
 11
101.3283448733201
 21
151.846910810048
 31
0.0
  0
LINE
  5
E1D
330
1F
100
AcDbEntity
  8
INDUSA
  6
Continuous
100
AcDbLine
 10
101.3295196408388
 20
151.8417176926055
 30
0.0
 11
101.3295196408388
 21
151.8419184605982
 31
0.0
  0
ARC
  5
E1E
330
1F
100
AcDbEntity
  8
INDUSA
  6
Continuous
100
AcDbCircle
 10
101.3315196408388
 20
151.8419184605982
 30
0.0
 40
0.002
100
AcDbArc
 50
95.0131137550567
 51
180.0
  0
LINE
  5
E1F
330
1F
100
AcDbEntity
  8
INDUSA
  6
Continuous
100
AcDbLine
 10
101.3295196408361
 20
151.8368992607738
 30
0.0
 11
101.3295196408388
 21
151.8417176926055
 31
0.0
  0
LINE
  5
E20
330
1F
100
AcDbEntity
  8
INDUSA
  6
Continuous
100
AcDbLine
 10
101.3295196408356
 20
151.8340951389828
 30
0.0
 11
101.3295196408361
 21
151.8368992607738
 31
0.0
  0
ARC
  5
E21
330
1F
100
AcDbEntity
  8
INDUSA
  6
Continuous
100
AcDbCircle
 10
101.3315196408363
 20
151.8368992607738
 30
0.0
 40
0.0020000000000002
100
AcDbArc
 50
95.01311375500273
 51
180.0
  0
LWPOLYLINE
  5
E22
330
1F
100
AcDbEntity
  8
INDUSA
  6
Continuous
100
AcDbPolyline
 90
        9
 70
   128
 43
0.0
 10
101.3295196408358
 20
151.8340951389828
 10
101.3295518463914
 20
151.834115871376
 10
101.3296474258603
 20
151.8341359360711
 10
101.3298033010529
 20
151.8341546868728
 10
101.330014451922
 20
151.8341715199021
 10
101.3302740782363
 20
151.8341858930412
 10
101.3305738185862
 20
151.8341973433958
 10
101.3309040196672
 20
151.8342055021999
 10
101.3312540471698
 20
151.8342101066955
  0
LWPOLYLINE
  5
E23
330
1F
100
AcDbEntity
  8
INDUSA
  6
Continuous
100
AcDbPolyline
 90
        7
 70
   128
 43
0.0
 10
101.33134487332
 20
151.8439108100478
 10
101.3304559765089
 20
151.8440455242926
 10
101.3296696441169
 20
151.8444221141812
 10
101.3290184462456
 20
151.8450166777752
 10
101.3285392765612
 20
151.8458484415496
 10
101.3283448901508
 20
151.8469007610119
 10
101.3283448733201
 20
151.846910810048
  0
LWPOLYLINE
  5
E24
330
1F
100
AcDbEntity
  8
INDUSA
  6
Continuous
100
AcDbPolyline
 90
        7
 70
   128
 43
0.0
 10
101.3283448733201
 20
151.9358029657369
 10
101.3284075231567
 20
151.9351926817371
 10
101.3287753518071
 20
151.9342535716905
 10
101.3294332515853
 20
151.9334894052454
 10
101.3303066385684
 20
151.9329865380368
 10
101.3309178405621
 20
151.9328316019769
 10
101.33134487332
 20
151.9328010335903
  0
LINE
  5
E25
330
1F
100
AcDbEntity
  8
INDUSA
  6
Continuous
100
AcDbLine
 10
101.33134487332
 20
152.0379108100483
 30
0.0
 11
101.3515607972634
 21
152.0379108100483
 31
0.0
  0
LINE
  5
E26
330
1F
100
AcDbEntity
  8
INDUSA
  6
Continuous
100
AcDbLine
 10
101.3564075136804
 20
152.0342045487473
 30
0.0
 11
101.3582515500426
 21
152.0273226195973
 31
0.0
  0
LWPOLYLINE
  5
E27
330
1F
100
AcDbEntity
  8
INDUSA
  6
Continuous
100
AcDbPolyline
 90
        5
 70
   128
 43
0.0
 10
101.3949102023852
 20
152.0252264634164
 10
101.3929942652747
 20
152.0250466665434
 10
101.3911408467889
 20
152.0248664470241
 10
101.3846390627592
 20
152.0241738216259
 10
101.3790716667851
 20
152.0234746746037
  0
LWPOLYLINE
  5
E28
330
1F
100
AcDbEntity
  8
INDUSA
  6
Continuous
100
AcDbPolyline
 90
        3
 70
   128
 43
0.0
 10
101.3750128738742
 20
152.0317625883094
 10
101.3820074269482
 20
152.0298035276869
 10
101.3903193223742
 20
152.0273963718864
  0
LINE
  5
E29
330
1F
100
AcDbEntity
  8
INDUSA
  6
Continuous
100
AcDbLine
 10
101.4245097002509
 20
152.0199108100482
 30
0.0
 11
101.3872011660782
 21
152.0199108100482
 31
0.0
  0
LINE
  5
E2A
330
1F
100
AcDbEntity
  8
INDUSA
  6
Continuous
100
AcDbLine
 10
101.4433448733201
 20
152.0079108100481
 30
0.0
 11
101.4243779411462
 21
152.0079108100481
 31
0.0
  0
LWPOLYLINE
  5
E2B
330
1F
100
AcDbEntity
  8
INDUSA
  6
Continuous
100
AcDbPolyline
 90
        7
 70
   128
 43
0.0
 10
101.4222605549399
 20
152.009910810048
 10
101.4223249013904
 20
152.0094231118228
 10
101.4225861602718
 20
152.0088479621531
 10
101.4230298239996
 20
152.0083711068109
 10
101.4236325521225
 20
152.0080399403437
 10
101.4243449952768
 20
152.0079110551346
 10
101.4243779411462
 20
152.0079108100481
  0
LINE
  5
E2C
330
1F
100
AcDbEntity
  8
INDUSA
  6
Continuous
100
AcDbLine
 10
101.4222605549399
 20
152.009910810048
 30
0.0
 11
101.4222605549399
 21
152.0179108100478
 31
0.0
  0
LWPOLYLINE
  5
E2D
330
1F
100
AcDbEntity
  8
INDUSA
  6
Continuous
100
AcDbPolyline
 90
        7
 70
   128
 43
0.0
 10
101.4243779411462
 20
152.0199108100478
 10
101.4240920313972
 20
152.0198922925992
 10
101.4233828578534
 20
152.0196744564378
 10
101.422790374732
 20
152.0192313326483
 10
101.4224045875936
 20
152.018633611648
 10
101.4222618379091
 20
152.0179801820495
 10
101.4222605549399
 20
152.0179108100478
  0
LWPOLYLINE
  5
E2E
330
1F
100
AcDbEntity
  8
INDUSA
  6
Continuous
100
AcDbPolyline
 90
        3
 70
   128
 43
0.0
 10
101.4131330421652
 20
152.0268117711193
 10
101.4033932508442
 20
152.0260976116342
 10
101.3963918890643
 20
152.0255316364341
  0
LWPOLYLINE
  5
E2F
330
1F
100
AcDbEntity
  8
INDUSA
  6
Continuous
100
AcDbPolyline
 90
       15
 70
   128
 43
0.0
 10
101.39682038646
 20
152.0255337795538
 10
101.3968542395145
 20
152.0255339019609
 10
101.3969309347322
 20
152.0255337783587
 10
101.3969986314692
 20
152.0255330698596
 10
101.397069590398
 20
152.0255314391902
 10
101.3971304007192
 20
152.0255288667094
 10
101.3972005711827
 20
152.0255229471367
 10
101.3972321382247
 20
152.0255169741058
 10
101.3972453895172
 20
152.0255081238001
 10
101.3972249798606
 20
152.0254948213483
 10
101.397143697906
 20
152.0254745892243
 10
101.396954956789
 20
152.0254435328379
 10
101.3965805681274
 20
152.0253955221246
 10
101.395890608242
 20
152.0253208909339
 10
101.3949102023852
 20
152.0252264634164
  0
LWPOLYLINE
  5
E30
330
1F
100
AcDbEntity
  8
INDUSA
  6
Continuous
100
AcDbPolyline
 90
        6
 70
   128
 43
0.0
 10
101.418914107653
 20
152.0269108100478
 10
101.4172511655664
 20
152.0269045955006
 10
101.4156653041187
 20
152.0268868054318
 10
101.4143164011956
 20
152.0268592831184
 10
101.4133510249588
 20
152.0268246213304
 10
101.4131330421652
 20
152.0268117711193
  0
LINE
  5
E31
330
1F
100
AcDbEntity
  8
INDUSA
  6
Continuous
100
AcDbLine
 10
101.390319322374
 20
152.0273963718864
 30
0.0
 11
101.3957284625295
 21
152.025852188688
 31
0.0
  0
LWPOLYLINE
  5
E32
330
1F
100
AcDbEntity
  8
INDUSA
  6
Continuous
100
AcDbPolyline
 90
        6
 70
   128
 43
0.0
 10
101.3582515500426
 20
152.0273226195968
 10
101.3589078085209
 20
152.0255581317242
 10
101.3608560687186
 20
152.0228234925739
 10
101.3635997072011
 20
152.0208878572539
 10
101.3668294350146
 20
152.0199694652115
 10
101.3679109618655
 20
152.0199108100478
  0
LINE
  5
E33
330
1F
100
AcDbEntity
  8
INDUSA
  6
Continuous
100
AcDbLine
 10
101.387311805494
 20
152.0199108100482
 30
0.0
 11
101.3679109618655
 21
152.0199108100482
 31
0.0
  0
LWPOLYLINE
  5
E34
330
1F
100
AcDbEntity
  8
INDUSA
  6
Continuous
100
AcDbPolyline
 90
        7
 70
   128
 43
0.0
 10
101.3894291917003
 20
152.0179108100478
 10
101.3894231600719
 20
152.0180611433279
 10
101.3893635890525
 20
152.0184031732215
 10
101.3890826526866
 20
152.0190044071469
 10
101.3886213387023
 20
152.0194799691289
 10
101.3880088752265
 20
152.0197983318962
 10
101.387311805494
 20
152.0199108100478
  0
LINE
  5
E35
330
1F
100
AcDbEntity
  8
INDUSA
  6
Continuous
100
AcDbLine
 10
101.3894291917003
 20
152.0179108100478
 30
0.0
 11
101.3894291917003
 21
152.009910810048
 31
0.0
  0
LWPOLYLINE
  5
E36
330
1F
100
AcDbEntity
  8
INDUSA
  6
Continuous
100
AcDbPolyline
 90
        6
 70
   128
 43
0.0
 10
101.387311805494
 20
152.0079108100481
 10
101.3879839930067
 20
152.0080151989441
 10
101.3886438885832
 20
152.0083586954465
 10
101.3890107594517
 20
152.0087200746643
 10
101.389324225309
 20
152.0092908920414
 10
101.3894291917003
 20
152.009910810048
  0
LINE
  5
E37
330
1F
100
AcDbEntity
  8
INDUSA
  6
Continuous
100
AcDbLine
 10
101.387311805494
 20
152.0079108100481
 30
0.0
 11
101.3683448733201
 21
152.0079108100481
 31
0.0
  0
ARC
  5
E38
330
1F
100
AcDbEntity
  8
INDUSA
  6
Continuous
100
AcDbCircle
 10
101.3683448733201
 20
152.0029108100479
 30
0.0
 40
0.005
100
AcDbArc
 50
90.0
 51
180.0
  0
LINE
  5
E39
330
1F
100
AcDbEntity
  8
INDUSA
  6
Continuous
100
AcDbLine
 10
101.3403448733201
 20
152.0259046216997
 30
0.0
 11
101.3461911665105
 21
152.0259046216997
 31
0.0
  0
LINE
  5
E3A
330
1F
100
AcDbEntity
  8
INDUSA
  6
Continuous
100
AcDbLine
 10
101.3461911665105
 20
152.0259046216997
 30
0.0
 11
101.35134487332
 21
152.0066707260393
 31
0.0
  0
LWPOLYLINE
  5
E3B
330
1F
100
AcDbEntity
  8
INDUSA
  6
Continuous
100
AcDbPolyline
 90
        5
 70
   128
 43
0.0
 10
101.3564074491934
 20
152.0342047120639
 10
101.3557079027911
 20
152.0357280739067
 10
101.3545435526304
 20
152.0369340160364
 10
101.3530456342615
 20
152.0376866039087
 10
101.3515848447253
 20
152.0379050530469
  0
LINE
  5
E3C
330
1F
100
AcDbEntity
  8
INDUSA
  6
Continuous
100
AcDbLine
 10
101.3515607972634
 20
152.0379108100483
 30
0.0
 11
101.3515848447251
 21
152.0379050530469
 31
0.0
  0
LINE
  5
E3D
330
1F
100
AcDbEntity
  8
INDUSA
  6
Continuous
100
AcDbLine
 10
101.3283448733201
 20
152.0349108100481
 30
0.0
 11
101.3283448733201
 21
152.0349047006893
 31
0.0
  0
ARC
  5
E3E
330
1F
100
AcDbEntity
  8
INDUSA
  6
Continuous
100
AcDbCircle
 10
101.33134487332
 20
152.0349108100481
 30
0.0
 40
0.0030000000000001
100
AcDbArc
 50
90.0
 51
180.0
  0
LINE
  5
E3F
330
1F
100
AcDbEntity
  8
INDUSA
  6
Continuous
100
AcDbLine
 10
101.0737913004608
 20
152.0192233940629
 30
0.0
 11
101.0722370507348
 21
152.0269108100478
 31
0.0
  0
LWPOLYLINE
  5
E40
330
1F
100
AcDbEntity
  8
INDUSA
  6
Continuous
100
AcDbPolyline
 90
        9
 70
   128
 43
0.0
 10
101.072593020118
 20
152.0147505330687
 10
101.0729711889681
 20
152.0152125742656
 10
101.0732910773951
 20
152.0157182571388
 10
101.0735479981121
 20
152.0162601719785
 10
101.0737381864913
 20
152.016830378172
 10
101.073858855725
 20
152.0174205205567
 10
101.0739082376618
 20
152.0180219518474
 10
101.073885608714
 20
152.0186258593439
 10
101.0737913004608
 20
152.0192233940629
  0
LINE
  5
E41
330
1F
100
AcDbEntity
  8
INDUSA
  6
Continuous
100
AcDbLine
 10
101.0417815185582
 20
152.0269108100478
 30
0.0
 11
101.0722370507348
 21
152.0269108100478
 31
0.0
  0
LINE
  5
E42
330
1F
100
AcDbEntity
  8
INDUSA
  6
Continuous
100
AcDbLine
 10
100.9909192345698
 20
152.0273963718864
 30
0.0
 11
100.9968743705627
 21
152.0269108100478
 31
0.0
  0
LWPOLYLINE
  5
E43
330
1F
100
AcDbEntity
  8
INDUSA
  6
Continuous
100
AcDbPolyline
 90
        5
 70
   128
 43
0.0
 10
100.9845916583639
 20
152.027577260606
 10
100.9809247503514
 20
152.0272848596928
 10
100.9772293631491
 20
152.0270767387824
 10
100.9735029526717
 20
152.0269521678528
 10
100.9697536237646
 20
152.0269108119787
  0
LINE
  5
E44
330
1F
100
AcDbEntity
  8
INDUSA
  6
Continuous
100
AcDbLine
 10
100.9879593949912
 20
152.0111346816579
 30
0.0
 11
100.9845916583639
 21
152.027577260606
 31
0.0
  0
LWPOLYLINE
  5
E45
330
1F
100
AcDbEntity
  8
INDUSA
  6
Continuous
100
AcDbPolyline
 90
        9
 70
   128
 43
0.0
 10
100.9879593949912
 20
152.0111346816579
 10
100.9880617238321
 20
152.0103256352258
 10
100.9881195264139
 20
152.0094700478616
 10
100.9881310257136
 20
152.0085942228556
 10
100.9880958682087
 20
152.0077250856652
 10
100.988015134745
 20
152.0068893561438
 10
100.9878913073088
 20
152.0061127270937
 10
100.9877281927223
 20
152.005419074394
 10
100.9875308056113
 20
152.0048297229846
  0
LINE
  5
E46
330
1F
100
AcDbEntity
  8
INDUSA
  6
Continuous
100
AcDbLine
 10
100.9875331310733
 20
152.0048259679979
 30
0.0
 11
100.9875308056113
 21
152.004829722985
 31
0.0
  0
LWPOLYLINE
  5
E47
330
1F
100
AcDbEntity
  8
INDUSA
  6
Continuous
100
AcDbPolyline
 90
        7
 70
   128
 43
0.0
 10
100.9845916583639
 20
152.027577260606
 10
100.9853192997308
 20
152.0276367867332
 10
100.9859998327114
 20
152.0276774145923
 10
100.9865761416273
 20
152.0276962187604
 10
100.9870683935449
 20
152.0276942616092
 10
100.9874777400108
 20
152.0276679628982
 10
100.9877552090971
 20
152.0276151947596
  0
LWPOLYLINE
  5
E48
330
1F
100
AcDbEntity
  8
INDUSA
  6
Continuous
100
AcDbPolyline
 90
        5
 70
   128
 43
0.0
 10
100.9919167976542
 20
152.0269108100478
 10
100.9909149285378
 20
152.0269547711327
 10
100.9898875080883
 20
152.0270866818423
 10
100.9888339837238
 20
152.0273068001911
 10
100.9877552090971
 20
152.0276151947596
  0
LINE
  5
E49
330
1F
100
AcDbEntity
  8
INDUSA
  6
Continuous
100
AcDbLine
 10
100.9875900229088
 20
152.0276466093137
 30
0.0
 11
100.9909192345698
 21
152.0273963718864
 31
0.0
  0
LWPOLYLINE
  5
E4A
330
1F
100
AcDbEntity
  8
INDUSA
  6
Continuous
100
AcDbPolyline
 90
        9
 70
   128
 43
0.0
 10
101.072593020118
 20
152.0147505330687
 10
101.0640708591789
 20
152.0121351459747
 10
101.0554907574132
 20
152.009949424013
 10
101.0468310653344
 20
152.0081659750162
 10
101.0380842820392
 20
152.0067672107666
 10
101.0263406622269
 20
152.0054790162917
 10
101.0144199320431
 20
152.0048095254019
 10
101.0023149434126
 20
152.0047335674262
 10
100.9900268194941
 20
152.0052292112468
  0
LINE
  5
E4B
330
1F
100
AcDbEntity
  8
INDUSA
  6
Continuous
100
AcDbLine
 10
101.0417815185582
 20
152.0269108100478
 30
0.0
 11
100.9919167976542
 21
152.0269108100478
 31
0.0
  0
LINE
  5
E4C
330
1F
100
AcDbEntity
  8
INDUSA
  6
Continuous
100
AcDbLine
 10
100.9697536240536
 20
152.0269108100478
 30
0.0
 11
100.7291740746804
 21
152.0269108100478
 31
0.0
  0
LWPOLYLINE
  5
E4D
330
1F
100
AcDbEntity
  8
INDUSA
  6
Continuous
100
AcDbPolyline
 90
       12
 70
   128
 43
0.0
 10
100.9875308056113
 20
152.0048297229846
 10
100.9647964125996
 20
152.0048406502833
 10
100.9418723797968
 20
152.004858132118
 10
100.9187859565894
 20
152.0048820865331
 10
100.8955507525989
 20
152.0049124367401
 10
100.8721807029709
 20
152.0049490768115
 10
100.8487035731326
 20
152.0049918810482
 10
100.8189589627674
 20
152.0050545176023
 10
100.7890848737899
 20
152.0051265855904
 10
100.7591377748705
 20
152.0052077551222
 10
100.7291741346799
 20
152.0052976963084
 10
100.7291740746804
 20
152.0052976964971
  0
LWPOLYLINE
  5
E4E
330
1F
100
AcDbEntity
  8
INDUSA
  6
Continuous
100
AcDbPolyline
 90
       10
 70
   128
 43
0.0
 10
100.7291740746804
 20
152.0379108100478
 10
100.7557973088425
 20
152.0378000683327
 10
100.782349662706
 20
152.0374700432089
 10
100.8088206149795
 20
152.0369241462708
 10
100.83520420811
 20
152.0361665014552
 10
100.8615001404336
 20
152.0352009153012
 10
100.8942144065753
 20
152.0337081379839
 10
100.9266707453229
 20
152.03190763771
 10
100.9588939246936
 20
152.0298035276869
 10
100.9869497720434
 20
152.0276947332381
  0
LWPOLYLINE
  5
E4F
330
1F
100
AcDbEntity
  8
INDUSA
  6
Continuous
100
AcDbPolyline
 90
        9
 70
   128
 43
0.0
 10
100.8875963831147
 20
151.8439108100478
 10
100.8878402302717
 20
151.843921030138
 10
100.8880824160018
 20
151.8439516207741
 10
100.8883212901988
 20
151.8440023735302
 10
100.8885552253188
 20
151.8440729426083
 10
100.8887826274698
 20
151.8441628471928
 10
100.8890019472716
 20
151.8442714747293
 10
100.889211690412
 20
151.8443980850948
 10
100.8894104278287
 20
151.8445418156439
  0
LINE
  5
E50
330
1F
100
AcDbEntity
  8
INDUSA
  6
Continuous
100
AcDbLine
 10
100.8875963831147
 20
151.8439108100478
 30
0.0
 11
100.8874315134525
 21
151.8439108100478
 31
0.0
  0
LWPOLYLINE
  5
E51
330
1F
100
AcDbEntity
  8
INDUSA
  6
Continuous
100
AcDbPolyline
 90
        9
 70
   128
 43
0.0
 10
100.8894104278287
 20
151.8445418156439
 10
100.8895052281087
 20
151.844612619489
 10
100.88959674572
 20
151.8446873755661
 10
100.8896848232781
 20
151.8447659553162
 10
100.8897693093146
 20
151.8448482236053
 10
100.8898500585379
 20
151.8449340389543
 10
100.8899269320824
 20
151.8450232537861
 10
100.889999797747
 20
151.845115714676
 10
100.8900685302241
 20
151.8452112626182
  0
LWPOLYLINE
  5
E52
330
1F
100
AcDbEntity
  8
INDUSA
  6
Continuous
100
AcDbPolyline
 90
        9
 70
   128
 43
0.0
 10
100.8378771506737
 20
151.8439108100478
 10
100.8379047056402
 20
151.8439146619489
 10
100.8379321898472
 20
151.8439262077599
 10
100.8379595327175
 20
151.8439454178328
 10
100.837986664036
 20
151.8439722428365
 10
100.8380135141316
 20
151.8440066138869
 10
100.8380400140546
 20
151.8440484427214
 10
100.8380660957554
 20
151.8440976219258
 10
100.8380916922577
 20
151.844154025211
  0
LWPOLYLINE
  5
E53
330
1F
100
AcDbEntity
  8
INDUSA
  6
Continuous
100
AcDbPolyline
 90
        9
 70
   128
 43
0.0
 10
100.620470998687
 20
151.8439108100478
 10
100.6204434437205
 20
151.8439146619489
 10
100.6204159595134
 20
151.8439262077599
 10
100.6203886166432
 20
151.8439454178328
 10
100.6203614853246
 20
151.8439722428365
 10
100.6203346352291
 20
151.8440066138869
 10
100.6203081353061
 20
151.8440484427214
 10
100.6202820536053
 20
151.8440976219258
 10
100.6202564571029
 20
151.844154025211
  0
LWPOLYLINE
  5
E54
330
1F
100
AcDbEntity
  8
INDUSA
  6
Continuous
100
AcDbPolyline
 90
       11
 70
   128
 43
0.0
 10
100.8380916922577
 20
151.844154025211
 10
100.8528814096524
 20
151.8581068836756
 10
100.8681334813515
 20
151.8728846263443
 10
100.8838329057045
 20
151.8885322754231
 10
100.8998501744471
 20
151.9049767695392
 10
100.9141493986795
 20
151.9200884056404
 10
100.9286077747384
 20
151.9358012926968
 10
100.9431834406067
 20
151.9521041647481
 10
100.9579248298061
 20
151.9690899366337
 10
100.972720168461
 20
151.9866669170642
 10
100.9875331310733
 20
152.0048259679979
  0
LWPOLYLINE
  5
E55
330
1F
100
AcDbEntity
  8
INDUSA
  6
Continuous
100
AcDbPolyline
 90
        9
 70
   128
 43
0.0
 10
100.8906202470945
 20
151.8457202467943
 10
100.9080542802888
 20
151.8596419862283
 10
100.9252517731646
 20
151.8738039397153
 10
100.9422335674363
 20
151.8882186149176
 10
100.9589739894464
 20
151.9028598992963
 10
100.9885294199274
 20
151.9297982541352
 10
101.0172883810284
 20
151.9574144432517
 10
101.045344173068
 20
151.9857756414285
 10
101.072593020118
 20
152.0147505330687
  0
LINE
  5
E56
330
1F
100
AcDbEntity
  8
INDUSA
  6
Continuous
100
AcDbLine
 10
100.4703887543695
 20
152.0111346816579
 30
0.0
 11
100.4737564909968
 21
152.027577260606
 31
0.0
  0
LWPOLYLINE
  5
E57
330
1F
100
AcDbEntity
  8
INDUSA
  6
Continuous
100
AcDbPolyline
 90
        5
 70
   128
 43
0.0
 10
100.4737564909968
 20
152.027577260606
 10
100.4774233990093
 20
152.0272848596928
 10
100.4811187862116
 20
152.0270767387824
 10
100.484845196689
 20
152.0269521678528
 10
100.4885945255961
 20
152.0269108119787
  0
LWPOLYLINE
  5
E58
330
1F
100
AcDbEntity
  8
INDUSA
  6
Continuous
100
AcDbPolyline
 90
        9
 70
   128
 43
0.0
 10
100.4703887543695
 20
152.0111346816579
 10
100.4702864255285
 20
152.0103256352258
 10
100.4702286229468
 20
152.0094700478616
 10
100.4702171236471
 20
152.0085942228556
 10
100.470252281152
 20
152.0077250856652
 10
100.4703330146156
 20
152.0068893561438
 10
100.4704568420519
 20
152.0061127270937
 10
100.4706199566384
 20
152.005419074394
 10
100.4708173437494
 20
152.0048297229846
  0
LINE
  5
E59
330
1F
100
AcDbEntity
  8
INDUSA
  6
Continuous
100
AcDbLine
 10
100.4708150182874
 20
152.0048259679979
 30
0.0
 11
100.4708173437494
 21
152.004829722985
 31
0.0
  0
LWPOLYLINE
  5
E5A
330
1F
100
AcDbEntity
  8
INDUSA
  6
Continuous
100
AcDbPolyline
 90
        7
 70
   128
 43
0.0
 10
100.4737564909968
 20
152.027577260606
 10
100.4730288496299
 20
152.0276367867332
 10
100.4723483166493
 20
152.0276774145923
 10
100.4717720077334
 20
152.0276962187604
 10
100.4712797558158
 20
152.0276942616092
 10
100.4708704093499
 20
152.0276679628982
 10
100.4705929402636
 20
152.0276151947596
  0
LINE
  5
E5B
330
1F
100
AcDbEntity
  8
INDUSA
  6
Continuous
100
AcDbLine
 10
100.4707581264516
 20
152.0276466093137
 30
0.0
 11
100.4674289147909
 21
152.0273963718864
 31
0.0
  0
LWPOLYLINE
  5
E5C
330
1F
100
AcDbEntity
  8
INDUSA
  6
Continuous
100
AcDbPolyline
 90
        5
 70
   128
 43
0.0
 10
100.4664313517065
 20
152.0269108100478
 10
100.4674332208229
 20
152.0269547711327
 10
100.4684606412723
 20
152.0270866818423
 10
100.4695141656369
 20
152.0273068001911
 10
100.4705929402636
 20
152.0276151947596
  0
LINE
  5
E5D
330
1F
100
AcDbEntity
  8
INDUSA
  6
Continuous
100
AcDbLine
 10
100.4674289147909
 20
152.0273963718864
 30
0.0
 11
100.461574305618
 21
152.0269108100478
 31
0.0
  0
LINE
  5
E5E
330
1F
100
AcDbEntity
  8
INDUSA
  6
Continuous
100
AcDbLine
 10
100.3845568488997
 20
152.0192233940629
 30
0.0
 11
100.386111098626
 21
152.0269108100478
 31
0.0
  0
LWPOLYLINE
  5
E5F
330
1F
100
AcDbEntity
  8
INDUSA
  6
Continuous
100
AcDbPolyline
 90
        9
 70
   128
 43
0.0
 10
100.3857551292427
 20
152.0147505330687
 10
100.3853769603926
 20
152.0152125742656
 10
100.3850570719656
 20
152.0157182571388
 10
100.3848001512486
 20
152.0162601719785
 10
100.3846099628693
 20
152.016830378172
 10
100.3844892936357
 20
152.0174205205567
 10
100.3844399116989
 20
152.0180219518474
 10
100.3844625406467
 20
152.0186258593439
 10
100.3845568488999
 20
152.0192233940629
  0
LINE
  5
E60
330
1F
100
AcDbEntity
  8
INDUSA
  6
Continuous
100
AcDbLine
 10
100.4165666308023
 20
152.0269108100478
 30
0.0
 11
100.386111098626
 21
152.0269108100478
 31
0.0
  0
LWPOLYLINE
  5
E61
330
1F
100
AcDbEntity
  8
INDUSA
  6
Continuous
100
AcDbPolyline
 90
        9
 70
   128
 43
0.0
 10
100.3857551292427
 20
152.0147505330687
 10
100.3942772901817
 20
152.0121351459747
 10
100.4028573919476
 20
152.009949424013
 10
100.4115170840263
 20
152.0081659750162
 10
100.4202638673215
 20
152.0067672107666
 10
100.4320074871337
 20
152.0054790162917
 10
100.4439282173176
 20
152.0048095254019
 10
100.456033205948
 20
152.0047335674262
 10
100.4683213298666
 20
152.0052292112468
  0
LINE
  5
E62
330
1F
100
AcDbEntity
  8
INDUSA
  6
Continuous
100
AcDbLine
 10
100.4165666308023
 20
152.0269108100478
 30
0.0
 11
100.4664313517063
 21
152.0269108100478
 31
0.0
  0
LINE
  5
E63
330
1F
100
AcDbEntity
  8
3
  6
Continuous
100
AcDbLine
 10
100.1441340492734
 20
152.0116449189781
 30
0.0
 11
100.1361249555333
 21
152.0269108100478
 31
0.0
  0
LWPOLYLINE
  5
E64
330
1F
100
AcDbEntity
  8
3
  6
Continuous
100
AcDbPolyline
 90
        4
 70
   128
 43
0.0
 10
100.1425892129099
 20
152.0052815512408
 10
100.1426737846101
 20
152.0052976963084
 10
100.1426737844784
 20
152.0052976964971
 10
100.1426737844784
 20
152.0052976964971
  0
LINE
  5
E65
330
1F
100
AcDbEntity
  8
3
  6
Continuous
100
AcDbLine
 10
100.1413540608015
 20
152.0043482589812
 30
0.0
 11
100.1426737844784
 21
152.0052976964976
 31
0.0
  0
LWPOLYLINE
  5
E66
330
1F
100
AcDbEntity
  8
3
  6
Continuous
100
AcDbPolyline
 90
        6
 70
   128
 43
0.0
 10
100.1426737844784
 20
152.0052976964971
 10
100.1438385606685
 20
152.0065067610357
 10
100.1445374704848
 20
152.0080332159968
 10
100.1446917209713
 20
152.0097049731043
 10
100.1442839159794
 20
152.0113335618407
 10
100.1441340492734
 20
152.0116449189781
  0
LWPOLYLINE
  5
E67
330
1F
100
AcDbEntity
  8
3
  6
Continuous
100
AcDbPolyline
 90
        4
 70
   128
 43
0.0
 10
100.1425898750332
 20
152.0052815472854
 10
100.1426737846101
 20
152.0052976963084
 10
100.1426737844784
 20
152.0052976964971
 10
100.1426737844784
 20
152.0052976964971
  0
LINE
  5
E68
330
1F
100
AcDbEntity
  8
3
  6
Continuous
100
AcDbLine
 10
100.0924105638179
 20
152.02761519476
 30
0.0
 11
100.1008392436121
 21
152.0102318407525
 31
0.0
  0
LINE
  5
E69
330
1F
100
AcDbEntity
  8
3
  6
Continuous
100
AcDbLine
 10
100.1008392436121
 20
152.0102318407525
 30
0.0
 11
100.1008333340968
 21
152.0102280956252
 31
0.0
  0
LWPOLYLINE
  5
E6A
330
1F
100
AcDbEntity
  8
3
  6
Continuous
100
AcDbPolyline
 90
        9
 70
   128
 43
0.0
 10
100.1006346836228
 20
152.0052292112468
 10
100.1007191053389
 20
152.005734505311
 10
100.1007882545985
 20
152.0062963308555
 10
100.1008408595327
 20
152.0069043541693
 10
100.1008759525738
 20
152.0075473918223
 10
100.1008928882526
 20
152.0082136163623
 10
100.1008913550691
 20
152.0088907738582
 10
100.1008713812235
 20
152.0095664092878
 10
100.1008333340968
 20
152.0102280956252
  0
LINE
  5
E6B
330
1F
100
AcDbEntity
  8
3
  6
Continuous
100
AcDbLine
 10
100.1027700134756
 20
152.0048259679979
 30
0.0
 11
100.1027759435191
 21
152.004829722985
 31
0.0
  0
LWPOLYLINE
  5
E6C
330
1F
100
AcDbEntity
  8
3
  6
Continuous
100
AcDbPolyline
 90
        7
 70
   128
 43
0.0
 10
100.0961320570997
 20
152.027577260606
 10
100.0957914632066
 20
152.0276367867332
 10
100.0953183465582
 20
152.0276774145923
 10
100.0947560819557
 20
152.0276962187604
 10
100.0940912744894
 20
152.0276942616092
 10
100.0932918177776
 20
152.0276679628982
 10
100.0924105638181
 20
152.0276151947596
  0
LWPOLYLINE
  5
E6D
330
1F
100
AcDbEntity
  8
3
  6
Continuous
100
AcDbPolyline
 90
        5
 70
   128
 43
0.0
 10
100.0961320570997
 20
152.027577260606
 10
100.0974499727527
 20
152.0272848596928
 10
100.0987115752817
 20
152.0270767387824
 10
100.0999178902171
 20
152.0269521678528
 10
100.1010664952811
 20
152.0269108119787
  0
LWPOLYLINE
  5
E6E
330
1F
100
AcDbEntity
  8
3
  6
Continuous
100
AcDbPolyline
 90
        5
 70
   128
 43
0.0
 10
100.0729398862021
 20
152.0269108100478
 10
100.0778153680888
 20
152.0269547711327
 10
100.0826856688285
 20
152.0270866818423
 10
100.0875524096162
 20
152.0273068001911
 10
100.0924105638181
 20
152.0276151947596
  0
LINE
  5
E6F
330
1F
100
AcDbEntity
  8
3
  6
Continuous
100
AcDbLine
 10
100.1010664962519
 20
152.0269108100478
 30
0.0
 11
100.1361249555333
 21
152.0269108100478
 31
0.0
  0
LWPOLYLINE
  5
E70
330
1F
100
AcDbEntity
  8
3
  6
Continuous
100
AcDbPolyline
 90
       12
 70
   128
 43
0.0
 10
100.1027759435191
 20
152.0048297229846
 10
100.109667839005
 20
152.0048406312244
 10
100.1128751459083
 20
152.0048485474467
 10
100.1159183862502
 20
152.0048580821658
 10
100.1215394366501
 20
152.0048820865331
 10
100.1264910298486
 20
152.0049124007078
 10
100.1307881163401
 20
152.0049489874714
 10
100.1344378513171
 20
152.0049918810482
 10
100.1380773860381
 20
152.0050543086617
 10
100.1406677840338
 20
152.0051261657431
 10
100.1421981729673
 20
152.005206900189
 10
100.1425892129099
 20
152.0052815512408
  0
LWPOLYLINE
  5
E71
330
1F
100
AcDbEntity
  8
INDUSA
  6
Continuous
100
AcDbPolyline
 90
        9
 70
   128
 43
0.0
 10
100.5707517662459
 20
151.8439108100478
 10
100.5705079190892
 20
151.843921030138
 10
100.5702657333589
 20
151.8439516207741
 10
100.5700268591618
 20
151.8440023735302
 10
100.5697929240419
 20
151.8440729426083
 10
100.5695655218909
 20
151.8441628471928
 10
100.5693462020891
 20
151.8442714747293
 10
100.5691364589487
 20
151.8443980850948
 10
100.568937721532
 20
151.8445418156439
  0
LINE
  5
E72
330
1F
100
AcDbEntity
  8
INDUSA
  6
Continuous
100
AcDbLine
 10
100.5707517662457
 20
151.8439108100478
 30
0.0
 11
100.5708888922621
 21
151.8439108100478
 31
0.0
  0
LWPOLYLINE
  5
E73
330
1F
100
AcDbEntity
  8
INDUSA
  6
Continuous
100
AcDbPolyline
 90
        9
 70
   128
 43
0.0
 10
100.568937721532
 20
151.8445418156439
 10
100.568842921252
 20
151.844612619489
 10
100.5687514036407
 20
151.8446873755661
 10
100.5686633260826
 20
151.8447659553162
 10
100.5685788400461
 20
151.8448482236053
 10
100.5684980908228
 20
151.8449340389543
 10
100.5684212172783
 20
151.8450232537861
 10
100.5683483516137
 20
151.845115714676
 10
100.5682796191366
 20
151.8452112626182
  0
LWPOLYLINE
  5
E74
330
1F
100
AcDbEntity
  8
INDUSA
  6
Continuous
100
AcDbPolyline
 90
        9
 70
   128
 43
0.0
 10
100.5677279022662
 20
151.8457202467943
 10
100.5502938690719
 20
151.8596419862283
 10
100.5330963761961
 20
151.8738039397153
 10
100.5161145819244
 20
151.8882186149176
 10
100.4993741599143
 20
151.9028598992963
 10
100.4698323459716
 20
151.9297854185402
 10
100.4410597683323
 20
151.9574144432517
 10
100.4130151215869
 20
151.9857638466123
 10
100.3857551292427
 20
152.0147505330687
  0
LINE
  5
E75
330
1F
100
AcDbEntity
  8
3
  6
Continuous
100
AcDbLine
 10
99.58926346446482
 20
152.0379108100483
 30
0.0
 11
99.60947938840821
 21
152.0379108100483
 31
0.0
  0
ARC
  5
E76
330
1F
100
AcDbEntity
  8
3
  6
Continuous
100
AcDbCircle
 10
99.58926346446482
 20
152.0349108100481
 30
0.0
 40
0.0030000000000001
100
AcDbArc
 50
90.0
 51
180.0
  0
LWPOLYLINE
  5
E77
330
1F
100
AcDbEntity
  8
3
  6
Continuous
100
AcDbPolyline
 90
        8
 70
   128
 43
0.0
 10
99.60947938840821
 20
152.0379108100478
 10
99.60993767331491
 20
152.0378000683327
 10
99.61128111132019
 20
152.0374700432089
 10
99.61346268089494
 20
152.0369241462708
 10
99.61643696741919
 20
152.0361665014552
 10
99.62015973293786
 20
152.0352009153012
 10
99.62579304923714
 20
152.0337081379839
 10
99.62662319106847
 20
152.0334823752441
  0
LINE
  5
E78
330
1F
100
AcDbEntity
  8
3
  6
Continuous
100
AcDbLine
 10
99.67733402163766
 20
152.0192233940629
 30
0.0
 11
99.67683269879751
 21
152.0269108100478
 31
0.0
  0
LWPOLYLINE
  5
E79
330
1F
100
AcDbEntity
  8
3
  6
Continuous
100
AcDbPolyline
 90
        9
 70
   128
 43
0.0
 10
99.67683321507628
 20
152.0147505330687
 10
99.67693235253399
 20
152.0152125742656
 10
99.67702333719319
 20
152.0157182571388
 10
99.67710483586655
 20
152.0162601719785
 10
99.67717565436386
 20
152.016830378172
 10
99.67723475499031
 20
152.0174205205567
 10
99.67728127175167
 20
152.0180219518474
 10
99.67731452304327
 20
152.0186258593439
 10
99.67733402163787
 20
152.0192233940629
  0
LWPOLYLINE
  5
E7A
330
1F
100
AcDbEntity
  8
3
  6
Continuous
100
AcDbPolyline
 90
        5
 70
   128
 43
0.0
 10
99.65334039947913
 20
152.0169648949513
 10
99.65362927334092
 20
152.0192359799766
 10
99.65370394302034
 20
152.0217518805107
 10
99.65355838390985
 20
152.024139174573
 10
99.65330279909393
 20
152.0258414325317
  0
LINE
  5
E7B
330
1F
100
AcDbEntity
  8
3
  6
Continuous
100
AcDbLine
 10
99.65424502103349
 20
152.0255393237657
 30
0.0
 11
99.65330279909393
 21
152.0258414325317
 31
0.0
  0
LWPOLYLINE
  5
E7C
330
1F
100
AcDbEntity
  8
3
  6
Continuous
100
AcDbPolyline
 90
        3
 70
   128
 43
0.0
 10
99.65424502103372
 20
152.0255393237657
 10
99.65427828191252
 20
152.0255321066711
 10
99.65431048020912
 20
152.0255316364341
  0
LWPOLYLINE
  5
E7D
330
1F
100
AcDbEntity
  8
3
  6
Continuous
100
AcDbPolyline
 90
        3
 70
   128
 43
0.0
 10
99.67105163331019
 20
152.0268117711193
 10
99.661311841989
 20
152.0260976116342
 10
99.65431048020912
 20
152.0255316364341
  0
LWPOLYLINE
  5
E7E
330
1F
100
AcDbEntity
  8
3
  6
Continuous
100
AcDbPolyline
 90
        3
 70
   128
 43
0.0
 10
99.64823791351898
 20
152.0273963718864
 10
99.65385647776395
 20
152.0257924030011
 10
99.65476826957218
 20
152.0255419385421
  0
LWPOLYLINE
  5
E7F
330
1F
100
AcDbEntity
  8
3
  6
Continuous
100
AcDbPolyline
 90
        5
 70
   128
 43
0.0
 10
99.65330279909393
 20
152.0258414325317
 10
99.65240704990481
 20
152.0260016490861
 10
99.65075224744044
 20
152.0261532562281
 10
99.64880452166575
 20
152.026282213772
 10
99.64879226557663
 20
152.0262829776375
  0
LWPOLYLINE
  5
E80
330
1F
100
AcDbEntity
  8
3
  6
Continuous
100
AcDbPolyline
 90
        6
 70
   128
 43
0.0
 10
99.67683269879774
 20
152.0269108100478
 10
99.67516975671117
 20
152.0269045955006
 10
99.67358389526351
 20
152.0268868054318
 10
99.67223499234036
 20
152.0268592831184
 10
99.67126961610359
 20
152.0268246213304
 10
99.67105163331019
 20
152.0268117711193
  0
LINE
  5
E81
330
1F
100
AcDbEntity
  8
3
  6
Continuous
100
AcDbLine
 10
99.58626346446488
 20
152.0232659777334
 30
0.0
 11
99.58626346446488
 21
152.020236600526
 31
0.0
  0
LWPOLYLINE
  5
E82
330
1F
100
AcDbEntity
  8
3
  6
Continuous
100
AcDbPolyline
 90
        9
 70
   128
 43
0.0
 10
99.58921479511662
 20
152.026253863371
 10
99.58863648463296
 20
152.0261882667068
 10
99.58808177504682
 20
152.0260126686694
 10
99.58757154684475
 20
152.0257336791555
 10
99.5871250061365
 20
152.0253617999419
 10
99.58675896169451
 20
152.0249110293789
 10
99.58648719223527
 20
152.0243983354608
 10
99.58631992775815
 20
152.0238430171116
 10
99.58626346446488
 20
152.023265977733
  0
LWPOLYLINE
  5
E83
330
1F
100
AcDbEntity
  8
3
  6
Continuous
100
AcDbPolyline
 90
        3
 70
   128
 43
0.0
 10
99.64879226557663
 20
152.0262829776375
 10
99.62429713562812
 20
152.0262709508028
 10
99.58921479511662
 20
152.026253863371
  0
LWPOLYLINE
  5
E84
330
1F
100
AcDbEntity
  8
3
  6
Continuous
100
AcDbPolyline
 90
        4
 70
   128
 43
0.0
 10
99.62662319106847
 20
152.0334823752441
 10
99.63241358633865
 20
152.03190763771
 10
99.63992601809298
 20
152.0298035276869
 10
99.64823791351898
 20
152.0273963718864
  0
LINE
  5
E85
330
1F
100
AcDbEntity
  8
3
  6
Continuous
100
AcDbLine
 10
99.58626346446488
 20
152.0349108100481
 30
0.0
 11
99.58626346446488
 21
152.0232659777334
 31
0.0
  0
LINE
  5
E86
330
1F
100
AcDbEntity
  8
3
  6
Continuous
100
AcDbLine
 10
99.8270271358
 20
152.0269108100478
 30
0.0
 11
99.67683269879751
 21
152.0269108100478
 31
0.0
  0
LWPOLYLINE
  5
E87
330
1F
100
AcDbEntity
  8
3
  6
Continuous
100
AcDbPolyline
 90
       10
 70
   128
 43
0.0
 10
99.6335173357221
 20
151.8457202467943
 10
99.6331309225833
 20
151.8456035167701
 10
99.6327977815323
 20
151.8455897730514
 10
99.63247605672847
 20
151.8456622783546
 10
99.63211743664089
 20
151.8458573304369
 10
99.63165105389874
 20
151.8463314766805
 10
99.63083889815095
 20
151.8480798886035
 10
99.63015358567202
 20
151.852013498396
 10
99.6301086182806
 20
151.8559997435868
 10
99.63073796668879
 20
151.8632461965544
  0
LWPOLYLINE
  5
E88
330
1F
100
AcDbEntity
  8
3
  6
Continuous
100
AcDbPolyline
 90
        4
 70
   128
 43
0.0
 10
99.6335173357221
 20
151.8457202467943
 10
99.63350394836391
 20
151.8457129119065
 10
99.6326446820932
 20
151.8454059952009
 10
99.63156846606977
 20
151.8452891148958
  0
ARC
  5
E89
330
1F
100
AcDbEntity
  8
3
  6
Continuous
100
AcDbCircle
 10
99.58926346446482
 20
151.846910810048
 30
0.0
 40
0.0030000000000001
100
AcDbArc
 50
180.0
 51
270.0
  0
ARC
  5
E8A
330
1F
100
AcDbEntity
  8
3
  6
Continuous
100
AcDbCircle
 10
99.58943823198445
 20
151.8419184605982
 30
0.0
 40
0.0020000000000002
100
AcDbArc
 50
95.01311375503062
 51
180.0
  0
LWPOLYLINE
  5
E8B
330
1F
100
AcDbEntity
  8
3
  6
Continuous
100
AcDbPolyline
 90
       21
 70
   128
 43
0.0
 10
99.62432631463128
 20
151.7789042901654
 10
99.62426962933921
 20
151.7780550908996
 10
99.6237076871397
 20
151.7763100605984
 10
99.62259590365409
 20
151.7748397158566
 10
99.62104991907597
 20
151.7738147504669
 10
99.61924300475823
 20
151.7733615876891
 10
99.6173875445703
 20
151.773537936438
 10
99.61570287651751
 20
151.7743200400564
 10
99.61438094928702
 20
151.7756091575465
 10
99.61356298212548
 20
151.7772527368893
 10
99.61334851006393
 20
151.7783577488735
 10
99.61349472583572
 20
151.7801974630733
 10
99.61423810195867
 20
151.7818804379462
 10
99.61550038754161
 20
151.7832280257307
 10
99.61714819415476
 20
151.7840851021019
 10
99.61899399403945
 20
151.7843444374716
 10
99.62081948817001
 20
151.7839727055766
 10
99.62240983877189
 20
151.7830185212915
 10
99.62358677645092
 20
151.7816006352859
 10
99.62422768778573
 20
151.7798836690503
 10
99.62432631463128
 20
151.7789042901654
  0
LWPOLYLINE
  5
E8C
330
1F
100
AcDbEntity
  8
3
  6
Continuous
100
AcDbPolyline
 90
        9
 70
   128
 43
0.0
 10
99.6335173357221
 20
151.8457202467943
 10
99.63623174046631
 20
151.8596419862283
 10
99.63920099688051
 20
151.8738039397153
 10
99.64241835690302
 20
151.8882186149176
 10
99.64586930062218
 20
151.9028598992963
 10
99.65264259384515
 20
151.9297854185402
 10
99.66009082443576
 20
151.9574144432517
 10
99.66817570633351
 20
151.9857638466123
 10
99.67683321507628
 20
152.0147505330687
  0
LWPOLYLINE
  5
E8D
330
1F
100
AcDbEntity
  8
3
  6
Continuous
100
AcDbPolyline
 90
        5
 70
   128
 43
0.0
 10
99.63073796668879
 20
151.8632461965544
 10
99.63537280928916
 20
151.9018185893478
 10
99.64066946676883
 20
151.9403191137648
 10
99.6466515889805
 20
151.9787188934087
 10
99.65334039947913
 20
152.0169648949513
  0
LINE
  5
E8E
330
1F
100
AcDbEntity
  8
3
  6
Continuous
100
AcDbLine
 10
99.58626346446488
 20
152.020236600526
 30
0.0
 11
99.58626346446488
 21
151.846910810048
 31
0.0
  0
LWPOLYLINE
  5
E8F
330
1F
100
AcDbEntity
  8
3
  6
Continuous
100
AcDbPolyline
 90
       18
 70
   128
 43
0.0
 10
99.87111999631146
 20
151.8461016993633
 10
99.87335398630364
 20
151.8471095018362
 10
99.88136975354985
 20
151.8507731332443
 10
99.89033702208587
 20
151.8549349438058
 10
99.90005133438252
 20
151.8595223504066
 10
99.91027443015845
 20
151.864441784854
 10
99.92077085373274
 20
151.8695934126426
 10
99.93134296686742
 20
151.874887605783
 10
99.94989691028207
 20
151.8844402980462
 10
99.96846324786464
 20
151.8943400710691
 10
99.98697939398278
 20
151.9045602290225
 10
100.0053834255499
 20
151.9150693073802
 10
100.0296417078599
 20
151.9294679091595
 10
100.0534509067362
 20
151.9442199790737
 10
100.0767626746111
 20
151.9592760171845
 10
100.0996461737505
 20
151.9746619003877
 10
100.1221742403582
 20
151.990413681844
 10
100.142606317458
 20
152.0052580520119
  0
LINE
  5
E90
330
1F
100
AcDbEntity
  8
3
  6
Continuous
100
AcDbLine
 10
99.8270271358
 20
152.0269108100478
 30
0.0
 11
100.0729398862021
 21
152.0269108100478
 31
0.0
  0
LWPOLYLINE
  5
E91
330
1F
100
AcDbEntity
  8
3
  6
Continuous
100
AcDbPolyline
 90
        9
 70
   128
 43
0.0
 10
99.67683321507628
 20
152.0147505330687
 10
99.7223826727037
 20
152.0121351459747
 10
99.76794398134883
 20
152.009949424013
 10
99.81352303470556
 20
152.0081659750162
 10
99.85909892919096
 20
152.0067672107666
 10
99.91951107272383
 20
152.0054790162917
 10
99.97990549843246
 20
152.0048095254019
 10
100.0402865596378
 20
152.0047335674262
 10
100.1006346836228
 20
152.0052292112468
  0
LWPOLYLINE
  5
E92
330
1F
100
AcDbEntity
  8
3
  6
Continuous
100
AcDbPolyline
 90
       11
 70
   128
 43
0.0
 10
100.100634683623
 20
152.0052292112468
 10
100.0799906865862
 20
151.9873496449076
 10
100.0588560878394
 20
151.9700324450273
 10
100.0372399096512
 20
151.9532861897151
 10
100.0151398467843
 20
151.9371122531838
 10
99.9925532433382
 20
151.921514245967
 10
99.96948680532307
 20
151.9065027524293
 10
99.94199511097589
 20
151.8897561959115
 10
99.91384269540901
 20
151.8738253063702
 10
99.88491189553599
 20
151.8586682066511
 10
99.85437177866163
 20
151.843914508911
  0
LINE
  5
E93
330
1F
100
AcDbEntity
  8
INDUSA
  6
Continuous
100
AcDbLine
 10
100.4885945253069
 20
152.0269108100478
 30
0.0
 11
100.7291740746804
 21
152.0269108100478
 31
0.0
  0
LWPOLYLINE
  5
E94
330
1F
100
AcDbEntity
  8
INDUSA
  6
Continuous
100
AcDbPolyline
 90
       13
 70
   128
 43
0.0
 10
100.4708173437494
 20
152.0048297229846
 10
100.4935290456466
 20
152.0048406312244
 10
100.5049609922761
 20
152.0048485474467
 10
100.5164255538451
 20
152.0048580821658
 10
100.5395621927713
 20
152.0048820865331
 10
100.5627742694922
 20
152.0049124007078
 10
100.5861163642986
 20
152.0049489874714
 10
100.6096445762281
 20
152.0049918810482
 10
100.6393045601836
 20
152.0050543086617
 10
100.6691121521843
 20
152.0051261657431
 10
100.6989177834292
 20
152.005206900189
 10
100.7291740146808
 20
152.0052976963084
 10
100.7291740746804
 20
152.0052976964971
  0
LWPOLYLINE
  5
E95
330
1F
100
AcDbEntity
  8
INDUSA
  6
Continuous
100
AcDbPolyline
 90
       11
 70
   128
 43
0.0
 10
100.6202564571029
 20
151.844154025211
 10
100.6054667397082
 20
151.8581068836756
 10
100.5902146680092
 20
151.8728846263443
 10
100.5745152436562
 20
151.8885322754231
 10
100.5584979749136
 20
151.9049767695392
 10
100.5441987506811
 20
151.9200884056404
 10
100.5297403746223
 20
151.9358012926968
 10
100.515164708754
 20
151.9521041647481
 10
100.5004233195546
 20
151.9690899366337
 10
100.4856279808997
 20
151.9866669170642
 10
100.4708150182874
 20
152.0048259679979
  0
LWPOLYLINE
  5
E96
330
1F
100
AcDbEntity
  8
INDUSA
  6
Continuous
100
AcDbPolyline
 90
       10
 70
   128
 43
0.0
 10
100.7291740746804
 20
152.0379108100478
 10
100.7025508405182
 20
152.0378000683327
 10
100.6759984866547
 20
152.0374700432089
 10
100.6495275343812
 20
152.0369241462708
 10
100.6231439412507
 20
152.0361665014552
 10
100.5968480089271
 20
152.0352009153012
 10
100.5641337427854
 20
152.0337081379839
 10
100.5316774040378
 20
152.03190763771
 10
100.4994542246671
 20
152.0298035276869
 10
100.4713983773173
 20
152.0276947332381
  0
LWPOLYLINE
  5
E97
330
1F
100
AcDbEntity
  8
INDUSA
  6
Continuous
100
AcDbPolyline
 90
        7
 70
   128
 43
0.0
 10
100.8266185355841
 20
151.5712416890505
 10
100.8269009193124
 20
151.5713881162892
 10
100.8271897111636
 20
151.5716141176126
 10
100.8274299664839
 20
151.5718937861811
 10
100.8276129496674
 20
151.572216953336
 10
100.827732007505
 20
151.572571868825
 10
100.8277828110919
 20
151.5729456280346
  0
LWPOLYLINE
  5
E98
330
1F
100
AcDbEntity
  8
INDUSA
  6
Continuous
100
AcDbPolyline
 90
        5
 70
   128
 43
0.0
 10
100.8109382785293
 20
151.5696257605877
 10
100.7847382279555
 20
151.5692799050575
 10
100.7584269605248
 20
151.5690659874185
 10
100.7438095781777
 20
151.5690045928254
 10
100.7291740746801
 20
151.5689841330891
  0
LWPOLYLINE
  5
E99
330
1F
100
AcDbEntity
  8
INDUSA
  6
Continuous
100
AcDbPolyline
 90
        7
 70
   128
 43
0.0
 10
100.631730012221
 20
151.5712415244966
 10
100.6314472300879
 20
151.5713881162878
 10
100.6311584382366
 20
151.5716141176112
 10
100.6309181829166
 20
151.5718937861797
 10
100.630735199733
 20
151.5722169533351
 10
100.6306161418955
 20
151.5725718688236
 10
100.6305653383084
 20
151.5729456280332
  0
LWPOLYLINE
  5
E9A
330
1F
100
AcDbEntity
  8
INDUSA
  6
Continuous
100
AcDbPolyline
 90
        5
 70
   128
 43
0.0
 10
100.647409870873
 20
151.5696257605868
 10
100.6736099214475
 20
151.5692799050566
 10
100.6999211888784
 20
151.5690659874185
 10
100.7145385712255
 20
151.5690045928254
 10
100.7291740747231
 20
151.5689841330891
  0
LWPOLYLINE
  5
E9B
330
1F
100
AcDbEntity
  8
INDUSA
  6
Continuous
100
AcDbPolyline
 90
       10
 70
   128
 43
0.0
 10
100.8266093099884
 20
151.5712427938333
 10
100.827436419985
 20
151.5715807021124
 10
100.8336024175608
 20
151.5742056380541
 10
100.8398235365129
 20
151.5769920459188
 10
100.8456931666566
 20
151.579770582166
 10
100.8512136630901
 20
151.582541713496
 10
100.8563879140823
 20
151.5853063368517
 10
100.8612182767798
 20
151.5880652448527
 10
100.8657084171392
 20
151.5908202206142
 10
100.8675883315869
 20
151.5920536417288
  0
LWPOLYLINE
  5
E9C
330
1F
100
AcDbEntity
  8
3
  6
Continuous
100
AcDbPolyline
 90
        6
 70
   128
 43
0.0
 10
99.85037625675239
 20
151.5689841330891
 10
99.85104674841194
 20
151.5690216909379
 10
99.85166701178957
 20
151.5692790680932
 10
99.8521671168943
 20
151.5697272472334
 10
99.8524906806689
 20
151.57031569956
 10
99.85259548632519
 20
151.5708199108444
  0
LWPOLYLINE
  5
E9D
330
1F
100
AcDbEntity
  8
3
  6
Continuous
100
AcDbPolyline
 90
        9
 70
   128
 43
0.0
 10
99.83166117441498
 20
151.5711028216565
 10
99.83176433864095
 20
151.571127734614
 10
99.83187193197739
 20
151.571223999545
 10
99.83198004236545
 20
151.5713881162878
 10
99.83208473894627
 20
151.5716141176112
 10
99.83218221498635
 20
151.5718937861797
 10
99.83226892628829
 20
151.5722169533351
 10
99.83234172005712
 20
151.5725718688236
 10
99.83239794953499
 20
151.5729456280332
  0
LINE
  5
E9E
330
1F
100
AcDbEntity
  8
3
  6
Continuous
100
AcDbLine
 10
99.83166117441498
 20
151.5711028216565
 30
0.0
 11
99.84470854719427
 21
151.5696257605868
 31
0.0
  0
LINE
  5
E9F
330
1F
100
AcDbEntity
  8
3
  6
Continuous
100
AcDbLine
 10
99.84470854719427
 20
151.5696257605868
 30
0.0
 11
99.85037625675239
 21
151.5689841330891
 31
0.0
  0
LWPOLYLINE
  5
EA0
330
1F
100
AcDbEntity
  8
3
  6
Continuous
100
AcDbPolyline
 90
        3
 70
   128
 43
0.0
 10
99.85259548632519
 20
151.5708199108444
 10
99.85470521773061
 20
151.5988794633413
 10
99.85571890305857
 20
151.6126756029289
  0
LINE
  5
EA1
330
1F
100
AcDbEntity
  8
3
  6
Continuous
100
AcDbLine
 10
99.64493075460735
 20
151.5922421144651
 30
0.0
 11
99.6493412704582
 21
151.5917428107836
 31
0.0
  0
LWPOLYLINE
  5
EA2
330
1F
100
AcDbEntity
  8
3
  6
Continuous
100
AcDbPolyline
 90
        9
 70
   128
 43
0.0
 10
99.64493075460735
 20
151.5922421144651
 10
99.64490678414847
 20
151.5922789354386
 10
99.64489125076704
 20
151.5923818600176
 10
99.64488468090246
 20
151.5925474000005
 10
99.6448872972136
 20
151.5927699450949
 10
99.64489901103105
 20
151.5930419530573
 10
99.64491942536358
 20
151.5933542053049
 10
99.64494784835199
 20
151.5936961193415
 10
99.64498331671677
 20
151.594056107408
  0
ARC
  5
EA3
330
1F
100
AcDbEntity
  8
3
  6
Continuous
100
AcDbCircle
 10
99.58943823198195
 20
151.6005370619855
 30
0.0
 40
0.0020000000000001
100
AcDbArc
 50
180.0
 51
263.5411836212803
  0
LINE
  5
EA4
330
1F
100
AcDbEntity
  8
3
  6
Continuous
100
AcDbLine
 10
99.58921325395124
 20
151.5985497560486
 30
0.0
 11
99.64493075460735
 21
151.5922421144651
 31
0.0
  0
LINE
  5
EA5
330
1F
100
AcDbEntity
  8
3
  6
Continuous
100
AcDbLine
 10
99.6493412704582
 20
151.5917428107836
 30
0.0
 11
99.83166117441498
 21
151.5711028216565
 31
0.0
  0
LWPOLYLINE
  5
EA6
330
1F
100
AcDbEntity
  8
INDUSA
  6
Continuous
100
AcDbPolyline
 90
       10
 70
   128
 43
0.0
 10
100.5907594266874
 20
151.5920540318607
 10
100.5928090859539
 20
151.5907124613736
 10
100.5973407819252
 20
151.5879406744048
 10
100.6021284227141
 20
151.5852135819041
 10
100.6072499112455
 20
151.5824820064322
 10
100.6127063046712
 20
151.5797455819529
 10
100.6185007534501
 20
151.5770030291701
 10
100.6246349815118
 20
151.5742539665066
 10
100.6311119383555
 20
151.5714975266805
 10
100.6317363618935
 20
151.5712425447359
  0
LWPOLYLINE
  5
EA7
330
1F
100
AcDbEntity
  8
3
  6
Continuous
100
AcDbPolyline
 90
       10
 70
   128
 43
0.0
 10
99.85507572638482
 20
151.6039321171565
 10
99.85663514698865
 20
151.6251312252989
 10
99.85860077990572
 20
151.6525368048055
 10
99.86053681013311
 20
151.6802516309049
 10
99.86245749378817
 20
151.7084601557417
 10
99.86434138776633
 20
151.7368144915431
 10
99.86647856362095
 20
151.7698902169832
 10
99.8685037030274
 20
151.8023114723328
 10
99.87046428941528
 20
151.8348393294755
 10
99.87111999631167
 20
151.8461016993665
  0
LINE
  5
EA8
330
1F
100
AcDbEntity
  8
3
  6
Continuous
100
AcDbLine
 10
99.58743823198449
 20
151.8419184605982
 30
0.0
 11
99.58743823198176
 21
151.6005370619855
 31
0.0
  0
LWPOLYLINE
  5
EA9
330
1F
100
AcDbEntity
  8
3
  6
Continuous
100
AcDbPolyline
 90
        7
 70
   128
 43
0.0
 10
99.85413780636111
 20
151.8439108100478
 10
99.8531987828602
 20
151.8306423901708
 10
99.849179674815
 20
151.7762206684365
 10
99.8449612896851
 20
151.7218231731553
 10
99.84054583113755
 20
151.6674514610458
 10
99.83593258396821
 20
151.6131086623418
 10
99.83239794953499
 20
151.5729456280332
  0
LWPOLYLINE
  5
EAA
330
1F
100
AcDbEntity
  8
3
  6
Continuous
100
AcDbPolyline
 90
        6
 70
   128
 43
0.0
 10
99.64463904927937
 20
151.8439307006692
 10
99.64464121765661
 20
151.842400970801
 10
99.64472662684364
 20
151.781700740622
 10
99.64481091612686
 20
151.7210236248229
 10
99.64489793501469
 20
151.6575246781926
 10
99.64498331671677
 20
151.594056107408
  0
LWPOLYLINE
  5
EAB
330
1F
100
AcDbEntity
  8
INDUSA
  6
Continuous
100
AcDbPolyline
 90
        7
 70
   128
 43
0.0
 10
100.5708888922621
 20
151.8439108100478
 10
100.5709857889036
 20
151.8423088421386
 10
100.5744284178307
 20
151.7892621622218
 10
100.5783793247254
 20
151.7331537028967
 10
100.5826154308023
 20
151.6775237416468
 10
100.5871514752854
 20
151.6220845313687
 10
100.5896093079335
 20
151.5938773734292
  0
LWPOLYLINE
  5
EAC
330
1F
100
AcDbEntity
  8
INDUSA
  6
Continuous
100
AcDbPolyline
 90
        7
 70
   128
 43
0.0
 10
100.868763668342
 20
151.5938752350153
 10
100.869067524084
 20
151.5972892319441
 10
100.8735413218641
 20
151.6502644833285
 10
100.8779653989553
 20
151.7063222571728
 10
100.8820377859284
 20
151.7619665414254
 10
100.8857851054371
 20
151.8174643923316
 10
100.8874315134527
 20
151.8439108100478
  0
LWPOLYLINE
  5
EAD
330
1F
100
AcDbEntity
  8
INDUSA
  6
Continuous
100
AcDbPolyline
 90
        7
 70
   128
 43
0.0
 10
100.6204540828959
 20
151.8439108100478
 10
100.6207616835357
 20
151.8306423901708
 10
100.6222677973582
 20
151.7762206684365
 10
100.6240743146444
 20
151.7218231731553
 10
100.6261820583166
 20
151.6674514610458
 10
100.6285904334899
 20
151.6131086623418
 10
100.6305653383084
 20
151.5729456280332
  0
LWPOLYLINE
  5
EAE
330
1F
100
AcDbEntity
  8
INDUSA
  6
Continuous
100
AcDbPolyline
 90
        7
 70
   128
 43
0.0
 10
100.8378940665046
 20
151.8439108100478
 10
100.837586465865
 20
151.8306423901722
 10
100.8360803520423
 20
151.7762206684379
 10
100.8342738347561
 20
151.7218231731567
 10
100.8321660910838
 20
151.6674514610467
 10
100.8297577159106
 20
151.6131086623431
 10
100.8277828110919
 20
151.5729456280346
  0
ENDSEC
  0
SECTION
  2
OBJECTS
  0
DICTIONARY
  5
C
330
0
100
AcDbDictionary
281
     1
  3
ACAD_COLOR
350
EE0
  3
ACAD_GROUP
350
D
  3
ACAD_LAYOUT
350
1A
  3
ACAD_MATERIAL
350
EB3
  3
ACAD_MLEADERSTYLE
350
EF5
  3
ACAD_MLINESTYLE
350
17
  3
ACAD_PLOTSETTINGS
350
19
  3
ACAD_PLOTSTYLENAME
350
E
  3
ACAD_SCALELIST
350
EE3
  3
ACAD_TABLESTYLE
350
EE1
  3
ACAD_VISUALSTYLE
350
ECC
  3
ACDB_RECOMPOSE_DATA
350
F21
  3
AcDbVariableDictionary
350
3D
  3
ASE_INDEX_DICTIONARY
350
EAF
  3
DWGPROPS
350
F22
  0
DICTIONARY
  5
EFB
330
10
100
AcDbDictionary
280
     1
281
     1
  3
ADSK_XREC_LAYER_RECONCILED
360
EFC
  0
DICTIONARY
  5
EFD
330
2F
100
AcDbDictionary
280
     1
281
     1
  3
ADSK_XREC_LAYER_RECONCILED
360
EFE
  0
DICTIONARY
  5
EFF
330
30
100
AcDbDictionary
280
     1
281
     1
  3
ADSK_XREC_LAYER_RECONCILED
360
F00
  0
DICTIONARY
  5
F01
330
31
100
AcDbDictionary
280
     1
281
     1
  3
ADSK_XREC_LAYER_RECONCILED
360
F02
  0
DICTIONARY
  5
F03
330
32
100
AcDbDictionary
280
     1
281
     1
  3
ADSK_XREC_LAYER_RECONCILED
360
F04
  0
DICTIONARY
  5
F05
330
33
100
AcDbDictionary
280
     1
281
     1
  3
ADSK_XREC_LAYER_RECONCILED
360
F06
  0
DICTIONARY
  5
F07
330
34
100
AcDbDictionary
280
     1
281
     1
  3
ADSK_XREC_LAYER_RECONCILED
360
F08
  0
DICTIONARY
  5
F09
330
35
100
AcDbDictionary
280
     1
281
     1
  3
ADSK_XREC_LAYER_RECONCILED
360
F0A
  0
DICTIONARY
  5
F0B
330
36
100
AcDbDictionary
280
     1
281
     1
  3
ADSK_XREC_LAYER_RECONCILED
360
F0C
  0
DICTIONARY
  5
F0D
330
37
100
AcDbDictionary
280
     1
281
     1
  3
ADSK_XREC_LAYER_RECONCILED
360
F0E
  0
DICTIONARY
  5
F0F
330
5D6
100
AcDbDictionary
280
     1
281
     1
  3
ADSK_XREC_LAYER_RECONCILED
360
F10
  0
DICTIONARY
  5
F11
330
8AF
100
AcDbDictionary
280
     1
281
     1
  3
ADSK_XREC_LAYER_RECONCILED
360
F12
  0
DICTIONARY
  5
F13
330
8F8
100
AcDbDictionary
280
     1
281
     1
  3
ADSK_XREC_LAYER_RECONCILED
360
F14
  0
DICTIONARY
  5
F15
330
91D
100
AcDbDictionary
280
     1
281
     1
  3
ADSK_XREC_LAYER_RECONCILED
360
F16
  0
DICTIONARY
  5
F17
330
BA5
100
AcDbDictionary
280
     1
281
     1
  3
ADSK_XREC_LAYER_RECONCILED
360
F18
  0
DICTIONARY
  5
EE0
102
{ACAD_REACTORS
330
C
102
}
330
C
100
AcDbDictionary
281
     1
  0
DICTIONARY
  5
D
102
{ACAD_REACTORS
330
C
102
}
330
C
100
AcDbDictionary
281
     1
  0
DICTIONARY
  5
1A
102
{ACAD_REACTORS
330
C
102
}
330
C
100
AcDbDictionary
281
     1
  3
Layout1
350
1E
  3
Layout2
350
26
  3
Model
350
22
  0
DICTIONARY
  5
EB3
102
{ACAD_REACTORS
330
C
102
}
330
C
100
AcDbDictionary
281
     1
  3
ByBlock
350
EBC
  3
ByLayer
350
EB4
  3
Global
350
EC4
  0
DICTIONARY
  5
EF5
102
{ACAD_REACTORS
330
C
102
}
330
C
100
AcDbDictionary
281
     1
  3
Standard
350
EF6
  0
DICTIONARY
  5
17
102
{ACAD_REACTORS
330
C
102
}
330
C
100
AcDbDictionary
281
     1
  3
Standard
350
18
  0
DICTIONARY
  5
19
102
{ACAD_REACTORS
330
C
102
}
330
C
100
AcDbDictionary
281
     1
  0
ACDBDICTIONARYWDFLT
  5
E
102
{ACAD_REACTORS
330
C
102
}
330
C
100
AcDbDictionary
281
     1
  3
Normal
350
F
100
AcDbDictionaryWithDefault
340
F
  0
DICTIONARY
  5
EE3
102
{ACAD_REACTORS
330
C
102
}
330
C
100
AcDbDictionary
281
     1
  3
A0
350
EE4
  3
A1
350
EE5
  3
A2
350
EE6
  3
A3
350
EE7
  3
A4
350
EE8
  3
A5
350
EE9
  3
A6
350
EEA
  3
A7
350
EEB
  3
A8
350
EEC
  3
A9
350
EED
  3
B0
350
EEE
  3
B1
350
EEF
  3
B2
350
EF0
  3
B3
350
EF1
  3
B4
350
EF2
  3
B5
350
EF3
  3
B6
350
EF4
  0
DICTIONARY
  5
EE1
102
{ACAD_REACTORS
330
C
102
}
330
C
100
AcDbDictionary
281
     1
  3
Standard
350
EE2
  0
DICTIONARY
  5
ECC
102
{ACAD_REACTORS
330
C
102
}
330
C
100
AcDbDictionary
281
     1
  3
2dWireframe
350
ED2
  3
3D Hidden
350
ED4
  3
3dWireframe
350
ED3
  3
Basic
350
ED1
  3
Brighten
350
ED8
  3
ColorChange
350
EDC
  3
Conceptual
350
ED5
  3
Dim
350
ED7
  3
EdgeColorOff
350
EDF
  3
Facepattern
350
EDB
  3
Flat
350
ECD
  3
FlatWithEdges
350
ECE
  3
Gouraud
350
ECF
  3
GouraudWithEdges
350
ED0
  3
JitterOff
350
EDD
  3
Linepattern
350
EDA
  3
OverhangOff
350
EDE
  3
Realistic
350
ED6
  3
Thicken
350
ED9
  0
XRECORD
  5
F21
102
{ACAD_REACTORS
330
C
102
}
330
C
100
AcDbXrecord
280
     1
 90
        1
330
EE2
  0
DICTIONARY
  5
3D
102
{ACAD_REACTORS
330
C
102
}
330
C
100
AcDbDictionary
281
     1
  3
CANNOSCALE
350
F1B
  3
CMLEADERSTYLE
350
F1A
  3
CTABLESTYLE
350
F19
  3
DIMASSOC
350
3F
  3
HIDETEXT
350
3E
  3
INDEXCTL
350
F1D
  3
SORTENTS
350
F1C
  3
XCLIPFRAME
350
F1E
  0
DICTIONARY
  5
EAF
102
{ACAD_REACTORS
330
C
102
}
330
C
100
AcDbDictionary
281
     1
  3
ASEBlockHierarchyIndexRecord
350
EB0
1001
DCO15
1040
1757669014.437
  0
XRECORD
  5
F22
102
{ACAD_REACTORS
330
C
102
}
330
C
100
AcDbXrecord
280
     1
  1
DWGPROPS COOKIE
  2

  3

  4

  6

  7

  8
Julio
  9

300
=
301
=
302
=
303
=
304
=
305
=
306
=
307
=
308
=
309
=
 40
0.00045375
 41
2453480.698496991
 42
2456146.60322265
  1

 90
        0
  0
XRECORD
  5
EFC
102
{ACAD_REACTORS
330
EFB
102
}
330
EFB
100
AcDbXrecord
280
     1
290
     1
  0
XRECORD
  5
EFE
102
{ACAD_REACTORS
330
EFD
102
}
330
EFD
100
AcDbXrecord
280
     1
290
     1
  0
XRECORD
  5
F00
102
{ACAD_REACTORS
330
EFF
102
}
330
EFF
100
AcDbXrecord
280
     1
290
     1
  0
XRECORD
  5
F02
102
{ACAD_REACTORS
330
F01
102
}
330
F01
100
AcDbXrecord
280
     1
290
     1
  0
XRECORD
  5
F04
102
{ACAD_REACTORS
330
F03
102
}
330
F03
100
AcDbXrecord
280
     1
290
     1
  0
XRECORD
  5
F06
102
{ACAD_REACTORS
330
F05
102
}
330
F05
100
AcDbXrecord
280
     1
290
     1
  0
XRECORD
  5
F08
102
{ACAD_REACTORS
330
F07
102
}
330
F07
100
AcDbXrecord
280
     1
290
     1
  0
XRECORD
  5
F0A
102
{ACAD_REACTORS
330
F09
102
}
330
F09
100
AcDbXrecord
280
     1
290
     1
  0
XRECORD
  5
F0C
102
{ACAD_REACTORS
330
F0B
102
}
330
F0B
100
AcDbXrecord
280
     1
290
     1
  0
XRECORD
  5
F0E
102
{ACAD_REACTORS
330
F0D
102
}
330
F0D
100
AcDbXrecord
280
     1
290
     1
  0
XRECORD
  5
F10
102
{ACAD_REACTORS
330
F0F
102
}
330
F0F
100
AcDbXrecord
280
     1
290
     1
  0
XRECORD
  5
F12
102
{ACAD_REACTORS
330
F11
102
}
330
F11
100
AcDbXrecord
280
     1
290
     1
  0
XRECORD
  5
F14
102
{ACAD_REACTORS
330
F13
102
}
330
F13
100
AcDbXrecord
280
     1
290
     1
  0
XRECORD
  5
F16
102
{ACAD_REACTORS
330
F15
102
}
330
F15
100
AcDbXrecord
280
     1
290
     1
  0
XRECORD
  5
F18
102
{ACAD_REACTORS
330
F17
102
}
330
F17
100
AcDbXrecord
280
     1
290
     1
  0
LAYOUT
  5
1E
102
{ACAD_XDICTIONARY
360
F23
102
}
102
{ACAD_REACTORS
330
1A
102
}
330
1A
100
AcDbPlotSettings
  1

  2
Ploter HP500
  4

  6

 40
0.0
 41
0.0
 42
0.0
 43
0.0
 44
0.0
 45
0.0
 46
0.0
 47
0.0
 48
0.0
 49
0.0
140
0.0
141
0.0
142
1.0
143
1.0
 70
   688
 72
     0
 73
     0
 74
     5
  7
monochrome.ctb
 75
    16
147
1.0
148
0.0
149
0.0
100
AcDbLayout
  1
Layout1
 70
     1
 71
     1
 10
0.0
 20
0.0
 11
420.0
 21
297.0
 12
0.0
 22
0.0
 32
0.0
 14
1.000000000000000E+20
 24
1.000000000000000E+20
 34
1.000000000000000E+20
 15
-1.000000000000000E+20
 25
-1.000000000000000E+20
 35
-1.000000000000000E+20
146
0.0
 13
0.0
 23
0.0
 33
0.0
 16
1.0
 26
0.0
 36
0.0
 17
0.0
 27
1.0
 37
0.0
 76
     0
330
1B
  0
LAYOUT
  5
26
102
{ACAD_XDICTIONARY
360
F27
102
}
102
{ACAD_REACTORS
330
1A
102
}
330
1A
100
AcDbPlotSettings
  1

  2
Ploter HP500
  4

  6

 40
0.0
 41
0.0
 42
0.0
 43
0.0
 44
0.0
 45
0.0
 46
0.0
 47
0.0
 48
0.0
 49
0.0
140
0.0
141
0.0
142
1.0
143
1.0
 70
   688
 72
     0
 73
     0
 74
     5
  7
monochrome.ctb
 75
    16
147
1.0
148
0.0
149
0.0
100
AcDbLayout
  1
Layout2
 70
     1
 71
     2
 10
0.0
 20
0.0
 11
12.0
 21
9.0
 12
0.0
 22
0.0
 32
0.0
 14
0.0
 24
0.0
 34
0.0
 15
0.0
 25
0.0
 35
0.0
146
0.0
 13
0.0
 23
0.0
 33
0.0
 16
1.0
 26
0.0
 36
0.0
 17
0.0
 27
1.0
 37
0.0
 76
     0
330
23
  0
LAYOUT
  5
22
102
{ACAD_XDICTIONARY
360
F25
102
}
102
{ACAD_REACTORS
330
1A
102
}
330
1A
100
AcDbPlotSettings
  1

  2
Ploter HP500
  4
User268
  6

 40
4.995333194732666
 41
16.97565841674804
 42
4.995330810546875
 43
16.97567749023437
 44
209.9733276367187
 45
296.9259948730469
 46
0.0
 47
0.0
 48
0.0
 49
0.0
140
0.0
141
0.0
142
1.0
143
1.0
 70
 11952
 72
     1
 73
     1
 74
     0
  7

 75
     0
147
1.0
148
-427.5957866592534
149
7.362384574453926
100
AcDbLayout
  1
Model
 70
     1
 71
     0
 10
0.0
 20
0.0
 11
12.0
 21
9.0
 12
0.0
 22
0.0
 32
0.0
 14
0.0
 24
0.0
 34
0.0
 15
0.0
 25
0.0
 35
0.0
146
0.0
 13
0.0
 23
0.0
 33
0.0
 16
1.0
 26
0.0
 36
0.0
 17
0.0
 27
1.0
 37
0.0
 76
     0
330
1F
331
EB1
  0
MATERIAL
  5
EBC
102
{ACAD_XDICTIONARY
360
EBD
102
}
102
{ACAD_REACTORS
330
EB3
102
}
330
EB3
100
AcDbMaterial
  1
ByBlock
 72
     0
 43
0.0008202099737533
 43
0.0
 43
0.0
 43
0.0
 43
0.0
 43
0.0008202099737533
 43
0.0
 43
0.0
 43
0.0
 43
0.0
 43
1.0
 43
0.0
 43
0.0
 43
0.0
 43
0.0
 43
1.0
 77
     0
 47
0.0008202099737533
 47
0.0
 47
0.0
 47
0.0
 47
0.0
 47
0.0008202099737533
 47
0.0
 47
0.0
 47
0.0
 47
0.0
 47
1.0
 47
0.0
 47
0.0
 47
0.0
 47
0.0
 47
1.0
171
     0
 49
0.0008202099737533
 49
0.0
 49
0.0
 49
0.0
 49
0.0
 49
0.0008202099737533
 49
0.0
 49
0.0
 49
0.0
 49
0.0
 49
1.0
 49
0.0
 49
0.0
 49
0.0
 49
0.0
 49
1.0
175
     0
142
0.0008202099737533
142
0.0
142
0.0
142
0.0
142
0.0
142
0.0008202099737533
142
0.0
142
0.0
142
0.0
142
0.0
142
1.0
142
0.0
142
0.0
142
0.0
142
0.0
142
1.0
179
     0
144
0.0008202099737533
144
0.0
144
0.0
144
0.0
144
0.0
144
0.0008202099737533
144
0.0
144
0.0
144
0.0
144
0.0
144
1.0
144
0.0
144
0.0
144
0.0
144
0.0
144
1.0
147
0.0008202099737533
147
0.0
147
0.0
147
0.0
147
0.0
147
0.0008202099737533
147
0.0
147
0.0
147
0.0
147
0.0
147
1.0
147
0.0
147
0.0
147
0.0
147
0.0
147
1.0
  0
MATERIAL
  5
EB4
102
{ACAD_XDICTIONARY
360
EB5
102
}
102
{ACAD_REACTORS
330
EB3
102
}
330
EB3
100
AcDbMaterial
  1
ByLayer
 72
     0
 43
0.0008202099737533
 43
0.0
 43
0.0
 43
0.0
 43
0.0
 43
0.0008202099737533
 43
0.0
 43
0.0
 43
0.0
 43
0.0
 43
1.0
 43
0.0
 43
0.0
 43
0.0
 43
0.0
 43
1.0
 77
     0
 47
0.0008202099737533
 47
0.0
 47
0.0
 47
0.0
 47
0.0
 47
0.0008202099737533
 47
0.0
 47
0.0
 47
0.0
 47
0.0
 47
1.0
 47
0.0
 47
0.0
 47
0.0
 47
0.0
 47
1.0
171
     0
 49
0.0008202099737533
 49
0.0
 49
0.0
 49
0.0
 49
0.0
 49
0.0008202099737533
 49
0.0
 49
0.0
 49
0.0
 49
0.0
 49
1.0
 49
0.0
 49
0.0
 49
0.0
 49
0.0
 49
1.0
175
     0
142
0.0008202099737533
142
0.0
142
0.0
142
0.0
142
0.0
142
0.0008202099737533
142
0.0
142
0.0
142
0.0
142
0.0
142
1.0
142
0.0
142
0.0
142
0.0
142
0.0
142
1.0
179
     0
144
0.0008202099737533
144
0.0
144
0.0
144
0.0
144
0.0
144
0.0008202099737533
144
0.0
144
0.0
144
0.0
144
0.0
144
1.0
144
0.0
144
0.0
144
0.0
144
0.0
144
1.0
147
0.0008202099737533
147
0.0
147
0.0
147
0.0
147
0.0
147
0.0008202099737533
147
0.0
147
0.0
147
0.0
147
0.0
147
1.0
147
0.0
147
0.0
147
0.0
147
0.0
147
1.0
  0
MATERIAL
  5
EC4
102
{ACAD_XDICTIONARY
360
EC5
102
}
102
{ACAD_REACTORS
330
EB3
102
}
330
EB3
100
AcDbMaterial
  1
Global
 72
     0
 43
0.0008202099737533
 43
0.0
 43
0.0
 43
0.0
 43
0.0
 43
0.0008202099737533
 43
0.0
 43
0.0
 43
0.0
 43
0.0
 43
1.0
 43
0.0
 43
0.0
 43
0.0
 43
0.0
 43
1.0
 77
     0
 47
0.0008202099737533
 47
0.0
 47
0.0
 47
0.0
 47
0.0
 47
0.0008202099737533
 47
0.0
 47
0.0
 47
0.0
 47
0.0
 47
1.0
 47
0.0
 47
0.0
 47
0.0
 47
0.0
 47
1.0
171
     0
 49
0.0008202099737533
 49
0.0
 49
0.0
 49
0.0
 49
0.0
 49
0.0008202099737533
 49
0.0
 49
0.0
 49
0.0
 49
0.0
 49
1.0
 49
0.0
 49
0.0
 49
0.0
 49
0.0
 49
1.0
175
     0
142
0.0008202099737533
142
0.0
142
0.0
142
0.0
142
0.0
142
0.0008202099737533
142
0.0
142
0.0
142
0.0
142
0.0
142
1.0
142
0.0
142
0.0
142
0.0
142
0.0
142
1.0
179
     0
144
0.0008202099737533
144
0.0
144
0.0
144
0.0
144
0.0
144
0.0008202099737533
144
0.0
144
0.0
144
0.0
144
0.0
144
1.0
144
0.0
144
0.0
144
0.0
144
0.0
144
1.0
147
0.0008202099737533
147
0.0
147
0.0
147
0.0
147
0.0
147
0.0008202099737533
147
0.0
147
0.0
147
0.0
147
0.0
147
1.0
147
0.0
147
0.0
147
0.0
147
0.0
147
1.0
  0
MLEADERSTYLE
  5
EF6
102
{ACAD_REACTORS
330
EF5
102
}
330
EF5
100
AcDbMLeaderStyle
170
     2
171
     1
172
     0
 90
        2
 40
0.0
 41
0.0
173
     1
 91
-1056964608
340
14
 92
       -2
290
     1
 42
2.0
291
     1
 43
0.36
  3
Standard
 44
4.0
300

342
11
174
     1
178
     6
175
     1
176
     0
 93
-1056964608
 45
4.0
292
     0
297
     0
 46
4.0
 94
-1056964608
 47
1.0
 49
1.0
140
1.0
293
     1
141
0.0
294
     1
177
     0
142
1.0
295
     0
296
     0
143
0.125
1001
ACAD_MLEADERVER
1070
     2
  0
MLINESTYLE
  5
18
102
{ACAD_REACTORS
330
17
102
}
330
17
100
AcDbMlineStyle
  2
STANDARD
 70
     0
  3

 62
   256
 51
90.0
 52
90.0
 71
     2
 49
0.5
 62
   256
  6
BYLAYER
 49
-0.5
 62
   256
  6
BYLAYER
  0
ACDBPLACEHOLDER
  5
F
102
{ACAD_REACTORS
330
E
102
}
330
E
  0
SCALE
  5
EE4
102
{ACAD_REACTORS
330
EE3
102
}
330
EE3
100
AcDbScale
 70
     0
300
1:1
140
1.0
141
1.0
290
     1
  0
SCALE
  5
EE5
102
{ACAD_REACTORS
330
EE3
102
}
330
EE3
100
AcDbScale
 70
     0
300
1:2
140
1.0
141
2.0
290
     0
  0
SCALE
  5
EE6
102
{ACAD_REACTORS
330
EE3
102
}
330
EE3
100
AcDbScale
 70
     0
300
1:4
140
1.0
141
4.0
290
     0
  0
SCALE
  5
EE7
102
{ACAD_REACTORS
330
EE3
102
}
330
EE3
100
AcDbScale
 70
     0
300
1:5
140
1.0
141
5.0
290
     0
  0
SCALE
  5
EE8
102
{ACAD_REACTORS
330
EE3
102
}
330
EE3
100
AcDbScale
 70
     0
300
1:8
140
1.0
141
8.0
290
     0
  0
SCALE
  5
EE9
102
{ACAD_REACTORS
330
EE3
102
}
330
EE3
100
AcDbScale
 70
     0
300
1:10
140
1.0
141
10.0
290
     0
  0
SCALE
  5
EEA
102
{ACAD_REACTORS
330
EE3
102
}
330
EE3
100
AcDbScale
 70
     0
300
1:16
140
1.0
141
16.0
290
     0
  0
SCALE
  5
EEB
102
{ACAD_REACTORS
330
EE3
102
}
330
EE3
100
AcDbScale
 70
     0
300
1:20
140
1.0
141
20.0
290
     0
  0
SCALE
  5
EEC
102
{ACAD_REACTORS
330
EE3
102
}
330
EE3
100
AcDbScale
 70
     0
300
1:30
140
1.0
141
30.0
290
     0
  0
SCALE
  5
EED
102
{ACAD_REACTORS
330
EE3
102
}
330
EE3
100
AcDbScale
 70
     0
300
1:40
140
1.0
141
40.0
290
     0
  0
SCALE
  5
EEE
102
{ACAD_REACTORS
330
EE3
102
}
330
EE3
100
AcDbScale
 70
     0
300
1:50
140
1.0
141
50.0
290
     0
  0
SCALE
  5
EEF
102
{ACAD_REACTORS
330
EE3
102
}
330
EE3
100
AcDbScale
 70
     0
300
1:100
140
1.0
141
100.0
290
     0
  0
SCALE
  5
EF0
102
{ACAD_REACTORS
330
EE3
102
}
330
EE3
100
AcDbScale
 70
     0
300
2:1
140
2.0
141
1.0
290
     0
  0
SCALE
  5
EF1
102
{ACAD_REACTORS
330
EE3
102
}
330
EE3
100
AcDbScale
 70
     0
300
4:1
140
4.0
141
1.0
290
     0
  0
SCALE
  5
EF2
102
{ACAD_REACTORS
330
EE3
102
}
330
EE3
100
AcDbScale
 70
     0
300
8:1
140
8.0
141
1.0
290
     0
  0
SCALE
  5
EF3
102
{ACAD_REACTORS
330
EE3
102
}
330
EE3
100
AcDbScale
 70
     0
300
10:1
140
10.0
141
1.0
290
     0
  0
SCALE
  5
EF4
102
{ACAD_REACTORS
330
EE3
102
}
330
EE3
100
AcDbScale
 70
     0
300
100:1
140
100.0
141
1.0
290
     0
  0
TABLESTYLE
  5
EE2
102
{ACAD_XDICTIONARY
360
F1F
102
}
102
{ACAD_REACTORS
330
EE1
102
}
330
EE1
100
AcDbTableStyle
  3
Standard
 70
     0
 71
     0
 40
1.5
 41
1.5
280
     0
281
     0
  7
Standard
140
4.5
170
     2
 62
     0
 63
     7
283
     0
274
    -2
284
     1
 64
     0
275
    -2
285
     1
 65
     0
276
    -2
286
     1
 66
     0
277
    -2
287
     1
 67
     0
278
    -2
288
     1
 68
     0
279
    -2
289
     1
 69
     0
  7
Standard
140
6.0
170
     5
 62
     0
 63
     7
283
     0
274
    -2
284
     1
 64
     0
275
    -2
285
     1
 65
     0
276
    -2
286
     1
 66
     0
277
    -2
287
     1
 67
     0
278
    -2
288
     1
 68
     0
279
    -2
289
     1
 69
     0
  7
Standard
140
4.5
170
     5
 62
     0
 63
     7
283
     0
274
    -2
284
     1
 64
     0
275
    -2
285
     1
 65
     0
276
    -2
286
     1
 66
     0
277
    -2
287
     1
 67
     0
278
    -2
288
     1
 68
     0
279
    -2
289
     1
 69
     0
  0
VISUALSTYLE
  5
ED2
102
{ACAD_XDICTIONARY
360
F36
102
}
102
{ACAD_REACTORS
330
ECC
102
}
330
ECC
100
AcDbVisualStyle
  2
2dWireframe
 70
     4
 71
     0
 72
     2
 73
     0
 90
        0
 40
-0.6
 41
-30.0
 62
     5
 63
     7
 74
     1
 91
        4
 64
     7
 65
   257
 75
     1
175
     1
 42
1.0
 92
        0
 66
   257
 43
1.0
 76
     1
 77
     6
 78
     2
 67
     7
 79
     5
170
     0
171
     0
290
     0
174
     0
 93
        1
 44
0.0
173
     0
291
     0
 45
0.0
1001
ACAD
1000
AcDbSavedByObjectVersion
1070
     0
  0
VISUALSTYLE
  5
ED4
102
{ACAD_XDICTIONARY
360
F3A
102
}
102
{ACAD_REACTORS
330
ECC
102
}
330
ECC
100
AcDbVisualStyle
  2
3D Hidden
 70
     6
 71
     1
 72
     2
 73
     2
 90
        0
 40
-0.6
 41
-30.0
 62
     5
 63
     7
 74
     2
 91
        2
 64
     7
 65
   257
 75
     2
175
     1
 42
179.0
 92
        0
 66
   257
 43
1.0
 76
     1
 77
     6
 78
     2
 67
     7
 79
     3
170
     0
171
     0
290
     0
174
     0
 93
        1
 44
0.0
173
     0
291
     0
 45
0.0
1001
ACAD
1000
AcDbSavedByObjectVersion
1070
     0
  0
VISUALSTYLE
  5
ED3
102
{ACAD_XDICTIONARY
360
F38
102
}
102
{ACAD_REACTORS
330
ECC
102
}
330
ECC
100
AcDbVisualStyle
  2
3dWireframe
 70
     5
 71
     0
 72
     2
 73
     0
 90
        0
 40
-0.6
 41
-30.0
 62
     5
 63
     7
 74
     1
 91
        4
 64
     7
 65
   257
 75
     1
175
     1
 42
1.0
 92
        0
 66
   257
 43
1.0
 76
     1
 77
     6
 78
     2
 67
     7
 79
     5
170
     0
171
     0
290
     0
174
     0
 93
        1
 44
0.0
173
     0
291
     0
 45
0.0
1001
ACAD
1000
AcDbSavedByObjectVersion
1070
     0
  0
VISUALSTYLE
  5
ED1
102
{ACAD_XDICTIONARY
360
F34
102
}
102
{ACAD_REACTORS
330
ECC
102
}
330
ECC
100
AcDbVisualStyle
  2
Basic
 70
     7
 71
     1
 72
     0
 73
     1
 90
        0
 40
-0.6
 41
-30.0
 62
     5
 63
     7
 74
     0
 91
        4
 64
     7
 65
   257
 75
     1
175
     1
 42
1.0
 92
        8
 66
     7
 43
1.0
 76
     1
 77
     6
 78
     2
 67
     7
 79
     5
170
     0
171
     0
290
     0
174
     0
 93
        1
 44
0.0
173
     0
291
     1
 45
0.0
1001
ACAD
1000
AcDbSavedByObjectVersion
1070
     0
  0
VISUALSTYLE
  5
ED8
102
{ACAD_XDICTIONARY
360
F42
102
}
102
{ACAD_REACTORS
330
ECC
102
}
330
ECC
100
AcDbVisualStyle
  2
Brighten
 70
    12
 71
     2
 72
     2
 73
     0
 90
        0
 40
-0.6
 41
-30.0
 62
     5
 63
     7
 74
     1
 91
        4
 64
     7
 65
   257
 75
     1
175
     1
 42
1.0
 92
        8
 66
     7
 43
1.0
 76
     1
 77
     6
 78
     2
 67
     7
 79
     5
170
     0
171
     0
290
     0
174
     0
 93
        1
 44
50.0
173
     0
291
     1
 45
0.0
1001
ACAD
1000
AcDbSavedByObjectVersion
1070
     0
  0
VISUALSTYLE
  5
EDC
102
{ACAD_XDICTIONARY
360
F4A
102
}
102
{ACAD_REACTORS
330
ECC
102
}
330
ECC
100
AcDbVisualStyle
  2
ColorChange
 70
    16
 71
     2
 72
     2
 73
     3
 90
        0
 40
-0.6
 41
-30.0
 62
     5
 63
     8
 74
     1
 91
        4
 64
     7
 65
   257
 75
     1
175
     1
 42
1.0
 92
        8
 66
     8
 43
1.0
 76
     1
 77
     6
 78
     2
 67
     7
 79
     5
170
     0
171
     0
290
     0
174
     0
 93
        1
 44
0.0
173
     0
291
     1
 45
0.0
1001
ACAD
1000
AcDbSavedByObjectVersion
1070
     0
  0
VISUALSTYLE
  5
ED5
102
{ACAD_XDICTIONARY
360
F3C
102
}
102
{ACAD_REACTORS
330
ECC
102
}
330
ECC
100
AcDbVisualStyle
  2
Conceptual
 70
     9
 71
     3
 72
     2
 73
     0
 90
        0
 40
-0.6
 41
-30.0
 62
     5
 63
     7
 74
     2
 91
        2
 64
     7
 65
   257
 75
     1
175
     1
 42
179.0
 92
        8
 66
     7
 43
1.0
 76
     1
 77
     6
 78
     2
 67
     7
 79
     3
170
     0
171
     0
290
     0
174
     0
 93
        1
 44
0.0
173
     0
291
     0
 45
0.0
1001
ACAD
1000
AcDbSavedByObjectVersion
1070
     0
  0
VISUALSTYLE
  5
ED7
102
{ACAD_XDICTIONARY
360
F40
102
}
102
{ACAD_REACTORS
330
ECC
102
}
330
ECC
100
AcDbVisualStyle
  2
Dim
 70
    11
 71
     2
 72
     2
 73
     0
 90
        0
 40
-0.6
 41
-30.0
 62
     5
 63
     7
 74
     1
 91
        4
 64
     7
 65
   257
 75
     1
175
     1
 42
1.0
 92
        8
 66
     7
 43
1.0
 76
     1
 77
     6
 78
     2
 67
     7
 79
     5
170
     0
171
     0
290
     0
174
     0
 93
        1
 44
-50.0
173
     0
291
     1
 45
0.0
1001
ACAD
1000
AcDbSavedByObjectVersion
1070
     0
  0
VISUALSTYLE
  5
EDF
102
{ACAD_XDICTIONARY
360
F50
102
}
102
{ACAD_REACTORS
330
ECC
102
}
330
ECC
100
AcDbVisualStyle
  2
EdgeColorOff
 70
    22
 71
     2
 72
     2
 73
     0
 90
        0
 40
-0.6
 41
-30.0
 62
     5
 63
     7
 74
     1
 91
        4
 64
     7
 65
   257
 75
     1
175
     1
 42
1.0
 92
        8
 66
     7
 43
1.0
 76
     1
 77
     6
 78
     2
 67
     7
 79
     5
170
     0
171
     0
290
     0
174
     0
 93
        1
 44
0.0
173
     0
291
     1
 45
0.0
1001
ACAD
1000
AcDbSavedByObjectVersion
1070
     0
  0
VISUALSTYLE
  5
EDB
102
{ACAD_XDICTIONARY
360
F48
102
}
102
{ACAD_REACTORS
330
ECC
102
}
330
ECC
100
AcDbVisualStyle
  2
Facepattern
 70
    15
 71
     2
 72
     2
 73
     0
 90
        0
 40
-0.6
 41
-30.0
 62
     5
 63
     7
 74
     1
 91
        4
 64
     7
 65
   257
 75
     1
175
     1
 42
1.0
 92
        8
 66
     7
 43
1.0
 76
     1
 77
     6
 78
     2
 67
     7
 79
     5
170
     0
171
     0
290
     0
174
     0
 93
        1
 44
0.0
173
     0
291
     1
 45
0.0
1001
ACAD
1000
AcDbSavedByObjectVersion
1070
     0
  0
VISUALSTYLE
  5
ECD
102
{ACAD_XDICTIONARY
360
F2C
102
}
102
{ACAD_REACTORS
330
ECC
102
}
330
ECC
100
AcDbVisualStyle
  2
Flat
 70
     0
 71
     2
 72
     1
 73
     1
 90
        2
 40
-0.6
 41
30.0
 62
     5
 63
     7
 74
     0
 91
        4
 64
     7
 65
   257
 75
     1
175
     1
 42
1.0
 92
        8
 66
     7
 43
1.0
 76
     1
 77
     6
 78
     2
 67
     7
 79
     5
170
     0
171
     0
290
     0
174
     0
 93
       13
 44
0.0
173
     0
291
     1
 45
0.0
1001
ACAD
1000
AcDbSavedByObjectVersion
1070
     0
  0
VISUALSTYLE
  5
ECE
102
{ACAD_XDICTIONARY
360
F2E
102
}
102
{ACAD_REACTORS
330
ECC
102
}
330
ECC
100
AcDbVisualStyle
  2
FlatWithEdges
 70
     1
 71
     2
 72
     1
 73
     1
 90
        2
 40
-0.6
 41
30.0
 62
     5
 63
     7
 74
     1
 91
        4
 64
     7
 65
   257
 75
     1
175
     1
 42
1.0
 92
        0
 66
   257
 43
1.0
 76
     1
 77
     6
 78
     2
 67
     7
 79
     5
170
     0
171
     0
290
     0
174
     0
 93
       13
 44
0.0
173
     0
291
     1
 45
0.0
1001
ACAD
1000
AcDbSavedByObjectVersion
1070
     0
  0
VISUALSTYLE
  5
ECF
102
{ACAD_XDICTIONARY
360
F30
102
}
102
{ACAD_REACTORS
330
ECC
102
}
330
ECC
100
AcDbVisualStyle
  2
Gouraud
 70
     2
 71
     2
 72
     2
 73
     1
 90
        2
 40
-0.6
 41
30.0
 62
     5
 63
     7
 74
     0
 91
        4
 64
     7
 65
   257
 75
     1
175
     1
 42
1.0
 92
        0
 66
     7
 43
1.0
 76
     1
 77
     6
 78
     2
 67
     7
 79
     5
170
     0
171
     0
290
     0
174
     0
 93
       13
 44
0.0
173
     0
291
     1
 45
0.0
1001
ACAD
1000
AcDbSavedByObjectVersion
1070
     0
  0
VISUALSTYLE
  5
ED0
102
{ACAD_XDICTIONARY
360
F32
102
}
102
{ACAD_REACTORS
330
ECC
102
}
330
ECC
100
AcDbVisualStyle
  2
GouraudWithEdges
 70
     3
 71
     2
 72
     2
 73
     1
 90
        2
 40
-0.6
 41
30.0
 62
     5
 63
     7
 74
     1
 91
        4
 64
     7
 65
   257
 75
     1
175
     1
 42
1.0
 92
        0
 66
   257
 43
1.0
 76
     1
 77
     6
 78
     2
 67
     7
 79
     5
170
     0
171
     0
290
     0
174
     0
 93
       13
 44
0.0
173
     0
291
     1
 45
0.0
1001
ACAD
1000
AcDbSavedByObjectVersion
1070
     0
  0
VISUALSTYLE
  5
EDD
102
{ACAD_XDICTIONARY
360
F4C
102
}
102
{ACAD_REACTORS
330
ECC
102
}
330
ECC
100
AcDbVisualStyle
  2
JitterOff
 70
    20
 71
     2
 72
     2
 73
     0
 90
        0
 40
-0.6
 41
-30.0
 62
     5
 63
     7
 74
     1
 91
        4
 64
     7
 65
   257
 75
     1
175
     1
 42
1.0
 92
       10
 66
     7
 43
1.0
 76
     1
 77
     6
 78
     2
 67
     7
 79
     5
170
     0
171
     0
290
     0
174
     0
 93
        1
 44
0.0
173
     0
291
     1
 45
0.0
1001
ACAD
1000
AcDbSavedByObjectVersion
1070
     0
  0
VISUALSTYLE
  5
EDA
102
{ACAD_XDICTIONARY
360
F46
102
}
102
{ACAD_REACTORS
330
ECC
102
}
330
ECC
100
AcDbVisualStyle
  2
Linepattern
 70
    14
 71
     2
 72
     2
 73
     0
 90
        0
 40
-0.6
 41
-30.0
 62
     5
 63
     7
 74
     1
 91
        4
 64
     7
 65
   257
 75
     7
175
     7
 42
1.0
 92
        8
 66
     7
 43
1.0
 76
     1
 77
     6
 78
     2
 67
     7
 79
     5
170
     0
171
     0
290
     0
174
     0
 93
        1
 44
0.0
173
     0
291
     1
 45
0.0
1001
ACAD
1000
AcDbSavedByObjectVersion
1070
     0
  0
VISUALSTYLE
  5
EDE
102
{ACAD_XDICTIONARY
360
F4E
102
}
102
{ACAD_REACTORS
330
ECC
102
}
330
ECC
100
AcDbVisualStyle
  2
OverhangOff
 70
    21
 71
     2
 72
     2
 73
     0
 90
        0
 40
-0.6
 41
-30.0
 62
     5
 63
     7
 74
     1
 91
        4
 64
     7
 65
   257
 75
     1
175
     1
 42
1.0
 92
        9
 66
     7
 43
1.0
 76
     1
 77
     6
 78
     2
 67
     7
 79
     5
170
     0
171
     0
290
     0
174
     0
 93
        1
 44
0.0
173
     0
291
     1
 45
0.0
1001
ACAD
1000
AcDbSavedByObjectVersion
1070
     0
  0
VISUALSTYLE
  5
ED6
102
{ACAD_XDICTIONARY
360
F3E
102
}
102
{ACAD_REACTORS
330
ECC
102
}
330
ECC
100
AcDbVisualStyle
  2
Realistic
 70
     8
 71
     2
 72
     2
 73
     0
 90
        0
 40
-0.6
 41
-30.0
 62
     5
 63
     7
 74
     1
 91
        0
 64
     7
 65
   257
 75
     1
175
     1
 42
1.0
 92
        8
 66
     8
 43
1.0
 76
     1
 77
     6
 78
     2
 67
     7
 79
     5
170
     0
171
     0
290
     0
174
     0
 93
       13
 44
0.0
173
     0
291
     0
 45
0.0
1001
ACAD
1000
AcDbSavedByObjectVersion
1070
     0
  0
VISUALSTYLE
  5
ED9
102
{ACAD_XDICTIONARY
360
F44
102
}
102
{ACAD_REACTORS
330
ECC
102
}
330
ECC
100
AcDbVisualStyle
  2
Thicken
 70
    13
 71
     2
 72
     2
 73
     0
 90
        0
 40
-0.6
 41
-30.0
 62
     5
 63
     7
 74
     1
 91
        4
 64
     7
 65
   257
 75
     1
175
     1
 42
1.0
 92
       12
 66
     7
 43
1.0
 76
     1
 77
     6
 78
     2
 67
     7
 79
     5
170
     0
171
     0
290
     0
174
     0
 93
        1
 44
0.0
173
     0
291
     1
 45
0.0
1001
ACAD
1000
AcDbSavedByObjectVersion
1070
     0
  0
DICTIONARYVAR
  5
F1B
102
{ACAD_REACTORS
330
3D
102
}
330
3D
100
DictionaryVariables
280
     0
  1
1:1
  0
DICTIONARYVAR
  5
F1A
102
{ACAD_REACTORS
330
3D
102
}
330
3D
100
DictionaryVariables
280
     0
  1
STANDARD
  0
DICTIONARYVAR
  5
F19
102
{ACAD_REACTORS
330
3D
102
}
330
3D
100
DictionaryVariables
280
     0
  1
STANDARD
  0
DICTIONARYVAR
  5
3F
102
{ACAD_REACTORS
330
3D
102
}
330
3D
100
DictionaryVariables
280
     0
  1
2
  0
DICTIONARYVAR
  5
3E
102
{ACAD_REACTORS
330
3D
102
}
330
3D
100
DictionaryVariables
280
     0
  1
1
  0
DICTIONARYVAR
  5
F1D
102
{ACAD_REACTORS
330
3D
102
}
330
3D
100
DictionaryVariables
280
     0
  1
0
  0
DICTIONARYVAR
  5
F1C
102
{ACAD_REACTORS
330
3D
102
}
330
3D
100
DictionaryVariables
280
     0
  1
127
  0
DICTIONARYVAR
  5
F1E
102
{ACAD_REACTORS
330
3D
102
}
330
3D
100
DictionaryVariables
280
     0
  1
2
  0
XRECORD
  5
EB0
102
{ACAD_REACTORS
330
EAF
102
}
330
EAF
100
AcDbXrecord
280
     1
  0
DICTIONARY
  5
F23
330
1E
100
AcDbDictionary
280
     1
281
     1
  3
ACAD_XREC_ROUNDTRIP
360
F24
  0
DICTIONARY
  5
F27
330
26
100
AcDbDictionary
280
     1
281
     1
  3
ACAD_XREC_ROUNDTRIP
360
F28
  0
DICTIONARY
  5
F25
330
22
100
AcDbDictionary
280
     1
281
     1
  3
ACAD_XREC_ROUNDTRIP
360
F26
  0
DICTIONARY
  5
EBD
330
EBC
100
AcDbDictionary
280
     1
281
     1
  3
ACAD_XREC_ROUNDTRIP
360
F2A
  3
BUMPTILE
360
EBF
  3
DIFFUSETILE
360
EBE
  3
OPACITYTILE
360
EC2
  3
REFLECTIONTILE
360
EC1
  3
REFRACTIONTILE
360
EC3
  3
SPECULARTILE
360
EC0
  0
DICTIONARY
  5
EB5
330
EB4
100
AcDbDictionary
280
     1
281
     1
  3
ACAD_XREC_ROUNDTRIP
360
F29
  3
BUMPTILE
360
EB7
  3
DIFFUSETILE
360
EB6
  3
OPACITYTILE
360
EBA
  3
REFLECTIONTILE
360
EB9
  3
REFRACTIONTILE
360
EBB
  3
SPECULARTILE
360
EB8
  0
DICTIONARY
  5
EC5
330
EC4
100
AcDbDictionary
280
     1
281
     1
  3
ACAD_XREC_ROUNDTRIP
360
F2B
  3
BUMPTILE
360
EC7
  3
DIFFUSETILE
360
EC6
  3
OPACITYTILE
360
ECA
  3
REFLECTIONTILE
360
EC9
  3
REFRACTIONTILE
360
ECB
  3
SPECULARTILE
360
EC8
  0
DICTIONARY
  5
F1F
330
EE2
100
AcDbDictionary
280
     1
281
     1
  3
ACAD_ROUNDTRIP_2008_TABLESTYLE_CELLSTYLEMAP
360
F20
  3
ACAD_XREC_ROUNDTRIP
360
F52
  0
DICTIONARY
  5
F36
330
ED2
100
AcDbDictionary
280
     1
281
     1
  3
ACAD_XREC_ROUNDTRIP
360
F37
  0
DICTIONARY
  5
F3A
330
ED4
100
AcDbDictionary
280
     1
281
     1
  3
ACAD_XREC_ROUNDTRIP
360
F3B
  0
DICTIONARY
  5
F38
330
ED3
100
AcDbDictionary
280
     1
281
     1
  3
ACAD_XREC_ROUNDTRIP
360
F39
  0
DICTIONARY
  5
F34
330
ED1
100
AcDbDictionary
280
     1
281
     1
  3
ACAD_XREC_ROUNDTRIP
360
F35
  0
DICTIONARY
  5
F42
330
ED8
100
AcDbDictionary
280
     1
281
     1
  3
ACAD_XREC_ROUNDTRIP
360
F43
  0
DICTIONARY
  5
F4A
330
EDC
100
AcDbDictionary
280
     1
281
     1
  3
ACAD_XREC_ROUNDTRIP
360
F4B
  0
DICTIONARY
  5
F3C
330
ED5
100
AcDbDictionary
280
     1
281
     1
  3
ACAD_XREC_ROUNDTRIP
360
F3D
  0
DICTIONARY
  5
F40
330
ED7
100
AcDbDictionary
280
     1
281
     1
  3
ACAD_XREC_ROUNDTRIP
360
F41
  0
DICTIONARY
  5
F50
330
EDF
100
AcDbDictionary
280
     1
281
     1
  3
ACAD_XREC_ROUNDTRIP
360
F51
  0
DICTIONARY
  5
F48
330
EDB
100
AcDbDictionary
280
     1
281
     1
  3
ACAD_XREC_ROUNDTRIP
360
F49
  0
DICTIONARY
  5
F2C
330
ECD
100
AcDbDictionary
280
     1
281
     1
  3
ACAD_XREC_ROUNDTRIP
360
F2D
  0
DICTIONARY
  5
F2E
330
ECE
100
AcDbDictionary
280
     1
281
     1
  3
ACAD_XREC_ROUNDTRIP
360
F2F
  0
DICTIONARY
  5
F30
330
ECF
100
AcDbDictionary
280
     1
281
     1
  3
ACAD_XREC_ROUNDTRIP
360
F31
  0
DICTIONARY
  5
F32
330
ED0
100
AcDbDictionary
280
     1
281
     1
  3
ACAD_XREC_ROUNDTRIP
360
F33
  0
DICTIONARY
  5
F4C
330
EDD
100
AcDbDictionary
280
     1
281
     1
  3
ACAD_XREC_ROUNDTRIP
360
F4D
  0
DICTIONARY
  5
F46
330
EDA
100
AcDbDictionary
280
     1
281
     1
  3
ACAD_XREC_ROUNDTRIP
360
F47
  0
DICTIONARY
  5
F4E
330
EDE
100
AcDbDictionary
280
     1
281
     1
  3
ACAD_XREC_ROUNDTRIP
360
F4F
  0
DICTIONARY
  5
F3E
330
ED6
100
AcDbDictionary
280
     1
281
     1
  3
ACAD_XREC_ROUNDTRIP
360
F3F
  0
DICTIONARY
  5
F44
330
ED9
100
AcDbDictionary
280
     1
281
     1
  3
ACAD_XREC_ROUNDTRIP
360
F45
  0
XRECORD
  5
F24
102
{ACAD_REACTORS
330
F23
102
}
330
F23
100
AcDbXrecord
280
     1
102
SHADEPLOT
 70
     0
102
SHADEPLOTRESLEVEL
 70
     2
102
SHADEPLOTCUSTOMDPI
 70
   300
  0
XRECORD
  5
F28
102
{ACAD_REACTORS
330
F27
102
}
330
F27
100
AcDbXrecord
280
     1
102
SHADEPLOT
 70
     0
102
SHADEPLOTRESLEVEL
 70
     2
102
SHADEPLOTCUSTOMDPI
 70
   300
  0
XRECORD
  5
F26
102
{ACAD_REACTORS
330
F25
102
}
330
F25
100
AcDbXrecord
280
     1
102
SHADEPLOT
 70
     0
102
SHADEPLOTRESLEVEL
 70
     2
102
SHADEPLOTCUSTOMDPI
 70
   300
  0
XRECORD
  5
F2A
102
{ACAD_REACTORS
330
EBD
102
}
330
EBD
100
AcDbXrecord
280
     1
102
MATERIAL
148
0.0
149
0.0
149
0.0
 93
        0
 94
      127
282
     0
 72
     0
 77
     0
171
     0
175
     0
179
     0
273
     0
  0
XRECORD
  5
EBF
102
{ACAD_REACTORS
330
EBD
102
}
330
EBD
100
AcDbXrecord
280
     1
270
     1
271
     1
  0
XRECORD
  5
EBE
102
{ACAD_REACTORS
330
EBD
102
}
330
EBD
100
AcDbXrecord
280
     1
270
     1
271
     1
  0
XRECORD
  5
EC2
102
{ACAD_REACTORS
330
EBD
102
}
330
EBD
100
AcDbXrecord
280
     1
270
     1
271
     1
  0
XRECORD
  5
EC1
102
{ACAD_REACTORS
330
EBD
102
}
330
EBD
100
AcDbXrecord
280
     1
270
     1
271
     1
  0
XRECORD
  5
EC3
102
{ACAD_REACTORS
330
EBD
102
}
330
EBD
100
AcDbXrecord
280
     1
270
     1
271
     1
  0
XRECORD
  5
EC0
102
{ACAD_REACTORS
330
EBD
102
}
330
EBD
100
AcDbXrecord
280
     1
270
     1
271
     1
  0
XRECORD
  5
F29
102
{ACAD_REACTORS
330
EB5
102
}
330
EB5
100
AcDbXrecord
280
     1
102
MATERIAL
148
0.0
149
0.0
149
0.0
 93
        0
 94
      127
282
     0
 72
     0
 77
     0
171
     0
175
     0
179
     0
273
     0
  0
XRECORD
  5
EB7
102
{ACAD_REACTORS
330
EB5
102
}
330
EB5
100
AcDbXrecord
280
     1
270
     1
271
     1
  0
XRECORD
  5
EB6
102
{ACAD_REACTORS
330
EB5
102
}
330
EB5
100
AcDbXrecord
280
     1
270
     1
271
     1
  0
XRECORD
  5
EBA
102
{ACAD_REACTORS
330
EB5
102
}
330
EB5
100
AcDbXrecord
280
     1
270
     1
271
     1
  0
XRECORD
  5
EB9
102
{ACAD_REACTORS
330
EB5
102
}
330
EB5
100
AcDbXrecord
280
     1
270
     1
271
     1
  0
XRECORD
  5
EBB
102
{ACAD_REACTORS
330
EB5
102
}
330
EB5
100
AcDbXrecord
280
     1
270
     1
271
     1
  0
XRECORD
  5
EB8
102
{ACAD_REACTORS
330
EB5
102
}
330
EB5
100
AcDbXrecord
280
     1
270
     1
271
     1
  0
XRECORD
  5
F2B
102
{ACAD_REACTORS
330
EC5
102
}
330
EC5
100
AcDbXrecord
280
     1
102
MATERIAL
148
0.0
149
0.0
149
0.0
 93
        0
 94
      127
282
     0
 72
     0
 77
     0
171
     0
175
     0
179
     0
273
     0
  0
XRECORD
  5
EC7
102
{ACAD_REACTORS
330
EC5
102
}
330
EC5
100
AcDbXrecord
280
     1
270
     1
271
     1
  0
XRECORD
  5
EC6
102
{ACAD_REACTORS
330
EC5
102
}
330
EC5
100
AcDbXrecord
280
     1
270
     1
271
     1
  0
XRECORD
  5
ECA
102
{ACAD_REACTORS
330
EC5
102
}
330
EC5
100
AcDbXrecord
280
     1
270
     1
271
     1
  0
XRECORD
  5
EC9
102
{ACAD_REACTORS
330
EC5
102
}
330
EC5
100
AcDbXrecord
280
     1
270
     1
271
     1
  0
XRECORD
  5
ECB
102
{ACAD_REACTORS
330
EC5
102
}
330
EC5
100
AcDbXrecord
280
     1
270
     1
271
     1
  0
XRECORD
  5
EC8
102
{ACAD_REACTORS
330
EC5
102
}
330
EC5
100
AcDbXrecord
280
     1
270
     1
271
     1
  0
CELLSTYLEMAP
  5
F20
102
{ACAD_REACTORS
330
F1F
102
}
330
F1F
100
AcDbCellStyleMap
 90
        3
300
CELLSTYLE
  1
TABLEFORMAT_BEGIN
 90
        5
170
     1
 91
        0
 92
    32768
 62
   257
 93
        1
300
CONTENTFORMAT
  1
CONTENTFORMAT_BEGIN
 90
        0
 91
        0
 92
      512
 93
        0
300

 40
0.0
140
1.0
 94
        5
 62
     0
340
11
144
6.0
309
CONTENTFORMAT_END
171
     1
301
MARGIN
  1
CELLMARGIN_BEGIN
 40
1.5
 40
1.5
 40
1.5
 40
1.5
 40
4.5
 40
4.5
309
CELLMARGIN_END
 94
        6
 95
        1
302
GRIDFORMAT
  1
GRIDFORMAT_BEGIN
 90
        0
 91
        1
 62
     0
 92
       -2
340
0
 93
        0
 40
1.125
309
GRIDFORMAT_END
 95
        2
302
GRIDFORMAT
  1
GRIDFORMAT_BEGIN
 90
        0
 91
        1
 62
     0
 92
       -2
340
0
 93
        0
 40
1.125
309
GRIDFORMAT_END
 95
        4
302
GRIDFORMAT
  1
GRIDFORMAT_BEGIN
 90
        0
 91
        1
 62
     0
 92
       -2
340
0
 93
        0
 40
1.125
309
GRIDFORMAT_END
 95
        8
302
GRIDFORMAT
  1
GRIDFORMAT_BEGIN
 90
        0
 91
        1
 62
     0
 92
       -2
340
0
 93
        0
 40
1.125
309
GRIDFORMAT_END
 95
       16
302
GRIDFORMAT
  1
GRIDFORMAT_BEGIN
 90
        0
 91
        1
 62
     0
 92
       -2
340
0
 93
        0
 40
1.125
309
GRIDFORMAT_END
 95
       32
302
GRIDFORMAT
  1
GRIDFORMAT_BEGIN
 90
        0
 91
        1
 62
     0
 92
       -2
340
0
 93
        0
 40
1.125
309
GRIDFORMAT_END
309
TABLEFORMAT_END
  1
CELLSTYLE_BEGIN
 90
        1
 91
        1
300
_TITLE
309
CELLSTYLE_END
300
CELLSTYLE
  1
TABLEFORMAT_BEGIN
 90
        5
170
     1
 91
        0
 92
        0
 62
   257
 93
        1
300
CONTENTFORMAT
  1
CONTENTFORMAT_BEGIN
 90
        0
 91
        0
 92
      512
 93
        0
300

 40
0.0
140
1.0
 94
        5
 62
     0
340
11
144
4.5
309
CONTENTFORMAT_END
171
     1
301
MARGIN
  1
CELLMARGIN_BEGIN
 40
1.5
 40
1.5
 40
1.5
 40
1.5
 40
4.5
 40
4.5
309
CELLMARGIN_END
 94
        6
 95
        1
302
GRIDFORMAT
  1
GRIDFORMAT_BEGIN
 90
        0
 91
        1
 62
     0
 92
       -2
340
0
 93
        0
 40
1.125
309
GRIDFORMAT_END
 95
        2
302
GRIDFORMAT
  1
GRIDFORMAT_BEGIN
 90
        0
 91
        1
 62
     0
 92
       -2
340
0
 93
        0
 40
1.125
309
GRIDFORMAT_END
 95
        4
302
GRIDFORMAT
  1
GRIDFORMAT_BEGIN
 90
        0
 91
        1
 62
     0
 92
       -2
340
0
 93
        0
 40
1.125
309
GRIDFORMAT_END
 95
        8
302
GRIDFORMAT
  1
GRIDFORMAT_BEGIN
 90
        0
 91
        1
 62
     0
 92
       -2
340
0
 93
        0
 40
1.125
309
GRIDFORMAT_END
 95
       16
302
GRIDFORMAT
  1
GRIDFORMAT_BEGIN
 90
        0
 91
        1
 62
     0
 92
       -2
340
0
 93
        0
 40
1.125
309
GRIDFORMAT_END
 95
       32
302
GRIDFORMAT
  1
GRIDFORMAT_BEGIN
 90
        0
 91
        1
 62
     0
 92
       -2
340
0
 93
        0
 40
1.125
309
GRIDFORMAT_END
309
TABLEFORMAT_END
  1
CELLSTYLE_BEGIN
 90
        2
 91
        1
300
_HEADER
309
CELLSTYLE_END
300
CELLSTYLE
  1
TABLEFORMAT_BEGIN
 90
        5
170
     1
 91
        0
 92
        0
 62
   257
 93
        1
300
CONTENTFORMAT
  1
CONTENTFORMAT_BEGIN
 90
        0
 91
        0
 92
      512
 93
        0
300

 40
0.0
140
1.0
 94
        2
 62
     0
340
11
144
4.5
309
CONTENTFORMAT_END
171
     1
301
MARGIN
  1
CELLMARGIN_BEGIN
 40
1.5
 40
1.5
 40
1.5
 40
1.5
 40
4.5
 40
4.5
309
CELLMARGIN_END
 94
        6
 95
        1
302
GRIDFORMAT
  1
GRIDFORMAT_BEGIN
 90
        0
 91
        1
 62
     0
 92
       -2
340
0
 93
        0
 40
1.125
309
GRIDFORMAT_END
 95
        2
302
GRIDFORMAT
  1
GRIDFORMAT_BEGIN
 90
        0
 91
        1
 62
     0
 92
       -2
340
0
 93
        0
 40
1.125
309
GRIDFORMAT_END
 95
        4
302
GRIDFORMAT
  1
GRIDFORMAT_BEGIN
 90
        0
 91
        1
 62
     0
 92
       -2
340
0
 93
        0
 40
1.125
309
GRIDFORMAT_END
 95
        8
302
GRIDFORMAT
  1
GRIDFORMAT_BEGIN
 90
        0
 91
        1
 62
     0
 92
       -2
340
0
 93
        0
 40
1.125
309
GRIDFORMAT_END
 95
       16
302
GRIDFORMAT
  1
GRIDFORMAT_BEGIN
 90
        0
 91
        1
 62
     0
 92
       -2
340
0
 93
        0
 40
1.125
309
GRIDFORMAT_END
 95
       32
302
GRIDFORMAT
  1
GRIDFORMAT_BEGIN
 90
        0
 91
        1
 62
     0
 92
       -2
340
0
 93
        0
 40
1.125
309
GRIDFORMAT_END
309
TABLEFORMAT_END
  1
CELLSTYLE_BEGIN
 90
        3
 91
        2
300
_DATA
309
CELLSTYLE_END
  0
XRECORD
  5
F52
102
{ACAD_REACTORS
330
F1F
102
}
330
F1F
100
AcDbXrecord
280
     1
102
ACAD_ROUNDTRIP_PRE2007_TABLESTYLE
 90
      512
 91
        0
  1

 92
      512
 93
        0
  2

 94
      512
 95
        0
  3

  0
XRECORD
  5
F37
102
{ACAD_REACTORS
330
F36
102
}
330
F36
100
AcDbXrecord
280
     1
102
RTVSPropertyOp0
 70
     1
102
RTVSPropertyOp1
 70
     1
102
RTVSPropertyOp2
 70
     1
102
RTVSPropertyOp3
 70
     1
102
RTVSPropertyOp4
 70
     1
102
RTVSPropertyOp5
 70
     1
102
RTVSPropertyOp6
 70
     1
102
RTVSPropertyOp7
 70
     1
102
RTVSPropertyOp8
 70
     1
102
RTVSPropertyOp9
 70
     1
102
RTVSPropertyOp10
 70
     1
102
RTVSPropertyOp11
 70
     1
102
RTVSPropertyOp12
 70
     1
102
RTVSPropertyOp13
 70
     1
102
RTVSPropertyOp14
 70
     1
102
RTVSPropertyOp15
 70
     1
102
RTVSPropertyOp16
 70
     1
102
RTVSPropertyOp17
 70
     1
102
RTVSPropertyOp18
 70
     1
102
RTVSPropertyOp19
 70
     1
102
RTVSPropertyOp20
 70
     1
102
RTVSPropertyOp21
 70
     1
102
RTVSPropertyOp22
 70
     1
102
RTVSPropertyOp23
 70
     1
102
RTVSPropertyOp24
 70
     1
102
RTVSPropertyOp25
 70
     1
102
RTVSPropertyOp26
 70
     1
102
RTVSPropertyOp27
 70
     1
  0
XRECORD
  5
F3B
102
{ACAD_REACTORS
330
F3A
102
}
330
F3A
100
AcDbXrecord
280
     1
102
RTVSPropertyOp0
 70
     1
102
RTVSPropertyOp1
 70
     1
102
RTVSPropertyOp2
 70
     1
102
RTVSPropertyOp3
 70
     1
102
RTVSPropertyOp4
 70
     1
102
RTVSPropertyOp5
 70
     1
102
RTVSPropertyOp6
 70
     1
102
RTVSPropertyOp7
 70
     1
102
RTVSPropertyOp8
 70
     1
102
RTVSPropertyOp9
 70
     1
102
RTVSPropertyOp10
 70
     1
102
RTVSPropertyOp11
 70
     1
102
RTVSPropertyOp12
 70
     1
102
RTVSPropertyOp13
 70
     1
102
RTVSPropertyOp14
 70
     1
102
RTVSPropertyOp15
 70
     1
102
RTVSPropertyOp16
 70
     1
102
RTVSPropertyOp17
 70
     1
102
RTVSPropertyOp18
 70
     1
102
RTVSPropertyOp19
 70
     1
102
RTVSPropertyOp20
 70
     1
102
RTVSPropertyOp21
 70
     1
102
RTVSPropertyOp22
 70
     1
102
RTVSPropertyOp23
 70
     1
102
RTVSPropertyOp24
 70
     1
102
RTVSPropertyOp25
 70
     1
102
RTVSPropertyOp26
 70
     1
102
RTVSPropertyOp27
 70
     1
  0
XRECORD
  5
F39
102
{ACAD_REACTORS
330
F38
102
}
330
F38
100
AcDbXrecord
280
     1
102
RTVSPropertyOp0
 70
     1
102
RTVSPropertyOp1
 70
     1
102
RTVSPropertyOp2
 70
     1
102
RTVSPropertyOp3
 70
     1
102
RTVSPropertyOp4
 70
     1
102
RTVSPropertyOp5
 70
     1
102
RTVSPropertyOp6
 70
     1
102
RTVSPropertyOp7
 70
     1
102
RTVSPropertyOp8
 70
     1
102
RTVSPropertyOp9
 70
     1
102
RTVSPropertyOp10
 70
     1
102
RTVSPropertyOp11
 70
     1
102
RTVSPropertyOp12
 70
     1
102
RTVSPropertyOp13
 70
     1
102
RTVSPropertyOp14
 70
     1
102
RTVSPropertyOp15
 70
     1
102
RTVSPropertyOp16
 70
     1
102
RTVSPropertyOp17
 70
     1
102
RTVSPropertyOp18
 70
     1
102
RTVSPropertyOp19
 70
     1
102
RTVSPropertyOp20
 70
     1
102
RTVSPropertyOp21
 70
     1
102
RTVSPropertyOp22
 70
     1
102
RTVSPropertyOp23
 70
     1
102
RTVSPropertyOp24
 70
     1
102
RTVSPropertyOp25
 70
     1
102
RTVSPropertyOp26
 70
     1
102
RTVSPropertyOp27
 70
     1
  0
XRECORD
  5
F35
102
{ACAD_REACTORS
330
F34
102
}
330
F34
100
AcDbXrecord
280
     1
102
RTVSPropertyOp0
 70
     1
102
RTVSPropertyOp1
 70
     1
102
RTVSPropertyOp2
 70
     1
102
RTVSPropertyOp3
 70
     1
102
RTVSPropertyOp4
 70
     1
102
RTVSPropertyOp5
 70
     1
102
RTVSPropertyOp6
 70
     1
102
RTVSPropertyOp7
 70
     1
102
RTVSPropertyOp8
 70
     1
102
RTVSPropertyOp9
 70
     1
102
RTVSPropertyOp10
 70
     1
102
RTVSPropertyOp11
 70
     1
102
RTVSPropertyOp12
 70
     1
102
RTVSPropertyOp13
 70
     1
102
RTVSPropertyOp14
 70
     1
102
RTVSPropertyOp15
 70
     1
102
RTVSPropertyOp16
 70
     1
102
RTVSPropertyOp17
 70
     1
102
RTVSPropertyOp18
 70
     1
102
RTVSPropertyOp19
 70
     1
102
RTVSPropertyOp20
 70
     1
102
RTVSPropertyOp21
 70
     1
102
RTVSPropertyOp22
 70
     1
102
RTVSPropertyOp23
 70
     1
102
RTVSPropertyOp24
 70
     1
102
RTVSPropertyOp25
 70
     1
102
RTVSPropertyOp26
 70
     1
102
RTVSPropertyOp27
 70
     1
  0
XRECORD
  5
F43
102
{ACAD_REACTORS
330
F42
102
}
330
F42
100
AcDbXrecord
280
     1
102
RTVSPropertyOp0
 70
     1
102
RTVSPropertyOp1
 70
     1
102
RTVSPropertyOp2
 70
     1
102
RTVSPropertyOp3
 70
     1
102
RTVSPropertyOp4
 70
     1
102
RTVSPropertyOp5
 70
     1
102
RTVSPropertyOp6
 70
     1
102
RTVSPropertyOp7
 70
     1
102
RTVSPropertyOp8
 70
     1
102
RTVSPropertyOp9
 70
     1
102
RTVSPropertyOp10
 70
     1
102
RTVSPropertyOp11
 70
     1
102
RTVSPropertyOp12
 70
     1
102
RTVSPropertyOp13
 70
     1
102
RTVSPropertyOp14
 70
     1
102
RTVSPropertyOp15
 70
     1
102
RTVSPropertyOp16
 70
     1
102
RTVSPropertyOp17
 70
     1
102
RTVSPropertyOp18
 70
     1
102
RTVSPropertyOp19
 70
     1
102
RTVSPropertyOp20
 70
     1
102
RTVSPropertyOp21
 70
     1
102
RTVSPropertyOp22
 70
     1
102
RTVSPropertyOp23
 70
     1
102
RTVSPropertyOp24
 70
     1
102
RTVSPropertyOp25
 70
     1
102
RTVSPropertyOp26
 70
     1
102
RTVSPropertyOp27
 70
     1
  0
XRECORD
  5
F4B
102
{ACAD_REACTORS
330
F4A
102
}
330
F4A
100
AcDbXrecord
280
     1
102
RTVSPropertyOp0
 70
     1
102
RTVSPropertyOp1
 70
     1
102
RTVSPropertyOp2
 70
     1
102
RTVSPropertyOp3
 70
     1
102
RTVSPropertyOp4
 70
     1
102
RTVSPropertyOp5
 70
     1
102
RTVSPropertyOp6
 70
     1
102
RTVSPropertyOp7
 70
     1
102
RTVSPropertyOp8
 70
     1
102
RTVSPropertyOp9
 70
     1
102
RTVSPropertyOp10
 70
     1
102
RTVSPropertyOp11
 70
     1
102
RTVSPropertyOp12
 70
     1
102
RTVSPropertyOp13
 70
     1
102
RTVSPropertyOp14
 70
     1
102
RTVSPropertyOp15
 70
     1
102
RTVSPropertyOp16
 70
     1
102
RTVSPropertyOp17
 70
     1
102
RTVSPropertyOp18
 70
     1
102
RTVSPropertyOp19
 70
     1
102
RTVSPropertyOp20
 70
     1
102
RTVSPropertyOp21
 70
     1
102
RTVSPropertyOp22
 70
     1
102
RTVSPropertyOp23
 70
     1
102
RTVSPropertyOp24
 70
     1
102
RTVSPropertyOp25
 70
     1
102
RTVSPropertyOp26
 70
     1
102
RTVSPropertyOp27
 70
     1
  0
XRECORD
  5
F3D
102
{ACAD_REACTORS
330
F3C
102
}
330
F3C
100
AcDbXrecord
280
     1
102
RTVSPropertyOp0
 70
     1
102
RTVSPropertyOp1
 70
     1
102
RTVSPropertyOp2
 70
     1
102
RTVSPropertyOp3
 70
     1
102
RTVSPropertyOp4
 70
     1
102
RTVSPropertyOp5
 70
     1
102
RTVSPropertyOp6
 70
     1
102
RTVSPropertyOp7
 70
     1
102
RTVSPropertyOp8
 70
     1
102
RTVSPropertyOp9
 70
     1
102
RTVSPropertyOp10
 70
     1
102
RTVSPropertyOp11
 70
     1
102
RTVSPropertyOp12
 70
     1
102
RTVSPropertyOp13
 70
     1
102
RTVSPropertyOp14
 70
     1
102
RTVSPropertyOp15
 70
     1
102
RTVSPropertyOp16
 70
     1
102
RTVSPropertyOp17
 70
     1
102
RTVSPropertyOp18
 70
     1
102
RTVSPropertyOp19
 70
     1
102
RTVSPropertyOp20
 70
     1
102
RTVSPropertyOp21
 70
     1
102
RTVSPropertyOp22
 70
     1
102
RTVSPropertyOp23
 70
     1
102
RTVSPropertyOp24
 70
     1
102
RTVSPropertyOp25
 70
     1
102
RTVSPropertyOp26
 70
     1
102
RTVSPropertyOp27
 70
     1
  0
XRECORD
  5
F41
102
{ACAD_REACTORS
330
F40
102
}
330
F40
100
AcDbXrecord
280
     1
102
RTVSPropertyOp0
 70
     1
102
RTVSPropertyOp1
 70
     1
102
RTVSPropertyOp2
 70
     1
102
RTVSPropertyOp3
 70
     1
102
RTVSPropertyOp4
 70
     1
102
RTVSPropertyOp5
 70
     1
102
RTVSPropertyOp6
 70
     1
102
RTVSPropertyOp7
 70
     1
102
RTVSPropertyOp8
 70
     1
102
RTVSPropertyOp9
 70
     1
102
RTVSPropertyOp10
 70
     1
102
RTVSPropertyOp11
 70
     1
102
RTVSPropertyOp12
 70
     1
102
RTVSPropertyOp13
 70
     1
102
RTVSPropertyOp14
 70
     1
102
RTVSPropertyOp15
 70
     1
102
RTVSPropertyOp16
 70
     1
102
RTVSPropertyOp17
 70
     1
102
RTVSPropertyOp18
 70
     1
102
RTVSPropertyOp19
 70
     1
102
RTVSPropertyOp20
 70
     1
102
RTVSPropertyOp21
 70
     1
102
RTVSPropertyOp22
 70
     1
102
RTVSPropertyOp23
 70
     1
102
RTVSPropertyOp24
 70
     1
102
RTVSPropertyOp25
 70
     1
102
RTVSPropertyOp26
 70
     1
102
RTVSPropertyOp27
 70
     1
  0
XRECORD
  5
F51
102
{ACAD_REACTORS
330
F50
102
}
330
F50
100
AcDbXrecord
280
     1
102
RTVSPropertyOp0
 70
     0
102
RTVSPropertyOp1
 70
     0
102
RTVSPropertyOp2
 70
     0
102
RTVSPropertyOp3
 70
     0
102
RTVSPropertyOp4
 70
     0
102
RTVSPropertyOp5
 70
     0
102
RTVSPropertyOp6
 70
     0
102
RTVSPropertyOp7
 70
     0
102
RTVSPropertyOp8
 70
     0
102
RTVSPropertyOp9
 70
     0
102
RTVSPropertyOp10
 70
     0
102
RTVSPropertyOp11
 70
     0
102
RTVSPropertyOp12
 70
     0
102
RTVSPropertyOp13
 70
     0
102
RTVSPropertyOp14
 70
     2
102
RTVSPropertyOp15
 70
     0
102
RTVSPropertyOp16
 70
     0
102
RTVSPropertyOp17
 70
     0
102
RTVSPropertyOp18
 70
     0
102
RTVSPropertyOp19
 70
     0
102
RTVSPropertyOp20
 70
     0
102
RTVSPropertyOp21
 70
     0
102
RTVSPropertyOp22
 70
     0
102
RTVSPropertyOp23
 70
     0
102
RTVSPropertyOp24
 70
     0
102
RTVSPropertyOp25
 70
     0
102
RTVSPropertyOp26
 70
     0
102
RTVSPropertyOp27
 70
     0
  0
XRECORD
  5
F49
102
{ACAD_REACTORS
330
F48
102
}
330
F48
100
AcDbXrecord
280
     1
102
RTVSPropertyOp0
 70
     1
102
RTVSPropertyOp1
 70
     1
102
RTVSPropertyOp2
 70
     1
102
RTVSPropertyOp3
 70
     1
102
RTVSPropertyOp4
 70
     1
102
RTVSPropertyOp5
 70
     1
102
RTVSPropertyOp6
 70
     1
102
RTVSPropertyOp7
 70
     1
102
RTVSPropertyOp8
 70
     1
102
RTVSPropertyOp9
 70
     1
102
RTVSPropertyOp10
 70
     1
102
RTVSPropertyOp11
 70
     1
102
RTVSPropertyOp12
 70
     1
102
RTVSPropertyOp13
 70
     1
102
RTVSPropertyOp14
 70
     1
102
RTVSPropertyOp15
 70
     1
102
RTVSPropertyOp16
 70
     1
102
RTVSPropertyOp17
 70
     1
102
RTVSPropertyOp18
 70
     1
102
RTVSPropertyOp19
 70
     1
102
RTVSPropertyOp20
 70
     1
102
RTVSPropertyOp21
 70
     1
102
RTVSPropertyOp22
 70
     1
102
RTVSPropertyOp23
 70
     1
102
RTVSPropertyOp24
 70
     1
102
RTVSPropertyOp25
 70
     1
102
RTVSPropertyOp26
 70
     1
102
RTVSPropertyOp27
 70
     1
  0
XRECORD
  5
F2D
102
{ACAD_REACTORS
330
F2C
102
}
330
F2C
100
AcDbXrecord
280
     1
102
RTVSPropertyOp0
 70
     1
102
RTVSPropertyOp1
 70
     1
102
RTVSPropertyOp2
 70
     1
102
RTVSPropertyOp3
 70
     1
102
RTVSPropertyOp4
 70
     1
102
RTVSPropertyOp5
 70
     1
102
RTVSPropertyOp6
 70
     1
102
RTVSPropertyOp7
 70
     1
102
RTVSPropertyOp8
 70
     1
102
RTVSPropertyOp9
 70
     1
102
RTVSPropertyOp10
 70
     1
102
RTVSPropertyOp11
 70
     1
102
RTVSPropertyOp12
 70
     1
102
RTVSPropertyOp13
 70
     1
102
RTVSPropertyOp14
 70
     1
102
RTVSPropertyOp15
 70
     1
102
RTVSPropertyOp16
 70
     1
102
RTVSPropertyOp17
 70
     1
102
RTVSPropertyOp18
 70
     1
102
RTVSPropertyOp19
 70
     1
102
RTVSPropertyOp20
 70
     1
102
RTVSPropertyOp21
 70
     1
102
RTVSPropertyOp22
 70
     1
102
RTVSPropertyOp23
 70
     1
102
RTVSPropertyOp24
 70
     1
102
RTVSPropertyOp25
 70
     1
102
RTVSPropertyOp26
 70
     1
102
RTVSPropertyOp27
 70
     1
  0
XRECORD
  5
F2F
102
{ACAD_REACTORS
330
F2E
102
}
330
F2E
100
AcDbXrecord
280
     1
102
RTVSPropertyOp0
 70
     1
102
RTVSPropertyOp1
 70
     1
102
RTVSPropertyOp2
 70
     1
102
RTVSPropertyOp3
 70
     1
102
RTVSPropertyOp4
 70
     1
102
RTVSPropertyOp5
 70
     1
102
RTVSPropertyOp6
 70
     1
102
RTVSPropertyOp7
 70
     1
102
RTVSPropertyOp8
 70
     1
102
RTVSPropertyOp9
 70
     1
102
RTVSPropertyOp10
 70
     1
102
RTVSPropertyOp11
 70
     1
102
RTVSPropertyOp12
 70
     1
102
RTVSPropertyOp13
 70
     1
102
RTVSPropertyOp14
 70
     1
102
RTVSPropertyOp15
 70
     1
102
RTVSPropertyOp16
 70
     1
102
RTVSPropertyOp17
 70
     1
102
RTVSPropertyOp18
 70
     1
102
RTVSPropertyOp19
 70
     1
102
RTVSPropertyOp20
 70
     1
102
RTVSPropertyOp21
 70
     1
102
RTVSPropertyOp22
 70
     1
102
RTVSPropertyOp23
 70
     1
102
RTVSPropertyOp24
 70
     1
102
RTVSPropertyOp25
 70
     1
102
RTVSPropertyOp26
 70
     1
102
RTVSPropertyOp27
 70
     1
  0
XRECORD
  5
F31
102
{ACAD_REACTORS
330
F30
102
}
330
F30
100
AcDbXrecord
280
     1
102
RTVSPropertyOp0
 70
     1
102
RTVSPropertyOp1
 70
     1
102
RTVSPropertyOp2
 70
     1
102
RTVSPropertyOp3
 70
     1
102
RTVSPropertyOp4
 70
     1
102
RTVSPropertyOp5
 70
     1
102
RTVSPropertyOp6
 70
     1
102
RTVSPropertyOp7
 70
     1
102
RTVSPropertyOp8
 70
     1
102
RTVSPropertyOp9
 70
     1
102
RTVSPropertyOp10
 70
     1
102
RTVSPropertyOp11
 70
     1
102
RTVSPropertyOp12
 70
     1
102
RTVSPropertyOp13
 70
     1
102
RTVSPropertyOp14
 70
     1
102
RTVSPropertyOp15
 70
     1
102
RTVSPropertyOp16
 70
     1
102
RTVSPropertyOp17
 70
     1
102
RTVSPropertyOp18
 70
     1
102
RTVSPropertyOp19
 70
     1
102
RTVSPropertyOp20
 70
     1
102
RTVSPropertyOp21
 70
     1
102
RTVSPropertyOp22
 70
     1
102
RTVSPropertyOp23
 70
     1
102
RTVSPropertyOp24
 70
     1
102
RTVSPropertyOp25
 70
     1
102
RTVSPropertyOp26
 70
     1
102
RTVSPropertyOp27
 70
     1
  0
XRECORD
  5
F33
102
{ACAD_REACTORS
330
F32
102
}
330
F32
100
AcDbXrecord
280
     1
102
RTVSPropertyOp0
 70
     1
102
RTVSPropertyOp1
 70
     1
102
RTVSPropertyOp2
 70
     1
102
RTVSPropertyOp3
 70
     1
102
RTVSPropertyOp4
 70
     1
102
RTVSPropertyOp5
 70
     1
102
RTVSPropertyOp6
 70
     1
102
RTVSPropertyOp7
 70
     1
102
RTVSPropertyOp8
 70
     1
102
RTVSPropertyOp9
 70
     1
102
RTVSPropertyOp10
 70
     1
102
RTVSPropertyOp11
 70
     1
102
RTVSPropertyOp12
 70
     1
102
RTVSPropertyOp13
 70
     1
102
RTVSPropertyOp14
 70
     1
102
RTVSPropertyOp15
 70
     1
102
RTVSPropertyOp16
 70
     1
102
RTVSPropertyOp17
 70
     1
102
RTVSPropertyOp18
 70
     1
102
RTVSPropertyOp19
 70
     1
102
RTVSPropertyOp20
 70
     1
102
RTVSPropertyOp21
 70
     1
102
RTVSPropertyOp22
 70
     1
102
RTVSPropertyOp23
 70
     1
102
RTVSPropertyOp24
 70
     1
102
RTVSPropertyOp25
 70
     1
102
RTVSPropertyOp26
 70
     1
102
RTVSPropertyOp27
 70
     1
  0
XRECORD
  5
F4D
102
{ACAD_REACTORS
330
F4C
102
}
330
F4C
100
AcDbXrecord
280
     1
102
RTVSPropertyOp0
 70
     0
102
RTVSPropertyOp1
 70
     0
102
RTVSPropertyOp2
 70
     0
102
RTVSPropertyOp3
 70
     0
102
RTVSPropertyOp4
 70
     0
102
RTVSPropertyOp5
 70
     0
102
RTVSPropertyOp6
 70
     0
102
RTVSPropertyOp7
 70
     0
102
RTVSPropertyOp8
 70
     0
102
RTVSPropertyOp9
 70
     0
102
RTVSPropertyOp10
 70
     0
102
RTVSPropertyOp11
 70
     0
102
RTVSPropertyOp12
 70
     0
102
RTVSPropertyOp13
 70
     0
102
RTVSPropertyOp14
 70
     2
102
RTVSPropertyOp15
 70
     0
102
RTVSPropertyOp16
 70
     0
102
RTVSPropertyOp17
 70
     0
102
RTVSPropertyOp18
 70
     0
102
RTVSPropertyOp19
 70
     0
102
RTVSPropertyOp20
 70
     0
102
RTVSPropertyOp21
 70
     0
102
RTVSPropertyOp22
 70
     0
102
RTVSPropertyOp23
 70
     0
102
RTVSPropertyOp24
 70
     0
102
RTVSPropertyOp25
 70
     0
102
RTVSPropertyOp26
 70
     0
102
RTVSPropertyOp27
 70
     0
  0
XRECORD
  5
F47
102
{ACAD_REACTORS
330
F46
102
}
330
F46
100
AcDbXrecord
280
     1
102
RTVSPropertyOp0
 70
     1
102
RTVSPropertyOp1
 70
     1
102
RTVSPropertyOp2
 70
     1
102
RTVSPropertyOp3
 70
     1
102
RTVSPropertyOp4
 70
     1
102
RTVSPropertyOp5
 70
     1
102
RTVSPropertyOp6
 70
     1
102
RTVSPropertyOp7
 70
     1
102
RTVSPropertyOp8
 70
     1
102
RTVSPropertyOp9
 70
     1
102
RTVSPropertyOp10
 70
     1
102
RTVSPropertyOp11
 70
     1
102
RTVSPropertyOp12
 70
     1
102
RTVSPropertyOp13
 70
     1
102
RTVSPropertyOp14
 70
     1
102
RTVSPropertyOp15
 70
     1
102
RTVSPropertyOp16
 70
     1
102
RTVSPropertyOp17
 70
     1
102
RTVSPropertyOp18
 70
     1
102
RTVSPropertyOp19
 70
     1
102
RTVSPropertyOp20
 70
     1
102
RTVSPropertyOp21
 70
     1
102
RTVSPropertyOp22
 70
     1
102
RTVSPropertyOp23
 70
     1
102
RTVSPropertyOp24
 70
     1
102
RTVSPropertyOp25
 70
     1
102
RTVSPropertyOp26
 70
     1
102
RTVSPropertyOp27
 70
     1
  0
XRECORD
  5
F4F
102
{ACAD_REACTORS
330
F4E
102
}
330
F4E
100
AcDbXrecord
280
     1
102
RTVSPropertyOp0
 70
     0
102
RTVSPropertyOp1
 70
     0
102
RTVSPropertyOp2
 70
     0
102
RTVSPropertyOp3
 70
     0
102
RTVSPropertyOp4
 70
     0
102
RTVSPropertyOp5
 70
     0
102
RTVSPropertyOp6
 70
     0
102
RTVSPropertyOp7
 70
     0
102
RTVSPropertyOp8
 70
     0
102
RTVSPropertyOp9
 70
     0
102
RTVSPropertyOp10
 70
     0
102
RTVSPropertyOp11
 70
     0
102
RTVSPropertyOp12
 70
     0
102
RTVSPropertyOp13
 70
     0
102
RTVSPropertyOp14
 70
     2
102
RTVSPropertyOp15
 70
     0
102
RTVSPropertyOp16
 70
     0
102
RTVSPropertyOp17
 70
     0
102
RTVSPropertyOp18
 70
     0
102
RTVSPropertyOp19
 70
     0
102
RTVSPropertyOp20
 70
     0
102
RTVSPropertyOp21
 70
     0
102
RTVSPropertyOp22
 70
     0
102
RTVSPropertyOp23
 70
     0
102
RTVSPropertyOp24
 70
     0
102
RTVSPropertyOp25
 70
     0
102
RTVSPropertyOp26
 70
     0
102
RTVSPropertyOp27
 70
     0
  0
XRECORD
  5
F3F
102
{ACAD_REACTORS
330
F3E
102
}
330
F3E
100
AcDbXrecord
280
     1
102
RTVSPropertyOp0
 70
     1
102
RTVSPropertyOp1
 70
     1
102
RTVSPropertyOp2
 70
     1
102
RTVSPropertyOp3
 70
     1
102
RTVSPropertyOp4
 70
     1
102
RTVSPropertyOp5
 70
     1
102
RTVSPropertyOp6
 70
     1
102
RTVSPropertyOp7
 70
     1
102
RTVSPropertyOp8
 70
     1
102
RTVSPropertyOp9
 70
     1
102
RTVSPropertyOp10
 70
     1
102
RTVSPropertyOp11
 70
     1
102
RTVSPropertyOp12
 70
     1
102
RTVSPropertyOp13
 70
     1
102
RTVSPropertyOp14
 70
     1
102
RTVSPropertyOp15
 70
     1
102
RTVSPropertyOp16
 70
     1
102
RTVSPropertyOp17
 70
     1
102
RTVSPropertyOp18
 70
     1
102
RTVSPropertyOp19
 70
     1
102
RTVSPropertyOp20
 70
     1
102
RTVSPropertyOp21
 70
     1
102
RTVSPropertyOp22
 70
     1
102
RTVSPropertyOp23
 70
     1
102
RTVSPropertyOp24
 70
     1
102
RTVSPropertyOp25
 70
     1
102
RTVSPropertyOp26
 70
     1
102
RTVSPropertyOp27
 70
     1
  0
XRECORD
  5
F45
102
{ACAD_REACTORS
330
F44
102
}
330
F44
100
AcDbXrecord
280
     1
102
RTVSPropertyOp0
 70
     1
102
RTVSPropertyOp1
 70
     1
102
RTVSPropertyOp2
 70
     1
102
RTVSPropertyOp3
 70
     1
102
RTVSPropertyOp4
 70
     1
102
RTVSPropertyOp5
 70
     1
102
RTVSPropertyOp6
 70
     1
102
RTVSPropertyOp7
 70
     1
102
RTVSPropertyOp8
 70
     1
102
RTVSPropertyOp9
 70
     1
102
RTVSPropertyOp10
 70
     1
102
RTVSPropertyOp11
 70
     1
102
RTVSPropertyOp12
 70
     1
102
RTVSPropertyOp13
 70
     1
102
RTVSPropertyOp14
 70
     1
102
RTVSPropertyOp15
 70
     1
102
RTVSPropertyOp16
 70
     1
102
RTVSPropertyOp17
 70
     1
102
RTVSPropertyOp18
 70
     1
102
RTVSPropertyOp19
 70
     1
102
RTVSPropertyOp20
 70
     1
102
RTVSPropertyOp21
 70
     1
102
RTVSPropertyOp22
 70
     1
102
RTVSPropertyOp23
 70
     1
102
RTVSPropertyOp24
 70
     1
102
RTVSPropertyOp25
 70
     1
102
RTVSPropertyOp26
 70
     1
102
RTVSPropertyOp27
 70
     1
  0
ENDSEC
  0
EOF
