  0
SECTION
  2
HEADER
  9
$ACADVER
  1
AC1015
  9
$ACADMAINTVER
 70
    20
  9
$DWGCODEPAGE
  3
ANSI_1252
  9
$INSBASE
 10
0.0
 20
0.0
 30
0.0
  9
$EXTMIN
 10
41.52211669625248
 20
148.1648781725708
 30
0.0
  9
$EXTMAX
 10
44.34932838930442
 20
148.9651675644749
 30
0.0
  9
$LIMMIN
 10
0.0
 20
0.0
  9
$LIMMAX
 10
420.0
 20
297.0
  9
$ORTHOMODE
 70
     0
  9
$REGENMODE
 70
     1
  9
$FILLMODE
 70
     1
  9
$QTEXTMODE
 70
     0
  9
$MIRRTEXT
 70
     0
  9
$LTSCALE
 40
1.0
  9
$ATTMODE
 70
     1
  9
$TEXTSIZE
 40
2.5
  9
$TRACEWID
 40
1.0
  9
$TEXTSTYLE
  7
Standard
  9
$CLAYER
  8
0
  9
$CELTYPE
  6
ByLayer
  9
$CECOLOR
 62
   256
  9
$CELTSCALE
 40
1.0
  9
$DISPSILH
 70
     0
  9
$DIMSCALE
 40
1.0
  9
$DIMASZ
 40
2.5
  9
$DIMEXO
 40
0.625
  9
$DIMDLI
 40
3.75
  9
$DIMRND
 40
0.0
  9
$DIMDLE
 40
0.0
  9
$DIMEXE
 40
1.25
  9
$DIMTP
 40
0.0
  9
$DIMTM
 40
0.0
  9
$DIMTXT
 40
2.5
  9
$DIMCEN
 40
2.5
  9
$DIMTSZ
 40
0.0
  9
$DIMTOL
 70
     0
  9
$DIMLIM
 70
     0
  9
$DIMTIH
 70
     0
  9
$DIMTOH
 70
     0
  9
$DIMSE1
 70
     0
  9
$DIMSE2
 70
     0
  9
$DIMTAD
 70
     1
  9
$DIMZIN
 70
     8
  9
$DIMBLK
  1

  9
$DIMASO
 70
     1
  9
$DIMSHO
 70
     1
  9
$DIMPOST
  1

  9
$DIMAPOST
  1

  9
$DIMALT
 70
     0
  9
$DIMALTD
 70
     3
  9
$DIMALTF
 40
0.03937007874016
  9
$DIMLFAC
 40
1.0
  9
$DIMTOFL
 70
     1
  9
$DIMTVP
 40
0.0
  9
$DIMTIX
 70
     0
  9
$DIMSOXD
 70
     0
  9
$DIMSAH
 70
     0
  9
$DIMBLK1
  1

  9
$DIMBLK2
  1

  9
$DIMSTYLE
  2
ISO-25
  9
$DIMCLRD
 70
     0
  9
$DIMCLRE
 70
     0
  9
$DIMCLRT
 70
     0
  9
$DIMTFAC
 40
1.0
  9
$DIMGAP
 40
0.625
  9
$DIMJUST
 70
     0
  9
$DIMSD1
 70
     0
  9
$DIMSD2
 70
     0
  9
$DIMTOLJ
 70
     0
  9
$DIMTZIN
 70
     8
  9
$DIMALTZ
 70
     0
  9
$DIMALTTZ
 70
     0
  9
$DIMUPT
 70
     0
  9
$DIMDEC
 70
     2
  9
$DIMTDEC
 70
     2
  9
$DIMALTU
 70
     2
  9
$DIMALTTD
 70
     3
  9
$DIMTXSTY
  7
Standard
  9
$DIMAUNIT
 70
     0
  9
$DIMADEC
 70
     0
  9
$DIMALTRND
 40
0.0
  9
$DIMAZIN
 70
     0
  9
$DIMDSEP
 70
    44
  9
$DIMATFIT
 70
     3
  9
$DIMFRAC
 70
     0
  9
$DIMLDRBLK
  1

  9
$DIMLUNIT
 70
     2
  9
$DIMLWD
 70
    -2
  9
$DIMLWE
 70
    -2
  9
$DIMTMOVE
 70
     0
  9
$LUNITS
 70
     2
  9
$LUPREC
 70
     4
  9
$SKETCHINC
 40
1.0
  9
$FILLETRAD
 40
0.0
  9
$AUNITS
 70
     0
  9
$AUPREC
 70
     0
  9
$MENU
  1
.
  9
$ELEVATION
 40
0.0
  9
$PELEVATION
 40
0.0
  9
$THICKNESS
 40
0.0
  9
$LIMCHECK
 70
     0
  9
$CHAMFERA
 40
0.0
  9
$CHAMFERB
 40
0.0
  9
$CHAMFERC
 40
0.0
  9
$CHAMFERD
 40
0.0
  9
$SKPOLY
 70
     0
  9
$TDCREATE
 40
2453910.426320162
  9
$TDUCREATE
 40
2453910.384653495
  9
$TDUPDATE
 40
2456141.699295961
  9
$TDUUPDATE
 40
2456141.657629294
  9
$TDINDWG
 40
0.0898929398
  9
$TDUSRTIMER
 40
0.0898929398
  9
$USRTIMER
 70
     1
  9
$ANGBASE
 50
0.0
  9
$ANGDIR
 70
     0
  9
$PDMODE
 70
     0
  9
$PDSIZE
 40
0.0
  9
$PLINEWID
 40
0.0
  9
$SPLFRAME
 70
     0
  9
$SPLINETYPE
 70
     6
  9
$SPLINESEGS
 70
     8
  9
$HANDSEED
  5
172
  9
$SURFTAB1
 70
     6
  9
$SURFTAB2
 70
     6
  9
$SURFTYPE
 70
     6
  9
$SURFU
 70
     6
  9
$SURFV
 70
     6
  9
$UCSBASE
  2

  9
$UCSNAME
  2

  9
$UCSORG
 10
0.0
 20
0.0
 30
0.0
  9
$UCSXDIR
 10
1.0
 20
0.0
 30
0.0
  9
$UCSYDIR
 10
0.0
 20
1.0
 30
0.0
  9
$UCSORTHOREF
  2

  9
$UCSORTHOVIEW
 70
     0
  9
$UCSORGTOP
 10
0.0
 20
0.0
 30
0.0
  9
$UCSORGBOTTOM
 10
0.0
 20
0.0
 30
0.0
  9
$UCSORGLEFT
 10
0.0
 20
0.0
 30
0.0
  9
$UCSORGRIGHT
 10
0.0
 20
0.0
 30
0.0
  9
$UCSORGFRONT
 10
0.0
 20
0.0
 30
0.0
  9
$UCSORGBACK
 10
0.0
 20
0.0
 30
0.0
  9
$PUCSBASE
  2

  9
$PUCSNAME
  2

  9
$PUCSORG
 10
0.0
 20
0.0
 30
0.0
  9
$PUCSXDIR
 10
1.0
 20
0.0
 30
0.0
  9
$PUCSYDIR
 10
0.0
 20
1.0
 30
0.0
  9
$PUCSORTHOREF
  2

  9
$PUCSORTHOVIEW
 70
     0
  9
$PUCSORGTOP
 10
0.0
 20
0.0
 30
0.0
  9
$PUCSORGBOTTOM
 10
0.0
 20
0.0
 30
0.0
  9
$PUCSORGLEFT
 10
0.0
 20
0.0
 30
0.0
  9
$PUCSORGRIGHT
 10
0.0
 20
0.0
 30
0.0
  9
$PUCSORGFRONT
 10
0.0
 20
0.0
 30
0.0
  9
$PUCSORGBACK
 10
0.0
 20
0.0
 30
0.0
  9
$USERI1
 70
     0
  9
$USERI2
 70
     0
  9
$USERI3
 70
     0
  9
$USERI4
 70
     0
  9
$USERI5
 70
     0
  9
$USERR1
 40
0.0
  9
$USERR2
 40
0.0
  9
$USERR3
 40
0.0
  9
$USERR4
 40
0.0
  9
$USERR5
 40
0.0
  9
$WORLDVIEW
 70
     1
  9
$SHADEDGE
 70
     3
  9
$SHADEDIF
 70
    70
  9
$TILEMODE
 70
     1
  9
$MAXACTVP
 70
    64
  9
$PINSBASE
 10
0.0
 20
0.0
 30
0.0
  9
$PLIMCHECK
 70
     0
  9
$PEXTMIN
 10
1.000000000000000E+20
 20
1.000000000000000E+20
 30
1.000000000000000E+20
  9
$PEXTMAX
 10
-1.000000000000000E+20
 20
-1.000000000000000E+20
 30
-1.000000000000000E+20
  9
$PLIMMIN
 10
0.0
 20
0.0
  9
$PLIMMAX
 10
420.0
 20
297.0
  9
$UNITMODE
 70
     0
  9
$VISRETAIN
 70
     1
  9
$PLINEGEN
 70
     0
  9
$PSLTSCALE
 70
     1
  9
$TREEDEPTH
 70
  3020
  9
$CMLSTYLE
  2
Standard
  9
$CMLJUST
 70
     0
  9
$CMLSCALE
 40
20.0
  9
$PROXYGRAPHICS
 70
     1
  9
$MEASUREMENT
 70
     1
  9
$CELWEIGHT
370
    -1
  9
$ENDCAPS
280
     0
  9
$JOINSTYLE
280
     0
  9
$LWDISPLAY
290
     0
  9
$INSUNITS
 70
     4
  9
$HYPERLINKBASE
  1

  9
$STYLESHEET
  1

  9
$XEDIT
290
     1
  9
$CEPSNTYPE
380
     0
  9
$PSTYLEMODE
290
     1
  9
$FINGERPRINTGUID
  2
{04FF1C36-3ABE-4C01-A1D9-D1E94C3EEE0D}
  9
$VERSIONGUID
  2
{2671C333-2DFF-4F8C-848C-8D609F7845E3}
  9
$EXTNAMES
290
     1
  9
$PSVPSCALE
 40
0.0
  9
$OLESTARTUP
290
     0
  0
ENDSEC
  0
SECTION
  2
CLASSES
  0
CLASS
  1
ACDBDICTIONARYWDFLT
  2
AcDbDictionaryWithDefault
  3
ObjectDBX Classes
 90
        0
280
     0
281
     0
  0
CLASS
  1
TABLESTYLE
  2
AcDbTableStyle
  3
ObjectDBX Classes
 90
     4095
280
     0
281
     0
  0
CLASS
  1
DICTIONARYVAR
  2
AcDbDictionaryVar
  3
ObjectDBX Classes
 90
        0
280
     0
281
     0
  0
CLASS
  1
ACDBPLACEHOLDER
  2
AcDbPlaceHolder
  3
ObjectDBX Classes
 90
        0
280
     0
281
     0
  0
CLASS
  1
LAYOUT
  2
AcDbLayout
  3
ObjectDBX Classes
 90
        0
280
     0
281
     0
  0
CLASS
  1
MATERIAL
  2
AcDbMaterial
  3
ObjectDBX Classes
 90
     1153
280
     0
281
     0
  0
CLASS
  1
VISUALSTYLE
  2
AcDbVisualStyle
  3
ObjectDBX Classes
 90
     4095
280
     0
281
     0
  0
CLASS
  1
SCALE
  2
AcDbScale
  3
ObjectDBX Classes
 90
     1153
280
     0
281
     0
  0
CLASS
  1
MLEADERSTYLE
  2
AcDbMLeaderStyle
  3
ACDB_MLEADERSTYLE_CLASS
 90
     4095
280
     0
281
     0
  0
CLASS
  1
CELLSTYLEMAP
  2
AcDbCellStyleMap
  3
ObjectDBX Classes
 90
     1152
280
     0
281
     0
  0
ENDSEC
  0
SECTION
  2
TABLES
  0
TABLE
  2
VPORT
  5
8
330
0
100
AcDbSymbolTable
 70
     1
  0
VPORT
  5
E5
330
8
100
AcDbSymbolTableRecord
100
AcDbViewportTableRecord
  2
*Active
 70
     0
 10
0.0
 20
0.0
 11
1.0
 21
1.0
 12
42.98771172759322
 22
148.5679785968596
 13
0.0
 23
0.0
 14
10.0
 24
10.0
 15
10.0
 25
10.0
 16
0.0
 26
0.0
 36
1.0
 17
0.0
 27
0.0
 37
0.0
 40
1.796196329103048
 41
1.645464025026068
 42
50.0
 43
0.0
 44
0.0
 50
0.0
 51
0.0
 71
     0
 72
  1000
 73
     1
 74
     3
 75
     0
 76
     0
 77
     0
 78
     0
281
     0
 65
     1
110
0.0
120
0.0
130
0.0
111
1.0
121
0.0
131
0.0
112
0.0
122
1.0
132
0.0
 79
     0
146
0.0
  0
ENDTAB
  0
TABLE
  2
LTYPE
  5
5
330
0
100
AcDbSymbolTable
 70
     1
  0
LTYPE
  5
14
330
5
100
AcDbSymbolTableRecord
100
AcDbLinetypeTableRecord
  2
ByBlock
 70
     0
  3

 72
    65
 73
     0
 40
0.0
  0
LTYPE
  5
15
330
5
100
AcDbSymbolTableRecord
100
AcDbLinetypeTableRecord
  2
ByLayer
 70
     0
  3

 72
    65
 73
     0
 40
0.0
  0
LTYPE
  5
16
330
5
100
AcDbSymbolTableRecord
100
AcDbLinetypeTableRecord
  2
Continuous
 70
     0
  3
Solid line
 72
    65
 73
     0
 40
0.0
  0
ENDTAB
  0
TABLE
  2
LAYER
  5
2
330
0
100
AcDbSymbolTable
 70
     2
  0
LAYER
  5
10
102
{ACAD_XDICTIONARY
360
134
102
}
330
2
100
AcDbSymbolTableRecord
100
AcDbLayerTableRecord
  2
0
 70
     0
 62
     7
  6
Continuous
370
    -3
390
F
  0
LAYER
  5
2F
102
{ACAD_XDICTIONARY
360
136
102
}
330
2
100
AcDbSymbolTableRecord
100
AcDbLayerTableRecord
  2
BLOCKS
 70
     0
 62
     3
  6
Continuous
370
    -3
390
F
  0
ENDTAB
  0
TABLE
  2
STYLE
  5
3
330
0
100
AcDbSymbolTable
 70
     2
  0
STYLE
  5
11
330
3
100
AcDbSymbolTableRecord
100
AcDbTextStyleTableRecord
  2
Standard
 70
     0
 40
0.0
 41
1.0
 50
0.0
 71
     0
 42
2.5
  3
txt
  4

  0
STYLE
  5
30
330
3
100
AcDbSymbolTableRecord
100
AcDbTextStyleTableRecord
  2
cotas
 70
     0
 40
2.0
 41
0.8
 50
0.0
 71
     0
 42
4.0
  3
ISOCP.shx
  4

  0
ENDTAB
  0
TABLE
  2
VIEW
  5
6
330
0
100
AcDbSymbolTable
 70
     0
  0
ENDTAB
  0
TABLE
  2
UCS
  5
7
330
0
100
AcDbSymbolTable
 70
     0
  0
ENDTAB
  0
TABLE
  2
APPID
  5
9
330
0
100
AcDbSymbolTable
 70
     2
  0
APPID
  5
12
330
9
100
AcDbSymbolTableRecord
100
AcDbRegAppTableRecord
  2
ACAD
 70
     0
  0
APPID
  5
171
330
9
100
AcDbSymbolTableRecord
100
AcDbRegAppTableRecord
  2
ACAD_MLEADERVER
 70
     0
  0
ENDTAB
  0
TABLE
  2
DIMSTYLE
  5
A
330
0
100
AcDbSymbolTable
 70
     1
100
AcDbDimStyleTable
 71
     0
  0
DIMSTYLE
105
2B
330
A
100
AcDbSymbolTableRecord
100
AcDbDimStyleTableRecord
  2
ISO-25
 70
     0
 41
2.5
 42
0.625
 43
3.75
 44
1.25
 73
     0
 74
     0
 77
     1
 78
     8
140
2.5
141
2.5
143
0.03937007874016
147
0.625
171
     3
172
     1
271
     2
272
     2
274
     3
278
    44
283
     0
284
     8
340
11
  0
ENDTAB
  0
TABLE
  2
BLOCK_RECORD
  5
1
330
0
100
AcDbSymbolTable
 70
     7
  0
BLOCK_RECORD
  5
23
330
1
100
AcDbSymbolTableRecord
100
AcDbBlockTableRecord
  2
*Model_Space
340
26
  0
BLOCK_RECORD
  5
1F
330
1
100
AcDbSymbolTableRecord
100
AcDbBlockTableRecord
  2
*Paper_Space
340
22
  0
BLOCK_RECORD
  5
27
330
1
100
AcDbSymbolTableRecord
100
AcDbBlockTableRecord
  2
*Paper_Space0
340
2A
  0
BLOCK_RECORD
  5
31
330
1
100
AcDbSymbolTableRecord
100
AcDbBlockTableRecord
  2
103111PL
340
0
1001
ACAD
1000
DesignCenter Data
1002
{
1070
     1
1070
     4
1002
}
  0
BLOCK_RECORD
  5
47
330
1
100
AcDbSymbolTableRecord
100
AcDbBlockTableRecord
  2
103111CT
340
0
1001
ACAD
1000
DesignCenter Data
1002
{
1070
     1
1070
     4
1002
}
  0
BLOCK_RECORD
  5
96
330
1
100
AcDbSymbolTableRecord
100
AcDbBlockTableRecord
  2
103022PL
340
0
102
{BLKREFS
331
A1
102
}
1001
ACAD
1000
DesignCenter Data
1002
{
1070
     1
1070
     4
1002
}
  0
BLOCK_RECORD
  5
A2
330
1
100
AcDbSymbolTableRecord
100
AcDbBlockTableRecord
  2
103022CT
340
0
102
{BLKREFS
331
B2
102
}
1001
ACAD
1000
DesignCenter Data
1002
{
1070
     1
1070
     4
1002
}
  0
BLOCK_RECORD
  5
B3
330
1
100
AcDbSymbolTableRecord
100
AcDbBlockTableRecord
  2
103022AL
340
0
102
{BLKREFS
331
C1
102
}
1001
ACAD
1000
DesignCenter Data
1002
{
1070
     1
1070
     4
1002
}
  0
BLOCK_RECORD
  5
C5
330
1
100
AcDbSymbolTableRecord
100
AcDbBlockTableRecord
  2
103022AF
340
0
102
{BLKREFS
331
CD
102
}
1001
ACAD
1000
DesignCenter Data
1002
{
1070
     1
1070
     4
1002
}
  0
ENDTAB
  0
ENDSEC
  0
SECTION
  2
BLOCKS
  0
BLOCK
  5
24
330
23
100
AcDbEntity
  8
0
100
AcDbBlockBegin
  2
*Model_Space
 70
     0
 10
0.0
 20
0.0
 30
0.0
  3
*Model_Space
  1

  0
ENDBLK
  5
25
330
23
100
AcDbEntity
  8
0
100
AcDbBlockEnd
  0
BLOCK
  5
20
330
1F
100
AcDbEntity
 67
     1
  8
0
100
AcDbBlockBegin
  2
*Paper_Space
 70
     0
 10
0.0
 20
0.0
 30
0.0
  3
*Paper_Space
  1

  0
ENDBLK
  5
21
330
1F
100
AcDbEntity
 67
     1
  8
0
100
AcDbBlockEnd
  0
BLOCK
  5
28
330
27
100
AcDbEntity
 67
     1
  8
0
100
AcDbBlockBegin
  2
*Paper_Space0
 70
     0
 10
0.0
 20
0.0
 30
0.0
  3
*Paper_Space0
  1

  0
ENDBLK
  5
29
330
27
100
AcDbEntity
 67
     1
  8
0
100
AcDbBlockEnd
  0
BLOCK
  5
43
330
31
100
AcDbEntity
  8
0
100
AcDbBlockBegin
  2
103111PL
 70
     0
 10
0.0
 20
0.0
 30
0.0
  3
103111PL
  1

  0
ARC
  5
32
330
31
100
AcDbEntity
  8
BLOCKS
  6
Continuous
100
AcDbCircle
 10
0.175
 20
-0.0050000000000011
 30
0.0
 40
0.005
100
AcDbArc
 50
0.0
 51
90.00000000000651
  0
LINE
  5
33
330
31
100
AcDbEntity
  8
BLOCKS
  6
Continuous
100
AcDbLine
 10
0.1799999999999977
 20
-0.0050000000000011
 30
0.0
 11
0.18
 21
-0.0720702583928517
 31
0.0
  0
LINE
  5
34
330
31
100
AcDbEntity
  8
BLOCKS
  6
Continuous
100
AcDbLine
 10
-0.1506980476652825
 20
0.0
 30
0.0
 11
0.1506980476652825
 21
0.0
 31
0.0
  0
CIRCLE
  5
35
330
31
100
AcDbEntity
  8
BLOCKS
100
AcDbCircle
 10
-0.0000110764574583
 20
-0.0799516303918438
 30
0.0
 40
0.019969285936496
  0
ARC
  5
36
330
31
100
AcDbEntity
  8
BLOCKS
  6
Continuous
100
AcDbCircle
 10
-0.175
 20
-0.0050000000000011
 30
0.0
 40
0.0050000000000005
100
AcDbArc
 50
89.99999999999349
 51
180.0
  0
LINE
  5
37
330
31
100
AcDbEntity
  8
BLOCKS
  6
Continuous
100
AcDbLine
 10
-0.18
 20
-0.0720702583928517
 30
0.0
 11
-0.18
 21
-0.0050000000000011
 31
0.0
  0
LINE
  5
38
330
31
100
AcDbEntity
  8
BLOCKS
  6
Continuous
100
AcDbLine
 10
-0.175
 20
0.0
 30
0.0
 11
-0.1506980476652825
 21
0.0
 31
0.0
  0
CIRCLE
  5
39
330
31
100
AcDbEntity
  8
BLOCKS
100
AcDbCircle
 10
0.0800000000000409
 20
-0.2849999999999739
 30
0.0
 40
0.0075
  0
CIRCLE
  5
3A
330
31
100
AcDbEntity
  8
BLOCKS
100
AcDbCircle
 10
-0.0800000000000409
 20
-0.2849999999999739
 30
0.0
 40
0.0075
  0
LWPOLYLINE
  5
3B
330
31
100
AcDbEntity
  8
BLOCKS
  6
Continuous
100
AcDbPolyline
 90
        9
 70
     0
 43
0.0
 10
0.0996314723421802
 20
-0.170124352104832
 10
0.0755418131888632
 20
-0.1743460284165224
 10
0.0512764133054819
 20
-0.177402986468552
 10
0.0266603312419557
 20
-0.179298901896583
 10
0.0019810508599858
 20
-0.1799961334891486
 10
-0.0234465091746779
 20
-0.1794577032822247
 10
-0.0488150906544343
 20
-0.1776468884213875
 10
-0.0743186839363421
 20
-0.1745285406619689
 10
-0.0996314723421802
 20
-0.170124352104832
  0
LWPOLYLINE
  5
3C
330
31
100
AcDbEntity
  8
BLOCKS
100
AcDbPolyline
 90
        6
 70
     1
 43
0.0
 10
-0.0196170000000393
 20
-0.4129229999999837
 42
0.289338
 10
-0.0376760000000329
 20
-0.4243279999999522
 42
0.386432
 10
-0.0154240000000525
 20
-0.4980080000000283
 42
0.27675
 10
0.015424000000053
 20
-0.4980080000000283
 42
0.386432
 10
0.0376760000000334
 20
-0.4243279999999522
 42
0.289338
 10
0.0196170000000393
 20
-0.4129229999999837
  0
LWPOLYLINE
  5
3D
330
31
100
AcDbEntity
  8
BLOCKS
100
AcDbPolyline
 90
        2
 70
     0
 43
0.0
 10
0.1699999999999593
 20
-0.3790790000000482
 42
0.382016
 10
-0.1699999999999591
 20
-0.3790790000000482
 42
0.382016
  0
LWPOLYLINE
  5
3E
330
31
100
AcDbEntity
  8
BLOCKS
  6
Continuous
100
AcDbPolyline
 90
       14
 70
     0
 43
0.0
 10
-0.0996314723421802
 20
-0.170124352104832
 10
-0.110494227996378
 20
-0.1672989953860099
 10
-0.1210075424118372
 20
-0.1632667044230413
 10
-0.130973735750281
 20
-0.158103265219653
 10
-0.1402897202221267
 20
-0.1518421844280613
 10
-0.1488764224256579
 20
-0.1445578364973528
 10
-0.1565724129665659
 20
-0.136387173527811
 10
-0.1632917057957093
 20
-0.1273956834706053
 10
-0.1689840937676627
 20
-0.1176799280212174
 10
-0.173542584749341
 20
-0.1074225544768717
 10
-0.1763381539715783
 20
-0.09885594959571
 10
-0.1783593795651814
 20
-0.0900364443062165
 10
-0.1795865615635262
 20
-0.0810719200810502
 10
-0.18
 20
-0.0720702583928517
  0
LWPOLYLINE
  5
3F
330
31
100
AcDbEntity
  8
BLOCKS
100
AcDbPolyline
 90
       12
 70
     1
 43
0.0
 10
-0.06751799999995
 20
-0.6300450000000018
 42
0.295545
 10
0.06751799999995
 20
-0.6300450000000018
 42
0.162005
 10
0.1075230000000147
 20
-0.5859799999999553
 42
0.104355
 10
0.125
 20
-0.5031539999999961
 10
0.125
 20
-0.4668460000000335
 42
0.104355
 10
0.1075230000000147
 20
-0.3840199999999652
 42
0.162005
 10
0.06751799999995
 20
-0.3399550000000375
 42
0.295545
 10
-0.06751799999995
 20
-0.3399550000000375
 42
0.162005
 10
-0.1075230000000147
 20
-0.3840199999999652
 42
0.104355
 10
-0.125
 20
-0.4668460000000335
 10
-0.125
 20
-0.5031539999999961
 42
0.104355
 10
-0.1075230000000147
 20
-0.5859799999999553
 42
0.162005
  0
LWPOLYLINE
  5
40
330
31
100
AcDbEntity
  8
BLOCKS
  6
Continuous
100
AcDbPolyline
 90
       14
 70
     0
 43
0.0
 10
0.18
 20
-0.0720702583928517
 10
0.1793617888654717
 20
-0.0832793879776739
 10
0.1774708553892151
 20
-0.0943826322377675
 10
0.1743627494622137
 20
-0.1051711875932699
 10
0.1700500669167059
 20
-0.1155374270695222
 10
0.1645902613121416
 20
-0.1253890824865641
 10
0.1580860039314712
 20
-0.1345408593985576
 10
0.1505854472381247
 20
-0.1428947158502354
 10
0.1421728743752646
 20
-0.1503833660491466
 10
0.1330065095434318
 20
-0.1568659537200449
 10
0.1251599218442016
 20
-0.1612840341946878
 10
0.1169140574870562
 20
-0.1649933953856282
 10
0.1083706598577851
 20
-0.1679536353399749
 10
0.0996314723421802
 20
-0.170124352104832
  0
LWPOLYLINE
  5
41
330
31
100
AcDbEntity
  8
BLOCKS
100
AcDbPolyline
 90
       12
 70
     0
 43
0.0
 10
0.1087176289637682
 20
-0.1678334124667083
 10
0.1705829999999651
 20
-0.2537969999999598
 42
-0.157229
 10
0.17999999999995
 20
-0.283003000000009
 10
0.17999999999995
 20
-0.5031539999999961
 42
-0.104355
 10
0.1578339999999798
 20
-0.6082010000000093
 42
-0.158993
 10
0.0960079999999835
 20
-0.6771119999999712
 42
-0.290475
 10
-0.0960079999999835
 20
-0.6771119999999712
 42
-0.158993
 10
-0.1578339999999798
 20
-0.6082010000000093
 42
-0.104355
 10
-0.17999999999995
 20
-0.5031539999999961
 10
-0.17999999999995
 20
-0.283003000000009
 42
-0.157229
 10
-0.1705829999999651
 20
-0.2537969999999598
 10
-0.1086737818413394
 20
-0.1677724857174792
  0
LINE
  5
42
330
31
100
AcDbEntity
  8
BLOCKS
  6
Continuous
100
AcDbLine
 10
0.1506980476652825
 20
0.0
 30
0.0
 11
0.175
 21
0.0
 31
0.0
  0
ENDBLK
  5
44
330
31
100
AcDbEntity
  8
0
100
AcDbBlockEnd
  0
BLOCK
  5
94
330
47
100
AcDbEntity
  8
0
100
AcDbBlockBegin
  2
103111CT
 70
     0
 10
0.0
 20
0.0
 30
0.0
  3
103111CT
  1

  0
LINE
  5
48
330
47
100
AcDbEntity
  8
BLOCKS
  6
Continuous
100
AcDbLine
 10
0.158320948236742
 20
0.7849999999999631
 30
0.0
 11
0.1679640284446918
 21
0.7849999999999631
 31
0.0
  0
LINE
  5
49
330
47
100
AcDbEntity
  8
BLOCKS
  6
Continuous
100
AcDbLine
 10
0.1745974435095519
 20
0.7849999999999631
 30
0.0
 11
0.1679640284446918
 21
0.7849999999999631
 31
0.0
  0
LINE
  5
4A
330
47
100
AcDbEntity
  8
BLOCKS
  6
Continuous
100
AcDbLine
 10
0.1799999131080472
 20
0.7869999999999613
 30
0.0
 11
0.1799999131080472
 21
0.7962408388575751
 31
0.0
  0
LINE
  5
4B
330
47
100
AcDbEntity
  8
BLOCKS
  6
Continuous
100
AcDbLine
 10
0.1779999127642668
 20
0.7849999999999631
 30
0.0
 11
0.1699999113615058
 21
0.7849999999999631
 31
0.0
  0
LWPOLYLINE
  5
4C
330
47
100
AcDbEntity
  8
BLOCKS
  6
Continuous
100
AcDbPolyline
 90
        7
 70
     0
 43
0.0
 10
0.1679999110037375
 20
0.7829999999999656
 10
0.1680001251869589
 20
0.7830292692134487
 10
0.1680504020901299
 20
0.7834465590224227
 10
0.1683081118110613
 20
0.7840666842571227
 10
0.1687565590355621
 20
0.7845665489285972
 10
0.1693451848015115
 20
0.7848897971543102
 10
0.1699999113615058
 20
0.7849999999999631
  0
LWPOLYLINE
  5
4D
330
47
100
AcDbEntity
  8
BLOCKS
  6
Continuous
100
AcDbPolyline
 90
        7
 70
     0
 43
0.0
 10
0.1799999131080472
 20
0.7869999999999613
 10
0.1799985102234791
 20
0.7869251029424868
 10
0.1798610555643108
 20
0.7862677782651281
 10
0.1795137712549467
 20
0.7856930060218566
 10
0.1789958109181253
 20
0.7852655873590994
 10
0.1783655705723686
 20
0.7850337104959726
 10
0.1779999127642645
 20
0.7849999999999631
  0
LWPOLYLINE
  5
4E
330
47
100
AcDbEntity
  8
BLOCKS
  6
Continuous
100
AcDbPolyline
 90
       11
 70
     0
 43
0.0
 10
0.1399999056735805
 20
0.8149999999999636
 10
0.1432416969680708
 20
0.8147337483209595
 10
0.1463982943032857
 20
0.8139488954622448
 10
0.1494877723701097
 20
0.8126039723541907
 10
0.1523098022010754
 20
0.8107628204031067
 10
0.1547799451699507
 20
0.8084710778860426
 10
0.1568334617685696
 20
0.8057996064543573
 10
0.1584057797280025
 20
0.8028194215454915
 10
0.1594592647477884
 20
0.7996188192340924
 10
0.1598638318086159
 20
0.7973251233036627
 10
0.1599999095433122
 20
0.7949999999999636
  0
LWPOLYLINE
  5
4F
330
47
100
AcDbEntity
  8
BLOCKS
  6
Continuous
100
AcDbPolyline
 90
       10
 70
     0
 43
0.0
 10
0.1511633309570425
 20
0.8262182706536441
 10
0.1561789786762233
 20
0.8255945059338591
 10
0.1610204480356083
 20
0.8241433068145312
 10
0.1655468880558828
 20
0.8218944970220128
 10
0.1696350828705886
 20
0.8189225502097087
 10
0.1731619928437999
 20
0.8153022318203511
 10
0.1760359996275429
 20
0.8111446021871415
 10
0.1781657471532913
 20
0.8065609392749047
 10
0.179501543562526
 20
0.8016863687146184
 10
0.1799999131080472
 20
0.7962408388575751
  0
LWPOLYLINE
  5
50
330
47
100
AcDbEntity
  8
BLOCKS
  6
Continuous
100
AcDbPolyline
 90
        6
 70
     0
 43
0.0
 10
0.0999977949565892
 20
0.8267147529432076
 10
0.1000541626530389
 20
0.8270457306479874
 10
0.1002169066881811
 20
0.8273393929660688
 10
0.1004676869172204
 20
0.8275626496451701
 10
0.1007782571176563
 20
0.8276903354203938
 10
0.1010187689505983
 20
0.8277145315077092
  0
LWPOLYLINE
  5
51
330
47
100
AcDbEntity
  8
BLOCKS
  6
Continuous
100
AcDbPolyline
 90
        6
 70
     0
 43
0.0
 10
0.0590079604407293
 20
0.8282760591419719
 10
0.0593386900189944
 20
0.8282177391812911
 10
0.0596314715310314
 20
0.8280532321508326
 10
0.059853280648465
 20
0.827801091287929
 10
0.0599791027486373
 20
0.8274897700869406
 10
0.0600022050434086
 20
0.827276074214178
  0
LWPOLYLINE
  5
52
330
47
100
AcDbEntity
  8
BLOCKS
  6
Continuous
100
AcDbPolyline
 90
       20
 70
     0
 43
0.0
 10
0.101018768950596
 20
0.8277145315077092
 10
0.1008782524242201
 20
0.8277169164632056
 10
0.1001697857705835
 20
0.8277288950353705
 10
0.0988931594043948
 20
0.8277502454781188
 10
0.0970765919491919
 20
0.827780149854243
 10
0.0947790399107112
 20
0.8278171583530365
 10
0.0920592062354899
 20
0.8278597853384326
 10
0.0889998637947133
 20
0.8279062267291555
 10
0.0856835593599596
 20
0.8279547256676233
 10
0.0822074467938319
 20
0.8280035557424071
 10
0.0777923167307677
 20
0.8280625584982493
 10
0.0743174615103067
 20
0.8281066208976426
 10
0.0710030645714574
 20
0.8281467371739381
 10
0.0679464010293987
 20
0.8281820367387354
 10
0.0652297368611494
 20
0.8282120737946394
 10
0.0629357324071521
 20
0.8282364412268179
 10
0.0611229886524529
 20
0.8282550558858293
 10
0.0598502157229518
 20
0.8282677931970653
 10
0.0591457311001347
 20
0.8282747144675523
 10
0.0590079604407293
 20
0.8282760591419719
  0
LWPOLYLINE
  5
53
330
47
100
AcDbEntity
  8
BLOCKS
  6
Continuous
100
AcDbPolyline
 90
        7
 70
     0
 43
0.0
 10
0.1009978999694209
 20
0.8149999999999636
 10
0.1007850038454944
 20
0.8150229204751127
 10
0.1004735210560125
 20
0.8151484818521288
 10
0.1002211707990455
 20
0.81537006580742
 10
0.1001066319796587
 20
0.8155463345167664
 10
0.1000066987815427
 20
0.8158668593719632
 10
0.0999977949565892
 20
0.8159999999999673
  0
LWPOLYLINE
  5
54
330
47
100
AcDbEntity
  8
BLOCKS
  6
Continuous
100
AcDbPolyline
 90
        7
 70
     0
 43
0.0
 10
0.0600022050434086
 20
0.8159999999999673
 10
0.0599963866991288
 20
0.8158922894605717
 10
0.0599046973584882
 20
0.8155693164608328
 10
0.0597112714174529
 20
0.8152948900509001
 10
0.0595482832246245
 20
0.8151622976825274
 10
0.0592401530462121
 20
0.815028741936867
 10
0.0590021000305774
 20
0.8149999999999636
  0
LINE
  5
55
330
47
100
AcDbEntity
  8
BLOCKS
  6
Continuous
100
AcDbLine
 10
0.04
 20
0.8149999999999636
 30
0.0
 11
0.0590021000305774
 21
0.8149999999999636
 31
0.0
  0
LINE
  5
56
330
47
100
AcDbEntity
  8
BLOCKS
  6
Continuous
100
AcDbLine
 10
0.0590021000305774
 20
0.8149999999999636
 30
0.0
 11
0.1009978999694209
 21
0.8149999999999636
 31
0.0
  0
LINE
  5
57
330
47
100
AcDbEntity
  8
BLOCKS
  6
Continuous
100
AcDbLine
 10
0.0999977949565914
 20
0.8159999999999673
 30
0.0
 11
0.0999977949565914
 21
0.8267147529432076
 31
0.0
  0
LINE
  5
58
330
47
100
AcDbEntity
  8
BLOCKS
  6
Continuous
100
AcDbLine
 10
0.0600022050434086
 20
0.8272760742141873
 30
0.0
 11
0.0600022050434086
 21
0.8159999999999673
 31
0.0
  0
LINE
  5
59
330
47
100
AcDbEntity
  8
BLOCKS
  6
Continuous
100
AcDbLine
 10
0.0720721082201135
 20
0.7849999999999631
 30
0.0
 11
0.158320948236742
 21
0.7849999999999631
 31
0.0
  0
ARC
  5
5A
330
47
100
AcDbEntity
  8
BLOCKS
  6
Continuous
100
AcDbCircle
 10
0.0426000864244679
 20
-1.971087017403733
 30
0.0
 40
2.799411161772628
100
AcDbArc
 50
87.77746977369842
 51
88.8042532002612
  0
LINE
  5
5B
330
47
100
AcDbEntity
  8
BLOCKS
  6
Continuous
100
AcDbLine
 10
0.1009978999694209
 20
0.8149999999999636
 30
0.0
 11
0.1399999056735828
 21
0.8149999999999636
 31
0.0
  0
LINE
  5
5C
330
47
100
AcDbEntity
  8
BLOCKS
  6
Continuous
100
AcDbLine
 10
0.16599991064307
 20
0.7769999999999619
 30
0.0
 11
0.161999909912895
 21
0.7769999999999619
 31
0.0
  0
LWPOLYLINE
  5
5D
330
47
100
AcDbEntity
  8
BLOCKS
  6
Continuous
100
AcDbPolyline
 90
        7
 70
     0
 43
0.0
 10
0.161999909912895
 20
0.7769999999999619
 10
0.1618457795608197
 20
0.7770059478834633
 10
0.1611944254387322
 20
0.7771693730578768
 10
0.1606338836033274
 20
0.7775391876197046
 10
0.1603587524750628
 20
0.7778569324543787
 10
0.1600729047460459
 20
0.7784646006544966
 10
0.1599999095433122
 20
0.77899999999996
  0
LWPOLYLINE
  5
5E
330
47
100
AcDbEntity
  8
BLOCKS
  6
Continuous
100
AcDbPolyline
 90
        7
 70
     0
 43
0.0
 10
0.1679999110037375
 20
0.77899999999996
 10
0.1679738218620946
 20
0.778678012570453
 10
0.1677559705088879
 20
0.7780427879751643
 10
0.1673401368027339
 20
0.777515481731416
 10
0.1667732027675152
 20
0.7771555435742182
 10
0.1661190858391887
 20
0.777003553837958
 10
0.16599991064307
 20
0.7769999999999619
  0
LWPOLYLINE
  5
5F
330
47
100
AcDbEntity
  8
BLOCKS
  6
Continuous
100
AcDbPolyline
 90
       22
 70
   128
 43
0.0
 10
0.0599189501380897
 20
0.7303999828995808
 10
0.0576951110698542
 20
0.7301658884079734
 10
0.0544231397616386
 20
0.7288584597966837
 10
0.0517677606281632
 20
0.7265420390542932
 10
0.0500285212487461
 20
0.7234782547789837
 10
0.0494006043522842
 20
0.7200126544838169
 10
0.0494005233660215
 20
0.7200048351683382
 10
0.0499591778562558
 20
0.7165191635492557
 10
0.0516416182220337
 20
0.7134154699160354
 10
0.0542545690200268
 20
0.7110468023262184
 10
0.0575007190802603
 20
0.7096777961735825
 10
0.0610189545735921
 20
0.709459792115913
 10
0.0631670084835651
 20
0.7099211896716589
 10
0.0662835500400274
 20
0.7115633166734553
 10
0.0686839706472392
 20
0.7141474475518408
 10
0.07009375990737
 20
0.7173826087012373
 10
0.0703520881416944
 20
0.7209019248864753
 10
0.0694303865916209
 20
0.7243070093503411
 10
0.0674338775654383
 20
0.7272137328928869
 10
0.0645886165891494
 20
0.7292950452090105
 10
0.0612156916215827
 20
0.7303172431840723
 10
0.0599189501380897
 20
0.7303999828995808
  0
ARC
  5
60
330
47
100
AcDbEntity
  8
BLOCKS
  6
Continuous
100
AcDbCircle
 10
0.1745974435095519
 20
0.7799999999999637
 30
0.0
 40
0.005
100
AcDbArc
 50
355.566062394246
 51
90.0
  0
LINE
  5
61
330
47
100
AcDbEntity
  8
BLOCKS
  6
Continuous
100
AcDbLine
 10
0.1679999110037375
 20
0.77899999999996
 30
0.0
 11
0.1679999110037375
 21
0.7829999999999656
 31
0.0
  0
LINE
  5
62
330
47
100
AcDbEntity
  8
BLOCKS
  6
Continuous
100
AcDbLine
 10
0.1599999095433122
 20
0.77899999999996
 30
0.0
 11
0.1599999095433145
 21
0.7949999999999636
 31
0.0
  0
LWPOLYLINE
  5
63
330
47
100
AcDbEntity
  8
BLOCKS
100
AcDbPolyline
 90
        6
 70
     0
 43
0.0
 10
0.6309999999999445
 20
0.3550000000000182
 42
-0.493351
 10
0.626170999999972
 20
0.3612970000000314
 10
0.6330699999999478
 20
0.3869760000000042
 42
-0.269169
 10
0.6401899999999341
 20
0.3940539999999777
 10
0.6591100000000278
 20
0.39901799999996
 42
-0.064234
 10
0.6667230000000199
 20
0.3999999999999824
  0
LWPOLYLINE
  5
64
330
47
100
AcDbEntity
  8
BLOCKS
100
AcDbPolyline
 90
        3
 70
     0
 43
0.0
 10
0.2859999999999173
 20
0.3550000000000182
 10
0.2800849999999582
 20
0.39571899999999
 42
0.372564
 10
0.2751369999999452
 20
0.3999999999999824
  0
ARC
  5
65
330
47
100
AcDbEntity
  8
BLOCKS
  6
Continuous
100
AcDbCircle
 10
0.134350352265244
 20
0.4269999999999618
 30
0.0
 40
0.0050000000000001
100
AcDbArc
 50
270.0
 51
355.2715921594772
  0
ARC
  5
66
330
47
100
AcDbEntity
  8
BLOCKS
  6
Continuous
100
AcDbCircle
 10
0.1453976352072777
 20
0.4149999999999637
 30
0.0
 40
0.0049999999999999
100
AcDbArc
 50
270.0
 51
355.2599133184893
  0
LINE
  5
67
330
47
100
AcDbEntity
  8
BLOCKS
  6
Continuous
100
AcDbLine
 10
0.1030000000000001
 20
0.4099999999999637
 30
0.0
 11
0.0390000000000009
 21
0.4099999999999637
 31
0.0
  0
ARC
  5
68
330
47
100
AcDbEntity
  8
BLOCKS
  6
Continuous
100
AcDbCircle
 10
0.0390000000000009
 20
0.4109999999999673
 30
0.0
 40
0.0010000000000001
100
AcDbArc
 50
270.0
 51
0.0
  0
LINE
  5
69
330
47
100
AcDbEntity
  8
BLOCKS
  6
Continuous
100
AcDbLine
 10
0.04
 20
0.4209999999999674
 30
0.0
 11
0.04
 21
0.4109999999999673
 31
0.0
  0
ARC
  5
6A
330
47
100
AcDbEntity
  8
BLOCKS
  6
Continuous
100
AcDbCircle
 10
0.0390000000000009
 20
0.4209999999999674
 30
0.0
 40
0.0010000000000001
100
AcDbArc
 50
0.0
 51
90.0
  0
LINE
  5
6B
330
47
100
AcDbEntity
  8
BLOCKS
  6
Continuous
100
AcDbLine
 10
0.1019999999999982
 20
0.4109999999999673
 30
0.0
 11
0.1019999999999982
 21
0.4209999999999674
 31
0.0
  0
ARC
  5
6C
330
47
100
AcDbEntity
  8
BLOCKS
  6
Continuous
100
AcDbCircle
 10
0.1030000000000001
 20
0.4209999999999674
 30
0.0
 40
0.0010000000000001
100
AcDbArc
 50
90.0
 51
180.0
  0
ARC
  5
6D
330
47
100
AcDbEntity
  8
BLOCKS
  6
Continuous
100
AcDbCircle
 10
0.1030000000000001
 20
0.4109999999999673
 30
0.0
 40
0.0010000000000001
100
AcDbArc
 50
180.0
 51
270.0
  0
LINE
  5
6E
330
47
100
AcDbEntity
  8
BLOCKS
100
AcDbLine
 10
0.0410000000000264
 20
0.4099999999999637
 30
0.0
 11
0.1009999999999718
 21
0.4099999999999637
 31
0.0
  0
LINE
  5
6F
330
47
100
AcDbEntity
  8
BLOCKS
  6
Continuous
100
AcDbLine
 10
0.1030000000000001
 20
0.4099999999999637
 30
0.0
 11
0.1453976352072777
 21
0.4099999999999637
 31
0.0
  0
LINE
  5
70
330
47
100
AcDbEntity
  8
BLOCKS
  6
Continuous
100
AcDbLine
 10
0.1030000000000001
 20
0.4219999999999618
 30
0.0
 11
0.134350352265244
 21
0.4219999999999618
 31
0.0
  0
LWPOLYLINE
  5
71
330
47
100
AcDbEntity
  8
BLOCKS
100
AcDbPolyline
 90
        3
 70
     0
 43
0.0
 10
0.0473719999999685
 20
0.3350000000000364
 10
0.1713369999999668
 20
0.2170129999999517
 42
-0.376684
 10
0.1725169999999434
 20
0.2038710000000537
  0
LWPOLYLINE
  5
72
330
47
100
AcDbEntity
  8
BLOCKS
100
AcDbPolyline
 90
        4
 70
     0
 43
0.0
 10
0.3314910000000009
 20
0.040746000000018
 10
0.3314910000000009
 20
0.0343609999999899
 42
-0.4142140000000001
 10
0.32149100000001
 20
0.024360999999999
 10
0.2459219999999232
 20
0.024360999999999
  0
LWPOLYLINE
  5
73
330
47
100
AcDbEntity
  8
BLOCKS
100
AcDbPolyline
 90
       14
 70
     0
 43
0.0
 10
0.5342139999999926
 20
0.0
 10
0.5216289999999344
 20
0.169539999999979
 42
0.7865640000000001
 10
0.5120409999999265
 20
0.1711239999999634
 10
0.4686079999999902
 20
0.0688320000000385
 42
-0.635115
 10
0.3148449999999639
 20
0.0630489999999736
 10
0.2713879999999745
 20
0.1471970000000056
 42
0.7425190000000001
 10
0.2525629999999819
 20
0.1437079999999514
 42
0.030536
 10
0.2459999999999536
 20
0.0099999999999909
 10
0.1459999999999309
 20
0.0099999999999909
 42
-0.008966
 10
0.1462429999999995
 20
0.0498800000000301
 42
0.4212670000000001
 10
0.1412440000000015
 20
0.0549999999999455
 10
0.1147979999999234
 20
0.0549999999999455
 42
0.404367
 10
0.1098009999999203
 20
0.0501689999999871
 42
0.011435
 10
0.1092559999999321
 20
0.0
  0
ARC
  5
74
330
47
100
AcDbEntity
  8
BLOCKS
100
AcDbCircle
 10
-2.603859857964064
 20
0.8186060381075003
 30
0.0
 40
2.783715442712533
100
AcDbArc
 50
351.6548059056364
 51
359.197409460711
  0
ARC
  5
75
330
47
100
AcDbEntity
  8
BLOCKS
100
AcDbCircle
 10
-2.905383804904531
 20
0.8501556587631421
 30
0.0
 40
3.074038413003524
100
AcDbArc
 50
352.0800907885249
 51
358.7854986401881
  0
LINE
  5
76
330
47
100
AcDbEntity
  8
BLOCKS
  6
Continuous
100
AcDbLine
 10
0.0120000000000005
 20
0.7849999999999631
 30
0.0
 11
0.0169996765860856
 21
0.7849999999999631
 31
0.0
  0
LINE
  5
77
330
47
100
AcDbEntity
  8
BLOCKS
  6
Continuous
100
AcDbLine
 10
0.0120000000000005
 20
0.7849999999999631
 30
0.0
 11
0.0049999999999727
 21
0.7849999999999631
 31
0.0
  0
ARC
  5
78
330
47
100
AcDbEntity
  8
BLOCKS
  6
Continuous
100
AcDbCircle
 10
0.04
 20
0.7949999999999636
 30
0.0
 40
0.03
100
AcDbArc
 50
129.2229359114614
 51
180.0
  0
ARC
  5
79
330
47
100
AcDbEntity
  8
BLOCKS
  6
Continuous
100
AcDbCircle
 10
0.0426000864244679
 20
-1.971087017403733
 30
0.0
 40
2.789411161772628
100
AcDbArc
 50
90.44306762474041
 51
90.66963591205286
  0
LINE
  5
7A
330
47
100
AcDbEntity
  8
BLOCKS
  6
Continuous
100
AcDbLine
 10
0.01
 20
0.818133637866631
 30
0.0
 11
0.01
 21
0.7949999999999636
 31
0.0
  0
LWPOLYLINE
  5
7B
330
47
100
AcDbEntity
  8
BLOCKS
  6
Continuous
100
AcDbPolyline
 90
        6
 70
     0
 43
0.0
 10
-0.0000000000000023
 20
0.8230711696891285
 10
0.0002818560362584
 20
0.8247261976483242
 10
0.0010956470153269
 20
0.8261946337597692
 10
0.0023496241769772
 20
0.8273109229898727
 10
0.0039024111066988
 20
0.8279492121954353
 10
0.0049327227022241
 20
0.8280707170527245
  0
ARC
  5
7C
330
47
100
AcDbEntity
  8
BLOCKS
  6
Continuous
100
AcDbCircle
 10
0.01
 20
0.7829999999999656
 30
0.0
 40
0.002
100
AcDbArc
 50
0.0
 51
90.0
  0
LINE
  5
7D
330
47
100
AcDbEntity
  8
BLOCKS
  6
Continuous
100
AcDbLine
 10
0.01
 20
0.7849999999999631
 30
0.0
 11
0.0020000000000005
 21
0.7849999999999631
 31
0.0
  0
ARC
  5
7E
330
47
100
AcDbEntity
  8
BLOCKS
  6
Continuous
100
AcDbCircle
 10
0.0020000000000027
 20
0.7869999999999613
 30
0.0
 40
0.002
100
AcDbArc
 50
180.0
 51
270.0
  0
LINE
  5
7F
330
47
100
AcDbEntity
  8
BLOCKS
  6
Continuous
100
AcDbLine
 10
0.0
 20
0.8230711696891285
 30
0.0
 11
0.0
 21
0.7869999999999613
 31
0.0
  0
LINE
  5
80
330
47
100
AcDbEntity
  8
BLOCKS
  6
Continuous
100
AcDbLine
 10
0.0179999999999996
 20
0.7769999999999619
 30
0.0
 11
0.0140000000000009
 21
0.7769999999999619
 31
0.0
  0
ARC
  5
81
330
47
100
AcDbEntity
  8
BLOCKS
  6
Continuous
100
AcDbCircle
 10
0.0140000000000009
 20
0.77899999999996
 30
0.0
 40
0.002
100
AcDbArc
 50
180.0
 51
270.0
  0
ARC
  5
82
330
47
100
AcDbEntity
  8
BLOCKS
  6
Continuous
100
AcDbCircle
 10
0.0180000000000018
 20
0.77899999999996
 30
0.0
 40
0.002
100
AcDbArc
 50
270.0
 51
0.0
  0
LINE
  5
83
330
47
100
AcDbEntity
  8
BLOCKS
  6
Continuous
100
AcDbLine
 10
0.0179999999999996
 20
0.7769999999999619
 30
0.0
 11
0.023599999999999
 21
0.7769999999999619
 31
0.0
  0
ARC
  5
84
330
47
100
AcDbEntity
  8
BLOCKS
  6
Continuous
100
AcDbCircle
 10
0.005
 20
0.7799999999999637
 30
0.0
 40
0.005
100
AcDbArc
 50
90.00000000033219
 51
180.0
  0
LINE
  5
85
330
47
100
AcDbEntity
  8
BLOCKS
  6
Continuous
100
AcDbLine
 10
0.02
 20
0.7949999999999636
 30
0.0
 11
0.02
 21
0.77899999999996
 31
0.0
  0
LINE
  5
86
330
47
100
AcDbEntity
  8
BLOCKS
  6
Continuous
100
AcDbLine
 10
0.0120000000000005
 20
0.7829999999999656
 30
0.0
 11
0.0120000000000005
 21
0.77899999999996
 31
0.0
  0
ARC
  5
87
330
47
100
AcDbEntity
  8
BLOCKS
  6
Continuous
100
AcDbCircle
 10
0.005
 20
0.4149999999999637
 30
0.0
 40
0.005
100
AcDbArc
 50
180.0
 51
270.0
  0
ARC
  5
88
330
47
100
AcDbEntity
  8
BLOCKS
  6
Continuous
100
AcDbCircle
 10
0.0169999999999982
 20
0.4269999999999618
 30
0.0
 40
0.005
100
AcDbArc
 50
180.0
 51
270.0
  0
LINE
  5
89
330
47
100
AcDbEntity
  8
BLOCKS
  6
Continuous
100
AcDbLine
 10
0.0119999999999982
 20
0.4269999999999618
 30
0.0
 11
0.0120000000000005
 21
0.7849999999999631
 31
0.0
  0
LINE
  5
8A
330
47
100
AcDbEntity
  8
BLOCKS
  6
Continuous
100
AcDbLine
 10
0.0
 20
0.4149999999999637
 30
0.0
 11
0.0
 21
0.7799999999999637
 31
0.0
  0
LINE
  5
8B
330
47
100
AcDbEntity
  8
BLOCKS
  6
Continuous
100
AcDbLine
 10
0.0169996765860856
 20
0.7849999999999631
 30
0.0
 11
0.0720721082201135
 21
0.7849999999999631
 31
0.0
  0
LINE
  5
8C
330
47
100
AcDbEntity
  8
BLOCKS
  6
Continuous
100
AcDbLine
 10
0.005
 20
0.4099999999999637
 30
0.0
 11
0.0390000000000009
 21
0.4099999999999637
 31
0.0
  0
LINE
  5
8D
330
47
100
AcDbEntity
  8
BLOCKS
  6
Continuous
100
AcDbLine
 10
0.0169999999999982
 20
0.4219999999999618
 30
0.0
 11
0.0390000000000009
 21
0.4219999999999618
 31
0.0
  0
ARC
  5
8E
330
47
100
AcDbEntity
  8
BLOCKS
  6
Continuous
100
AcDbCircle
 10
0.0426000864244679
 20
-1.971087017403733
 30
0.0
 40
2.799411161772628
100
AcDbArc
 50
89.66417676422302
 51
90.77096431003116
  0
ARC
  5
8F
330
47
100
AcDbEntity
  8
BLOCKS
  6
Continuous
100
AcDbCircle
 10
0.04
 20
0.7949999999999636
 30
0.0
 40
0.02
100
AcDbArc
 50
90.0
 51
180.0
  0
LINE
  5
90
330
47
100
AcDbEntity
  8
BLOCKS
  6
Continuous
100
AcDbLine
 10
0.0235999999999831
 20
0.7769999999999527
 30
0.0
 11
0.161999909912895
 21
0.7769999999999619
 31
0.0
  0
LINE
  5
91
330
47
100
AcDbEntity
  8
BLOCKS
100
AcDbLine
 10
0.0590079604404537
 20
0.8282760591419719
 30
0.0
 11
0.0261922124084413
 21
0.8282760591419719
 31
0.0
  0
LWPOLYLINE
  5
92
330
47
100
AcDbEntity
  8
BLOCKS
100
AcDbPolyline
 90
       46
 70
     0
 43
0.0
 10
0.2309989999999698
 20
0.0099999999999909
 42
-0.030495
 10
0.2376539999999932
 20
0.1453559999999925
 42
-0.7425190000000001
 10
0.2847159999999758
 20
0.1540800000000217
 10
0.3281729999999652
 20
0.0699309999999969
 42
0.635115
 10
0.4548009999999477
 20
0.0746940000000177
 10
0.5247829999999294
 20
0.239514999999983
 42
-0.182097
 10
0.5612779999999884
 20
0.2777760000000126
 42
0.026557
 10
0.604048000000007
 20
0.3012459999999919
 42
0.119849
 10
0.649489999999987
 20
0.3474350000000231
 42
0.5823930000000001
 10
0.645198000000023
 20
0.3550000000000182
 10
0.650562000000009
 20
0.37
 10
0.656790999999971
 20
0.37
 42
0.320627
 10
0.6615219999999635
 20
0.3733809999999903
 42
0.005958
 10
0.6625430000000005
 20
0.3764850000000024
 42
0.590378
 10
0.6565060000000085
 20
0.3828270000000151
 10
0.6496100000000251
 20
0.38101800000004
 42
0.269169
 10
0.6460499999999183
 20
0.3774789999999939
 10
0.6457329999999228
 20
0.3762970000000223
 42
0.19352
 10
0.6461789999999337
 20
0.3725930000000517
 10
0.6398880000000144
 20
0.3550000000000182
 10
0.2700059999999394
 20
0.3550000000000182
 10
0.2644239999999354
 20
0.3692049999999654
 42
0.374181
 10
0.2679769999999462
 20
0.3747250000000173
 10
0.2671059999999852
 20
0.3807189999999991
 42
0.372564
 10
0.2621579999999722
 20
0.3849999999999909
 10
0.1291599999999289
 20
0.3849999999999909
 10
0.1254099999999607
 20
0.3800000000000006
 10
0.0278929999999218
 20
0.3800000000000006
 42
0.662216
 10
0.0242990000000145
 20
0.3715230000000247
 10
0.0436489999999321
 20
0.3515230000000429
 42
0.203213
 10
0.0472419999999556
 20
0.3500000000000176
 10
0.2455109999999377
 20
0.3500000000000176
 42
0.356394
 10
0.2504099999999608
 20
0.3540000000000418
 42
-0.212042
 10
0.2598329999999305
 20
0.3672189999999773
 10
0.2656409999999323
 20
0.3524380000000019
 42
0.175039
 10
0.2650909999999567
 20
0.3490860000000612
 42
0.116877
 10
0.3070209999999361
 20
0.2543070000000449
 42
-0.012507
 10
0.3367659999999842
 20
0.2130100000000493
 42
-0.112333
 10
0.3794460000000027
 20
0.1047290000000254
 42
-1.0
 10
0.3646179999999231
 20
0.1024619999999413
 42
0.112333
 10
0.3243789999999945
 20
0.2045510000000377
 42
0.014231
 10
0.2908759999999984
 20
0.250727999999981
 42
0.347169
 10
0.2848669999999356
 20
0.2522390000000269
 10
0.2184600000000228
 20
0.2224320000000262
 42
0.262898
 10
0.1688850000000184
 20
0.1551080000000365
 42
0.033154
 10
0.1610010000000284
 20
0.0099999999999909
 42
0.033154
  0
LWPOLYLINE
  5
93
330
47
100
AcDbEntity
  8
BLOCKS
100
AcDbPolyline
 90
       41
 70
     0
 43
0.0
 10
0.0403399999999874
 20
0.3800000000000006
 10
0.0403399999999874
 20
0.3899999999999818
 10
0.035339999999992
 20
0.3899999999999818
 10
0.027839999999942
 20
0.3999999999999824
 10
0.0234999999999855
 20
0.3999999999999824
 42
-0.236068
 10
0.0194999999999664
 20
0.4020000000000437
 10
0.0149999999999591
 20
0.408000000000011
 42
0.7207590000000001
 10
0.0059999999999445
 20
0.4049999999999728
 10
0.0059999999999445
 20
0.3769569999999476
 42
0.194619
 10
0.0116259999999511
 20
0.3630500000000387
 10
0.0328679999999804
 20
0.3410939999999937
 42
0.203213
 10
0.0472419999999556
 20
0.3350000000000364
 10
0.2488150000000087
 20
0.3350000000000364
 42
-0.343198
 10
0.2536609999999382
 20
0.3312290000000024
 42
0.067481
 10
0.2777409999999645
 20
0.2714879999999715
 42
-0.4426160000000001
 10
0.2754439999999659
 20
0.2644520000000011
 10
0.2123179999999547
 20
0.2361160000000382
 42
0.262898
 10
0.1539939999999842
 20
0.1569120000000294
 42
0.017474
 10
0.1473489999999356
 20
0.0794929999999567
 42
-0.399449
 10
0.1373620000000255
 20
0.0700000000000546
 10
0.1147979999999234
 20
0.0700000000000546
 42
0.404367
 10
0.094810000000025
 20
0.0506749999999556
 42
0.011395
 10
0.0942549999999483
 20
0.0
 10
0.5492549999999892
 20
0.0
 10
0.5339820000000099
 20
0.2057620000000497
 42
-0.30827
 10
0.5677859999999282
 20
0.2642620000000352
 42
0.026557
 10
0.6119509999999491
 20
0.2884979999999996
 42
0.201978
 10
0.6802859999999964
 20
0.3847809999999754
 42
0.054711
 10
0.6810000000000127
 20
0.3912880000000314
 10
0.6810000000000127
 20
0.3925000000000364
 42
0.4142140000000001
 10
0.6734999999999627
 20
0.3999999999999824
 10
0.1572499999999491
 20
0.3999999999999824
 42
-0.236068
 10
0.15324999999993
 20
0.4020000000000437
 10
0.1487499999999227
 20
0.408000000000011
 42
0.5
 10
0.1407499999999982
 20
0.408000000000011
 10
0.1362499999999909
 20
0.4020000000000437
 42
-0.236068
 10
0.1322499999999718
 20
0.3999999999999824
 10
0.1279100000000153
 20
0.3999999999999824
 10
0.1204099999999653
 20
0.3899999999999818
 10
0.1154099999999698
 20
0.3899999999999818
 10
0.1154099999999698
 20
0.3800000000000006
  0
ENDBLK
  5
95
330
47
100
AcDbEntity
  8
0
100
AcDbBlockEnd
  0
BLOCK
  5
9F
330
96
100
AcDbEntity
  8
0
100
AcDbBlockBegin
  2
103022PL
 70
     0
 10
0.0
 20
0.0
 30
0.0
  3
103022PL
  1

  0
CIRCLE
  5
97
330
96
100
AcDbEntity
  8
BLOCKS
100
AcDbCircle
 10
0.0800000000000409
 20
-0.2849999999999687
 30
0.0
 40
0.0075
  0
CIRCLE
  5
98
330
96
100
AcDbEntity
  8
BLOCKS
100
AcDbCircle
 10
-0.0800000000000409
 20
-0.2849999999999687
 30
0.0
 40
0.0075
  0
LWPOLYLINE
  5
99
330
96
100
AcDbEntity
  8
BLOCKS
100
AcDbPolyline
 90
        6
 70
     1
 43
0.0
 10
-0.0154240000000527
 20
-0.4980080000000277
 42
0.27675
 10
0.0154240000000527
 20
-0.4980080000000277
 42
0.386432
 10
0.0376760000000331
 20
-0.4243279999999464
 42
0.289338
 10
0.0196170000000393
 20
-0.4129229999999785
 10
-0.0196170000000393
 20
-0.4129229999999785
 42
0.289338
 10
-0.0376760000000331
 20
-0.4243279999999464
 42
0.386432
  0
LWPOLYLINE
  5
9A
330
96
100
AcDbEntity
  8
BLOCKS
100
AcDbPolyline
 90
        2
 70
     0
 43
0.0
 10
0.1699999999999591
 20
-0.3790790000000475
 42
0.382016
 10
-0.1699999999999591
 20
-0.3790790000000475
 42
0.382016
  0
CIRCLE
  5
9B
330
96
100
AcDbEntity
  8
BLOCKS
100
AcDbCircle
 10
0.0
 20
-0.1050000000000182
 30
0.0
 40
0.019
  0
LWPOLYLINE
  5
9C
330
96
100
AcDbEntity
  8
BLOCKS
100
AcDbPolyline
 90
       12
 70
     1
 43
0.0
 10
-0.06751799999995
 20
-0.6300449999999961
 42
0.295545
 10
0.06751799999995
 20
-0.6300449999999961
 42
0.162005
 10
0.1075230000000147
 20
-0.5859799999999501
 42
0.104355
 10
0.125
 20
-0.5031539999999956
 10
0.125
 20
-0.4668460000000329
 42
0.104355
 10
0.1075230000000147
 20
-0.3840199999999646
 42
0.162005
 10
0.06751799999995
 20
-0.3399550000000323
 42
0.295545
 10
-0.06751799999995
 20
-0.3399550000000323
 42
0.162005
 10
-0.1075230000000147
 20
-0.3840199999999646
 42
0.104355
 10
-0.125
 20
-0.4668460000000329
 10
-0.125
 20
-0.5031539999999956
 42
0.104355
 10
-0.1075230000000147
 20
-0.5859799999999501
 42
0.162005
  0
LWPOLYLINE
  5
9D
330
96
100
AcDbEntity
  8
BLOCKS
100
AcDbPolyline
 90
       10
 70
     1
 43
0.0
 10
-0.1653529999999819
 20
0.0
 42
0.124547
 10
-0.1748649999999543
 20
-0.0024069999999483
 42
0.161936
 10
-0.1937669999999798
 20
-0.0225319999999556
 42
0.077458
 10
-0.2041229999999814
 20
-0.058764999999994
 42
0.360201
 10
-0.1141529999999875
 20
-0.1927140000000236
 42
0.151424
 10
0.1141529999999875
 20
-0.1927140000000236
 42
0.360201
 10
0.2041229999999814
 20
-0.058764999999994
 42
0.077458
 10
0.1937669999999798
 20
-0.0225319999999556
 42
0.161936
 10
0.1748649999999543
 20
-0.0024069999999483
 42
0.124547
 10
0.1653529999999819
 20
0.0
  0
LWPOLYLINE
  5
9E
330
96
100
AcDbEntity
  8
BLOCKS
100
AcDbPolyline
 90
       12
 70
     0
 43
0.0
 10
-0.1241599999999607
 20
-0.1892910000000256
 10
-0.1705829999999651
 20
-0.2537969999999632
 42
0.157229
 10
-0.17999999999995
 20
-0.2830030000000084
 10
-0.17999999999995
 20
-0.5031539999999956
 42
0.104355
 10
-0.1578339999999798
 20
-0.6082010000000088
 42
0.158993
 10
-0.0960079999999835
 20
-0.6771119999999661
 42
0.290475
 10
0.0960079999999835
 20
-0.6771119999999661
 42
0.158993
 10
0.1578339999999798
 20
-0.6082010000000088
 42
0.104355
 10
0.17999999999995
 20
-0.5031539999999956
 10
0.17999999999995
 20
-0.2830030000000084
 42
0.157229
 10
0.1705829999999651
 20
-0.2537969999999632
 10
0.1241599999999607
 20
-0.1892910000000256
  0
ENDBLK
  5
A0
330
96
100
AcDbEntity
  8
0
100
AcDbBlockEnd
  0
BLOCK
  5
B0
330
A2
100
AcDbEntity
  8
0
100
AcDbBlockBegin
  2
103022CT
 70
     0
 10
0.0
 20
0.0
 30
0.0
  3
103022CT
  1

  0
LWPOLYLINE
  5
A3
330
A2
100
AcDbEntity
  8
BLOCKS
100
AcDbPolyline
 90
        5
 70
     0
 43
0.0
 10
0.1881469999999581
 20
0.7649999999999864
 10
0.1881469999999581
 20
0.7752890000000435
 42
0.4142140000000001
 10
0.1731469999999717
 20
0.7902890000000298
 10
0.0990000000000464
 20
0.7902890000000298
 10
0.0990000000000464
 20
0.8002890000000206
  0
LWPOLYLINE
  5
A4
330
A2
100
AcDbEntity
  8
BLOCKS
100
AcDbPolyline
 90
        6
 70
     0
 43
0.0
 10
0.6549999999999728
 20
0.3550000000000182
 42
-0.493351
 10
0.6501710000000003
 20
0.3612970000000359
 10
0.6570699999999761
 20
0.3869760000000042
 42
-0.269169
 10
0.6641899999999623
 20
0.3940539999999828
 10
0.6831100000000561
 20
0.3990179999999554
 42
-0.064234
 10
0.6907230000000482
 20
0.3999999999999772
  0
LWPOLYLINE
  5
A5
330
A2
100
AcDbEntity
  8
BLOCKS
100
AcDbPolyline
 90
        3
 70
     0
 43
0.0
 10
0.3099999999999454
 20
0.3550000000000182
 10
0.3040849999999864
 20
0.3957189999999855
 42
0.372564
 10
0.2991369999999733
 20
0.3999999999999772
  0
LWPOLYLINE
  5
A6
330
A2
100
AcDbEntity
  8
BLOCKS
100
AcDbPolyline
 90
        3
 70
     0
 43
0.0
 10
0.0713719999999967
 20
0.3350000000000364
 10
0.1617929999999887
 20
0.2489399999999478
 42
-0.677148
 10
0.1562199999999621
 20
0.2350000000000136
  0
LWPOLYLINE
  5
A7
330
A2
100
AcDbEntity
  8
BLOCKS
100
AcDbPolyline
 90
        4
 70
     0
 43
0.0
 10
0.3554910000000291
 20
0.0407460000000128
 10
0.3554910000000291
 20
0.0343609999999899
 42
-0.4142140000000001
 10
0.3454910000000382
 20
0.024360999999999
 10
0.2286860000000388
 20
0.024360999999999
  0
LWPOLYLINE
  5
A8
330
A2
100
AcDbEntity
  8
BLOCKS
100
AcDbPolyline
 90
       10
 70
     0
 43
0.0
 10
0.1732560000000376
 20
0.0
 42
-0.029643
 10
0.179395999999997
 20
0.1298170000000027
 42
-0.355645
 10
0.1838810000000421
 20
0.1342620000000352
 10
0.2930129999999735
 20
0.1449340000000348
 42
-0.307029
 10
0.2979420000000346
 20
0.1422519999999849
 10
0.3388449999999921
 20
0.0630489999999782
 42
0.635115
 10
0.4926080000000184
 20
0.0688320000000431
 10
0.5360409999999547
 20
0.1711239999999634
 42
-0.7865640000000001
 10
0.5456289999999627
 20
0.1695399999999836
 10
0.5582140000000209
 20
0.0
  0
LWPOLYLINE
  5
A9
330
A2
100
AcDbEntity
  8
BLOCKS
100
AcDbPolyline
 90
       48
 70
     0
 43
0.0
 10
0.1332549999999628
 20
0.1499999999999773
 10
0.1897239999999556
 20
0.1499999999999773
 42
0.024376
 10
0.1916710000000421
 20
0.1500949999999648
 10
0.2915530000000217
 20
0.159862999999973
 42
-0.307029
 10
0.3112690000000384
 20
0.1491350000000011
 10
0.3521729999999934
 20
0.0699309999999969
 42
0.635115
 10
0.4788009999999759
 20
0.0746940000000223
 10
0.5487829999999576
 20
0.239514999999983
 42
-0.182097
 10
0.5852780000000167
 20
0.2777760000000171
 42
0.026557
 10
0.6280480000000353
 20
0.3012459999999919
 42
0.119849
 10
0.6734900000000153
 20
0.3474350000000186
 42
0.5823930000000001
 10
0.6691980000000513
 20
0.3550000000000182
 10
0.6745620000000372
 20
0.3700000000000045
 10
0.6807909999999993
 20
0.3700000000000045
 42
0.320627
 10
0.6855219999999918
 20
0.3733809999999949
 42
0.005958
 10
0.6865430000000288
 20
0.3764850000000024
 42
0.590378
 10
0.6805060000000367
 20
0.3828270000000202
 10
0.6736100000000534
 20
0.38101800000004
 42
0.269169
 10
0.6700499999999466
 20
0.3774789999999939
 10
0.6697329999999511
 20
0.3762970000000223
 42
0.19352
 10
0.6701789999999619
 20
0.3725930000000517
 10
0.6638880000000427
 20
0.3550000000000182
 10
0.2940059999999676
 20
0.3550000000000182
 10
0.2884239999999636
 20
0.3692049999999654
 42
0.374181
 10
0.2919769999999744
 20
0.3747250000000122
 10
0.2911060000000134
 20
0.3807189999999991
 42
0.372564
 10
0.2861580000000003
 20
0.3849999999999909
 10
0.1531599999999571
 20
0.3849999999999909
 10
0.1494099999999889
 20
0.3799999999999954
 10
0.05189299999995
 20
0.3799999999999954
 42
0.662216
 10
0.0482990000000427
 20
0.3715230000000247
 10
0.0676489999999603
 20
0.3515230000000429
 42
0.203213
 10
0.0712419999999838
 20
0.3500000000000227
 10
0.2695109999999659
 20
0.3500000000000227
 42
0.356394
 10
0.2744099999999889
 20
0.3540000000000418
 42
-0.212042
 10
0.2838329999999587
 20
0.3672189999999773
 10
0.2896409999999605
 20
0.3524380000000065
 42
0.175039
 10
0.2890909999999849
 20
0.3490860000000566
 42
0.116877
 10
0.3310209999999643
 20
0.2543070000000398
 42
-0.012507
 10
0.3607660000000123
 20
0.2130100000000539
 42
-0.112333
 10
0.4034460000000309
 20
0.1047290000000203
 42
-1.0
 10
0.3886179999999513
 20
0.1024619999999459
 42
0.112333
 10
0.3483790000000226
 20
0.2045510000000377
 42
0.014231
 10
0.3148760000000266
 20
0.250727999999981
 42
0.347169
 10
0.3088669999999638
 20
0.2522390000000314
 10
0.240949999999998
 20
0.2217540000000326
 42
-0.105871
 10
0.2327599999999848
 20
0.2200000000000273
 10
0.1332549999999628
 20
0.2200000000000273
  0
LWPOLYLINE
  5
AA
330
A2
100
AcDbEntity
  8
BLOCKS
100
AcDbPolyline
 90
        6
 70
     0
 43
0.0
 10
0.125
 20
0.4249999999999546
 10
0.125
 20
0.4099999999999682
 10
0.1711169999999811
 20
0.4099999999999682
 42
0.34308
 10
0.1759630000000243
 20
0.4137690000000021
 42
0.048313
 10
0.2143429999999853
 20
0.6638819999999442
 42
0.009935
 10
0.2183270000000448
 20
0.7749999999999773
  0
CIRCLE
  5
AB
330
A2
100
AcDbEntity
  8
BLOCKS
100
AcDbCircle
 10
0.07000000000005
 20
0.6599999999999682
 30
0.0
 40
0.011
  0
LWPOLYLINE
  5
AC
330
A2
100
AcDbEntity
  8
BLOCKS
100
AcDbPolyline
 90
        2
 70
     0
 43
0.0
 10
0.2031469999999444
 20
0.7649999999999864
 10
0.0168280000000323
 20
0.7649999999999864
  0
LWPOLYLINE
  5
AD
330
A2
100
AcDbEntity
  8
BLOCKS
100
AcDbPolyline
 90
        6
 70
     0
 43
0.0
 10
0.0610000000000355
 20
0.8002890000000206
 10
0.0610000000000355
 20
0.7902890000000298
 10
0.0571579999999585
 20
0.7902890000000298
 42
0.002944
 10
0.0466519999999946
 20
0.790226999999959
 42
0.410769
 10
0.0318280000000186
 20
0.7752279999999701
 10
0.0318280000000186
 20
0.7649999999999864
  0
LWPOLYLINE
  5
AE
330
A2
100
AcDbEntity
  8
BLOCKS
100
AcDbPolyline
 90
       22
 70
     0
 43
0.0
 10
0.0650000000000546
 20
0.4249999999999546
 10
0.0650000000000546
 20
0.4099999999999682
 10
0.0099999999999909
 20
0.4099999999999682
 10
0.0099999999999909
 20
0.6720090000000028
 42
0.036868
 10
0.0
 20
0.7749999999999773
 10
0.0109750000000304
 20
0.7749999999999773
 42
-0.367816
 10
0.0159099999999626
 20
0.7708010000000059
 42
-0.034543
 10
0.0249999999999773
 20
0.6721810000000233
 10
0.0249999999999773
 20
0.42999999999995
 42
0.4142140000000001
 10
0.0299999999999727
 20
0.4249999999999546
 10
0.1593980000000101
 20
0.4249999999999546
 42
0.345601
 10
0.1642550000000256
 20
0.4288119999999936
 42
0.046054
 10
0.1993660000000545
 20
0.664716999999996
 42
0.009472
 10
0.2032420000000457
 20
0.7700889999999845
 42
-0.4090030000000001
 10
0.2082410000000436
 20
0.7749999999999773
 10
0.2198140000000421
 20
0.7749999999999773
 42
0.266333
 10
0.2166160000000445
 20
0.7844199999999546
 42
0.182719
 10
0.1746389999999565
 20
0.8002890000000206
 10
0.0571579999999585
 20
0.8002890000000206
 42
0.011883
 10
0.0142869999999675
 20
0.7992699999999786
 42
0.40036
 10
0.0
 20
0.7842869999999494
 10
0.0
 20
0.7749999999999773
  0
LWPOLYLINE
  5
AF
330
A2
100
AcDbEntity
  8
BLOCKS
100
AcDbPolyline
 90
       41
 70
     0
 43
0.0
 10
0.0643400000000156
 20
0.3799999999999954
 10
0.0643400000000156
 20
0.3899999999999863
 10
0.0593400000000202
 20
0.3899999999999863
 10
0.0518399999999701
 20
0.3999999999999772
 10
0.0475000000000137
 20
0.3999999999999772
 42
-0.236068
 10
0.0434999999999946
 20
0.4020000000000437
 10
0.0389999999999873
 20
0.4080000000000155
 42
0.7207590000000001
 10
0.0299999999999727
 20
0.4049999999999728
 10
0.0299999999999727
 20
0.3769569999999476
 42
0.194619
 10
0.0356259999999793
 20
0.3630500000000438
 10
0.0568680000000086
 20
0.3410939999999982
 42
0.203213
 10
0.0712419999999838
 20
0.3350000000000364
 10
0.2728150000000369
 20
0.3350000000000364
 42
-0.343198
 10
0.2776609999999664
 20
0.3312290000000075
 42
0.067481
 10
0.3017409999999927
 20
0.2714879999999766
 42
-0.4426160000000001
 10
0.299443999999994
 20
0.2644520000000057
 10
0.2348080000000436
 20
0.2354380000000447
 42
-0.105871
 10
0.2327599999999848
 20
0.2350000000000136
 10
0.1332549999999628
 20
0.2350000000000136
 10
0.1332549999999628
 20
0.1349999999999909
 10
0.1593040000000201
 20
0.1349999999999909
 42
-0.445248
 10
0.1642759999999725
 20
0.1294769999999517
 42
0.029165
 10
0.1582550000000538
 20
0.0
 10
0.5732550000000174
 20
0.0
 10
0.5579820000000382
 20
0.2057620000000497
 42
-0.30827
 10
0.5917859999999564
 20
0.2642620000000306
 42
0.026557
 10
0.6359509999999773
 20
0.2884980000000041
 42
0.201978
 10
0.7042860000000247
 20
0.3847809999999754
 42
0.054711
 10
0.705000000000041
 20
0.3912880000000314
 10
0.705000000000041
 20
0.3925000000000409
 42
0.4142140000000001
 10
0.6974999999999909
 20
0.3999999999999772
 10
0.1812499999999772
 20
0.3999999999999772
 42
-0.236068
 10
0.1772499999999582
 20
0.4020000000000437
 10
0.1727499999999509
 20
0.4080000000000155
 42
0.5
 10
0.1647500000000264
 20
0.4080000000000155
 10
0.1602500000000191
 20
0.4020000000000437
 42
-0.236068
 10
0.15625
 20
0.3999999999999772
 10
0.1519100000000435
 20
0.3999999999999772
 10
0.1444099999999935
 20
0.3899999999999863
 10
0.139409999999998
 20
0.3899999999999863
 10
0.139409999999998
 20
0.3799999999999954
  0
ENDBLK
  5
B1
330
A2
100
AcDbEntity
  8
0
100
AcDbBlockEnd
  0
BLOCK
  5
BF
330
B3
100
AcDbEntity
  8
0
100
AcDbBlockBegin
  2
103022AL
 70
     0
 10
0.0
 20
0.0
 30
0.0
  3
103022AL
  1

  0
CIRCLE
  5
B4
330
B3
100
AcDbEntity
  8
BLOCKS
100
AcDbCircle
 10
0.07000000000005
 20
0.6599999999999687
 30
0.0
 40
0.011
  0
ARC
  5
B5
330
B3
100
AcDbEntity
  8
BLOCKS
100
AcDbCircle
 10
0.2327599999999848
 20
0.2400000000000091
 30
0.0
 40
0.005
100
AcDbArc
 50
270.0
 51
294.1737320000009
  0
LWPOLYLINE
  5
B6
330
B3
100
AcDbEntity
  8
BLOCKS
100
AcDbPolyline
 90
        4
 70
     0
 43
0.0
 10
0.1812499999999772
 20
0.3999999999999772
 42
-0.236068
 10
0.1772499999999582
 20
0.4020000000000437
 10
0.1727499999999509
 20
0.4080000000000155
 42
0.236068
 10
0.1687500000000455
 20
0.4099999999999682
  0
LWPOLYLINE
  5
B7
330
B3
100
AcDbEntity
  8
BLOCKS
100
AcDbPolyline
 90
        2
 70
     0
 43
0.0
 10
0.0722409999999627
 20
0.4099999999999682
 10
0.0722409999999627
 20
0.3612590000000182
  0
LWPOLYLINE
  5
B8
330
B3
100
AcDbEntity
  8
BLOCKS
100
AcDbPolyline
 90
        3
 70
     0
 43
0.0
 10
0.0713719999999967
 20
0.3350000000000364
 10
0.1617929999999887
 20
0.2489399999999478
 42
-0.677148
 10
0.1562199999999621
 20
0.2350000000000136
  0
LWPOLYLINE
  5
B9
330
B3
100
AcDbEntity
  8
BLOCKS
100
AcDbPolyline
 90
        3
 70
     0
 43
0.0
 10
0.0580459999999903
 20
0.3612590000000182
 10
0.2259579999999914
 20
0.3612590000000182
 42
-0.052415
 10
0.3841039999999793
 20
0.3347529999999779
  0
LWPOLYLINE
  5
BA
330
B3
100
AcDbEntity
  8
BLOCKS
100
AcDbPolyline
 90
       14
 70
     0
 43
0.0
 10
0.2183270000000448
 20
0.7749999999999778
 42
-0.009935
 10
0.2143429999999853
 20
0.6638819999999447
 42
-0.048313
 10
0.1759630000000243
 20
0.4137690000000021
 42
-0.34308
 10
0.1711169999999811
 20
0.4099999999999682
 10
0.0099999999999909
 20
0.4099999999999682
 10
0.0099999999999909
 20
0.6720090000000033
 42
0.036868
 10
0.0
 20
0.7749999999999778
 10
0.0
 20
0.7842869999999499
 42
-0.40036
 10
0.0142869999999675
 20
0.7992699999999792
 42
-0.011883
 10
0.0571579999999585
 20
0.8002890000000212
 10
0.1746389999999565
 20
0.8002890000000212
 42
-0.182719
 10
0.2166160000000445
 20
0.7844199999999552
 42
-0.266333
 10
0.2198140000000421
 20
0.7749999999999778
 10
0.0
 20
0.7749999999999778
  0
ARC
  5
BB
330
B3
100
AcDbEntity
  8
BLOCKS
100
AcDbCircle
 10
0.1593040000000201
 20
0.1299999999999954
 30
0.0
 40
0.005
100
AcDbArc
 50
353.996387000002
 51
90.0
  0
LWPOLYLINE
  5
BC
330
B3
100
AcDbEntity
  8
BLOCKS
100
AcDbPolyline
 90
        4
 70
     0
 43
0.0
 10
0.1593040000000201
 20
0.1349999999999909
 10
0.1332549999999628
 20
0.1349999999999909
 10
0.1332549999999628
 20
0.2350000000000136
 10
0.2327599999999848
 20
0.2350000000000136
  0
LWPOLYLINE
  5
BD
330
B3
100
AcDbEntity
  8
BLOCKS
100
AcDbPolyline
 90
       13
 70
     0
 43
0.0
 10
0.0349999999999682
 20
0.4099999999999682
 42
0.4142140000000001
 10
0.0299999999999727
 20
0.4049999999999728
 10
0.0299999999999727
 20
0.3769569999999476
 42
0.194619
 10
0.0356259999999793
 20
0.3630500000000438
 10
0.0568680000000086
 20
0.3410939999999982
 42
0.203213
 10
0.0712419999999838
 20
0.3350000000000364
 10
0.2728150000000369
 20
0.3350000000000364
 42
-0.343198
 10
0.2776609999999664
 20
0.3312290000000075
 42
0.116231
 10
0.3284220000000459
 20
0.2336830000000418
 42
-0.179706
 10
0.3429680000000417
 20
0.1945170000000189
 10
0.3429680000000417
 20
0.0343609999999899
 42
-0.4142140000000001
 10
0.3329680000000508
 20
0.024360999999999
 10
0.2286860000000388
 20
0.024360999999999
  0
LWPOLYLINE
  5
BE
330
B3
100
AcDbEntity
  8
BLOCKS
100
AcDbPolyline
 90
       14
 70
     0
 43
0.0
 10
0.3017409999999927
 20
0.2714879999999766
 42
-0.4426160000000001
 10
0.299443999999994
 20
0.2644520000000057
 10
0.2251919999999927
 20
0.2311220000000276
 42
0.261566
 10
0.1669289999999819
 20
0.1524130000000241
 42
0.034361
 10
0.1582550000000538
 20
0.0
 10
0.5732550000000174
 20
0.0
 10
0.5579820000000382
 20
0.2057620000000497
 42
-0.30827
 10
0.5917859999999564
 20
0.2642620000000306
 42
0.026557
 10
0.6359509999999773
 20
0.2884980000000041
 42
0.201978
 10
0.7042860000000247
 20
0.3847809999999754
 42
0.054711
 10
0.705000000000041
 20
0.3912880000000314
 10
0.705000000000041
 20
0.3925000000000409
 42
0.4142140000000001
 10
0.6974999999999909
 20
0.3999999999999772
 10
0.1515910000000531
 20
0.3999999999999772
  0
ENDBLK
  5
C0
330
B3
100
AcDbEntity
  8
0
100
AcDbBlockEnd
  0
BLOCK
  5
CB
330
C5
100
AcDbEntity
  8
0
100
AcDbBlockBegin
  2
103022AF
 70
     0
 10
0.0
 20
0.0
 30
0.0
  3
103022AF
  1

  0
LWPOLYLINE
  5
C6
330
C5
100
AcDbEntity
  8
BLOCKS
100
AcDbPolyline
 90
        3
 70
     0
 43
0.0
 10
0.1200000000000045
 20
0.3999999999999772
 10
0.1140000000000327
 20
0.4080000000000155
 42
0.236068
 10
0.1100000000000136
 20
0.4099999999999682
  0
LWPOLYLINE
  5
C7
330
C5
100
AcDbEntity
  8
BLOCKS
100
AcDbPolyline
 90
        3
 70
     0
 43
0.0
 10
-0.1200000000000045
 20
0.3999999999999772
 10
-0.1140000000000327
 20
0.4080000000000155
 42
-0.236068
 10
-0.1100000000000136
 20
0.4099999999999682
  0
LWPOLYLINE
  5
C8
330
C5
100
AcDbEntity
  8
BLOCKS
100
AcDbPolyline
 90
        6
 70
     1
 43
0.0
 10
-0.1862559999999576
 20
0.7945650000000342
 42
0.330113
 10
-0.204482999999982
 20
0.7792389999999614
 42
0.107213
 10
-0.2045689999999922
 20
0.7749999999999773
 10
0.2045689999999922
 20
0.7749999999999773
 42
0.107213
 10
0.204482999999982
 20
0.7792389999999614
 42
0.330113
 10
0.1862559999999576
 20
0.7945650000000342
 42
0.030734
  0
LWPOLYLINE
  5
C9
330
C5
100
AcDbEntity
  8
BLOCKS
100
AcDbPolyline
 90
        8
 70
     0
 43
0.0
 10
-0.2032689999999775
 20
0.7749999999999773
 42
0.009935
 10
-0.1992840000000342
 20
0.6638819999999442
 42
0.102661
 10
-0.146319999999946
 20
0.4129950000000236
 42
0.297906
 10
-0.1417400000000271
 20
0.4099999999999682
 10
0.1417400000000271
 20
0.4099999999999682
 42
0.297906
 10
0.146319999999946
 20
0.4129950000000236
 42
0.102661
 10
0.1992840000000342
 20
0.6638819999999442
 42
0.009935
 10
0.2032689999999775
 20
0.7749999999999773
  0
LWPOLYLINE
  5
CA
330
C5
100
AcDbEntity
  8
BLOCKS
100
AcDbPolyline
 90
       14
 70
     1
 43
0.0
 10
0.17999999999995
 20
0.3925000000000409
 10
0.17999999999995
 20
0.3912880000000314
 42
-0.054711
 10
0.1792860000000473
 20
0.3847809999999754
 42
-0.19556
 10
0.1141199999999571
 20
0.2905160000000251
 42
0.27278
 10
0.0961399999999913
 20
0.2540900000000192
 10
0.1150000000000091
 20
0.0
 10
-0.1150000000000091
 20
0.0
 10
-0.0961399999999913
 20
0.2540900000000192
 42
0.27278
 10
-0.1141199999999571
 20
0.2905160000000251
 42
-0.19556
 10
-0.1792860000000473
 20
0.3847809999999754
 42
-0.054711
 10
-0.17999999999995
 20
0.3912880000000314
 10
-0.17999999999995
 20
0.3925000000000409
 42
-0.4142140000000001
 10
-0.1725000000000136
 20
0.3999999999999772
 10
0.1725000000000136
 20
0.3999999999999772
 42
-0.4142140000000001
  0
ENDBLK
  5
CC
330
C5
100
AcDbEntity
  8
0
100
AcDbBlockEnd
  0
ENDSEC
  0
SECTION
  2
ENTITIES
  0
INSERT
  5
A1
330
23
100
AcDbEntity
  8
0
100
AcDbBlockReference
  2
103022PL
 10
41.72687186279478
 20
148.8830725008834
 30
0.0
  0
INSERT
  5
B2
330
23
100
AcDbEntity
  8
0
100
AcDbBlockReference
  2
103022CT
 10
42.10443227694162
 20
148.1648781725708
 30
0.0
  0
INSERT
  5
C1
330
23
100
AcDbEntity
  8
0
100
AcDbBlockReference
  2
103022AL
 10
43.07582557621588
 20
148.1648781725708
 30
0.0
  0
INSERT
  5
CD
330
23
100
AcDbEntity
  8
0
100
AcDbBlockReference
  2
103022AF
 10
44.14457309396886
 20
148.1648781725708
 30
0.0
  0
ENDSEC
  0
SECTION
  2
OBJECTS
  0
DICTIONARY
  5
C
330
0
100
AcDbDictionary
281
     1
  3
ACAD_COLOR
350
1C
  3
ACAD_GROUP
350
D
  3
ACAD_LAYOUT
350
1A
  3
ACAD_MATERIAL
350
1B
  3
ACAD_MLEADERSTYLE
350
12F
  3
ACAD_MLINESTYLE
350
17
  3
ACAD_PLOTSETTINGS
350
19
  3
ACAD_PLOTSTYLENAME
350
E
  3
ACAD_SCALELIST
350
11D
  3
ACAD_TABLESTYLE
350
1D
  3
ACAD_VISUALSTYLE
350
109
  3
ACDB_RECOMPOSE_DATA
350
13F
  3
AcDbVariableDictionary
350
C3
  3
DWGPROPS
350
140
  0
DICTIONARY
  5
134
330
10
100
AcDbDictionary
280
     1
281
     1
  3
ADSK_XREC_LAYER_RECONCILED
360
135
  0
DICTIONARY
  5
136
330
2F
100
AcDbDictionary
280
     1
281
     1
  3
ADSK_XREC_LAYER_RECONCILED
360
137
  0
DICTIONARY
  5
1C
102
{ACAD_REACTORS
330
C
102
}
330
C
100
AcDbDictionary
281
     1
  0
DICTIONARY
  5
D
102
{ACAD_REACTORS
330
C
102
}
330
C
100
AcDbDictionary
281
     1
  0
DICTIONARY
  5
1A
102
{ACAD_REACTORS
330
C
102
}
330
C
100
AcDbDictionary
281
     1
  3
Layout1
350
22
  3
Layout2
350
2A
  3
Model
350
26
  0
DICTIONARY
  5
1B
102
{ACAD_REACTORS
330
C
102
}
330
C
100
AcDbDictionary
281
     1
  3
ByBlock
350
F9
  3
ByLayer
350
F1
  3
Global
350
101
  0
DICTIONARY
  5
12F
102
{ACAD_REACTORS
330
C
102
}
330
C
100
AcDbDictionary
281
     1
  3
Standard
350
130
  0
DICTIONARY
  5
17
102
{ACAD_REACTORS
330
C
102
}
330
C
100
AcDbDictionary
281
     1
  3
Standard
350
18
  0
DICTIONARY
  5
19
102
{ACAD_REACTORS
330
C
102
}
330
C
100
AcDbDictionary
281
     1
  0
ACDBDICTIONARYWDFLT
  5
E
102
{ACAD_REACTORS
330
C
102
}
330
C
100
AcDbDictionary
281
     1
  3
Normal
350
F
100
AcDbDictionaryWithDefault
340
F
  0
DICTIONARY
  5
11D
102
{ACAD_REACTORS
330
C
102
}
330
C
100
AcDbDictionary
281
     1
  3
A0
350
11E
  3
A1
350
11F
  3
A2
350
120
  3
A3
350
121
  3
A4
350
122
  3
A5
350
123
  3
A6
350
124
  3
A7
350
125
  3
A8
350
126
  3
A9
350
127
  3
B0
350
128
  3
B1
350
129
  3
B2
350
12A
  3
B3
350
12B
  3
B4
350
12C
  3
B5
350
12D
  3
B6
350
12E
  0
DICTIONARY
  5
1D
102
{ACAD_REACTORS
330
C
102
}
330
C
100
AcDbDictionary
281
     1
  3
Standard
350
1E
  0
DICTIONARY
  5
109
102
{ACAD_REACTORS
330
C
102
}
330
C
100
AcDbDictionary
281
     1
  3
2dWireframe
350
10F
  3
3D Hidden
350
111
  3
3dWireframe
350
110
  3
Basic
350
10E
  3
Brighten
350
115
  3
ColorChange
350
119
  3
Conceptual
350
112
  3
Dim
350
114
  3
EdgeColorOff
350
11C
  3
Facepattern
350
118
  3
Flat
350
10A
  3
FlatWithEdges
350
10B
  3
Gouraud
350
10C
  3
GouraudWithEdges
350
10D
  3
JitterOff
350
11A
  3
Linepattern
350
117
  3
OverhangOff
350
11B
  3
Realistic
350
113
  3
Thicken
350
116
  0
XRECORD
  5
13F
102
{ACAD_REACTORS
330
C
102
}
330
C
100
AcDbXrecord
280
     1
 90
        1
330
1E
  0
DICTIONARY
  5
C3
102
{ACAD_REACTORS
330
C
102
}
330
C
100
AcDbDictionary
281
     1
  3
CANNOSCALE
350
139
  3
CMLEADERSTYLE
350
138
  3
CTABLESTYLE
350
C4
  3
DIMASSOC
350
EE
  3
HIDETEXT
350
ED
  3
INDEXCTL
350
13B
  3
PROJECTNAME
350
EF
  3
SORTENTS
350
13A
  3
XCLIPFRAME
350
13C
  0
XRECORD
  5
140
102
{ACAD_REACTORS
330
C
102
}
330
C
100
AcDbXrecord
280
     1
  1
DWGPROPS COOKIE
  2

  3

  4

  6

  7

  8
Julio
  9

300
=
301
=
302
=
303
=
304
=
305
=
306
=
307
=
308
=
309
=
 40
0.0898927662037037
 41
2453910.426320162
 42
2456141.699295961
  1

 90
        0
  0
XRECORD
  5
135
102
{ACAD_REACTORS
330
134
102
}
330
134
100
AcDbXrecord
280
     1
290
     1
  0
XRECORD
  5
137
102
{ACAD_REACTORS
330
136
102
}
330
136
100
AcDbXrecord
280
     1
290
     1
  0
LAYOUT
  5
22
102
{ACAD_XDICTIONARY
360
142
102
}
102
{ACAD_REACTORS
330
1A
102
}
330
1A
100
AcDbPlotSettings
  1

  2
HP DesignJet 500PS42+HPGL2 Card
  4

  6

 40
0.0
 41
0.0
 42
0.0
 43
0.0
 44
0.0
 45
0.0
 46
0.0
 47
0.0
 48
0.0
 49
0.0
140
0.0
141
0.0
142
1.0
143
1.0
 70
   688
 72
     0
 73
     0
 74
     5
  7
C:\Documents and Settings\Julio\Application Data\Autodesk\AutoCAD 2006\R16.2\enu\Plot Styles\sanindusa.ctb
 75
    16
147
1.0
148
0.0
149
0.0
100
AcDbLayout
  1
Layout1
 70
     1
 71
     1
 10
0.0
 20
0.0
 11
420.0
 21
297.0
 12
0.0
 22
0.0
 32
0.0
 14
1.000000000000000E+20
 24
1.000000000000000E+20
 34
1.000000000000000E+20
 15
-1.000000000000000E+20
 25
-1.000000000000000E+20
 35
-1.000000000000000E+20
146
0.0
 13
0.0
 23
0.0
 33
0.0
 16
1.0
 26
0.0
 36
0.0
 17
0.0
 27
1.0
 37
0.0
 76
     0
330
1F
  0
LAYOUT
  5
2A
102
{ACAD_XDICTIONARY
360
146
102
}
102
{ACAD_REACTORS
330
1A
102
}
330
1A
100
AcDbPlotSettings
  1

  2
HP DesignJet 500PS42+HPGL2 Card
  4

  6

 40
0.0
 41
0.0
 42
0.0
 43
0.0
 44
0.0
 45
0.0
 46
0.0
 47
0.0
 48
0.0
 49
0.0
140
0.0
141
0.0
142
1.0
143
1.0
 70
   688
 72
     0
 73
     0
 74
     5
  7
C:\Documents and Settings\Julio\Application Data\Autodesk\AutoCAD 2006\R16.2\enu\Plot Styles\sanindusa.ctb
 75
    16
147
1.0
148
0.0
149
0.0
100
AcDbLayout
  1
Layout2
 70
     1
 71
     2
 10
0.0
 20
0.0
 11
12.0
 21
9.0
 12
0.0
 22
0.0
 32
0.0
 14
0.0
 24
0.0
 34
0.0
 15
0.0
 25
0.0
 35
0.0
146
0.0
 13
0.0
 23
0.0
 33
0.0
 16
1.0
 26
0.0
 36
0.0
 17
0.0
 27
1.0
 37
0.0
 76
     0
330
27
  0
LAYOUT
  5
26
102
{ACAD_XDICTIONARY
360
144
102
}
102
{ACAD_REACTORS
330
1A
102
}
330
1A
100
AcDbPlotSettings
  1

  2
HP DesignJet 500PS42+HPGL2 Card
  4

  6

 40
0.0
 41
0.0
 42
0.0
 43
0.0
 44
0.0
 45
0.0
 46
0.0
 47
0.0
 48
0.0
 49
0.0
140
0.0
141
0.0
142
1.0
143
1.0
 70
  1712
 72
     0
 73
     0
 74
     0
  7
C:\Documents and Settings\Julio\Application Data\Autodesk\AutoCAD 2006\R16.2\enu\Plot Styles\sanindusa.ctb
 75
     0
147
1.0
148
0.0
149
0.0
100
AcDbLayout
  1
Model
 70
     1
 71
     0
 10
0.0
 20
0.0
 11
12.0
 21
9.0
 12
0.0
 22
0.0
 32
0.0
 14
0.0
 24
0.0
 34
0.0
 15
0.0
 25
0.0
 35
0.0
146
0.0
 13
0.0
 23
0.0
 33
0.0
 16
1.0
 26
0.0
 36
0.0
 17
0.0
 27
1.0
 37
0.0
 76
     0
330
23
331
E5
  0
MATERIAL
  5
F9
102
{ACAD_XDICTIONARY
360
FA
102
}
102
{ACAD_REACTORS
330
1B
102
}
330
1B
100
AcDbMaterial
  1
ByBlock
 72
     0
 43
0.0008202099737533
 43
0.0
 43
0.0
 43
0.0
 43
0.0
 43
0.0008202099737533
 43
0.0
 43
0.0
 43
0.0
 43
0.0
 43
1.0
 43
0.0
 43
0.0
 43
0.0
 43
0.0
 43
1.0
 77
     0
 47
0.0008202099737533
 47
0.0
 47
0.0
 47
0.0
 47
0.0
 47
0.0008202099737533
 47
0.0
 47
0.0
 47
0.0
 47
0.0
 47
1.0
 47
0.0
 47
0.0
 47
0.0
 47
0.0
 47
1.0
171
     0
 49
0.0008202099737533
 49
0.0
 49
0.0
 49
0.0
 49
0.0
 49
0.0008202099737533
 49
0.0
 49
0.0
 49
0.0
 49
0.0
 49
1.0
 49
0.0
 49
0.0
 49
0.0
 49
0.0
 49
1.0
175
     0
142
0.0008202099737533
142
0.0
142
0.0
142
0.0
142
0.0
142
0.0008202099737533
142
0.0
142
0.0
142
0.0
142
0.0
142
1.0
142
0.0
142
0.0
142
0.0
142
0.0
142
1.0
179
     0
144
0.0008202099737533
144
0.0
144
0.0
144
0.0
144
0.0
144
0.0008202099737533
144
0.0
144
0.0
144
0.0
144
0.0
144
1.0
144
0.0
144
0.0
144
0.0
144
0.0
144
1.0
147
0.0008202099737533
147
0.0
147
0.0
147
0.0
147
0.0
147
0.0008202099737533
147
0.0
147
0.0
147
0.0
147
0.0
147
1.0
147
0.0
147
0.0
147
0.0
147
0.0
147
1.0
  0
MATERIAL
  5
F1
102
{ACAD_XDICTIONARY
360
F2
102
}
102
{ACAD_REACTORS
330
1B
102
}
330
1B
100
AcDbMaterial
  1
ByLayer
 72
     0
 43
0.0008202099737533
 43
0.0
 43
0.0
 43
0.0
 43
0.0
 43
0.0008202099737533
 43
0.0
 43
0.0
 43
0.0
 43
0.0
 43
1.0
 43
0.0
 43
0.0
 43
0.0
 43
0.0
 43
1.0
 77
     0
 47
0.0008202099737533
 47
0.0
 47
0.0
 47
0.0
 47
0.0
 47
0.0008202099737533
 47
0.0
 47
0.0
 47
0.0
 47
0.0
 47
1.0
 47
0.0
 47
0.0
 47
0.0
 47
0.0
 47
1.0
171
     0
 49
0.0008202099737533
 49
0.0
 49
0.0
 49
0.0
 49
0.0
 49
0.0008202099737533
 49
0.0
 49
0.0
 49
0.0
 49
0.0
 49
1.0
 49
0.0
 49
0.0
 49
0.0
 49
0.0
 49
1.0
175
     0
142
0.0008202099737533
142
0.0
142
0.0
142
0.0
142
0.0
142
0.0008202099737533
142
0.0
142
0.0
142
0.0
142
0.0
142
1.0
142
0.0
142
0.0
142
0.0
142
0.0
142
1.0
179
     0
144
0.0008202099737533
144
0.0
144
0.0
144
0.0
144
0.0
144
0.0008202099737533
144
0.0
144
0.0
144
0.0
144
0.0
144
1.0
144
0.0
144
0.0
144
0.0
144
0.0
144
1.0
147
0.0008202099737533
147
0.0
147
0.0
147
0.0
147
0.0
147
0.0008202099737533
147
0.0
147
0.0
147
0.0
147
0.0
147
1.0
147
0.0
147
0.0
147
0.0
147
0.0
147
1.0
  0
MATERIAL
  5
101
102
{ACAD_XDICTIONARY
360
102
102
}
102
{ACAD_REACTORS
330
1B
102
}
330
1B
100
AcDbMaterial
  1
Global
 72
     0
 43
0.0008202099737533
 43
0.0
 43
0.0
 43
0.0
 43
0.0
 43
0.0008202099737533
 43
0.0
 43
0.0
 43
0.0
 43
0.0
 43
1.0
 43
0.0
 43
0.0
 43
0.0
 43
0.0
 43
1.0
 77
     0
 47
0.0008202099737533
 47
0.0
 47
0.0
 47
0.0
 47
0.0
 47
0.0008202099737533
 47
0.0
 47
0.0
 47
0.0
 47
0.0
 47
1.0
 47
0.0
 47
0.0
 47
0.0
 47
0.0
 47
1.0
171
     0
 49
0.0008202099737533
 49
0.0
 49
0.0
 49
0.0
 49
0.0
 49
0.0008202099737533
 49
0.0
 49
0.0
 49
0.0
 49
0.0
 49
1.0
 49
0.0
 49
0.0
 49
0.0
 49
0.0
 49
1.0
175
     0
142
0.0008202099737533
142
0.0
142
0.0
142
0.0
142
0.0
142
0.0008202099737533
142
0.0
142
0.0
142
0.0
142
0.0
142
1.0
142
0.0
142
0.0
142
0.0
142
0.0
142
1.0
179
     0
144
0.0008202099737533
144
0.0
144
0.0
144
0.0
144
0.0
144
0.0008202099737533
144
0.0
144
0.0
144
0.0
144
0.0
144
1.0
144
0.0
144
0.0
144
0.0
144
0.0
144
1.0
147
0.0008202099737533
147
0.0
147
0.0
147
0.0
147
0.0
147
0.0008202099737533
147
0.0
147
0.0
147
0.0
147
0.0
147
1.0
147
0.0
147
0.0
147
0.0
147
0.0
147
1.0
  0
MLEADERSTYLE
  5
130
102
{ACAD_REACTORS
330
12F
102
}
330
12F
100
AcDbMLeaderStyle
170
     2
171
     1
172
     0
 90
        2
 40
0.0
 41
0.0
173
     1
 91
-1056964608
340
14
 92
       -2
290
     1
 42
2.0
291
     1
 43
0.36
  3
Standard
 44
4.0
300

342
11
174
     1
178
     6
175
     1
176
     0
 93
-1056964608
 45
4.0
292
     0
297
     0
 46
4.0
 94
-1056964608
 47
1.0
 49
1.0
140
1.0
293
     1
141
0.0
294
     1
177
     0
142
1.0
295
     0
296
     0
143
0.125
1001
ACAD_MLEADERVER
1070
     2
  0
MLINESTYLE
  5
18
102
{ACAD_REACTORS
330
17
102
}
330
17
100
AcDbMlineStyle
  2
STANDARD
 70
     0
  3

 62
   256
 51
90.0
 52
90.0
 71
     2
 49
0.5
 62
   256
  6
BYLAYER
 49
-0.5
 62
   256
  6
BYLAYER
  0
ACDBPLACEHOLDER
  5
F
102
{ACAD_REACTORS
330
E
102
}
330
E
  0
SCALE
  5
11E
102
{ACAD_REACTORS
330
11D
102
}
330
11D
100
AcDbScale
 70
     0
300
1:1
140
1.0
141
1.0
290
     1
  0
SCALE
  5
11F
102
{ACAD_REACTORS
330
11D
102
}
330
11D
100
AcDbScale
 70
     0
300
1:2
140
1.0
141
2.0
290
     0
  0
SCALE
  5
120
102
{ACAD_REACTORS
330
11D
102
}
330
11D
100
AcDbScale
 70
     0
300
1:4
140
1.0
141
4.0
290
     0
  0
SCALE
  5
121
102
{ACAD_REACTORS
330
11D
102
}
330
11D
100
AcDbScale
 70
     0
300
1:5
140
1.0
141
5.0
290
     0
  0
SCALE
  5
122
102
{ACAD_REACTORS
330
11D
102
}
330
11D
100
AcDbScale
 70
     0
300
1:8
140
1.0
141
8.0
290
     0
  0
SCALE
  5
123
102
{ACAD_REACTORS
330
11D
102
}
330
11D
100
AcDbScale
 70
     0
300
1:10
140
1.0
141
10.0
290
     0
  0
SCALE
  5
124
102
{ACAD_REACTORS
330
11D
102
}
330
11D
100
AcDbScale
 70
     0
300
1:16
140
1.0
141
16.0
290
     0
  0
SCALE
  5
125
102
{ACAD_REACTORS
330
11D
102
}
330
11D
100
AcDbScale
 70
     0
300
1:20
140
1.0
141
20.0
290
     0
  0
SCALE
  5
126
102
{ACAD_REACTORS
330
11D
102
}
330
11D
100
AcDbScale
 70
     0
300
1:30
140
1.0
141
30.0
290
     0
  0
SCALE
  5
127
102
{ACAD_REACTORS
330
11D
102
}
330
11D
100
AcDbScale
 70
     0
300
1:40
140
1.0
141
40.0
290
     0
  0
SCALE
  5
128
102
{ACAD_REACTORS
330
11D
102
}
330
11D
100
AcDbScale
 70
     0
300
1:50
140
1.0
141
50.0
290
     0
  0
SCALE
  5
129
102
{ACAD_REACTORS
330
11D
102
}
330
11D
100
AcDbScale
 70
     0
300
1:100
140
1.0
141
100.0
290
     0
  0
SCALE
  5
12A
102
{ACAD_REACTORS
330
11D
102
}
330
11D
100
AcDbScale
 70
     0
300
2:1
140
2.0
141
1.0
290
     0
  0
SCALE
  5
12B
102
{ACAD_REACTORS
330
11D
102
}
330
11D
100
AcDbScale
 70
     0
300
4:1
140
4.0
141
1.0
290
     0
  0
SCALE
  5
12C
102
{ACAD_REACTORS
330
11D
102
}
330
11D
100
AcDbScale
 70
     0
300
8:1
140
8.0
141
1.0
290
     0
  0
SCALE
  5
12D
102
{ACAD_REACTORS
330
11D
102
}
330
11D
100
AcDbScale
 70
     0
300
10:1
140
10.0
141
1.0
290
     0
  0
SCALE
  5
12E
102
{ACAD_REACTORS
330
11D
102
}
330
11D
100
AcDbScale
 70
     0
300
100:1
140
100.0
141
1.0
290
     0
  0
TABLESTYLE
  5
1E
102
{ACAD_XDICTIONARY
360
13D
102
}
102
{ACAD_REACTORS
330
1D
102
}
330
1D
100
AcDbTableStyle
  3
Standard
 70
     0
 71
     0
 40
1.5
 41
1.5
280
     0
281
     0
  7
Standard
140
4.5
170
     2
 62
     0
 63
     7
283
     0
274
    -2
284
     1
 64
     0
275
    -2
285
     1
 65
     0
276
    -2
286
     1
 66
     0
277
    -2
287
     1
 67
     0
278
    -2
288
     1
 68
     0
279
    -2
289
     1
 69
     0
  7
Standard
140
6.0
170
     5
 62
     0
 63
     7
283
     0
274
    -2
284
     1
 64
     0
275
    -2
285
     1
 65
     0
276
    -2
286
     1
 66
     0
277
    -2
287
     1
 67
     0
278
    -2
288
     1
 68
     0
279
    -2
289
     1
 69
     0
  7
Standard
140
4.5
170
     5
 62
     0
 63
     7
283
     0
274
    -2
284
     1
 64
     0
275
    -2
285
     1
 65
     0
276
    -2
286
     1
 66
     0
277
    -2
287
     1
 67
     0
278
    -2
288
     1
 68
     0
279
    -2
289
     1
 69
     0
  0
VISUALSTYLE
  5
10F
102
{ACAD_XDICTIONARY
360
155
102
}
102
{ACAD_REACTORS
330
109
102
}
330
109
100
AcDbVisualStyle
  2
2dWireframe
 70
     4
 71
     0
 72
     2
 73
     0
 90
        0
 40
-0.6
 41
-30.0
 62
     5
 63
     7
 74
     1
 91
        4
 64
     7
 65
   257
 75
     1
175
     1
 42
1.0
 92
        0
 66
   257
 43
1.0
 76
     1
 77
     6
 78
     2
 67
     7
 79
     5
170
     0
171
     0
290
     0
174
     0
 93
        1
 44
0.0
173
     0
291
     0
 45
0.0
1001
ACAD
1000
AcDbSavedByObjectVersion
1070
     0
  0
VISUALSTYLE
  5
111
102
{ACAD_XDICTIONARY
360
159
102
}
102
{ACAD_REACTORS
330
109
102
}
330
109
100
AcDbVisualStyle
  2
3D Hidden
 70
     6
 71
     1
 72
     2
 73
     2
 90
        0
 40
-0.6
 41
-30.0
 62
     5
 63
     7
 74
     2
 91
        2
 64
     7
 65
   257
 75
     2
175
     1
 42
179.0
 92
        0
 66
   257
 43
1.0
 76
     1
 77
     6
 78
     2
 67
     7
 79
     3
170
     0
171
     0
290
     0
174
     0
 93
        1
 44
0.0
173
     0
291
     0
 45
0.0
1001
ACAD
1000
AcDbSavedByObjectVersion
1070
     0
  0
VISUALSTYLE
  5
110
102
{ACAD_XDICTIONARY
360
157
102
}
102
{ACAD_REACTORS
330
109
102
}
330
109
100
AcDbVisualStyle
  2
3dWireframe
 70
     5
 71
     0
 72
     2
 73
     0
 90
        0
 40
-0.6
 41
-30.0
 62
     5
 63
     7
 74
     1
 91
        4
 64
     7
 65
   257
 75
     1
175
     1
 42
1.0
 92
        0
 66
   257
 43
1.0
 76
     1
 77
     6
 78
     2
 67
     7
 79
     5
170
     0
171
     0
290
     0
174
     0
 93
        1
 44
0.0
173
     0
291
     0
 45
0.0
1001
ACAD
1000
AcDbSavedByObjectVersion
1070
     0
  0
VISUALSTYLE
  5
10E
102
{ACAD_XDICTIONARY
360
153
102
}
102
{ACAD_REACTORS
330
109
102
}
330
109
100
AcDbVisualStyle
  2
Basic
 70
     7
 71
     1
 72
     0
 73
     1
 90
        0
 40
-0.6
 41
-30.0
 62
     5
 63
     7
 74
     0
 91
        4
 64
     7
 65
   257
 75
     1
175
     1
 42
1.0
 92
        8
 66
     7
 43
1.0
 76
     1
 77
     6
 78
     2
 67
     7
 79
     5
170
     0
171
     0
290
     0
174
     0
 93
        1
 44
0.0
173
     0
291
     1
 45
0.0
1001
ACAD
1000
AcDbSavedByObjectVersion
1070
     0
  0
VISUALSTYLE
  5
115
102
{ACAD_XDICTIONARY
360
161
102
}
102
{ACAD_REACTORS
330
109
102
}
330
109
100
AcDbVisualStyle
  2
Brighten
 70
    12
 71
     2
 72
     2
 73
     0
 90
        0
 40
-0.6
 41
-30.0
 62
     5
 63
     7
 74
     1
 91
        4
 64
     7
 65
   257
 75
     1
175
     1
 42
1.0
 92
        8
 66
     7
 43
1.0
 76
     1
 77
     6
 78
     2
 67
     7
 79
     5
170
     0
171
     0
290
     0
174
     0
 93
        1
 44
50.0
173
     0
291
     1
 45
0.0
1001
ACAD
1000
AcDbSavedByObjectVersion
1070
     0
  0
VISUALSTYLE
  5
119
102
{ACAD_XDICTIONARY
360
169
102
}
102
{ACAD_REACTORS
330
109
102
}
330
109
100
AcDbVisualStyle
  2
ColorChange
 70
    16
 71
     2
 72
     2
 73
     3
 90
        0
 40
-0.6
 41
-30.0
 62
     5
 63
     8
 74
     1
 91
        4
 64
     7
 65
   257
 75
     1
175
     1
 42
1.0
 92
        8
 66
     8
 43
1.0
 76
     1
 77
     6
 78
     2
 67
     7
 79
     5
170
     0
171
     0
290
     0
174
     0
 93
        1
 44
0.0
173
     0
291
     1
 45
0.0
1001
ACAD
1000
AcDbSavedByObjectVersion
1070
     0
  0
VISUALSTYLE
  5
112
102
{ACAD_XDICTIONARY
360
15B
102
}
102
{ACAD_REACTORS
330
109
102
}
330
109
100
AcDbVisualStyle
  2
Conceptual
 70
     9
 71
     3
 72
     2
 73
     0
 90
        0
 40
-0.6
 41
-30.0
 62
     5
 63
     7
 74
     2
 91
        2
 64
     7
 65
   257
 75
     1
175
     1
 42
179.0
 92
        8
 66
     7
 43
1.0
 76
     1
 77
     6
 78
     2
 67
     7
 79
     3
170
     0
171
     0
290
     0
174
     0
 93
        1
 44
0.0
173
     0
291
     0
 45
0.0
1001
ACAD
1000
AcDbSavedByObjectVersion
1070
     0
  0
VISUALSTYLE
  5
114
102
{ACAD_XDICTIONARY
360
15F
102
}
102
{ACAD_REACTORS
330
109
102
}
330
109
100
AcDbVisualStyle
  2
Dim
 70
    11
 71
     2
 72
     2
 73
     0
 90
        0
 40
-0.6
 41
-30.0
 62
     5
 63
     7
 74
     1
 91
        4
 64
     7
 65
   257
 75
     1
175
     1
 42
1.0
 92
        8
 66
     7
 43
1.0
 76
     1
 77
     6
 78
     2
 67
     7
 79
     5
170
     0
171
     0
290
     0
174
     0
 93
        1
 44
-50.0
173
     0
291
     1
 45
0.0
1001
ACAD
1000
AcDbSavedByObjectVersion
1070
     0
  0
VISUALSTYLE
  5
11C
102
{ACAD_XDICTIONARY
360
16F
102
}
102
{ACAD_REACTORS
330
109
102
}
330
109
100
AcDbVisualStyle
  2
EdgeColorOff
 70
    22
 71
     2
 72
     2
 73
     0
 90
        0
 40
-0.6
 41
-30.0
 62
     5
 63
     7
 74
     1
 91
        4
 64
     7
 65
   257
 75
     1
175
     1
 42
1.0
 92
        8
 66
     7
 43
1.0
 76
     1
 77
     6
 78
     2
 67
     7
 79
     5
170
     0
171
     0
290
     0
174
     0
 93
        1
 44
0.0
173
     0
291
     1
 45
0.0
1001
ACAD
1000
AcDbSavedByObjectVersion
1070
     0
  0
VISUALSTYLE
  5
118
102
{ACAD_XDICTIONARY
360
167
102
}
102
{ACAD_REACTORS
330
109
102
}
330
109
100
AcDbVisualStyle
  2
Facepattern
 70
    15
 71
     2
 72
     2
 73
     0
 90
        0
 40
-0.6
 41
-30.0
 62
     5
 63
     7
 74
     1
 91
        4
 64
     7
 65
   257
 75
     1
175
     1
 42
1.0
 92
        8
 66
     7
 43
1.0
 76
     1
 77
     6
 78
     2
 67
     7
 79
     5
170
     0
171
     0
290
     0
174
     0
 93
        1
 44
0.0
173
     0
291
     1
 45
0.0
1001
ACAD
1000
AcDbSavedByObjectVersion
1070
     0
  0
VISUALSTYLE
  5
10A
102
{ACAD_XDICTIONARY
360
14B
102
}
102
{ACAD_REACTORS
330
109
102
}
330
109
100
AcDbVisualStyle
  2
Flat
 70
     0
 71
     2
 72
     1
 73
     1
 90
        2
 40
-0.6
 41
30.0
 62
     5
 63
     7
 74
     0
 91
        4
 64
     7
 65
   257
 75
     1
175
     1
 42
1.0
 92
        8
 66
     7
 43
1.0
 76
     1
 77
     6
 78
     2
 67
     7
 79
     5
170
     0
171
     0
290
     0
174
     0
 93
       13
 44
0.0
173
     0
291
     1
 45
0.0
1001
ACAD
1000
AcDbSavedByObjectVersion
1070
     0
  0
VISUALSTYLE
  5
10B
102
{ACAD_XDICTIONARY
360
14D
102
}
102
{ACAD_REACTORS
330
109
102
}
330
109
100
AcDbVisualStyle
  2
FlatWithEdges
 70
     1
 71
     2
 72
     1
 73
     1
 90
        2
 40
-0.6
 41
30.0
 62
     5
 63
     7
 74
     1
 91
        4
 64
     7
 65
   257
 75
     1
175
     1
 42
1.0
 92
        0
 66
   257
 43
1.0
 76
     1
 77
     6
 78
     2
 67
     7
 79
     5
170
     0
171
     0
290
     0
174
     0
 93
       13
 44
0.0
173
     0
291
     1
 45
0.0
1001
ACAD
1000
AcDbSavedByObjectVersion
1070
     0
  0
VISUALSTYLE
  5
10C
102
{ACAD_XDICTIONARY
360
14F
102
}
102
{ACAD_REACTORS
330
109
102
}
330
109
100
AcDbVisualStyle
  2
Gouraud
 70
     2
 71
     2
 72
     2
 73
     1
 90
        2
 40
-0.6
 41
30.0
 62
     5
 63
     7
 74
     0
 91
        4
 64
     7
 65
   257
 75
     1
175
     1
 42
1.0
 92
        0
 66
     7
 43
1.0
 76
     1
 77
     6
 78
     2
 67
     7
 79
     5
170
     0
171
     0
290
     0
174
     0
 93
       13
 44
0.0
173
     0
291
     1
 45
0.0
1001
ACAD
1000
AcDbSavedByObjectVersion
1070
     0
  0
VISUALSTYLE
  5
10D
102
{ACAD_XDICTIONARY
360
151
102
}
102
{ACAD_REACTORS
330
109
102
}
330
109
100
AcDbVisualStyle
  2
GouraudWithEdges
 70
     3
 71
     2
 72
     2
 73
     1
 90
        2
 40
-0.6
 41
30.0
 62
     5
 63
     7
 74
     1
 91
        4
 64
     7
 65
   257
 75
     1
175
     1
 42
1.0
 92
        0
 66
   257
 43
1.0
 76
     1
 77
     6
 78
     2
 67
     7
 79
     5
170
     0
171
     0
290
     0
174
     0
 93
       13
 44
0.0
173
     0
291
     1
 45
0.0
1001
ACAD
1000
AcDbSavedByObjectVersion
1070
     0
  0
VISUALSTYLE
  5
11A
102
{ACAD_XDICTIONARY
360
16B
102
}
102
{ACAD_REACTORS
330
109
102
}
330
109
100
AcDbVisualStyle
  2
JitterOff
 70
    20
 71
     2
 72
     2
 73
     0
 90
        0
 40
-0.6
 41
-30.0
 62
     5
 63
     7
 74
     1
 91
        4
 64
     7
 65
   257
 75
     1
175
     1
 42
1.0
 92
       10
 66
     7
 43
1.0
 76
     1
 77
     6
 78
     2
 67
     7
 79
     5
170
     0
171
     0
290
     0
174
     0
 93
        1
 44
0.0
173
     0
291
     1
 45
0.0
1001
ACAD
1000
AcDbSavedByObjectVersion
1070
     0
  0
VISUALSTYLE
  5
117
102
{ACAD_XDICTIONARY
360
165
102
}
102
{ACAD_REACTORS
330
109
102
}
330
109
100
AcDbVisualStyle
  2
Linepattern
 70
    14
 71
     2
 72
     2
 73
     0
 90
        0
 40
-0.6
 41
-30.0
 62
     5
 63
     7
 74
     1
 91
        4
 64
     7
 65
   257
 75
     7
175
     7
 42
1.0
 92
        8
 66
     7
 43
1.0
 76
     1
 77
     6
 78
     2
 67
     7
 79
     5
170
     0
171
     0
290
     0
174
     0
 93
        1
 44
0.0
173
     0
291
     1
 45
0.0
1001
ACAD
1000
AcDbSavedByObjectVersion
1070
     0
  0
VISUALSTYLE
  5
11B
102
{ACAD_XDICTIONARY
360
16D
102
}
102
{ACAD_REACTORS
330
109
102
}
330
109
100
AcDbVisualStyle
  2
OverhangOff
 70
    21
 71
     2
 72
     2
 73
     0
 90
        0
 40
-0.6
 41
-30.0
 62
     5
 63
     7
 74
     1
 91
        4
 64
     7
 65
   257
 75
     1
175
     1
 42
1.0
 92
        9
 66
     7
 43
1.0
 76
     1
 77
     6
 78
     2
 67
     7
 79
     5
170
     0
171
     0
290
     0
174
     0
 93
        1
 44
0.0
173
     0
291
     1
 45
0.0
1001
ACAD
1000
AcDbSavedByObjectVersion
1070
     0
  0
VISUALSTYLE
  5
113
102
{ACAD_XDICTIONARY
360
15D
102
}
102
{ACAD_REACTORS
330
109
102
}
330
109
100
AcDbVisualStyle
  2
Realistic
 70
     8
 71
     2
 72
     2
 73
     0
 90
        0
 40
-0.6
 41
-30.0
 62
     5
 63
     7
 74
     1
 91
        0
 64
     7
 65
   257
 75
     1
175
     1
 42
1.0
 92
        8
 66
     8
 43
1.0
 76
     1
 77
     6
 78
     2
 67
     7
 79
     5
170
     0
171
     0
290
     0
174
     0
 93
       13
 44
0.0
173
     0
291
     0
 45
0.0
1001
ACAD
1000
AcDbSavedByObjectVersion
1070
     0
  0
VISUALSTYLE
  5
116
102
{ACAD_XDICTIONARY
360
163
102
}
102
{ACAD_REACTORS
330
109
102
}
330
109
100
AcDbVisualStyle
  2
Thicken
 70
    13
 71
     2
 72
     2
 73
     0
 90
        0
 40
-0.6
 41
-30.0
 62
     5
 63
     7
 74
     1
 91
        4
 64
     7
 65
   257
 75
     1
175
     1
 42
1.0
 92
       12
 66
     7
 43
1.0
 76
     1
 77
     6
 78
     2
 67
     7
 79
     5
170
     0
171
     0
290
     0
174
     0
 93
        1
 44
0.0
173
     0
291
     1
 45
0.0
1001
ACAD
1000
AcDbSavedByObjectVersion
1070
     0
  0
DICTIONARYVAR
  5
139
102
{ACAD_REACTORS
330
C3
102
}
330
C3
100
DictionaryVariables
280
     0
  1
1:1
  0
DICTIONARYVAR
  5
138
102
{ACAD_REACTORS
330
C3
102
}
330
C3
100
DictionaryVariables
280
     0
  1
STANDARD
  0
DICTIONARYVAR
  5
C4
102
{ACAD_REACTORS
330
C3
102
}
330
C3
100
DictionaryVariables
280
     0
  1
STANDARD
  0
DICTIONARYVAR
  5
EE
102
{ACAD_REACTORS
330
C3
102
}
330
C3
100
DictionaryVariables
280
     0
  1
2
  0
DICTIONARYVAR
  5
ED
102
{ACAD_REACTORS
330
C3
102
}
330
C3
100
DictionaryVariables
280
     0
  1
1
  0
DICTIONARYVAR
  5
13B
102
{ACAD_REACTORS
330
C3
102
}
330
C3
100
DictionaryVariables
280
     0
  1
0
  0
DICTIONARYVAR
  5
EF
102
{ACAD_REACTORS
330
C3
102
}
330
C3
100
DictionaryVariables
280
     0
  1

  0
DICTIONARYVAR
  5
13A
102
{ACAD_REACTORS
330
C3
102
}
330
C3
100
DictionaryVariables
280
     0
  1
127
  0
DICTIONARYVAR
  5
13C
102
{ACAD_REACTORS
330
C3
102
}
330
C3
100
DictionaryVariables
280
     0
  1
2
  0
DICTIONARY
  5
142
330
22
100
AcDbDictionary
280
     1
281
     1
  3
ACAD_XREC_ROUNDTRIP
360
143
  0
DICTIONARY
  5
146
330
2A
100
AcDbDictionary
280
     1
281
     1
  3
ACAD_XREC_ROUNDTRIP
360
147
  0
DICTIONARY
  5
144
330
26
100
AcDbDictionary
280
     1
281
     1
  3
ACAD_XREC_ROUNDTRIP
360
145
  0
DICTIONARY
  5
FA
330
F9
100
AcDbDictionary
280
     1
281
     1
  3
ACAD_XREC_ROUNDTRIP
360
149
  3
BUMPTILE
360
FC
  3
DIFFUSETILE
360
FB
  3
OPACITYTILE
360
FF
  3
REFLECTIONTILE
360
FE
  3
REFRACTIONTILE
360
100
  3
SPECULARTILE
360
FD
  0
DICTIONARY
  5
F2
330
F1
100
AcDbDictionary
280
     1
281
     1
  3
ACAD_XREC_ROUNDTRIP
360
148
  3
BUMPTILE
360
F4
  3
DIFFUSETILE
360
F3
  3
OPACITYTILE
360
F7
  3
REFLECTIONTILE
360
F6
  3
REFRACTIONTILE
360
F8
  3
SPECULARTILE
360
F5
  0
DICTIONARY
  5
102
330
101
100
AcDbDictionary
280
     1
281
     1
  3
ACAD_XREC_ROUNDTRIP
360
14A
  3
BUMPTILE
360
104
  3
DIFFUSETILE
360
103
  3
OPACITYTILE
360
107
  3
REFLECTIONTILE
360
106
  3
REFRACTIONTILE
360
108
  3
SPECULARTILE
360
105
  0
DICTIONARY
  5
13D
330
1E
100
AcDbDictionary
280
     1
281
     1
  3
ACAD_ROUNDTRIP_2008_TABLESTYLE_CELLSTYLEMAP
360
13E
  3
ACAD_XREC_ROUNDTRIP
360
141
  0
DICTIONARY
  5
155
330
10F
100
AcDbDictionary
280
     1
281
     1
  3
ACAD_XREC_ROUNDTRIP
360
156
  0
DICTIONARY
  5
159
330
111
100
AcDbDictionary
280
     1
281
     1
  3
ACAD_XREC_ROUNDTRIP
360
15A
  0
DICTIONARY
  5
157
330
110
100
AcDbDictionary
280
     1
281
     1
  3
ACAD_XREC_ROUNDTRIP
360
158
  0
DICTIONARY
  5
153
330
10E
100
AcDbDictionary
280
     1
281
     1
  3
ACAD_XREC_ROUNDTRIP
360
154
  0
DICTIONARY
  5
161
330
115
100
AcDbDictionary
280
     1
281
     1
  3
ACAD_XREC_ROUNDTRIP
360
162
  0
DICTIONARY
  5
169
330
119
100
AcDbDictionary
280
     1
281
     1
  3
ACAD_XREC_ROUNDTRIP
360
16A
  0
DICTIONARY
  5
15B
330
112
100
AcDbDictionary
280
     1
281
     1
  3
ACAD_XREC_ROUNDTRIP
360
15C
  0
DICTIONARY
  5
15F
330
114
100
AcDbDictionary
280
     1
281
     1
  3
ACAD_XREC_ROUNDTRIP
360
160
  0
DICTIONARY
  5
16F
330
11C
100
AcDbDictionary
280
     1
281
     1
  3
ACAD_XREC_ROUNDTRIP
360
170
  0
DICTIONARY
  5
167
330
118
100
AcDbDictionary
280
     1
281
     1
  3
ACAD_XREC_ROUNDTRIP
360
168
  0
DICTIONARY
  5
14B
330
10A
100
AcDbDictionary
280
     1
281
     1
  3
ACAD_XREC_ROUNDTRIP
360
14C
  0
DICTIONARY
  5
14D
330
10B
100
AcDbDictionary
280
     1
281
     1
  3
ACAD_XREC_ROUNDTRIP
360
14E
  0
DICTIONARY
  5
14F
330
10C
100
AcDbDictionary
280
     1
281
     1
  3
ACAD_XREC_ROUNDTRIP
360
150
  0
DICTIONARY
  5
151
330
10D
100
AcDbDictionary
280
     1
281
     1
  3
ACAD_XREC_ROUNDTRIP
360
152
  0
DICTIONARY
  5
16B
330
11A
100
AcDbDictionary
280
     1
281
     1
  3
ACAD_XREC_ROUNDTRIP
360
16C
  0
DICTIONARY
  5
165
330
117
100
AcDbDictionary
280
     1
281
     1
  3
ACAD_XREC_ROUNDTRIP
360
166
  0
DICTIONARY
  5
16D
330
11B
100
AcDbDictionary
280
     1
281
     1
  3
ACAD_XREC_ROUNDTRIP
360
16E
  0
DICTIONARY
  5
15D
330
113
100
AcDbDictionary
280
     1
281
     1
  3
ACAD_XREC_ROUNDTRIP
360
15E
  0
DICTIONARY
  5
163
330
116
100
AcDbDictionary
280
     1
281
     1
  3
ACAD_XREC_ROUNDTRIP
360
164
  0
XRECORD
  5
143
102
{ACAD_REACTORS
330
142
102
}
330
142
100
AcDbXrecord
280
     1
102
SHADEPLOT
 70
     0
102
SHADEPLOTRESLEVEL
 70
     2
102
SHADEPLOTCUSTOMDPI
 70
   300
  0
XRECORD
  5
147
102
{ACAD_REACTORS
330
146
102
}
330
146
100
AcDbXrecord
280
     1
102
SHADEPLOT
 70
     0
102
SHADEPLOTRESLEVEL
 70
     2
102
SHADEPLOTCUSTOMDPI
 70
   300
  0
XRECORD
  5
145
102
{ACAD_REACTORS
330
144
102
}
330
144
100
AcDbXrecord
280
     1
102
SHADEPLOT
 70
     0
102
SHADEPLOTRESLEVEL
 70
     2
102
SHADEPLOTCUSTOMDPI
 70
   300
  0
XRECORD
  5
149
102
{ACAD_REACTORS
330
FA
102
}
330
FA
100
AcDbXrecord
280
     1
102
MATERIAL
148
0.0
149
0.0
149
0.0
 93
        0
 94
      127
282
     0
 72
     0
 77
     0
171
     0
175
     0
179
     0
273
     0
  0
XRECORD
  5
FC
102
{ACAD_REACTORS
330
FA
102
}
330
FA
100
AcDbXrecord
280
     1
270
     1
271
     1
  0
XRECORD
  5
FB
102
{ACAD_REACTORS
330
FA
102
}
330
FA
100
AcDbXrecord
280
     1
270
     1
271
     1
  0
XRECORD
  5
FF
102
{ACAD_REACTORS
330
FA
102
}
330
FA
100
AcDbXrecord
280
     1
270
     1
271
     1
  0
XRECORD
  5
FE
102
{ACAD_REACTORS
330
FA
102
}
330
FA
100
AcDbXrecord
280
     1
270
     1
271
     1
  0
XRECORD
  5
100
102
{ACAD_REACTORS
330
FA
102
}
330
FA
100
AcDbXrecord
280
     1
270
     1
271
     1
  0
XRECORD
  5
FD
102
{ACAD_REACTORS
330
FA
102
}
330
FA
100
AcDbXrecord
280
     1
270
     1
271
     1
  0
XRECORD
  5
148
102
{ACAD_REACTORS
330
F2
102
}
330
F2
100
AcDbXrecord
280
     1
102
MATERIAL
148
0.0
149
0.0
149
0.0
 93
        0
 94
      127
282
     0
 72
     0
 77
     0
171
     0
175
     0
179
     0
273
     0
  0
XRECORD
  5
F4
102
{ACAD_REACTORS
330
F2
102
}
330
F2
100
AcDbXrecord
280
     1
270
     1
271
     1
  0
XRECORD
  5
F3
102
{ACAD_REACTORS
330
F2
102
}
330
F2
100
AcDbXrecord
280
     1
270
     1
271
     1
  0
XRECORD
  5
F7
102
{ACAD_REACTORS
330
F2
102
}
330
F2
100
AcDbXrecord
280
     1
270
     1
271
     1
  0
XRECORD
  5
F6
102
{ACAD_REACTORS
330
F2
102
}
330
F2
100
AcDbXrecord
280
     1
270
     1
271
     1
  0
XRECORD
  5
F8
102
{ACAD_REACTORS
330
F2
102
}
330
F2
100
AcDbXrecord
280
     1
270
     1
271
     1
  0
XRECORD
  5
F5
102
{ACAD_REACTORS
330
F2
102
}
330
F2
100
AcDbXrecord
280
     1
270
     1
271
     1
  0
XRECORD
  5
14A
102
{ACAD_REACTORS
330
102
102
}
330
102
100
AcDbXrecord
280
     1
102
MATERIAL
148
0.0
149
0.0
149
0.0
 93
        0
 94
      127
282
     0
 72
     0
 77
     0
171
     0
175
     0
179
     0
273
     0
  0
XRECORD
  5
104
102
{ACAD_REACTORS
330
102
102
}
330
102
100
AcDbXrecord
280
     1
270
     1
271
     1
  0
XRECORD
  5
103
102
{ACAD_REACTORS
330
102
102
}
330
102
100
AcDbXrecord
280
     1
270
     1
271
     1
  0
XRECORD
  5
107
102
{ACAD_REACTORS
330
102
102
}
330
102
100
AcDbXrecord
280
     1
270
     1
271
     1
  0
XRECORD
  5
106
102
{ACAD_REACTORS
330
102
102
}
330
102
100
AcDbXrecord
280
     1
270
     1
271
     1
  0
XRECORD
  5
108
102
{ACAD_REACTORS
330
102
102
}
330
102
100
AcDbXrecord
280
     1
270
     1
271
     1
  0
XRECORD
  5
105
102
{ACAD_REACTORS
330
102
102
}
330
102
100
AcDbXrecord
280
     1
270
     1
271
     1
  0
CELLSTYLEMAP
  5
13E
102
{ACAD_REACTORS
330
13D
102
}
330
13D
100
AcDbCellStyleMap
 90
        3
300
CELLSTYLE
  1
TABLEFORMAT_BEGIN
 90
        5
170
     1
 91
        0
 92
    32768
 62
   257
 93
        1
300
CONTENTFORMAT
  1
CONTENTFORMAT_BEGIN
 90
        0
 91
        0
 92
        4
 93
        0
300

 40
0.0
140
1.0
 94
        5
 62
     0
340
11
144
6.0
309
CONTENTFORMAT_END
171
     1
301
MARGIN
  1
CELLMARGIN_BEGIN
 40
1.5
 40
1.5
 40
1.5
 40
1.5
 40
0.18
 40
0.18
309
CELLMARGIN_END
 94
        6
 95
        1
302
GRIDFORMAT
  1
GRIDFORMAT_BEGIN
 90
        0
 91
        1
 62
     0
 92
       -2
340
0
 93
        0
 40
0.045
309
GRIDFORMAT_END
 95
        2
302
GRIDFORMAT
  1
GRIDFORMAT_BEGIN
 90
        0
 91
        1
 62
     0
 92
       -2
340
0
 93
        0
 40
0.045
309
GRIDFORMAT_END
 95
        4
302
GRIDFORMAT
  1
GRIDFORMAT_BEGIN
 90
        0
 91
        1
 62
     0
 92
       -2
340
0
 93
        0
 40
0.045
309
GRIDFORMAT_END
 95
        8
302
GRIDFORMAT
  1
GRIDFORMAT_BEGIN
 90
        0
 91
        1
 62
     0
 92
       -2
340
0
 93
        0
 40
0.045
309
GRIDFORMAT_END
 95
       16
302
GRIDFORMAT
  1
GRIDFORMAT_BEGIN
 90
        0
 91
        1
 62
     0
 92
       -2
340
0
 93
        0
 40
0.045
309
GRIDFORMAT_END
 95
       32
302
GRIDFORMAT
  1
GRIDFORMAT_BEGIN
 90
        0
 91
        1
 62
     0
 92
       -2
340
0
 93
        0
 40
0.045
309
GRIDFORMAT_END
309
TABLEFORMAT_END
  1
CELLSTYLE_BEGIN
 90
        1
 91
        1
300
_TITLE
309
CELLSTYLE_END
300
CELLSTYLE
  1
TABLEFORMAT_BEGIN
 90
        5
170
     1
 91
        0
 92
        0
 62
   257
 93
        1
300
CONTENTFORMAT
  1
CONTENTFORMAT_BEGIN
 90
        0
 91
        0
 92
        4
 93
        0
300

 40
0.0
140
1.0
 94
        5
 62
     0
340
11
144
4.5
309
CONTENTFORMAT_END
171
     1
301
MARGIN
  1
CELLMARGIN_BEGIN
 40
1.5
 40
1.5
 40
1.5
 40
1.5
 40
0.18
 40
0.18
309
CELLMARGIN_END
 94
        6
 95
        1
302
GRIDFORMAT
  1
GRIDFORMAT_BEGIN
 90
        0
 91
        1
 62
     0
 92
       -2
340
0
 93
        0
 40
0.045
309
GRIDFORMAT_END
 95
        2
302
GRIDFORMAT
  1
GRIDFORMAT_BEGIN
 90
        0
 91
        1
 62
     0
 92
       -2
340
0
 93
        0
 40
0.045
309
GRIDFORMAT_END
 95
        4
302
GRIDFORMAT
  1
GRIDFORMAT_BEGIN
 90
        0
 91
        1
 62
     0
 92
       -2
340
0
 93
        0
 40
0.045
309
GRIDFORMAT_END
 95
        8
302
GRIDFORMAT
  1
GRIDFORMAT_BEGIN
 90
        0
 91
        1
 62
     0
 92
       -2
340
0
 93
        0
 40
0.045
309
GRIDFORMAT_END
 95
       16
302
GRIDFORMAT
  1
GRIDFORMAT_BEGIN
 90
        0
 91
        1
 62
     0
 92
       -2
340
0
 93
        0
 40
0.045
309
GRIDFORMAT_END
 95
       32
302
GRIDFORMAT
  1
GRIDFORMAT_BEGIN
 90
        0
 91
        1
 62
     0
 92
       -2
340
0
 93
        0
 40
0.045
309
GRIDFORMAT_END
309
TABLEFORMAT_END
  1
CELLSTYLE_BEGIN
 90
        2
 91
        1
300
_HEADER
309
CELLSTYLE_END
300
CELLSTYLE
  1
TABLEFORMAT_BEGIN
 90
        5
170
     1
 91
        0
 92
        0
 62
   257
 93
        1
300
CONTENTFORMAT
  1
CONTENTFORMAT_BEGIN
 90
        0
 91
        0
 92
        4
 93
        0
300

 40
0.0
140
1.0
 94
        2
 62
     0
340
11
144
4.5
309
CONTENTFORMAT_END
171
     1
301
MARGIN
  1
CELLMARGIN_BEGIN
 40
1.5
 40
1.5
 40
1.5
 40
1.5
 40
0.18
 40
0.18
309
CELLMARGIN_END
 94
        6
 95
        1
302
GRIDFORMAT
  1
GRIDFORMAT_BEGIN
 90
        0
 91
        1
 62
     0
 92
       -2
340
0
 93
        0
 40
0.045
309
GRIDFORMAT_END
 95
        2
302
GRIDFORMAT
  1
GRIDFORMAT_BEGIN
 90
        0
 91
        1
 62
     0
 92
       -2
340
0
 93
        0
 40
0.045
309
GRIDFORMAT_END
 95
        4
302
GRIDFORMAT
  1
GRIDFORMAT_BEGIN
 90
        0
 91
        1
 62
     0
 92
       -2
340
0
 93
        0
 40
0.045
309
GRIDFORMAT_END
 95
        8
302
GRIDFORMAT
  1
GRIDFORMAT_BEGIN
 90
        0
 91
        1
 62
     0
 92
       -2
340
0
 93
        0
 40
0.045
309
GRIDFORMAT_END
 95
       16
302
GRIDFORMAT
  1
GRIDFORMAT_BEGIN
 90
        0
 91
        1
 62
     0
 92
       -2
340
0
 93
        0
 40
0.045
309
GRIDFORMAT_END
 95
       32
302
GRIDFORMAT
  1
GRIDFORMAT_BEGIN
 90
        0
 91
        1
 62
     0
 92
       -2
340
0
 93
        0
 40
0.045
309
GRIDFORMAT_END
309
TABLEFORMAT_END
  1
CELLSTYLE_BEGIN
 90
        3
 91
        2
300
_DATA
309
CELLSTYLE_END
  0
XRECORD
  5
141
102
{ACAD_REACTORS
330
13D
102
}
330
13D
100
AcDbXrecord
280
     1
102
ACAD_ROUNDTRIP_PRE2007_TABLESTYLE
 90
        4
 91
        0
  1

 92
        4
 93
        0
  2

 94
        4
 95
        0
  3

  0
XRECORD
  5
156
102
{ACAD_REACTORS
330
155
102
}
330
155
100
AcDbXrecord
280
     1
102
RTVSPropertyOp0
 70
     1
102
RTVSPropertyOp1
 70
     1
102
RTVSPropertyOp2
 70
     1
102
RTVSPropertyOp3
 70
     1
102
RTVSPropertyOp4
 70
     1
102
RTVSPropertyOp5
 70
     1
102
RTVSPropertyOp6
 70
     1
102
RTVSPropertyOp7
 70
     1
102
RTVSPropertyOp8
 70
     1
102
RTVSPropertyOp9
 70
     1
102
RTVSPropertyOp10
 70
     1
102
RTVSPropertyOp11
 70
     1
102
RTVSPropertyOp12
 70
     1
102
RTVSPropertyOp13
 70
     1
102
RTVSPropertyOp14
 70
     1
102
RTVSPropertyOp15
 70
     1
102
RTVSPropertyOp16
 70
     1
102
RTVSPropertyOp17
 70
     1
102
RTVSPropertyOp18
 70
     1
102
RTVSPropertyOp19
 70
     1
102
RTVSPropertyOp20
 70
     1
102
RTVSPropertyOp21
 70
     1
102
RTVSPropertyOp22
 70
     1
102
RTVSPropertyOp23
 70
     1
102
RTVSPropertyOp24
 70
     1
102
RTVSPropertyOp25
 70
     1
102
RTVSPropertyOp26
 70
     1
102
RTVSPropertyOp27
 70
     1
  0
XRECORD
  5
15A
102
{ACAD_REACTORS
330
159
102
}
330
159
100
AcDbXrecord
280
     1
102
RTVSPropertyOp0
 70
     1
102
RTVSPropertyOp1
 70
     1
102
RTVSPropertyOp2
 70
     1
102
RTVSPropertyOp3
 70
     1
102
RTVSPropertyOp4
 70
     1
102
RTVSPropertyOp5
 70
     1
102
RTVSPropertyOp6
 70
     1
102
RTVSPropertyOp7
 70
     1
102
RTVSPropertyOp8
 70
     1
102
RTVSPropertyOp9
 70
     1
102
RTVSPropertyOp10
 70
     1
102
RTVSPropertyOp11
 70
     1
102
RTVSPropertyOp12
 70
     1
102
RTVSPropertyOp13
 70
     1
102
RTVSPropertyOp14
 70
     1
102
RTVSPropertyOp15
 70
     1
102
RTVSPropertyOp16
 70
     1
102
RTVSPropertyOp17
 70
     1
102
RTVSPropertyOp18
 70
     1
102
RTVSPropertyOp19
 70
     1
102
RTVSPropertyOp20
 70
     1
102
RTVSPropertyOp21
 70
     1
102
RTVSPropertyOp22
 70
     1
102
RTVSPropertyOp23
 70
     1
102
RTVSPropertyOp24
 70
     1
102
RTVSPropertyOp25
 70
     1
102
RTVSPropertyOp26
 70
     1
102
RTVSPropertyOp27
 70
     1
  0
XRECORD
  5
158
102
{ACAD_REACTORS
330
157
102
}
330
157
100
AcDbXrecord
280
     1
102
RTVSPropertyOp0
 70
     1
102
RTVSPropertyOp1
 70
     1
102
RTVSPropertyOp2
 70
     1
102
RTVSPropertyOp3
 70
     1
102
RTVSPropertyOp4
 70
     1
102
RTVSPropertyOp5
 70
     1
102
RTVSPropertyOp6
 70
     1
102
RTVSPropertyOp7
 70
     1
102
RTVSPropertyOp8
 70
     1
102
RTVSPropertyOp9
 70
     1
102
RTVSPropertyOp10
 70
     1
102
RTVSPropertyOp11
 70
     1
102
RTVSPropertyOp12
 70
     1
102
RTVSPropertyOp13
 70
     1
102
RTVSPropertyOp14
 70
     1
102
RTVSPropertyOp15
 70
     1
102
RTVSPropertyOp16
 70
     1
102
RTVSPropertyOp17
 70
     1
102
RTVSPropertyOp18
 70
     1
102
RTVSPropertyOp19
 70
     1
102
RTVSPropertyOp20
 70
     1
102
RTVSPropertyOp21
 70
     1
102
RTVSPropertyOp22
 70
     1
102
RTVSPropertyOp23
 70
     1
102
RTVSPropertyOp24
 70
     1
102
RTVSPropertyOp25
 70
     1
102
RTVSPropertyOp26
 70
     1
102
RTVSPropertyOp27
 70
     1
  0
XRECORD
  5
154
102
{ACAD_REACTORS
330
153
102
}
330
153
100
AcDbXrecord
280
     1
102
RTVSPropertyOp0
 70
     1
102
RTVSPropertyOp1
 70
     1
102
RTVSPropertyOp2
 70
     1
102
RTVSPropertyOp3
 70
     1
102
RTVSPropertyOp4
 70
     1
102
RTVSPropertyOp5
 70
     1
102
RTVSPropertyOp6
 70
     1
102
RTVSPropertyOp7
 70
     1
102
RTVSPropertyOp8
 70
     1
102
RTVSPropertyOp9
 70
     1
102
RTVSPropertyOp10
 70
     1
102
RTVSPropertyOp11
 70
     1
102
RTVSPropertyOp12
 70
     1
102
RTVSPropertyOp13
 70
     1
102
RTVSPropertyOp14
 70
     1
102
RTVSPropertyOp15
 70
     1
102
RTVSPropertyOp16
 70
     1
102
RTVSPropertyOp17
 70
     1
102
RTVSPropertyOp18
 70
     1
102
RTVSPropertyOp19
 70
     1
102
RTVSPropertyOp20
 70
     1
102
RTVSPropertyOp21
 70
     1
102
RTVSPropertyOp22
 70
     1
102
RTVSPropertyOp23
 70
     1
102
RTVSPropertyOp24
 70
     1
102
RTVSPropertyOp25
 70
     1
102
RTVSPropertyOp26
 70
     1
102
RTVSPropertyOp27
 70
     1
  0
XRECORD
  5
162
102
{ACAD_REACTORS
330
161
102
}
330
161
100
AcDbXrecord
280
     1
102
RTVSPropertyOp0
 70
     1
102
RTVSPropertyOp1
 70
     1
102
RTVSPropertyOp2
 70
     1
102
RTVSPropertyOp3
 70
     1
102
RTVSPropertyOp4
 70
     1
102
RTVSPropertyOp5
 70
     1
102
RTVSPropertyOp6
 70
     1
102
RTVSPropertyOp7
 70
     1
102
RTVSPropertyOp8
 70
     1
102
RTVSPropertyOp9
 70
     1
102
RTVSPropertyOp10
 70
     1
102
RTVSPropertyOp11
 70
     1
102
RTVSPropertyOp12
 70
     1
102
RTVSPropertyOp13
 70
     1
102
RTVSPropertyOp14
 70
     1
102
RTVSPropertyOp15
 70
     1
102
RTVSPropertyOp16
 70
     1
102
RTVSPropertyOp17
 70
     1
102
RTVSPropertyOp18
 70
     1
102
RTVSPropertyOp19
 70
     1
102
RTVSPropertyOp20
 70
     1
102
RTVSPropertyOp21
 70
     1
102
RTVSPropertyOp22
 70
     1
102
RTVSPropertyOp23
 70
     1
102
RTVSPropertyOp24
 70
     1
102
RTVSPropertyOp25
 70
     1
102
RTVSPropertyOp26
 70
     1
102
RTVSPropertyOp27
 70
     1
  0
XRECORD
  5
16A
102
{ACAD_REACTORS
330
169
102
}
330
169
100
AcDbXrecord
280
     1
102
RTVSPropertyOp0
 70
     1
102
RTVSPropertyOp1
 70
     1
102
RTVSPropertyOp2
 70
     1
102
RTVSPropertyOp3
 70
     1
102
RTVSPropertyOp4
 70
     1
102
RTVSPropertyOp5
 70
     1
102
RTVSPropertyOp6
 70
     1
102
RTVSPropertyOp7
 70
     1
102
RTVSPropertyOp8
 70
     1
102
RTVSPropertyOp9
 70
     1
102
RTVSPropertyOp10
 70
     1
102
RTVSPropertyOp11
 70
     1
102
RTVSPropertyOp12
 70
     1
102
RTVSPropertyOp13
 70
     1
102
RTVSPropertyOp14
 70
     1
102
RTVSPropertyOp15
 70
     1
102
RTVSPropertyOp16
 70
     1
102
RTVSPropertyOp17
 70
     1
102
RTVSPropertyOp18
 70
     1
102
RTVSPropertyOp19
 70
     1
102
RTVSPropertyOp20
 70
     1
102
RTVSPropertyOp21
 70
     1
102
RTVSPropertyOp22
 70
     1
102
RTVSPropertyOp23
 70
     1
102
RTVSPropertyOp24
 70
     1
102
RTVSPropertyOp25
 70
     1
102
RTVSPropertyOp26
 70
     1
102
RTVSPropertyOp27
 70
     1
  0
XRECORD
  5
15C
102
{ACAD_REACTORS
330
15B
102
}
330
15B
100
AcDbXrecord
280
     1
102
RTVSPropertyOp0
 70
     1
102
RTVSPropertyOp1
 70
     1
102
RTVSPropertyOp2
 70
     1
102
RTVSPropertyOp3
 70
     1
102
RTVSPropertyOp4
 70
     1
102
RTVSPropertyOp5
 70
     1
102
RTVSPropertyOp6
 70
     1
102
RTVSPropertyOp7
 70
     1
102
RTVSPropertyOp8
 70
     1
102
RTVSPropertyOp9
 70
     1
102
RTVSPropertyOp10
 70
     1
102
RTVSPropertyOp11
 70
     1
102
RTVSPropertyOp12
 70
     1
102
RTVSPropertyOp13
 70
     1
102
RTVSPropertyOp14
 70
     1
102
RTVSPropertyOp15
 70
     1
102
RTVSPropertyOp16
 70
     1
102
RTVSPropertyOp17
 70
     1
102
RTVSPropertyOp18
 70
     1
102
RTVSPropertyOp19
 70
     1
102
RTVSPropertyOp20
 70
     1
102
RTVSPropertyOp21
 70
     1
102
RTVSPropertyOp22
 70
     1
102
RTVSPropertyOp23
 70
     1
102
RTVSPropertyOp24
 70
     1
102
RTVSPropertyOp25
 70
     1
102
RTVSPropertyOp26
 70
     1
102
RTVSPropertyOp27
 70
     1
  0
XRECORD
  5
160
102
{ACAD_REACTORS
330
15F
102
}
330
15F
100
AcDbXrecord
280
     1
102
RTVSPropertyOp0
 70
     1
102
RTVSPropertyOp1
 70
     1
102
RTVSPropertyOp2
 70
     1
102
RTVSPropertyOp3
 70
     1
102
RTVSPropertyOp4
 70
     1
102
RTVSPropertyOp5
 70
     1
102
RTVSPropertyOp6
 70
     1
102
RTVSPropertyOp7
 70
     1
102
RTVSPropertyOp8
 70
     1
102
RTVSPropertyOp9
 70
     1
102
RTVSPropertyOp10
 70
     1
102
RTVSPropertyOp11
 70
     1
102
RTVSPropertyOp12
 70
     1
102
RTVSPropertyOp13
 70
     1
102
RTVSPropertyOp14
 70
     1
102
RTVSPropertyOp15
 70
     1
102
RTVSPropertyOp16
 70
     1
102
RTVSPropertyOp17
 70
     1
102
RTVSPropertyOp18
 70
     1
102
RTVSPropertyOp19
 70
     1
102
RTVSPropertyOp20
 70
     1
102
RTVSPropertyOp21
 70
     1
102
RTVSPropertyOp22
 70
     1
102
RTVSPropertyOp23
 70
     1
102
RTVSPropertyOp24
 70
     1
102
RTVSPropertyOp25
 70
     1
102
RTVSPropertyOp26
 70
     1
102
RTVSPropertyOp27
 70
     1
  0
XRECORD
  5
170
102
{ACAD_REACTORS
330
16F
102
}
330
16F
100
AcDbXrecord
280
     1
102
RTVSPropertyOp0
 70
     0
102
RTVSPropertyOp1
 70
     0
102
RTVSPropertyOp2
 70
     0
102
RTVSPropertyOp3
 70
     0
102
RTVSPropertyOp4
 70
     0
102
RTVSPropertyOp5
 70
     0
102
RTVSPropertyOp6
 70
     0
102
RTVSPropertyOp7
 70
     0
102
RTVSPropertyOp8
 70
     0
102
RTVSPropertyOp9
 70
     0
102
RTVSPropertyOp10
 70
     0
102
RTVSPropertyOp11
 70
     0
102
RTVSPropertyOp12
 70
     0
102
RTVSPropertyOp13
 70
     0
102
RTVSPropertyOp14
 70
     2
102
RTVSPropertyOp15
 70
     0
102
RTVSPropertyOp16
 70
     0
102
RTVSPropertyOp17
 70
     0
102
RTVSPropertyOp18
 70
     0
102
RTVSPropertyOp19
 70
     0
102
RTVSPropertyOp20
 70
     0
102
RTVSPropertyOp21
 70
     0
102
RTVSPropertyOp22
 70
     0
102
RTVSPropertyOp23
 70
     0
102
RTVSPropertyOp24
 70
     0
102
RTVSPropertyOp25
 70
     0
102
RTVSPropertyOp26
 70
     0
102
RTVSPropertyOp27
 70
     0
  0
XRECORD
  5
168
102
{ACAD_REACTORS
330
167
102
}
330
167
100
AcDbXrecord
280
     1
102
RTVSPropertyOp0
 70
     1
102
RTVSPropertyOp1
 70
     1
102
RTVSPropertyOp2
 70
     1
102
RTVSPropertyOp3
 70
     1
102
RTVSPropertyOp4
 70
     1
102
RTVSPropertyOp5
 70
     1
102
RTVSPropertyOp6
 70
     1
102
RTVSPropertyOp7
 70
     1
102
RTVSPropertyOp8
 70
     1
102
RTVSPropertyOp9
 70
     1
102
RTVSPropertyOp10
 70
     1
102
RTVSPropertyOp11
 70
     1
102
RTVSPropertyOp12
 70
     1
102
RTVSPropertyOp13
 70
     1
102
RTVSPropertyOp14
 70
     1
102
RTVSPropertyOp15
 70
     1
102
RTVSPropertyOp16
 70
     1
102
RTVSPropertyOp17
 70
     1
102
RTVSPropertyOp18
 70
     1
102
RTVSPropertyOp19
 70
     1
102
RTVSPropertyOp20
 70
     1
102
RTVSPropertyOp21
 70
     1
102
RTVSPropertyOp22
 70
     1
102
RTVSPropertyOp23
 70
     1
102
RTVSPropertyOp24
 70
     1
102
RTVSPropertyOp25
 70
     1
102
RTVSPropertyOp26
 70
     1
102
RTVSPropertyOp27
 70
     1
  0
XRECORD
  5
14C
102
{ACAD_REACTORS
330
14B
102
}
330
14B
100
AcDbXrecord
280
     1
102
RTVSPropertyOp0
 70
     1
102
RTVSPropertyOp1
 70
     1
102
RTVSPropertyOp2
 70
     1
102
RTVSPropertyOp3
 70
     1
102
RTVSPropertyOp4
 70
     1
102
RTVSPropertyOp5
 70
     1
102
RTVSPropertyOp6
 70
     1
102
RTVSPropertyOp7
 70
     1
102
RTVSPropertyOp8
 70
     1
102
RTVSPropertyOp9
 70
     1
102
RTVSPropertyOp10
 70
     1
102
RTVSPropertyOp11
 70
     1
102
RTVSPropertyOp12
 70
     1
102
RTVSPropertyOp13
 70
     1
102
RTVSPropertyOp14
 70
     1
102
RTVSPropertyOp15
 70
     1
102
RTVSPropertyOp16
 70
     1
102
RTVSPropertyOp17
 70
     1
102
RTVSPropertyOp18
 70
     1
102
RTVSPropertyOp19
 70
     1
102
RTVSPropertyOp20
 70
     1
102
RTVSPropertyOp21
 70
     1
102
RTVSPropertyOp22
 70
     1
102
RTVSPropertyOp23
 70
     1
102
RTVSPropertyOp24
 70
     1
102
RTVSPropertyOp25
 70
     1
102
RTVSPropertyOp26
 70
     1
102
RTVSPropertyOp27
 70
     1
  0
XRECORD
  5
14E
102
{ACAD_REACTORS
330
14D
102
}
330
14D
100
AcDbXrecord
280
     1
102
RTVSPropertyOp0
 70
     1
102
RTVSPropertyOp1
 70
     1
102
RTVSPropertyOp2
 70
     1
102
RTVSPropertyOp3
 70
     1
102
RTVSPropertyOp4
 70
     1
102
RTVSPropertyOp5
 70
     1
102
RTVSPropertyOp6
 70
     1
102
RTVSPropertyOp7
 70
     1
102
RTVSPropertyOp8
 70
     1
102
RTVSPropertyOp9
 70
     1
102
RTVSPropertyOp10
 70
     1
102
RTVSPropertyOp11
 70
     1
102
RTVSPropertyOp12
 70
     1
102
RTVSPropertyOp13
 70
     1
102
RTVSPropertyOp14
 70
     1
102
RTVSPropertyOp15
 70
     1
102
RTVSPropertyOp16
 70
     1
102
RTVSPropertyOp17
 70
     1
102
RTVSPropertyOp18
 70
     1
102
RTVSPropertyOp19
 70
     1
102
RTVSPropertyOp20
 70
     1
102
RTVSPropertyOp21
 70
     1
102
RTVSPropertyOp22
 70
     1
102
RTVSPropertyOp23
 70
     1
102
RTVSPropertyOp24
 70
     1
102
RTVSPropertyOp25
 70
     1
102
RTVSPropertyOp26
 70
     1
102
RTVSPropertyOp27
 70
     1
  0
XRECORD
  5
150
102
{ACAD_REACTORS
330
14F
102
}
330
14F
100
AcDbXrecord
280
     1
102
RTVSPropertyOp0
 70
     1
102
RTVSPropertyOp1
 70
     1
102
RTVSPropertyOp2
 70
     1
102
RTVSPropertyOp3
 70
     1
102
RTVSPropertyOp4
 70
     1
102
RTVSPropertyOp5
 70
     1
102
RTVSPropertyOp6
 70
     1
102
RTVSPropertyOp7
 70
     1
102
RTVSPropertyOp8
 70
     1
102
RTVSPropertyOp9
 70
     1
102
RTVSPropertyOp10
 70
     1
102
RTVSPropertyOp11
 70
     1
102
RTVSPropertyOp12
 70
     1
102
RTVSPropertyOp13
 70
     1
102
RTVSPropertyOp14
 70
     1
102
RTVSPropertyOp15
 70
     1
102
RTVSPropertyOp16
 70
     1
102
RTVSPropertyOp17
 70
     1
102
RTVSPropertyOp18
 70
     1
102
RTVSPropertyOp19
 70
     1
102
RTVSPropertyOp20
 70
     1
102
RTVSPropertyOp21
 70
     1
102
RTVSPropertyOp22
 70
     1
102
RTVSPropertyOp23
 70
     1
102
RTVSPropertyOp24
 70
     1
102
RTVSPropertyOp25
 70
     1
102
RTVSPropertyOp26
 70
     1
102
RTVSPropertyOp27
 70
     1
  0
XRECORD
  5
152
102
{ACAD_REACTORS
330
151
102
}
330
151
100
AcDbXrecord
280
     1
102
RTVSPropertyOp0
 70
     1
102
RTVSPropertyOp1
 70
     1
102
RTVSPropertyOp2
 70
     1
102
RTVSPropertyOp3
 70
     1
102
RTVSPropertyOp4
 70
     1
102
RTVSPropertyOp5
 70
     1
102
RTVSPropertyOp6
 70
     1
102
RTVSPropertyOp7
 70
     1
102
RTVSPropertyOp8
 70
     1
102
RTVSPropertyOp9
 70
     1
102
RTVSPropertyOp10
 70
     1
102
RTVSPropertyOp11
 70
     1
102
RTVSPropertyOp12
 70
     1
102
RTVSPropertyOp13
 70
     1
102
RTVSPropertyOp14
 70
     1
102
RTVSPropertyOp15
 70
     1
102
RTVSPropertyOp16
 70
     1
102
RTVSPropertyOp17
 70
     1
102
RTVSPropertyOp18
 70
     1
102
RTVSPropertyOp19
 70
     1
102
RTVSPropertyOp20
 70
     1
102
RTVSPropertyOp21
 70
     1
102
RTVSPropertyOp22
 70
     1
102
RTVSPropertyOp23
 70
     1
102
RTVSPropertyOp24
 70
     1
102
RTVSPropertyOp25
 70
     1
102
RTVSPropertyOp26
 70
     1
102
RTVSPropertyOp27
 70
     1
  0
XRECORD
  5
16C
102
{ACAD_REACTORS
330
16B
102
}
330
16B
100
AcDbXrecord
280
     1
102
RTVSPropertyOp0
 70
     0
102
RTVSPropertyOp1
 70
     0
102
RTVSPropertyOp2
 70
     0
102
RTVSPropertyOp3
 70
     0
102
RTVSPropertyOp4
 70
     0
102
RTVSPropertyOp5
 70
     0
102
RTVSPropertyOp6
 70
     0
102
RTVSPropertyOp7
 70
     0
102
RTVSPropertyOp8
 70
     0
102
RTVSPropertyOp9
 70
     0
102
RTVSPropertyOp10
 70
     0
102
RTVSPropertyOp11
 70
     0
102
RTVSPropertyOp12
 70
     0
102
RTVSPropertyOp13
 70
     0
102
RTVSPropertyOp14
 70
     2
102
RTVSPropertyOp15
 70
     0
102
RTVSPropertyOp16
 70
     0
102
RTVSPropertyOp17
 70
     0
102
RTVSPropertyOp18
 70
     0
102
RTVSPropertyOp19
 70
     0
102
RTVSPropertyOp20
 70
     0
102
RTVSPropertyOp21
 70
     0
102
RTVSPropertyOp22
 70
     0
102
RTVSPropertyOp23
 70
     0
102
RTVSPropertyOp24
 70
     0
102
RTVSPropertyOp25
 70
     0
102
RTVSPropertyOp26
 70
     0
102
RTVSPropertyOp27
 70
     0
  0
XRECORD
  5
166
102
{ACAD_REACTORS
330
165
102
}
330
165
100
AcDbXrecord
280
     1
102
RTVSPropertyOp0
 70
     1
102
RTVSPropertyOp1
 70
     1
102
RTVSPropertyOp2
 70
     1
102
RTVSPropertyOp3
 70
     1
102
RTVSPropertyOp4
 70
     1
102
RTVSPropertyOp5
 70
     1
102
RTVSPropertyOp6
 70
     1
102
RTVSPropertyOp7
 70
     1
102
RTVSPropertyOp8
 70
     1
102
RTVSPropertyOp9
 70
     1
102
RTVSPropertyOp10
 70
     1
102
RTVSPropertyOp11
 70
     1
102
RTVSPropertyOp12
 70
     1
102
RTVSPropertyOp13
 70
     1
102
RTVSPropertyOp14
 70
     1
102
RTVSPropertyOp15
 70
     1
102
RTVSPropertyOp16
 70
     1
102
RTVSPropertyOp17
 70
     1
102
RTVSPropertyOp18
 70
     1
102
RTVSPropertyOp19
 70
     1
102
RTVSPropertyOp20
 70
     1
102
RTVSPropertyOp21
 70
     1
102
RTVSPropertyOp22
 70
     1
102
RTVSPropertyOp23
 70
     1
102
RTVSPropertyOp24
 70
     1
102
RTVSPropertyOp25
 70
     1
102
RTVSPropertyOp26
 70
     1
102
RTVSPropertyOp27
 70
     1
  0
XRECORD
  5
16E
102
{ACAD_REACTORS
330
16D
102
}
330
16D
100
AcDbXrecord
280
     1
102
RTVSPropertyOp0
 70
     0
102
RTVSPropertyOp1
 70
     0
102
RTVSPropertyOp2
 70
     0
102
RTVSPropertyOp3
 70
     0
102
RTVSPropertyOp4
 70
     0
102
RTVSPropertyOp5
 70
     0
102
RTVSPropertyOp6
 70
     0
102
RTVSPropertyOp7
 70
     0
102
RTVSPropertyOp8
 70
     0
102
RTVSPropertyOp9
 70
     0
102
RTVSPropertyOp10
 70
     0
102
RTVSPropertyOp11
 70
     0
102
RTVSPropertyOp12
 70
     0
102
RTVSPropertyOp13
 70
     0
102
RTVSPropertyOp14
 70
     2
102
RTVSPropertyOp15
 70
     0
102
RTVSPropertyOp16
 70
     0
102
RTVSPropertyOp17
 70
     0
102
RTVSPropertyOp18
 70
     0
102
RTVSPropertyOp19
 70
     0
102
RTVSPropertyOp20
 70
     0
102
RTVSPropertyOp21
 70
     0
102
RTVSPropertyOp22
 70
     0
102
RTVSPropertyOp23
 70
     0
102
RTVSPropertyOp24
 70
     0
102
RTVSPropertyOp25
 70
     0
102
RTVSPropertyOp26
 70
     0
102
RTVSPropertyOp27
 70
     0
  0
XRECORD
  5
15E
102
{ACAD_REACTORS
330
15D
102
}
330
15D
100
AcDbXrecord
280
     1
102
RTVSPropertyOp0
 70
     1
102
RTVSPropertyOp1
 70
     1
102
RTVSPropertyOp2
 70
     1
102
RTVSPropertyOp3
 70
     1
102
RTVSPropertyOp4
 70
     1
102
RTVSPropertyOp5
 70
     1
102
RTVSPropertyOp6
 70
     1
102
RTVSPropertyOp7
 70
     1
102
RTVSPropertyOp8
 70
     1
102
RTVSPropertyOp9
 70
     1
102
RTVSPropertyOp10
 70
     1
102
RTVSPropertyOp11
 70
     1
102
RTVSPropertyOp12
 70
     1
102
RTVSPropertyOp13
 70
     1
102
RTVSPropertyOp14
 70
     1
102
RTVSPropertyOp15
 70
     1
102
RTVSPropertyOp16
 70
     1
102
RTVSPropertyOp17
 70
     1
102
RTVSPropertyOp18
 70
     1
102
RTVSPropertyOp19
 70
     1
102
RTVSPropertyOp20
 70
     1
102
RTVSPropertyOp21
 70
     1
102
RTVSPropertyOp22
 70
     1
102
RTVSPropertyOp23
 70
     1
102
RTVSPropertyOp24
 70
     1
102
RTVSPropertyOp25
 70
     1
102
RTVSPropertyOp26
 70
     1
102
RTVSPropertyOp27
 70
     1
  0
XRECORD
  5
164
102
{ACAD_REACTORS
330
163
102
}
330
163
100
AcDbXrecord
280
     1
102
RTVSPropertyOp0
 70
     1
102
RTVSPropertyOp1
 70
     1
102
RTVSPropertyOp2
 70
     1
102
RTVSPropertyOp3
 70
     1
102
RTVSPropertyOp4
 70
     1
102
RTVSPropertyOp5
 70
     1
102
RTVSPropertyOp6
 70
     1
102
RTVSPropertyOp7
 70
     1
102
RTVSPropertyOp8
 70
     1
102
RTVSPropertyOp9
 70
     1
102
RTVSPropertyOp10
 70
     1
102
RTVSPropertyOp11
 70
     1
102
RTVSPropertyOp12
 70
     1
102
RTVSPropertyOp13
 70
     1
102
RTVSPropertyOp14
 70
     1
102
RTVSPropertyOp15
 70
     1
102
RTVSPropertyOp16
 70
     1
102
RTVSPropertyOp17
 70
     1
102
RTVSPropertyOp18
 70
     1
102
RTVSPropertyOp19
 70
     1
102
RTVSPropertyOp20
 70
     1
102
RTVSPropertyOp21
 70
     1
102
RTVSPropertyOp22
 70
     1
102
RTVSPropertyOp23
 70
     1
102
RTVSPropertyOp24
 70
     1
102
RTVSPropertyOp25
 70
     1
102
RTVSPropertyOp26
 70
     1
102
RTVSPropertyOp27
 70
     1
  0
ENDSEC
  0
EOF
